ISO-10303-21;
HEADER;
/* Generated by software containing ST-Developer
 * from STEP Tools, Inc. (www.steptools.com) 
 */

FILE_DESCRIPTION(
/* description */ (''),
/* implementation_level */ '2;1');

FILE_NAME(
/* name */ 'Maraca v2.step',
/* time_stamp */ '2025-11-09T21:23:43-05:00',
/* author */ (''),
/* organization */ (''),
/* preprocessor_version */ 'ST-DEVELOPER v20.1',
/* originating_system */ 'Autodesk Translation Framework v14.17.0.0',
/* authorisation */ '');

FILE_SCHEMA (('AUTOMOTIVE_DESIGN { 1 0 10303 214 3 1 1 }'));
ENDSEC;

DATA;
#10=MECHANICAL_DESIGN_GEOMETRIC_PRESENTATION_REPRESENTATION('',(#13),#314);
#11=SHAPE_REPRESENTATION_RELATIONSHIP('SRR','None',#321,#12);
#12=ADVANCED_BREP_SHAPE_REPRESENTATION('',(#138),#313);
#13=STYLED_ITEM('',(#331),#138);
#14=PLANE('',#167);
#15=(
BOUNDED_SURFACE()
B_SPLINE_SURFACE(2,2,((#251,#252,#253,#254,#255,#256,#257,#258,#259),(#260,
#261,#262,#263,#264,#265,#266,#267,#268),(#269,#270,#271,#272,#273,#274,
#275,#276,#277),(#278,#279,#280,#281,#282,#283,#284,#285,#286),(#287,#288,
#289,#290,#291,#292,#293,#294,#295)),.UNSPECIFIED.,.F.,.T.,.F.)
B_SPLINE_SURFACE_WITH_KNOTS((3,2,3),(3,2,2,2,3),(-0.673341661932689,0.245431078814151,
1.16420381956099),(-3.14159265358979,-1.5707963267949,0.,1.5707963267949,
3.14159265358979),.UNSPECIFIED.)
GEOMETRIC_REPRESENTATION_ITEM()
RATIONAL_B_SPLINE_SURFACE(((1.,0.707106781186548,1.,0.707106781186548,1.,
0.707106781186548,1.,0.707106781186548,1.),(0.896324748519138,0.63379730782321,
0.896324748519138,0.63379730782321,0.896324748519138,0.63379730782321,0.896324748519138,
0.63379730782321,0.896324748519138),(1.,0.707106781186548,1.,0.707106781186548,
1.,0.707106781186548,1.,0.707106781186548,1.),(0.896324748519137,0.633797307823209,
0.896324748519137,0.633797307823209,0.896324748519137,0.633797307823209,
0.896324748519137,0.633797307823209,0.896324748519137),(1.,0.707106781186548,
1.,0.707106781186548,1.,0.707106781186548,1.,0.707106781186548,1.)))
REPRESENTATION_ITEM('')
SURFACE()
);
#16=TOROIDAL_SURFACE('',#161,66.6256356216712,50.);
#17=TOROIDAL_SURFACE('',#169,11.55,7.5);
#18=TOROIDAL_SURFACE('',#172,391.166449702537,376.116449702554);
#19=ORIENTED_CLOSED_SHELL('',*,#136,.F.);
#20=SPHERICAL_SURFACE('',#154,32.5);
#21=SPHERICAL_SURFACE('',#159,5.);
#22=SPHERICAL_SURFACE('',#174,26.1088383535122);
#23=FACE_OUTER_BOUND('',#33,.T.);
#24=FACE_OUTER_BOUND('',#34,.T.);
#25=FACE_OUTER_BOUND('',#35,.T.);
#26=FACE_OUTER_BOUND('',#36,.T.);
#27=FACE_OUTER_BOUND('',#37,.T.);
#28=FACE_OUTER_BOUND('',#38,.T.);
#29=FACE_OUTER_BOUND('',#39,.T.);
#30=FACE_OUTER_BOUND('',#40,.T.);
#31=FACE_OUTER_BOUND('',#41,.T.);
#32=FACE_OUTER_BOUND('',#42,.T.);
#33=EDGE_LOOP('',(#90,#91,#92));
#34=EDGE_LOOP('',(#93,#94,#95,#96));
#35=EDGE_LOOP('',(#97,#98,#99,#100));
#36=EDGE_LOOP('',(#101,#102,#103));
#37=EDGE_LOOP('',(#104,#105,#106,#107));
#38=EDGE_LOOP('',(#108,#109,#110,#111));
#39=EDGE_LOOP('',(#112));
#40=EDGE_LOOP('',(#113,#114,#115,#116));
#41=EDGE_LOOP('',(#117,#118,#119,#120));
#42=EDGE_LOOP('',(#121,#122,#123));
#43=CIRCLE('',#153,20.9423330810799);
#44=CIRCLE('',#155,32.5);
#45=CIRCLE('',#156,20.9423330810799);
#46=CIRCLE('',#158,3.22189739770711);
#47=CIRCLE('',#160,5.);
#48=CIRCLE('',#162,16.8672112341748);
#49=CIRCLE('',#163,50.);
#50=CIRCLE('',#164,27.5385272136258);
#51=CIRCLE('',#165,6.77380559605933);
#52=CIRCLE('',#166,53.758373139462);
#53=CIRCLE('',#168,11.55);
#54=CIRCLE('',#170,18.4179805751139);
#55=CIRCLE('',#171,7.5);
#56=CIRCLE('',#173,376.116449702554);
#57=CIRCLE('',#175,26.1088383535122);
#58=LINE('',#232,#60);
#59=LINE('',#240,#61);
#60=VECTOR('',#180,10.4711665405399);
#61=VECTOR('',#191,12.0821152393935);
#62=VERTEX_POINT('',#230);
#63=VERTEX_POINT('',#231);
#64=VERTEX_POINT('',#235);
#65=VERTEX_POINT('',#239);
#66=VERTEX_POINT('',#243);
#67=VERTEX_POINT('',#246);
#68=VERTEX_POINT('',#248);
#69=VERTEX_POINT('',#296);
#70=VERTEX_POINT('',#300);
#71=VERTEX_POINT('',#303);
#72=VERTEX_POINT('',#309);
#73=EDGE_CURVE('',#62,#63,#58,.T.);
#74=EDGE_CURVE('',#63,#63,#43,.T.);
#75=EDGE_CURVE('',#63,#64,#44,.T.);
#76=EDGE_CURVE('',#64,#64,#45,.T.);
#77=EDGE_CURVE('',#64,#65,#59,.T.);
#78=EDGE_CURVE('',#65,#65,#46,.T.);
#79=EDGE_CURVE('',#65,#66,#47,.T.);
#80=EDGE_CURVE('',#67,#67,#48,.T.);
#81=EDGE_CURVE('',#67,#68,#49,.T.);
#82=EDGE_CURVE('',#68,#68,#50,.T.);
#83=EDGE_CURVE('',#69,#69,#51,.T.);
#84=EDGE_CURVE('',#69,#68,#52,.T.);
#85=EDGE_CURVE('',#70,#70,#53,.T.);
#86=EDGE_CURVE('',#71,#71,#54,.T.);
#87=EDGE_CURVE('',#71,#70,#55,.T.);
#88=EDGE_CURVE('',#71,#67,#56,.T.);
#89=EDGE_CURVE('',#72,#69,#57,.T.);
#90=ORIENTED_EDGE('',*,*,#73,.T.);
#91=ORIENTED_EDGE('',*,*,#74,.F.);
#92=ORIENTED_EDGE('',*,*,#73,.F.);
#93=ORIENTED_EDGE('',*,*,#74,.T.);
#94=ORIENTED_EDGE('',*,*,#75,.T.);
#95=ORIENTED_EDGE('',*,*,#76,.F.);
#96=ORIENTED_EDGE('',*,*,#75,.F.);
#97=ORIENTED_EDGE('',*,*,#76,.T.);
#98=ORIENTED_EDGE('',*,*,#77,.T.);
#99=ORIENTED_EDGE('',*,*,#78,.F.);
#100=ORIENTED_EDGE('',*,*,#77,.F.);
#101=ORIENTED_EDGE('',*,*,#78,.T.);
#102=ORIENTED_EDGE('',*,*,#79,.T.);
#103=ORIENTED_EDGE('',*,*,#79,.F.);
#104=ORIENTED_EDGE('',*,*,#80,.T.);
#105=ORIENTED_EDGE('',*,*,#81,.T.);
#106=ORIENTED_EDGE('',*,*,#82,.T.);
#107=ORIENTED_EDGE('',*,*,#81,.F.);
#108=ORIENTED_EDGE('',*,*,#83,.F.);
#109=ORIENTED_EDGE('',*,*,#84,.T.);
#110=ORIENTED_EDGE('',*,*,#82,.F.);
#111=ORIENTED_EDGE('',*,*,#84,.F.);
#112=ORIENTED_EDGE('',*,*,#85,.F.);
#113=ORIENTED_EDGE('',*,*,#86,.F.);
#114=ORIENTED_EDGE('',*,*,#87,.T.);
#115=ORIENTED_EDGE('',*,*,#85,.T.);
#116=ORIENTED_EDGE('',*,*,#87,.F.);
#117=ORIENTED_EDGE('',*,*,#86,.T.);
#118=ORIENTED_EDGE('',*,*,#88,.T.);
#119=ORIENTED_EDGE('',*,*,#80,.F.);
#120=ORIENTED_EDGE('',*,*,#88,.F.);
#121=ORIENTED_EDGE('',*,*,#83,.T.);
#122=ORIENTED_EDGE('',*,*,#89,.F.);
#123=ORIENTED_EDGE('',*,*,#89,.T.);
#124=CONICAL_SURFACE('',#152,10.4711665405399,0.870584771260606);
#125=CONICAL_SURFACE('',#157,12.0821152393935,0.870584771260606);
#126=ADVANCED_FACE('',(#23),#124,.F.);
#127=ADVANCED_FACE('',(#24),#20,.F.);
#128=ADVANCED_FACE('',(#25),#125,.F.);
#129=ADVANCED_FACE('',(#26),#21,.F.);
#130=ADVANCED_FACE('',(#27),#16,.F.);
#131=ADVANCED_FACE('',(#28),#15,.F.);
#132=ADVANCED_FACE('',(#29),#14,.T.);
#133=ADVANCED_FACE('',(#30),#17,.T.);
#134=ADVANCED_FACE('',(#31),#18,.F.);
#135=ADVANCED_FACE('',(#32),#22,.T.);
#136=CLOSED_SHELL('',(#126,#127,#128,#129));
#137=CLOSED_SHELL('',(#130,#131,#132,#133,#134,#135));
#138=BREP_WITH_VOIDS('Body1',#137,(#19));
#139=DERIVED_UNIT_ELEMENT(#141,1.);
#140=DERIVED_UNIT_ELEMENT(#316,-3.);
#141=(
MASS_UNIT()
NAMED_UNIT(*)
SI_UNIT(.KILO.,.GRAM.)
);
#142=DERIVED_UNIT((#139,#140));
#143=MEASURE_REPRESENTATION_ITEM('density measure',
POSITIVE_RATIO_MEASURE(7850.),#142);
#144=PROPERTY_DEFINITION_REPRESENTATION(#149,#146);
#145=PROPERTY_DEFINITION_REPRESENTATION(#150,#147);
#146=REPRESENTATION('material name',(#148),#313);
#147=REPRESENTATION('density',(#143),#313);
#148=DESCRIPTIVE_REPRESENTATION_ITEM('Steel','Steel');
#149=PROPERTY_DEFINITION('material property','material name',#323);
#150=PROPERTY_DEFINITION('material property','density of part',#323);
#151=AXIS2_PLACEMENT_3D('',#228,#176,#177);
#152=AXIS2_PLACEMENT_3D('',#229,#178,#179);
#153=AXIS2_PLACEMENT_3D('',#233,#181,#182);
#154=AXIS2_PLACEMENT_3D('',#234,#183,#184);
#155=AXIS2_PLACEMENT_3D('',#236,#185,#186);
#156=AXIS2_PLACEMENT_3D('',#237,#187,#188);
#157=AXIS2_PLACEMENT_3D('',#238,#189,#190);
#158=AXIS2_PLACEMENT_3D('',#241,#192,#193);
#159=AXIS2_PLACEMENT_3D('',#242,#194,#195);
#160=AXIS2_PLACEMENT_3D('',#244,#196,#197);
#161=AXIS2_PLACEMENT_3D('',#245,#198,#199);
#162=AXIS2_PLACEMENT_3D('',#247,#200,#201);
#163=AXIS2_PLACEMENT_3D('',#249,#202,#203);
#164=AXIS2_PLACEMENT_3D('',#250,#204,#205);
#165=AXIS2_PLACEMENT_3D('',#297,#206,#207);
#166=AXIS2_PLACEMENT_3D('',#298,#208,#209);
#167=AXIS2_PLACEMENT_3D('',#299,#210,#211);
#168=AXIS2_PLACEMENT_3D('',#301,#212,#213);
#169=AXIS2_PLACEMENT_3D('',#302,#214,#215);
#170=AXIS2_PLACEMENT_3D('',#304,#216,#217);
#171=AXIS2_PLACEMENT_3D('',#305,#218,#219);
#172=AXIS2_PLACEMENT_3D('',#306,#220,#221);
#173=AXIS2_PLACEMENT_3D('',#307,#222,#223);
#174=AXIS2_PLACEMENT_3D('',#308,#224,#225);
#175=AXIS2_PLACEMENT_3D('',#310,#226,#227);
#176=DIRECTION('axis',(0.,0.,1.));
#177=DIRECTION('refdir',(1.,0.,0.));
#178=DIRECTION('center_axis',(1.21318421693684E-33,0.,-1.));
#179=DIRECTION('ref_axis',(1.,0.,0.));
#180=DIRECTION('',(-0.764705882352941,-9.36494611112682E-17,-0.644379479417842));
#181=DIRECTION('center_axis',(-1.21318421693684E-33,0.,1.));
#182=DIRECTION('ref_axis',(1.,0.,1.21318421693684E-33));
#183=DIRECTION('center_axis',(6.12323399573677E-17,0.,1.));
#184=DIRECTION('ref_axis',(1.,0.,0.));
#185=DIRECTION('center_axis',(1.22464679914735E-16,-1.,0.));
#186=DIRECTION('ref_axis',(-1.,-1.22464679914735E-16,0.));
#187=DIRECTION('center_axis',(-1.21318421693684E-33,0.,1.));
#188=DIRECTION('ref_axis',(1.,0.,1.21318421693684E-33));
#189=DIRECTION('center_axis',(-1.21318421693684E-33,0.,1.));
#190=DIRECTION('ref_axis',(1.,0.,0.));
#191=DIRECTION('',(0.764705882352941,9.36494611112682E-17,-0.644379479417842));
#192=DIRECTION('center_axis',(-1.21318421693684E-33,0.,1.));
#193=DIRECTION('ref_axis',(1.,0.,1.21318421693684E-33));
#194=DIRECTION('center_axis',(6.12323399573677E-17,0.,1.));
#195=DIRECTION('ref_axis',(1.,0.,0.));
#196=DIRECTION('center_axis',(1.22464679914735E-16,-1.,0.));
#197=DIRECTION('ref_axis',(-1.,-1.22464679914735E-16,0.));
#198=DIRECTION('center_axis',(-1.21318421693684E-33,0.,1.));
#199=DIRECTION('ref_axis',(1.,0.,0.));
#200=DIRECTION('center_axis',(-1.21318421693684E-33,0.,1.));
#201=DIRECTION('ref_axis',(-1.,1.22464679914735E-16,0.));
#202=DIRECTION('center_axis',(1.22464679914735E-16,-1.,1.48572216804779E-49));
#203=DIRECTION('ref_axis',(-1.,-1.22464679914735E-16,0.));
#204=DIRECTION('center_axis',(1.21318421693684E-33,0.,-1.));
#205=DIRECTION('ref_axis',(-1.,1.22464679914735E-16,0.));
#206=DIRECTION('center_axis',(-1.21318421693684E-33,0.,1.));
#207=DIRECTION('ref_axis',(1.,0.,1.21318421693684E-33));
#208=DIRECTION('center_axis',(1.22464679914735E-16,-1.,1.48572216804779E-49));
#209=DIRECTION('ref_axis',(-1.,-1.22464679914735E-16,0.));
#210=DIRECTION('center_axis',(1.21318421693684E-33,0.,-1.));
#211=DIRECTION('ref_axis',(-1.,0.,-1.21318421693684E-33));
#212=DIRECTION('center_axis',(-1.21318421693684E-33,0.,1.));
#213=DIRECTION('ref_axis',(1.,0.,1.21318421693684E-33));
#214=DIRECTION('center_axis',(-1.21318421693684E-33,0.,1.));
#215=DIRECTION('ref_axis',(1.,0.,0.));
#216=DIRECTION('center_axis',(-1.21318421693684E-33,0.,1.));
#217=DIRECTION('ref_axis',(1.,0.,1.21318421693684E-33));
#218=DIRECTION('center_axis',(1.22464679914735E-16,-1.,1.48572216804779E-49));
#219=DIRECTION('ref_axis',(-1.,-1.22464679914735E-16,0.));
#220=DIRECTION('center_axis',(-1.21318421693684E-33,0.,1.));
#221=DIRECTION('ref_axis',(1.,0.,0.));
#222=DIRECTION('center_axis',(1.22464679914735E-16,-1.,1.48572216804779E-49));
#223=DIRECTION('ref_axis',(-1.,-1.22464679914735E-16,0.));
#224=DIRECTION('center_axis',(6.12323399574571E-17,0.,1.));
#225=DIRECTION('ref_axis',(1.,0.,0.));
#226=DIRECTION('center_axis',(1.22464679914735E-16,-1.,0.));
#227=DIRECTION('ref_axis',(-1.,-1.22464679914735E-16,0.));
#228=CARTESIAN_POINT('',(0.,0.,0.));
#229=CARTESIAN_POINT('Origin',(-2.29575899730595E-31,0.,189.234162895928));
#230=CARTESIAN_POINT('',(-2.43554872029313E-31,0.,198.057692307692));
#231=CARTESIAN_POINT('',(-20.9423330810799,-2.56469611744222E-15,180.410633484163));
#232=CARTESIAN_POINT('',(-10.4711665405399,-1.28234805872111E-15,189.234162895928));
#233=CARTESIAN_POINT('Origin',(-2.18871333110564E-31,0.,180.410633484163));
#234=CARTESIAN_POINT('Origin',(-2.30201705163766E-31,0.,155.557692307692));
#235=CARTESIAN_POINT('',(-20.9423330810799,-2.56469611744222E-15,130.704751131222));
#236=CARTESIAN_POINT('Origin',(-2.30201705163766E-31,0.,155.557692307692));
#237=CARTESIAN_POINT('Origin',(-1.58568941151056E-31,0.,130.704751131222));
#238=CARTESIAN_POINT('Origin',(-1.49511230934423E-31,0.,123.238687783066));
#239=CARTESIAN_POINT('',(-3.22189739770712,-3.94568633528321E-16,115.77262443491));
#240=CARTESIAN_POINT('',(-12.0821152393935,-1.47963237548527E-15,123.238687783066));
#241=CARTESIAN_POINT('Origin',(-1.40453520717789E-31,0.,115.77262443491));
#242=CARTESIAN_POINT('Origin',(-2.18902871662149E-31,0.,119.596153846154));
#243=CARTESIAN_POINT('',(-3.06161699786839E-16,-3.74939945665464E-32,114.596153846154));
#244=CARTESIAN_POINT('Origin',(-2.18902871662149E-31,0.,119.596153846154));
#245=CARTESIAN_POINT('Origin',(-1.05215120890855E-31,0.,86.7264174904216));
#246=CARTESIAN_POINT('',(-16.8672112341748,-2.06563762484744E-15,91.6355113450761));
#247=CARTESIAN_POINT('Origin',(-1.11170756074783E-31,0.,91.6355113450761));
#248=CARTESIAN_POINT('',(-27.5385272136258,-3.37249692053991E-15,117.906506590642));
#249=CARTESIAN_POINT('Origin',(-66.6256356216712,-8.15928714052374E-15,
86.7264174904216));
#250=CARTESIAN_POINT('Origin',(-1.43042312869927E-31,0.,117.906506590642));
#251=CARTESIAN_POINT('Ctrl Pts',(-27.5385272136258,0.,117.906506590642));
#252=CARTESIAN_POINT('Ctrl Pts',(-27.5385272136258,-27.5385272136258,117.906506590642));
#253=CARTESIAN_POINT('Ctrl Pts',(-1.43042312869927E-31,-27.5385272136258,
117.906506590642));
#254=CARTESIAN_POINT('Ctrl Pts',(27.5385272136258,-27.5385272136258,117.906506590642));
#255=CARTESIAN_POINT('Ctrl Pts',(27.5385272136258,0.,117.906506590642));
#256=CARTESIAN_POINT('Ctrl Pts',(27.5385272136258,27.5385272136258,117.906506590642));
#257=CARTESIAN_POINT('Ctrl Pts',(-1.43042312869927E-31,27.5385272136258,
117.906506590642));
#258=CARTESIAN_POINT('Ctrl Pts',(-27.5385272136258,27.5385272136258,117.906506590642));
#259=CARTESIAN_POINT('Ctrl Pts',(-27.5385272136258,0.,117.906506590642));
#260=CARTESIAN_POINT('Ctrl Pts',(-44.1222481974346,0.,138.695725563667));
#261=CARTESIAN_POINT('Ctrl Pts',(-44.1222481974346,-44.1222481974346,138.695725563667));
#262=CARTESIAN_POINT('Ctrl Pts',(-1.68263465210445E-31,-44.1222481974346,
138.695725563667));
#263=CARTESIAN_POINT('Ctrl Pts',(44.1222481974346,-44.1222481974346,138.695725563667));
#264=CARTESIAN_POINT('Ctrl Pts',(44.1222481974346,0.,138.695725563667));
#265=CARTESIAN_POINT('Ctrl Pts',(44.1222481974346,44.1222481974346,138.695725563667));
#266=CARTESIAN_POINT('Ctrl Pts',(-1.68263465210445E-31,44.1222481974346,
138.695725563667));
#267=CARTESIAN_POINT('Ctrl Pts',(-44.1222481974346,44.1222481974346,138.695725563667));
#268=CARTESIAN_POINT('Ctrl Pts',(-44.1222481974346,0.,138.695725563667));
#269=CARTESIAN_POINT('Ctrl Pts',(-37.6607184820896,0.,164.492238136395));
#270=CARTESIAN_POINT('Ctrl Pts',(-37.6607184820895,-37.6607184820895,164.492238136395));
#271=CARTESIAN_POINT('Ctrl Pts',(-1.99559387115691E-31,-37.6607184820896,
164.492238136395));
#272=CARTESIAN_POINT('Ctrl Pts',(37.6607184820895,-37.6607184820895,164.492238136395));
#273=CARTESIAN_POINT('Ctrl Pts',(37.6607184820896,0.,164.492238136395));
#274=CARTESIAN_POINT('Ctrl Pts',(37.6607184820895,37.6607184820895,164.492238136395));
#275=CARTESIAN_POINT('Ctrl Pts',(-1.99559387115691E-31,37.6607184820896,
164.492238136395));
#276=CARTESIAN_POINT('Ctrl Pts',(-37.6607184820895,37.6607184820895,164.492238136395));
#277=CARTESIAN_POINT('Ctrl Pts',(-37.6607184820896,0.,164.492238136395));
#278=CARTESIAN_POINT('Ctrl Pts',(-31.1991887667445,0.,190.288750709123));
#279=CARTESIAN_POINT('Ctrl Pts',(-31.1991887667445,-31.1991887667445,190.288750709123));
#280=CARTESIAN_POINT('Ctrl Pts',(-2.30855309020937E-31,-31.1991887667445,
190.288750709123));
#281=CARTESIAN_POINT('Ctrl Pts',(31.1991887667445,-31.1991887667445,190.288750709123));
#282=CARTESIAN_POINT('Ctrl Pts',(31.1991887667445,0.,190.288750709123));
#283=CARTESIAN_POINT('Ctrl Pts',(31.1991887667445,31.1991887667445,190.288750709123));
#284=CARTESIAN_POINT('Ctrl Pts',(-2.30855309020937E-31,31.1991887667445,
190.288750709123));
#285=CARTESIAN_POINT('Ctrl Pts',(-31.1991887667445,31.1991887667445,190.288750709123));
#286=CARTESIAN_POINT('Ctrl Pts',(-31.1991887667445,0.,190.288750709123));
#287=CARTESIAN_POINT('Ctrl Pts',(-6.77380559605933,0.,200.80597867767));
#288=CARTESIAN_POINT('Ctrl Pts',(-6.77380559605933,-6.77380559605933,200.80597867767));
#289=CARTESIAN_POINT('Ctrl Pts',(-2.43614643998305E-31,-6.77380559605933,
200.80597867767));
#290=CARTESIAN_POINT('Ctrl Pts',(6.77380559605933,-6.77380559605933,200.80597867767));
#291=CARTESIAN_POINT('Ctrl Pts',(6.77380559605933,0.,200.80597867767));
#292=CARTESIAN_POINT('Ctrl Pts',(6.77380559605933,6.77380559605933,200.80597867767));
#293=CARTESIAN_POINT('Ctrl Pts',(-2.43614643998305E-31,6.77380559605933,
200.80597867767));
#294=CARTESIAN_POINT('Ctrl Pts',(-6.77380559605933,6.77380559605933,200.80597867767));
#295=CARTESIAN_POINT('Ctrl Pts',(-6.77380559605933,0.,200.80597867767));
#296=CARTESIAN_POINT('',(-6.77380559605933,-8.29551934126049E-16,200.80597867767));
#297=CARTESIAN_POINT('Origin',(-2.43614643998305E-31,0.,200.80597867767));
#298=CARTESIAN_POINT('Origin',(14.4866599612203,1.77410417518445E-15,151.430323878069));
#299=CARTESIAN_POINT('Origin',(11.55,0.,0.));
#300=CARTESIAN_POINT('',(-11.55,-1.41446705301519E-15,-7.00613885281026E-33));
#301=CARTESIAN_POINT('Origin',(2.73691106313441E-47,0.,0.));
#302=CARTESIAN_POINT('Origin',(-9.09888162702629E-33,0.,7.5));
#303=CARTESIAN_POINT('',(-18.4179805751139,-2.25555209580713E-15,4.48655631878436));
#304=CARTESIAN_POINT('Origin',(-5.44301931434742E-33,0.,4.48655631878436));
#305=CARTESIAN_POINT('Origin',(-11.55,-1.41446705301519E-15,7.5));
#306=CARTESIAN_POINT('Origin',(-6.63705088527279E-32,0.,54.7076923076911));
#307=CARTESIAN_POINT('Origin',(-391.166449702537,-4.79040740562046E-14,
54.7076923076911));
#308=CARTESIAN_POINT('Origin',(-4.03944119509861E-11,0.,175.591161646528));
#309=CARTESIAN_POINT('',(-4.03960106562521E-11,-1.95784928673085E-31,201.70000000004));
#310=CARTESIAN_POINT('Origin',(-4.03944119509861E-11,0.,175.591161646528));
#311=UNCERTAINTY_MEASURE_WITH_UNIT(LENGTH_MEASURE(0.01),#315,
'DISTANCE_ACCURACY_VALUE',
'Maximum model space distance between geometric entities at asserted c
onnectivities');
#312=UNCERTAINTY_MEASURE_WITH_UNIT(LENGTH_MEASURE(0.01),#315,
'DISTANCE_ACCURACY_VALUE',
'Maximum model space distance between geometric entities at asserted c
onnectivities');
#313=(
GEOMETRIC_REPRESENTATION_CONTEXT(3)
GLOBAL_UNCERTAINTY_ASSIGNED_CONTEXT((#311))
GLOBAL_UNIT_ASSIGNED_CONTEXT((#315,#317,#318))
REPRESENTATION_CONTEXT('','3D')
);
#314=(
GEOMETRIC_REPRESENTATION_CONTEXT(3)
GLOBAL_UNCERTAINTY_ASSIGNED_CONTEXT((#312))
GLOBAL_UNIT_ASSIGNED_CONTEXT((#315,#317,#318))
REPRESENTATION_CONTEXT('','3D')
);
#315=(
LENGTH_UNIT()
NAMED_UNIT(*)
SI_UNIT(.MILLI.,.METRE.)
);
#316=(
LENGTH_UNIT()
NAMED_UNIT(*)
SI_UNIT($,.METRE.)
);
#317=(
NAMED_UNIT(*)
PLANE_ANGLE_UNIT()
SI_UNIT($,.RADIAN.)
);
#318=(
NAMED_UNIT(*)
SI_UNIT($,.STERADIAN.)
SOLID_ANGLE_UNIT()
);
#319=SHAPE_DEFINITION_REPRESENTATION(#320,#321);
#320=PRODUCT_DEFINITION_SHAPE('',$,#323);
#321=SHAPE_REPRESENTATION('',(#151),#313);
#322=PRODUCT_DEFINITION_CONTEXT('part definition',#327,'design');
#323=PRODUCT_DEFINITION('Maraca','Maraca v2',#324,#322);
#324=PRODUCT_DEFINITION_FORMATION('',$,#329);
#325=PRODUCT_RELATED_PRODUCT_CATEGORY('Maraca v2','Maraca v2',(#329));
#326=APPLICATION_PROTOCOL_DEFINITION('international standard',
'automotive_design',2009,#327);
#327=APPLICATION_CONTEXT(
'Core Data for Automotive Mechanical Design Process');
#328=PRODUCT_CONTEXT('part definition',#327,'mechanical');
#329=PRODUCT('Maraca','Maraca v2',$,(#328));
#330=PRESENTATION_STYLE_ASSIGNMENT((#332));
#331=PRESENTATION_STYLE_ASSIGNMENT((#333));
#332=SURFACE_STYLE_USAGE(.BOTH.,#334);
#333=SURFACE_STYLE_USAGE(.BOTH.,#335);
#334=SURFACE_SIDE_STYLE('',(#336));
#335=SURFACE_SIDE_STYLE('',(#337));
#336=SURFACE_STYLE_FILL_AREA(#338);
#337=SURFACE_STYLE_FILL_AREA(#339);
#338=FILL_AREA_STYLE('Steel - Satin',(#340));
#339=FILL_AREA_STYLE('Steel - Satin',(#341));
#340=FILL_AREA_STYLE_COLOUR('Steel - Satin',#342);
#341=FILL_AREA_STYLE_COLOUR('Steel - Satin',#343);
#342=COLOUR_RGB('Steel - Satin',0.627450980392157,0.627450980392157,0.627450980392157);
#343=COLOUR_RGB('Steel - Satin',0.952941176470588,0.898039215686275,0.745098039215686);
ENDSEC;
END-ISO-10303-21;
