  0
SECTION
  2
HEADER
  9
$ACADVER
  1
AC1024
  9
$ACADMAINTVER
 70
     6
  9
$DWGCODEPAGE
  3
ANSI_1252
  9
$INSBASE
 10
0.0
 20
0.0
 30
0.0
  9
$EXTMIN
 10
1.000000000000000E+20
 20
1.000000000000000E+20
 30
1.000000000000000E+20
  9
$EXTMAX
 10
-1.000000000000000E+20
 20
-1.000000000000000E+20
 30
-1.000000000000000E+20
  9
$LIMMIN
 10
0.0
 20
0.0
  9
$LIMMAX
 10
12.0
 20
9.0
  9
$ORTHOMODE
 70
     0
  9
$REGENMODE
 70
     1
  9
$FILLMODE
 70
     1
  9
$QTEXTMODE
 70
     0
  9
$MIRRTEXT
 70
     1
  9
$LTSCALE
 40
1.0
  9
$ATTMODE
 70
     1
  9
$TEXTSIZE
 40
0.2
  9
$TRACEWID
 40
0.05
  9
$TEXTSTYLE
  7
Standard
  9
$CLAYER
  8
0
  9
$CELTYPE
  6
ByLayer
  9
$CECOLOR
 62
   256
  9
$CELTSCALE
 40
1.0
  9
$DISPSILH
 70
     0
  9
$DIMSCALE
 40
1.0
  9
$DIMASZ
 40
0.18
  9
$DIMEXO
 40
0.0625
  9
$DIMDLI
 40
0.38
  9
$DIMRND
 40
0.0
  9
$DIMDLE
 40
0.0
  9
$DIMEXE
 40
0.18
  9
$DIMTP
 40
0.0
  9
$DIMTM
 40
0.0
  9
$DIMTXT
 40
0.18
  9
$DIMCEN
 40
0.09
  9
$DIMTSZ
 40
0.0
  9
$DIMTOL
 70
     0
  9
$DIMLIM
 70
     0
  9
$DIMTIH
 70
     1
  9
$DIMTOH
 70
     1
  9
$DIMSE1
 70
     0
  9
$DIMSE2
 70
     0
  9
$DIMTAD
 70
     0
  9
$DIMZIN
 70
     0
  9
$DIMBLK
  1

  9
$DIMASO
 70
     1
  9
$DIMSHO
 70
     1
  9
$DIMPOST
  1

  9
$DIMAPOST
  1

  9
$DIMALT
 70
     0
  9
$DIMALTD
 70
     2
  9
$DIMALTF
 40
25.4
  9
$DIMLFAC
 40
1.0
  9
$DIMTOFL
 70
     0
  9
$DIMTVP
 40
0.0
  9
$DIMTIX
 70
     0
  9
$DIMSOXD
 70
     0
  9
$DIMSAH
 70
     0
  9
$DIMBLK1
  1

  9
$DIMBLK2
  1

  9
$DIMSTYLE
  2
Standard
  9
$DIMCLRD
 70
     0
  9
$DIMCLRE
 70
     0
  9
$DIMCLRT
 70
     0
  9
$DIMTFAC
 40
1.0
  9
$DIMGAP
 40
0.09
  9
$DIMJUST
 70
     0
  9
$DIMSD1
 70
     0
  9
$DIMSD2
 70
     0
  9
$DIMTOLJ
 70
     1
  9
$DIMTZIN
 70
     0
  9
$DIMALTZ
 70
     0
  9
$DIMALTTZ
 70
     0
  9
$DIMUPT
 70
     0
  9
$DIMDEC
 70
     4
  9
$DIMTDEC
 70
     4
  9
$DIMALTU
 70
     2
  9
$DIMALTTD
 70
     2
  9
$DIMTXSTY
  7
Standard
  9
$DIMAUNIT
 70
     0
  9
$DIMADEC
 70
     0
  9
$DIMALTRND
 40
0.0
  9
$DIMAZIN
 70
     0
  9
$DIMDSEP
 70
    46
  9
$DIMATFIT
 70
     3
  9
$DIMFRAC
 70
     0
  9
$DIMLDRBLK
  1

  9
$DIMLUNIT
 70
     2
  9
$DIMLWD
 70
    -2
  9
$DIMLWE
 70
    -2
  9
$DIMTMOVE
 70
     0
  9
$DIMFXL
 40
1.0
  9
$DIMFXLON
 70
     0
  9
$DIMJOGANG
 40
0.7853981633974483
  9
$DIMTFILL
 70
     0
  9
$DIMTFILLCLR
 70
     0
  9
$DIMARCSYM
 70
     0
  9
$DIMLTYPE
  6

  9
$DIMLTEX1
  6

  9
$DIMLTEX2
  6

  9
$DIMTXTDIRECTION
 70
     0
  9
$LUNITS
 70
     2
  9
$LUPREC
 70
     4
  9
$SKETCHINC
 40
0.1
  9
$FILLETRAD
 40
0.5
  9
$AUNITS
 70
     0
  9
$AUPREC
 70
     0
  9
$MENU
  1
.
  9
$ELEVATION
 40
0.0
  9
$PELEVATION
 40
0.0
  9
$THICKNESS
 40
0.0
  9
$LIMCHECK
 70
     0
  9
$CHAMFERA
 40
0.5
  9
$CHAMFERB
 40
0.5
  9
$CHAMFERC
 40
1.0
  9
$CHAMFERD
 40
0.0
  9
$SKPOLY
 70
     0
  9
$TDCREATE
 40
2458997.796045648
  9
$TDUCREATE
 40
2458998.004378981
  9
$TDUPDATE
 40
2458997.79604713
  9
$TDUUPDATE
 40
2458998.004380463
  9
$TDINDWG
 40
0.0000000116
  9
$TDUSRTIMER
 40
0.0000000116
  9
$USRTIMER
 70
     1
  9
$ANGBASE
 50
0.0
  9
$ANGDIR
 70
     0
  9
$PDMODE
 70
     0
  9
$PDSIZE
 40
0.0
  9
$PLINEWID
 40
0.0
  9
$SPLFRAME
 70
     0
  9
$SPLINETYPE
 70
     6
  9
$SPLINESEGS
 70
     8
  9
$HANDSEED
  5
1C2
  9
$SURFTAB1
 70
     6
  9
$SURFTAB2
 70
     6
  9
$SURFTYPE
 70
     6
  9
$SURFU
 70
     6
  9
$SURFV
 70
     6
  9
$UCSBASE
  2

  9
$UCSNAME
  2

  9
$UCSORG
 10
0.0
 20
0.0
 30
0.0
  9
$UCSXDIR
 10
1.0
 20
0.0
 30
0.0
  9
$UCSYDIR
 10
0.0
 20
1.0
 30
0.0
  9
$UCSORTHOREF
  2

  9
$UCSORTHOVIEW
 70
     0
  9
$UCSORGTOP
 10
0.0
 20
0.0
 30
0.0
  9
$UCSORGBOTTOM
 10
0.0
 20
0.0
 30
0.0
  9
$UCSORGLEFT
 10
0.0
 20
0.0
 30
0.0
  9
$UCSORGRIGHT
 10
0.0
 20
0.0
 30
0.0
  9
$UCSORGFRONT
 10
0.0
 20
0.0
 30
0.0
  9
$UCSORGBACK
 10
0.0
 20
0.0
 30
0.0
  9
$PUCSBASE
  2

  9
$PUCSNAME
  2

  9
$PUCSORG
 10
0.0
 20
0.0
 30
0.0
  9
$PUCSXDIR
 10
1.0
 20
0.0
 30
0.0
  9
$PUCSYDIR
 10
0.0
 20
1.0
 30
0.0
  9
$PUCSORTHOREF
  2

  9
$PUCSORTHOVIEW
 70
     0
  9
$PUCSORGTOP
 10
0.0
 20
0.0
 30
0.0
  9
$PUCSORGBOTTOM
 10
0.0
 20
0.0
 30
0.0
  9
$PUCSORGLEFT
 10
0.0
 20
0.0
 30
0.0
  9
$PUCSORGRIGHT
 10
0.0
 20
0.0
 30
0.0
  9
$PUCSORGFRONT
 10
0.0
 20
0.0
 30
0.0
  9
$PUCSORGBACK
 10
0.0
 20
0.0
 30
0.0
  9
$USERI1
 70
     0
  9
$USERI2
 70
     0
  9
$USERI3
 70
     0
  9
$USERI4
 70
     0
  9
$USERI5
 70
     0
  9
$USERR1
 40
0.0
  9
$USERR2
 40
0.0
  9
$USERR3
 40
0.0
  9
$USERR4
 40
0.0
  9
$USERR5
 40
0.0
  9
$WORLDVIEW
 70
     1
  9
$SHADEDGE
 70
     3
  9
$SHADEDIF
 70
    70
  9
$TILEMODE
 70
     1
  9
$MAXACTVP
 70
    64
  9
$PINSBASE
 10
0.0
 20
0.0
 30
0.0
  9
$PLIMCHECK
 70
     0
  9
$PEXTMIN
 10
1.000000000000000E+20
 20
1.000000000000000E+20
 30
1.000000000000000E+20
  9
$PEXTMAX
 10
-1.000000000000000E+20
 20
-1.000000000000000E+20
 30
-1.000000000000000E+20
  9
$PLIMMIN
 10
0.0
 20
0.0
  9
$PLIMMAX
 10
12.0
 20
9.0
  9
$UNITMODE
 70
     0
  9
$VISRETAIN
 70
     1
  9
$PLINEGEN
 70
     0
  9
$PSLTSCALE
 70
     1
  9
$TREEDEPTH
 70
  3020
  9
$CMLSTYLE
  2
Standard
  9
$CMLJUST
 70
     0
  9
$CMLSCALE
 40
1.0
  9
$PROXYGRAPHICS
 70
     1
  9
$MEASUREMENT
 70
     0
  9
$CELWEIGHT
370
    -1
  9
$ENDCAPS
280
     0
  9
$JOINSTYLE
280
     0
  9
$LWDISPLAY
290
     1
  9
$INSUNITS
 70
     4
  9
$HYPERLINKBASE
  1

  9
$STYLESHEET
  1

  9
$XEDIT
290
     1
  9
$CEPSNTYPE
380
     0
  9
$PSTYLEMODE
290
     1
  9
$FINGERPRINTGUID
  2
{4054F211-6DA1-4792-9FBD-2C75FB80F818}
  9
$VERSIONGUID
  2
{FAEB1C32-E019-11D5-929B-00C0DF256EC4}
  9
$EXTNAMES
290
     1
  9
$PSVPSCALE
 40
0.0
  9
$OLESTARTUP
290
     0
  9
$SORTENTS
280
   127
  9
$INDEXCTL
280
     0
  9
$HIDETEXT
280
     1
  9
$XCLIPFRAME
280
     2
  9
$HALOGAP
280
     0
  9
$OBSCOLOR
 70
   257
  9
$OBSLTYPE
280
     0
  9
$INTERSECTIONDISPLAY
280
     0
  9
$INTERSECTIONCOLOR
 70
   257
  9
$DIMASSOC
280
     2
  9
$PROJECTNAME
  1

  9
$CAMERADISPLAY
290
     0
  9
$LENSLENGTH
 40
50.0
  9
$CAMERAHEIGHT
 40
0.0
  9
$STEPSPERSEC
 40
2.0
  9
$STEPSIZE
 40
6.0
  9
$3DDWFPREC
 40
2.0
  9
$PSOLWIDTH
 40
0.25
  9
$PSOLHEIGHT
 40
4.0
  9
$LOFTANG1
 40
1.570796326794897
  9
$LOFTANG2
 40
1.570796326794897
  9
$LOFTMAG1
 40
0.0
  9
$LOFTMAG2
 40
0.0
  9
$LOFTPARAM
 70
     7
  9
$LOFTNORMALS
280
     1
  9
$LATITUDE
 40
37.795
  9
$LONGITUDE
 40
-122.394
  9
$NORTHDIRECTION
 40
0.0
  9
$TIMEZONE
 70
 -8000
  9
$LIGHTGLYPHDISPLAY
280
     1
  9
$TILEMODELIGHTSYNCH
280
     1
  9
$CMATERIAL
347
3C
  9
$SOLIDHIST
280
     1
  9
$SHOWHIST
280
     1
  9
$DWFFRAME
280
     2
  9
$DGNFRAME
280
     2
  9
$REALWORLDSCALE
290
     1
  9
$INTERFERECOLOR
 62
   256
  9
$CSHADOW
280
     0
  9
$SHADOWPLANELOCATION
 40
0.0
  0
ENDSEC
  0
SECTION
  2
CLASSES
  0
CLASS
  1
ACDBDICTIONARYWDFLT
  2
AcDbDictionaryWithDefault
  3
ObjectDBX Classes
 90
        0
 91
        4
280
     0
281
     0
  0
CLASS
  1
VISUALSTYLE
  2
AcDbVisualStyle
  3
ObjectDBX Classes
 90
     4095
 91
        4
280
     0
281
     0
  0
CLASS
  1
MATERIAL
  2
AcDbMaterial
  3
ObjectDBX Classes
 90
     1153
 91
        4
280
     0
281
     0
  0
CLASS
  1
SUN
  2
AcDbSun
  3
SCENEOE
 90
     1024
 91
        4
280
     0
281
     0
  0
ENDSEC
  0
SECTION
  2
TABLES
  0
TABLE
  2
VPORT
  5
8
330
0
100
AcDbSymbolTable
 70
     1
  0
VPORT
  5
29
330
8
100
AcDbSymbolTableRecord
100
AcDbViewportTableRecord
  2
*Active
 70
     0
 10
0.0
 20
0.0
 11
1.0
 21
1.0
 12
0.0
 22
0.0
 13
0.0
 23
0.0
 14
0.5
 24
0.5
 15
0.5
 25
0.5
 16
0.0
 26
0.0
 36
1.0
 17
584.9656026906387
 27
-139.699999965075
 37
0.0
 40
279.39999993015
 41
0.7727272727272727
 42
50.0
 43
0.0
 44
0.0
 50
0.0
 51
0.0
 71
     0
 72
   100
 73
     1
 74
     3
 75
     0
 76
     0
 77
     0
 78
     0
281
     0
 65
     1
110
0.0
120
0.0
130
0.0
111
1.0
121
0.0
131
0.0
112
0.0
122
1.0
132
0.0
 79
     0
146
0.0
 60
     3
 61
     5
292
     1
282
     1
141
0.0
142
0.0
 63
   250
361
3F
  0
ENDTAB
  0
TABLE
  2
LTYPE
  5
5
330
0
100
AcDbSymbolTable
 70
     1
  0
LTYPE
  5
14
330
5
100
AcDbSymbolTableRecord
100
AcDbLinetypeTableRecord
  2
ByBlock
 70
     0
  3

 72
    65
 73
     0
 40
0.0
  0
LTYPE
  5
15
330
5
100
AcDbSymbolTableRecord
100
AcDbLinetypeTableRecord
  2
ByLayer
 70
     0
  3

 72
    65
 73
     0
 40
0.0
  0
LTYPE
  5
16
330
5
100
AcDbSymbolTableRecord
100
AcDbLinetypeTableRecord
  2
Continuous
 70
     0
  3
Solid line
 72
    65
 73
     0
 40
0.0
  0
ENDTAB
  0
TABLE
  2
LAYER
  5
2
330
0
100
AcDbSymbolTable
 70
     2
  0
LAYER
  5
10
330
2
100
AcDbSymbolTableRecord
100
AcDbLayerTableRecord
  2
0
 70
     0
 62
     7
  6
Continuous
370
    -3
390
F
347
3E
  0
LAYER
  5
40
330
2
100
AcDbSymbolTableRecord
100
AcDbLayerTableRecord
  2
Capa 1
 70
     0
 62
     7
  6
Continuous
370
    -3
390
F
347
3E
  0
ENDTAB
  0
TABLE
  2
STYLE
  5
3
330
0
100
AcDbSymbolTable
 70
     1
  0
STYLE
  5
11
330
3
100
AcDbSymbolTableRecord
100
AcDbTextStyleTableRecord
  2
Standard
 70
     0
 40
0.0
 41
1.0
 50
0.0
 71
     0
 42
0.2
  3
txt
  4

  0
ENDTAB
  0
TABLE
  2
VIEW
  5
6
330
0
100
AcDbSymbolTable
 70
     0
  0
ENDTAB
  0
TABLE
  2
UCS
  5
7
330
0
100
AcDbSymbolTable
 70
     0
  0
ENDTAB
  0
TABLE
  2
APPID
  5
9
330
0
100
AcDbSymbolTable
 70
     1
  0
APPID
  5
12
330
9
100
AcDbSymbolTableRecord
100
AcDbRegAppTableRecord
  2
ACAD
 70
     0
  0
ENDTAB
  0
TABLE
  2
DIMSTYLE
  5
A
330
0
100
AcDbSymbolTable
 70
     1
100
AcDbDimStyleTable
  0
DIMSTYLE
105
27
330
A
100
AcDbSymbolTableRecord
100
AcDbDimStyleTableRecord
  2
Standard
 70
     0
178
     0
340
11
  0
ENDTAB
  0
TABLE
  2
BLOCK_RECORD
  5
1
330
0
100
AcDbSymbolTable
 70
     2
  0
BLOCK_RECORD
  5
1F
330
1
100
AcDbSymbolTableRecord
100
AcDbBlockTableRecord
  2
*Model_Space
340
22
 70
     0
280
     1
281
     0
  0
BLOCK_RECORD
  5
1B
330
1
100
AcDbSymbolTableRecord
100
AcDbBlockTableRecord
  2
*Paper_Space
340
1E
 70
     0
280
     1
281
     0
  0
BLOCK_RECORD
  5
23
330
1
100
AcDbSymbolTableRecord
100
AcDbBlockTableRecord
  2
*Paper_Space0
340
26
 70
     0
280
     1
281
     0
  0
BLOCK_RECORD
  5
41
330
1
100
AcDbSymbolTableRecord
100
AcDbBlockTableRecord
  2
block 2
340
0
102
{BLKREFS
331
42
102
}
 70
     0
280
     1
281
     0
  0
ENDTAB
  0
ENDSEC
  0
SECTION
  2
BLOCKS
  0
BLOCK
  5
20
330
1F
100
AcDbEntity
  8
0
100
AcDbBlockBegin
  2
*Model_Space
 70
     0
 10
0.0
 20
0.0
 30
0.0
  3
*Model_Space
  1

  0
ENDBLK
  5
21
330
1F
100
AcDbEntity
  8
0
100
AcDbBlockEnd
  0
BLOCK
  5
1C
330
1B
100
AcDbEntity
 67
     1
  8
0
100
AcDbBlockBegin
  2
*Paper_Space
 70
     0
 10
0.0
 20
0.0
 30
0.0
  3
*Paper_Space
  1

  0
ENDBLK
  5
1D
330
1B
100
AcDbEntity
 67
     1
  8
0
100
AcDbBlockEnd
  0
BLOCK
  5
24
330
23
100
AcDbEntity
  8
0
100
AcDbBlockBegin
  2
*Paper_Space0
 70
     0
 10
0.0
 20
0.0
 30
0.0
  3
*Paper_Space0
  1

  0
ENDBLK
  5
25
330
23
100
AcDbEntity
  8
0
100
AcDbBlockEnd
  0
BLOCK
  5
43
330
41
100
AcDbEntity
  8
0
100
AcDbBlockBegin
  2
block 2
 70
     0
 10
0.0
 20
0.0
 30
0.0
  3
block 2
  1

  0
POLYLINE
  5
45
330
41
100
AcDbEntity
  8
Capa 1
 62
   250
420
  1842203
370
    35
100
AcDb2dPolyline
 66
     1
 10
0.0
 20
0.0
 30
0.0
  0
VERTEX
  5
46
330
45
100
AcDbEntity
  8
Capa 1
 62
   250
420
  1842203
370
    35
100
AcDbVertex
100
AcDb2dVertex
 10
874.5098525772489
 20
-131.7116477027939
 30
0.0
  0
VERTEX
  5
47
330
45
100
AcDbEntity
  8
Capa 1
 62
   250
420
  1842203
370
    35
100
AcDbVertex
100
AcDb2dVertex
 10
876.5098381656704
 20
-131.7116477027939
 30
0.0
  0
VERTEX
  5
48
330
45
100
AcDbEntity
  8
Capa 1
 62
   250
420
  1842203
370
    35
100
AcDbVertex
100
AcDb2dVertex
 10
876.5098381656704
 20
-115.7116768680371
 30
0.0
  0
VERTEX
  5
49
330
45
100
AcDbEntity
  8
Capa 1
 62
   250
420
  1842203
370
    35
100
AcDbVertex
100
AcDb2dVertex
 10
843.5098498723254
 20
-115.7116768680371
 30
0.0
  0
VERTEX
  5
4A
330
45
100
AcDbEntity
  8
Capa 1
 62
   250
420
  1842203
370
    35
100
AcDbVertex
100
AcDb2dVertex
 10
843.5098498723254
 20
-117.7116839883066
 30
0.0
  0
VERTEX
  5
4B
330
45
100
AcDbEntity
  8
Capa 1
 62
   250
420
  1842203
370
    35
100
AcDbVertex
100
AcDb2dVertex
 10
810.5098400471335
 20
-117.7116839883066
 30
0.0
  0
VERTEX
  5
4C
330
45
100
AcDbEntity
  8
Capa 1
 62
   250
420
  1842203
370
    35
100
AcDbVertex
100
AcDb2dVertex
 10
810.5098400471335
 20
-115.7116768680371
 30
0.0
  0
VERTEX
  5
4D
330
45
100
AcDbEntity
  8
Capa 1
 62
   250
420
  1842203
370
    35
100
AcDbVertex
100
AcDb2dVertex
 10
777.5098517537884
 20
-115.7116768680371
 30
0.0
  0
VERTEX
  5
4E
330
45
100
AcDbEntity
  8
Capa 1
 62
   250
420
  1842203
370
    35
100
AcDbVertex
100
AcDb2dVertex
 10
777.5098517537884
 20
-131.7116477027939
 30
0.0
  0
VERTEX
  5
4F
330
45
100
AcDbEntity
  8
Capa 1
 62
   250
420
  1842203
370
    35
100
AcDbVertex
100
AcDb2dVertex
 10
779.50983734221
 20
-131.7116477027939
 30
0.0
  0
VERTEX
  5
50
330
45
100
AcDbEntity
  8
Capa 1
 62
   250
420
  1842203
370
    35
100
AcDbVertex
100
AcDb2dVertex
 10
779.50983734221
 20
-147.7116400694025
 30
0.0
  0
VERTEX
  5
51
330
45
100
AcDbEntity
  8
Capa 1
 62
   250
420
  1842203
370
    35
100
AcDbVertex
100
AcDb2dVertex
 10
777.5098517537884
 20
-147.7116400694025
 30
0.0
  0
VERTEX
  5
52
330
45
100
AcDbEntity
  8
Capa 1
 62
   250
420
  1842203
370
    35
100
AcDbVertex
100
AcDb2dVertex
 10
777.5098517537884
 20
-163.7116754997003
 30
0.0
  0
VERTEX
  5
53
330
45
100
AcDbEntity
  8
Capa 1
 62
   250
420
  1842203
370
    35
100
AcDbVertex
100
AcDb2dVertex
 10
810.5098400471335
 20
-163.7116754997003
 30
0.0
  0
VERTEX
  5
54
330
45
100
AcDbEntity
  8
Capa 1
 62
   250
420
  1842203
370
    35
100
AcDbVertex
100
AcDb2dVertex
 10
810.5098400471335
 20
-161.7116899112795
 30
0.0
  0
VERTEX
  5
55
330
45
100
AcDbEntity
  8
Capa 1
 62
   250
420
  1842203
370
    35
100
AcDbVertex
100
AcDb2dVertex
 10
843.5098498723254
 20
-161.7116899112795
 30
0.0
  0
VERTEX
  5
56
330
45
100
AcDbEntity
  8
Capa 1
 62
   250
420
  1842203
370
    35
100
AcDbVertex
100
AcDb2dVertex
 10
843.5098498723254
 20
-163.7116754997003
 30
0.0
  0
VERTEX
  5
57
330
45
100
AcDbEntity
  8
Capa 1
 62
   250
420
  1842203
370
    35
100
AcDbVertex
100
AcDb2dVertex
 10
876.5098381656704
 20
-163.7116754997003
 30
0.0
  0
VERTEX
  5
58
330
45
100
AcDbEntity
  8
Capa 1
 62
   250
420
  1842203
370
    35
100
AcDbVertex
100
AcDb2dVertex
 10
876.5098381656704
 20
-147.7116400694025
 30
0.0
  0
VERTEX
  5
59
330
45
100
AcDbEntity
  8
Capa 1
 62
   250
420
  1842203
370
    35
100
AcDbVertex
100
AcDb2dVertex
 10
874.5098525772489
 20
-147.7116400694025
 30
0.0
  0
VERTEX
  5
5A
330
45
100
AcDbEntity
  8
Capa 1
 62
   250
420
  1842203
370
    35
100
AcDbVertex
100
AcDb2dVertex
 10
874.5098525772489
 20
-131.7116477027939
 30
0.0
  0
SEQEND
  5
5B
330
45
100
AcDbEntity
  8
Capa 1
 62
   250
420
  1842203
370
    35
  0
POLYLINE
  5
5C
330
41
100
AcDbEntity
  8
Capa 1
 62
   250
420
  1842203
370
    35
100
AcDb2dPolyline
 66
     1
 10
0.0
 20
0.0
 30
0.0
  0
VERTEX
  5
5D
330
5C
100
AcDbEntity
  8
Capa 1
 62
   250
420
  1842203
370
    35
100
AcDbVertex
100
AcDb2dVertex
 10
932.5098437465623
 20
-161.7116899112795
 30
0.0
  0
VERTEX
  5
5E
330
5C
100
AcDbEntity
  8
Capa 1
 62
   250
420
  1842203
370
    35
100
AcDbVertex
100
AcDb2dVertex
 10
932.5098437465623
 20
-117.7116839883066
 30
0.0
  0
VERTEX
  5
5F
330
5C
100
AcDbEntity
  8
Capa 1
 62
   250
420
  1842203
370
    35
100
AcDbVertex
100
AcDb2dVertex
 10
913.8431752195992
 20
-117.7116839883066
 30
0.0
  0
VERTEX
  5
60
330
5C
100
AcDbEntity
  8
Capa 1
 62
   250
420
  1842203
370
    35
100
AcDbVertex
100
AcDb2dVertex
 10
913.8431752195992
 20
-115.7116768680371
 30
0.0
  0
VERTEX
  5
61
330
5C
100
AcDbEntity
  8
Capa 1
 62
   250
420
  1842203
370
    35
100
AcDbVertex
100
AcDb2dVertex
 10
895.1765066926336
 20
-115.7116768680371
 30
0.0
  0
VERTEX
  5
62
330
5C
100
AcDbEntity
  8
Capa 1
 62
   250
420
  1842203
370
    35
100
AcDbVertex
100
AcDb2dVertex
 10
895.1765066926336
 20
-117.7116839883066
 30
0.0
  0
VERTEX
  5
63
330
5C
100
AcDbEntity
  8
Capa 1
 62
   250
420
  1842203
370
    35
100
AcDbVertex
100
AcDb2dVertex
 10
878.5098237540918
 20
-117.7116839883066
 30
0.0
  0
VERTEX
  5
64
330
5C
100
AcDbEntity
  8
Capa 1
 62
   250
420
  1842203
370
    35
100
AcDbVertex
100
AcDb2dVertex
 10
878.5098237540918
 20
-131.7116477027939
 30
0.0
  0
VERTEX
  5
65
330
5C
100
AcDbEntity
  8
Capa 1
 62
   250
420
  1842203
370
    35
100
AcDbVertex
100
AcDb2dVertex
 10
876.5098381656704
 20
-131.7116477027939
 30
0.0
  0
VERTEX
  5
66
330
5C
100
AcDbEntity
  8
Capa 1
 62
   250
420
  1842203
370
    35
100
AcDbVertex
100
AcDb2dVertex
 10
876.5098381656704
 20
-147.7116400694025
 30
0.0
  0
VERTEX
  5
67
330
5C
100
AcDbEntity
  8
Capa 1
 62
   250
420
  1842203
370
    35
100
AcDbVertex
100
AcDb2dVertex
 10
878.5098237540918
 20
-147.7116400694025
 30
0.0
  0
VERTEX
  5
68
330
5C
100
AcDbEntity
  8
Capa 1
 62
   250
420
  1842203
370
    35
100
AcDbVertex
100
AcDb2dVertex
 10
878.5098237540918
 20
-161.7116899112795
 30
0.0
  0
VERTEX
  5
69
330
5C
100
AcDbEntity
  8
Capa 1
 62
   250
420
  1842203
370
    35
100
AcDbVertex
100
AcDb2dVertex
 10
895.1765066926336
 20
-161.7116899112795
 30
0.0
  0
VERTEX
  5
6A
330
5C
100
AcDbEntity
  8
Capa 1
 62
   250
420
  1842203
370
    35
100
AcDbVertex
100
AcDb2dVertex
 10
895.1765066926336
 20
-163.7116754997003
 30
0.0
  0
VERTEX
  5
6B
330
5C
100
AcDbEntity
  8
Capa 1
 62
   250
420
  1842203
370
    35
100
AcDbVertex
100
AcDb2dVertex
 10
913.8431752195992
 20
-163.7116754997003
 30
0.0
  0
VERTEX
  5
6C
330
5C
100
AcDbEntity
  8
Capa 1
 62
   250
420
  1842203
370
    35
100
AcDbVertex
100
AcDb2dVertex
 10
913.8431752195992
 20
-161.7116899112795
 30
0.0
  0
VERTEX
  5
6D
330
5C
100
AcDbEntity
  8
Capa 1
 62
   250
420
  1842203
370
    35
100
AcDbVertex
100
AcDb2dVertex
 10
932.5098437465623
 20
-161.7116899112795
 30
0.0
  0
SEQEND
  5
6E
330
5C
100
AcDbEntity
  8
Capa 1
 62
   250
420
  1842203
370
    35
  0
POLYLINE
  5
6F
330
41
100
AcDbEntity
  8
Capa 1
 62
   250
420
  1842203
370
    35
100
AcDb2dPolyline
 66
     1
 10
0.0
 20
0.0
 30
0.0
  0
VERTEX
  5
70
330
6F
100
AcDbEntity
  8
Capa 1
 62
   250
420
  1842203
370
    35
100
AcDbVertex
100
AcDb2dVertex
 10
843.5098498723254
 20
-163.7116754997003
 30
0.0
  0
VERTEX
  5
71
330
6F
100
AcDbEntity
  8
Capa 1
 62
   250
420
  1842203
370
    35
100
AcDbVertex
100
AcDb2dVertex
 10
810.5098400471335
 20
-163.7116754997003
 30
0.0
  0
VERTEX
  5
72
330
6F
100
AcDbEntity
  8
Capa 1
 62
   250
420
  1842203
370
    35
100
AcDbVertex
100
AcDb2dVertex
 10
810.5098400471335
 20
-165.7116826199698
 30
0.0
  0
VERTEX
  5
73
330
6F
100
AcDbEntity
  8
Capa 1
 62
   250
420
  1842203
370
    35
100
AcDbVertex
100
AcDb2dVertex
 10
777.5098517537884
 20
-165.7116826199698
 30
0.0
  0
VERTEX
  5
74
330
6F
100
AcDbEntity
  8
Capa 1
 62
   250
420
  1842203
370
    35
100
AcDbVertex
100
AcDb2dVertex
 10
777.5098517537884
 20
-182.3782794311224
 30
0.0
  0
VERTEX
  5
75
330
6F
100
AcDbEntity
  8
Capa 1
 62
   250
420
  1842203
370
    35
100
AcDbVertex
100
AcDb2dVertex
 10
779.50983734221
 20
-182.3782794311224
 30
0.0
  0
VERTEX
  5
76
330
6F
100
AcDbEntity
  8
Capa 1
 62
   250
420
  1842203
370
    35
100
AcDbVertex
100
AcDb2dVertex
 10
779.50983734221
 20
-201.0449264262407
 30
0.0
  0
VERTEX
  5
77
330
6F
100
AcDbEntity
  8
Capa 1
 62
   250
420
  1842203
370
    35
100
AcDbVertex
100
AcDb2dVertex
 10
777.5098517537884
 20
-201.0449264262407
 30
0.0
  0
VERTEX
  5
78
330
6F
100
AcDbEntity
  8
Capa 1
 62
   250
420
  1842203
370
    35
100
AcDbVertex
100
AcDb2dVertex
 10
777.5098517537884
 20
-219.7116380168954
 30
0.0
  0
VERTEX
  5
79
330
6F
100
AcDbEntity
  8
Capa 1
 62
   250
420
  1842203
370
    35
100
AcDbVertex
100
AcDb2dVertex
 10
876.5098381656704
 20
-219.7116380168954
 30
0.0
  0
VERTEX
  5
7A
330
6F
100
AcDbEntity
  8
Capa 1
 62
   250
420
  1842203
370
    35
100
AcDbVertex
100
AcDb2dVertex
 10
876.5098381656704
 20
-201.0449264262407
 30
0.0
  0
VERTEX
  5
7B
330
6F
100
AcDbEntity
  8
Capa 1
 62
   250
420
  1842203
370
    35
100
AcDbVertex
100
AcDb2dVertex
 10
874.5098525772489
 20
-201.0449264262407
 30
0.0
  0
VERTEX
  5
7C
330
6F
100
AcDbEntity
  8
Capa 1
 62
   250
420
  1842203
370
    35
100
AcDbVertex
100
AcDb2dVertex
 10
874.5098525772489
 20
-182.3782794311224
 30
0.0
  0
VERTEX
  5
7D
330
6F
100
AcDbEntity
  8
Capa 1
 62
   250
420
  1842203
370
    35
100
AcDbVertex
100
AcDb2dVertex
 10
876.5098381656704
 20
-182.3782794311224
 30
0.0
  0
VERTEX
  5
7E
330
6F
100
AcDbEntity
  8
Capa 1
 62
   250
420
  1842203
370
    35
100
AcDbVertex
100
AcDb2dVertex
 10
876.5098381656704
 20
-165.7116826199698
 30
0.0
  0
VERTEX
  5
7F
330
6F
100
AcDbEntity
  8
Capa 1
 62
   250
420
  1842203
370
    35
100
AcDbVertex
100
AcDb2dVertex
 10
843.5098498723254
 20
-165.7116826199698
 30
0.0
  0
VERTEX
  5
80
330
6F
100
AcDbEntity
  8
Capa 1
 62
   250
420
  1842203
370
    35
100
AcDbVertex
100
AcDb2dVertex
 10
843.5098498723254
 20
-163.7116754997003
 30
0.0
  0
SEQEND
  5
81
330
6F
100
AcDbEntity
  8
Capa 1
 62
   250
420
  1842203
370
    35
  0
POLYLINE
  5
82
330
41
100
AcDbEntity
  8
Capa 1
 62
   250
420
  1842203
370
    35
100
AcDb2dPolyline
 66
     1
 10
0.0
 20
0.0
 30
0.0
  0
VERTEX
  5
83
330
82
100
AcDbEntity
  8
Capa 1
 62
   250
420
  1842203
370
    35
100
AcDbVertex
100
AcDb2dVertex
 10
721.6426381133555
 20
-117.6883100138441
 30
0.0
  0
VERTEX
  5
84
330
82
100
AcDbEntity
  8
Capa 1
 62
   250
420
  1842203
370
    35
100
AcDbVertex
100
AcDb2dVertex
 10
721.642638109404
 20
-161.688315936817
 30
0.0
  0
VERTEX
  5
85
330
82
100
AcDbEntity
  8
Capa 1
 62
   250
420
  1842203
370
    35
100
AcDbVertex
100
AcDb2dVertex
 10
740.3093066363671
 20
-161.6883159384931
 30
0.0
  0
VERTEX
  5
86
330
82
100
AcDbEntity
  8
Capa 1
 62
   250
420
  1842203
370
    35
100
AcDbVertex
100
AcDb2dVertex
 10
740.3093066361861
 20
-163.688323058762
 30
0.0
  0
VERTEX
  5
87
330
82
100
AcDbEntity
  8
Capa 1
 62
   250
420
  1842203
370
    35
100
AcDbVertex
100
AcDb2dVertex
 10
758.9759751631492
 20
-163.6883230604374
 30
0.0
  0
VERTEX
  5
88
330
82
100
AcDbEntity
  8
Capa 1
 62
   250
420
  1842203
370
    35
100
AcDbVertex
100
AcDb2dVertex
 10
758.9759751633288
 20
-161.6883159401686
 30
0.0
  0
VERTEX
  5
89
330
82
100
AcDbEntity
  8
Capa 1
 62
   250
420
  1842203
370
    35
100
AcDbVertex
100
AcDb2dVertex
 10
775.6426581018706
 20
-161.6883159416676
 30
0.0
  0
VERTEX
  5
8A
330
82
100
AcDbEntity
  8
Capa 1
 62
   250
420
  1842203
370
    35
100
AcDbVertex
100
AcDb2dVertex
 10
775.642658103127
 20
-147.6883522271765
 30
0.0
  0
VERTEX
  5
8B
330
82
100
AcDbEntity
  8
Capa 1
 62
   250
420
  1842203
370
    35
100
AcDbVertex
100
AcDb2dVertex
 10
777.642643691551
 20
-147.6883522273561
 30
0.0
  0
VERTEX
  5
8C
330
82
100
AcDbEntity
  8
Capa 1
 62
   250
420
  1842203
370
    35
100
AcDbVertex
100
AcDb2dVertex
 10
777.6426436929871
 20
-131.6883598607513
 30
0.0
  0
VERTEX
  5
8D
330
82
100
AcDbEntity
  8
Capa 1
 62
   250
420
  1842203
370
    35
100
AcDbVertex
100
AcDb2dVertex
 10
775.6426581045657
 20
-131.6883598605716
 30
0.0
  0
VERTEX
  5
8E
330
82
100
AcDbEntity
  8
Capa 1
 62
   250
420
  1842203
370
    35
100
AcDbVertex
100
AcDb2dVertex
 10
775.6426581058221
 20
-117.6883100186915
 30
0.0
  0
VERTEX
  5
8F
330
82
100
AcDbEntity
  8
Capa 1
 62
   250
420
  1842203
370
    35
100
AcDbVertex
100
AcDb2dVertex
 10
758.9759751672805
 20
-117.6883100171957
 30
0.0
  0
VERTEX
  5
90
330
82
100
AcDbEntity
  8
Capa 1
 62
   250
420
  1842203
370
    35
100
AcDbVertex
100
AcDb2dVertex
 10
758.9759751674601
 20
-115.6883244287742
 30
0.0
  0
VERTEX
  5
91
330
82
100
AcDbEntity
  8
Capa 1
 62
   250
420
  1842203
370
    35
100
AcDbVertex
100
AcDb2dVertex
 10
740.309306640497
 20
-115.6883244270988
 30
0.0
  0
VERTEX
  5
92
330
82
100
AcDbEntity
  8
Capa 1
 62
   250
420
  1842203
370
    35
100
AcDbVertex
100
AcDb2dVertex
 10
740.3093066403173
 20
-117.6883100155196
 30
0.0
  0
VERTEX
  5
93
330
82
100
AcDbEntity
  8
Capa 1
 62
   250
420
  1842203
370
    35
100
AcDbVertex
100
AcDb2dVertex
 10
721.6426381133555
 20
-117.6883100138441
 30
0.0
  0
SEQEND
  5
94
330
82
100
AcDbEntity
  8
Capa 1
 62
   250
420
  1842203
370
    35
  0
POLYLINE
  5
95
330
41
100
AcDbEntity
  8
Capa 1
 62
   250
420
  1842203
370
    35
100
AcDb2dPolyline
 66
     1
 10
0.0
 20
0.0
 30
0.0
  0
VERTEX
  5
96
330
95
100
AcDbEntity
  8
Capa 1
 62
   250
420
  1842203
370
    35
100
AcDbVertex
100
AcDb2dVertex
 10
810.642631987767
 20
-115.6883244334137
 30
0.0
  0
VERTEX
  5
97
330
95
100
AcDbEntity
  8
Capa 1
 62
   250
420
  1842203
370
    35
100
AcDbVertex
100
AcDb2dVertex
 10
843.6426418129602
 20
-115.6883244363764
 30
0.0
  0
VERTEX
  5
98
330
95
100
AcDbEntity
  8
Capa 1
 62
   250
420
  1842203
370
    35
100
AcDbVertex
100
AcDb2dVertex
 10
843.6426418131398
 20
-113.6883173161076
 30
0.0
  0
VERTEX
  5
99
330
95
100
AcDbEntity
  8
Capa 1
 62
   250
420
  1842203
370
    35
100
AcDbVertex
100
AcDb2dVertex
 10
876.6426301064848
 20
-113.6883173190709
 30
0.0
  0
VERTEX
  5
9A
330
95
100
AcDbEntity
  8
Capa 1
 62
   250
420
  1842203
370
    35
100
AcDbVertex
100
AcDb2dVertex
 10
876.64263010798
 20
-97.02172050791835
 30
0.0
  0
VERTEX
  5
9B
330
95
100
AcDbEntity
  8
Capa 1
 62
   250
420
  1842203
370
    35
100
AcDbVertex
100
AcDb2dVertex
 10
874.6426445195599
 20
-97.02172050773866
 30
0.0
  0
VERTEX
  5
9C
330
95
100
AcDbEntity
  8
Capa 1
 62
   250
420
  1842203
370
    35
100
AcDbVertex
100
AcDb2dVertex
 10
874.6426445212347
 20
-78.35507351262042
 30
0.0
  0
VERTEX
  5
9D
330
95
100
AcDbEntity
  8
Capa 1
 62
   250
420
  1842203
370
    35
100
AcDbVertex
100
AcDb2dVertex
 10
876.64263010966
 20
-78.35507351280009
 30
0.0
  0
VERTEX
  5
9E
330
95
100
AcDbEntity
  8
Capa 1
 62
   250
420
  1842203
370
    35
100
AcDbVertex
100
AcDb2dVertex
 10
876.6426301113322
 20
-59.6883619221447
 30
0.0
  0
VERTEX
  5
9F
330
95
100
AcDbEntity
  8
Capa 1
 62
   250
420
  1842203
370
    35
100
AcDbVertex
100
AcDb2dVertex
 10
777.6426436994503
 20
-59.6883619132546
 30
0.0
  0
VERTEX
  5
A0
330
95
100
AcDbEntity
  8
Capa 1
 62
   250
420
  1842203
370
    35
100
AcDbVertex
100
AcDb2dVertex
 10
777.6426436977742
 20
-78.35507350391384
 30
0.0
  0
VERTEX
  5
A1
330
95
100
AcDbEntity
  8
Capa 1
 62
   250
420
  1842203
370
    35
100
AcDbVertex
100
AcDb2dVertex
 10
779.6426292861956
 20
-78.35507350409031
 30
0.0
  0
VERTEX
  5
A2
330
95
100
AcDbEntity
  8
Capa 1
 62
   250
420
  1842203
370
    35
100
AcDbVertex
100
AcDb2dVertex
 10
779.6426292845234
 20
-97.02172049920792
 30
0.0
  0
VERTEX
  5
A3
330
95
100
AcDbEntity
  8
Capa 1
 62
   250
420
  1842203
370
    35
100
AcDbVertex
100
AcDb2dVertex
 10
777.642643696098
 20
-97.02172049902825
 30
0.0
  0
VERTEX
  5
A4
330
95
100
AcDbEntity
  8
Capa 1
 62
   250
420
  1842203
370
    35
100
AcDbVertex
100
AcDb2dVertex
 10
777.642643694603
 20
-113.6883173101847
 30
0.0
  0
VERTEX
  5
A5
330
95
100
AcDbEntity
  8
Capa 1
 62
   250
420
  1842203
370
    35
100
AcDbVertex
100
AcDb2dVertex
 10
810.642631987948
 20
-113.6883173131481
 30
0.0
  0
VERTEX
  5
A6
330
95
100
AcDbEntity
  8
Capa 1
 62
   250
420
  1842203
370
    35
100
AcDbVertex
100
AcDb2dVertex
 10
810.642631987767
 20
-115.6883244334137
 30
0.0
  0
SEQEND
  5
A7
330
95
100
AcDbEntity
  8
Capa 1
 62
   250
420
  1842203
370
    35
  0
ENDBLK
  5
44
330
41
100
AcDbEntity
  8
0
100
AcDbBlockEnd
  0
ENDSEC
  0
SECTION
  2
ENTITIES
  0
INSERT
  5
42
330
1F
100
AcDbEntity
  8
Capa 1
100
AcDbBlockReference
  2
block 2
 10
0.0
 20
0.0
 30
0.0
  0
POLYLINE
  5
A8
330
1F
100
AcDbEntity
  8
Capa 1
 62
   250
420
  1842203
370
    35
100
AcDb2dPolyline
 66
     1
 10
0.0
 20
0.0
 30
0.0
  0
VERTEX
  5
A9
330
A8
100
AcDbEntity
  8
Capa 1
 62
   250
420
  1842203
370
    35
100
AcDbVertex
100
AcDb2dVertex
 10
632.4656026787641
 20
-161.6999999595745
 30
0.0
  0
VERTEX
  5
AA
330
A8
100
AcDbEntity
  8
Capa 1
 62
   250
420
  1842203
370
    35
100
AcDbVertex
100
AcDb2dVertex
 10
537.4656027025133
 20
-161.6999999595745
 30
0.0
  0
VERTEX
  5
AB
330
A8
100
AcDbEntity
  8
Capa 1
 62
   250
420
  1842203
370
    35
100
AcDbVertex
100
AcDb2dVertex
 10
537.4656027025133
 20
-117.6999999705755
 30
0.0
  0
VERTEX
  5
AC
330
A8
100
AcDbEntity
  8
Capa 1
 62
   250
420
  1842203
370
    35
100
AcDbVertex
100
AcDb2dVertex
 10
632.4656026787641
 20
-117.6999999705755
 30
0.0
  0
VERTEX
  5
AD
330
A8
100
AcDbEntity
  8
Capa 1
 62
   250
420
  1842203
370
    35
100
AcDbVertex
100
AcDb2dVertex
 10
632.4656026787641
 20
-161.6999999595745
 30
0.0
  0
SEQEND
  5
AE
330
A8
100
AcDbEntity
  8
Capa 1
 62
   250
420
  1842203
370
    35
  0
POLYLINE
  5
AF
330
1F
100
AcDbEntity
  8
Capa 1
 62
    22
420
 14951456
370
    35
100
AcDb2dPolyline
 66
     1
 10
0.0
 20
0.0
 30
0.0
  0
VERTEX
  5
B0
330
AF
100
AcDbEntity
  8
Capa 1
 62
    22
420
 14951456
370
    35
100
AcDbVertex
100
AcDb2dVertex
 10
391.7960991928327
 20
-131.7964565136572
 30
0.0
  0
VERTEX
  5
B1
330
AF
100
AcDbEntity
  8
Capa 1
 62
    22
420
 14951456
370
    35
100
AcDbVertex
100
AcDb2dVertex
 10
296.7960992165812
 20
-131.7964565136572
 30
0.0
  0
VERTEX
  5
B2
330
AF
100
AcDbEntity
  8
Capa 1
 62
    22
420
 14951456
370
    35
100
AcDbVertex
100
AcDb2dVertex
 10
296.7960992165812
 20
-87.79645652465696
 30
0.0
  0
VERTEX
  5
B3
330
AF
100
AcDbEntity
  8
Capa 1
 62
    22
420
 14951456
370
    35
100
AcDbVertex
100
AcDb2dVertex
 10
391.7960991928327
 20
-87.79645652465696
 30
0.0
  0
VERTEX
  5
B4
330
AF
100
AcDbEntity
  8
Capa 1
 62
    22
420
 14951456
370
    35
100
AcDbVertex
100
AcDb2dVertex
 10
391.7960991928327
 20
-131.7964565136572
 30
0.0
  0
SEQEND
  5
B5
330
AF
100
AcDbEntity
  8
Capa 1
 62
    22
420
 14951456
370
    35
  0
POLYLINE
  5
B6
330
1F
100
AcDbEntity
  8
Capa 1
 62
   250
420
  1842203
370
    35
100
AcDb2dPolyline
 66
     1
 10
0.0
 20
0.0
 30
0.0
  0
VERTEX
  5
B7
330
B6
100
AcDbEntity
  8
Capa 1
 62
   250
420
  1842203
370
    35
100
AcDbVertex
100
AcDb2dVertex
 10
396.7960991915835
 20
-136.7964565124074
 30
0.0
  0
VERTEX
  5
B8
330
B6
100
AcDbEntity
  8
Capa 1
 62
   250
420
  1842203
370
    35
100
AcDbVertex
100
AcDb2dVertex
 10
291.7960992178297
 20
-136.7964565124074
 30
0.0
  0
VERTEX
  5
B9
330
B6
100
AcDbEntity
  8
Capa 1
 62
   250
420
  1842203
370
    35
100
AcDbVertex
100
AcDb2dVertex
 10
291.7960992178297
 20
-82.7964565259068
 30
0.0
  0
VERTEX
  5
BA
330
B6
100
AcDbEntity
  8
Capa 1
 62
   250
420
  1842203
370
    35
100
AcDbVertex
100
AcDb2dVertex
 10
396.7960991915835
 20
-82.7964565259068
 30
0.0
  0
VERTEX
  5
BB
330
B6
100
AcDbEntity
  8
Capa 1
 62
   250
420
  1842203
370
    35
100
AcDbVertex
100
AcDb2dVertex
 10
396.7960991915835
 20
-136.7964565124074
 30
0.0
  0
SEQEND
  5
BC
330
B6
100
AcDbEntity
  8
Capa 1
 62
   250
420
  1842203
370
    35
  0
POLYLINE
  5
BD
330
1F
100
AcDbEntity
  8
Capa 1
 62
   250
420
  1842203
370
    35
100
AcDb2dPolyline
 66
     1
 10
0.0
 20
0.0
 30
0.0
  0
VERTEX
  5
BE
330
BD
100
AcDbEntity
  8
Capa 1
 62
   250
420
  1842203
370
    35
100
AcDbVertex
100
AcDb2dVertex
 10
291.7961168502101
 20
-142.6035449436221
 30
0.0
  0
VERTEX
  5
BF
330
BD
100
AcDbEntity
  8
Capa 1
 62
   250
420
  1842203
370
    35
100
AcDbVertex
100
AcDb2dVertex
 10
291.7961168502101
 20
-196.6035434042432
 30
0.0
  0
VERTEX
  5
C0
330
BD
100
AcDbEntity
  8
Capa 1
 62
   250
420
  1842203
370
    35
100
AcDbVertex
100
AcDb2dVertex
 10
396.7960815592032
 20
-196.6035434042432
 30
0.0
  0
VERTEX
  5
C1
330
BD
100
AcDbEntity
  8
Capa 1
 62
   250
420
  1842203
370
    35
100
AcDbVertex
100
AcDb2dVertex
 10
396.7960815592032
 20
-142.6035449436221
 30
0.0
  0
VERTEX
  5
C2
330
BD
100
AcDbEntity
  8
Capa 1
 62
   250
420
  1842203
370
    35
100
AcDbVertex
100
AcDb2dVertex
 10
291.7961168502101
 20
-142.6035449436221
 30
0.0
  0
SEQEND
  5
C3
330
BD
100
AcDbEntity
  8
Capa 1
 62
   250
420
  1842203
370
    35
  0
POLYLINE
  5
C4
330
1F
100
AcDbEntity
  8
Capa 1
 62
   250
420
  1842203
370
    35
100
AcDb2dPolyline
 66
     1
 10
0.0
 20
0.0
 30
0.0
  0
VERTEX
  5
C5
330
C4
100
AcDbEntity
  8
Capa 1
 62
   250
420
  1842203
370
    35
100
AcDbVertex
100
AcDb2dVertex
 10
394.7960991920814
 20
-194.6035334017594
 30
0.0
  0
VERTEX
  5
C6
330
C4
100
AcDbEntity
  8
Capa 1
 62
   250
420
  1842203
370
    35
100
AcDbVertex
100
AcDb2dVertex
 10
293.7960992173325
 20
-194.6035334017594
 30
0.0
  0
VERTEX
  5
C7
330
C4
100
AcDbEntity
  8
Capa 1
 62
   250
420
  1842203
370
    35
100
AcDbVertex
100
AcDb2dVertex
 10
293.7960992173325
 20
-144.6035334142592
 30
0.0
  0
VERTEX
  5
C8
330
C4
100
AcDbEntity
  8
Capa 1
 62
   250
420
  1842203
370
    35
100
AcDbVertex
100
AcDb2dVertex
 10
394.7960991920814
 20
-144.6035334142592
 30
0.0
  0
VERTEX
  5
C9
330
C4
100
AcDbEntity
  8
Capa 1
 62
   250
420
  1842203
370
    35
100
AcDbVertex
100
AcDb2dVertex
 10
394.7960991920814
 20
-194.6035334017594
 30
0.0
  0
SEQEND
  5
CA
330
C4
100
AcDbEntity
  8
Capa 1
 62
   250
420
  1842203
370
    35
  0
POLYLINE
  5
CB
330
1F
100
AcDbEntity
  8
Capa 1
 62
   250
420
  1842203
370
    35
100
AcDb2dPolyline
 66
     1
 10
0.0
 20
0.0
 30
0.0
  0
VERTEX
  5
CC
330
CB
100
AcDbEntity
  8
Capa 1
 62
   250
420
  1842203
370
    35
100
AcDbVertex
100
AcDb2dVertex
 10
155.4499999611379
 20
-161.6999999595764
 30
0.0
  0
VERTEX
  5
CD
330
CB
100
AcDbEntity
  8
Capa 1
 62
   250
420
  1842203
370
    35
100
AcDbVertex
100
AcDb2dVertex
 10
60.44999998488707
 20
-161.6999999595764
 30
0.0
  0
VERTEX
  5
CE
330
CB
100
AcDbEntity
  8
Capa 1
 62
   250
420
  1842203
370
    35
100
AcDbVertex
100
AcDb2dVertex
 10
60.44999998488707
 20
-117.6999999705739
 30
0.0
  0
VERTEX
  5
CF
330
CB
100
AcDbEntity
  8
Capa 1
 62
   250
420
  1842203
370
    35
100
AcDbVertex
100
AcDb2dVertex
 10
155.4499999611379
 20
-117.6999999705739
 30
0.0
  0
VERTEX
  5
D0
330
CB
100
AcDbEntity
  8
Capa 1
 62
   250
420
  1842203
370
    35
100
AcDbVertex
100
AcDb2dVertex
 10
155.4499999611379
 20
-161.6999999595764
 30
0.0
  0
SEQEND
  5
D1
330
CB
100
AcDbEntity
  8
Capa 1
 62
   250
420
  1842203
370
    35
  0
POLYLINE
  5
D2
330
1F
100
AcDbEntity
  8
Capa 1
 62
    22
420
 14951456
370
    35
100
AcDb2dPolyline
 66
     1
 10
0.0
 20
0.0
 30
0.0
  0
VERTEX
  5
D3
330
D2
100
AcDbEntity
  8
Capa 1
 62
    22
420
 14951456
370
    35
100
AcDbVertex
100
AcDb2dVertex
 10
63.44999998413575
 20
-158.6999999603239
 30
0.0
  0
VERTEX
  5
D4
330
D2
100
AcDbEntity
  8
Capa 1
 62
    22
420
 14951456
370
    35
100
AcDbVertex
100
AcDb2dVertex
 10
152.4499999618893
 20
-158.6999999603239
 30
0.0
  0
SEQEND
  5
D5
330
D2
100
AcDbEntity
  8
Capa 1
 62
    22
420
 14951456
370
    35
  0
POLYLINE
  5
D6
330
1F
100
AcDbEntity
  8
Capa 1
 62
    22
420
 14951456
370
    35
100
AcDb2dPolyline
 66
     1
 10
0.0
 20
0.0
 30
0.0
  0
VERTEX
  5
D7
330
D6
100
AcDbEntity
  8
Capa 1
 62
    22
420
 14951456
370
    35
100
AcDbVertex
100
AcDb2dVertex
 10
63.44999998413575
 20
-155.7769230379795
 30
0.0
  0
VERTEX
  5
D8
330
D6
100
AcDbEntity
  8
Capa 1
 62
    22
420
 14951456
370
    35
100
AcDbVertex
100
AcDb2dVertex
 10
152.4499999618893
 20
-155.7769230379795
 30
0.0
  0
SEQEND
  5
D9
330
D6
100
AcDbEntity
  8
Capa 1
 62
    22
420
 14951456
370
    35
  0
POLYLINE
  5
DA
330
1F
100
AcDbEntity
  8
Capa 1
 62
    22
420
 14951456
370
    35
100
AcDb2dPolyline
 66
     1
 10
0.0
 20
0.0
 30
0.0
  0
VERTEX
  5
DB
330
DA
100
AcDbEntity
  8
Capa 1
 62
    22
420
 14951456
370
    35
100
AcDbVertex
100
AcDb2dVertex
 10
63.44999998413575
 20
-152.8538461156312
 30
0.0
  0
VERTEX
  5
DC
330
DA
100
AcDbEntity
  8
Capa 1
 62
    22
420
 14951456
370
    35
100
AcDbVertex
100
AcDb2dVertex
 10
152.4499999618893
 20
-152.8538461156312
 30
0.0
  0
SEQEND
  5
DD
330
DA
100
AcDbEntity
  8
Capa 1
 62
    22
420
 14951456
370
    35
  0
POLYLINE
  5
DE
330
1F
100
AcDbEntity
  8
Capa 1
 62
    22
420
 14951456
370
    35
100
AcDb2dPolyline
 66
     1
 10
0.0
 20
0.0
 30
0.0
  0
VERTEX
  5
DF
330
DE
100
AcDbEntity
  8
Capa 1
 62
    22
420
 14951456
370
    35
100
AcDbVertex
100
AcDb2dVertex
 10
63.44999998413575
 20
-149.9307691932881
 30
0.0
  0
VERTEX
  5
E0
330
DE
100
AcDbEntity
  8
Capa 1
 62
    22
420
 14951456
370
    35
100
AcDbVertex
100
AcDb2dVertex
 10
152.4499999618893
 20
-149.9307691932881
 30
0.0
  0
SEQEND
  5
E1
330
DE
100
AcDbEntity
  8
Capa 1
 62
    22
420
 14951456
370
    35
  0
POLYLINE
  5
E2
330
1F
100
AcDbEntity
  8
Capa 1
 62
    22
420
 14951456
370
    35
100
AcDb2dPolyline
 66
     1
 10
0.0
 20
0.0
 30
0.0
  0
VERTEX
  5
E3
330
E2
100
AcDbEntity
  8
Capa 1
 62
    22
420
 14951456
370
    35
100
AcDbVertex
100
AcDb2dVertex
 10
63.44999998413575
 20
-147.0076922709399
 30
0.0
  0
VERTEX
  5
E4
330
E2
100
AcDbEntity
  8
Capa 1
 62
    22
420
 14951456
370
    35
100
AcDbVertex
100
AcDb2dVertex
 10
152.4499999618893
 20
-147.0076922709399
 30
0.0
  0
SEQEND
  5
E5
330
E2
100
AcDbEntity
  8
Capa 1
 62
    22
420
 14951456
370
    35
  0
POLYLINE
  5
E6
330
1F
100
AcDbEntity
  8
Capa 1
 62
    22
420
 14951456
370
    35
100
AcDb2dPolyline
 66
     1
 10
0.0
 20
0.0
 30
0.0
  0
VERTEX
  5
E7
330
E6
100
AcDbEntity
  8
Capa 1
 62
    22
420
 14951456
370
    35
100
AcDbVertex
100
AcDb2dVertex
 10
63.44999998413575
 20
-144.0846153485916
 30
0.0
  0
VERTEX
  5
E8
330
E6
100
AcDbEntity
  8
Capa 1
 62
    22
420
 14951456
370
    35
100
AcDbVertex
100
AcDb2dVertex
 10
152.4499999618893
 20
-144.0846153485916
 30
0.0
  0
SEQEND
  5
E9
330
E6
100
AcDbEntity
  8
Capa 1
 62
    22
420
 14951456
370
    35
  0
POLYLINE
  5
EA
330
1F
100
AcDbEntity
  8
Capa 1
 62
    22
420
 14951456
370
    35
100
AcDb2dPolyline
 66
     1
 10
0.0
 20
0.0
 30
0.0
  0
VERTEX
  5
EB
330
EA
100
AcDbEntity
  8
Capa 1
 62
    22
420
 14951456
370
    35
100
AcDbVertex
100
AcDb2dVertex
 10
63.44999998413575
 20
-141.1615384262472
 30
0.0
  0
VERTEX
  5
EC
330
EA
100
AcDbEntity
  8
Capa 1
 62
    22
420
 14951456
370
    35
100
AcDbVertex
100
AcDb2dVertex
 10
152.4499999618893
 20
-141.1615384262472
 30
0.0
  0
SEQEND
  5
ED
330
EA
100
AcDbEntity
  8
Capa 1
 62
    22
420
 14951456
370
    35
  0
POLYLINE
  5
EE
330
1F
100
AcDbEntity
  8
Capa 1
 62
    22
420
 14951456
370
    35
100
AcDb2dPolyline
 66
     1
 10
0.0
 20
0.0
 30
0.0
  0
VERTEX
  5
EF
330
EE
100
AcDbEntity
  8
Capa 1
 62
    22
420
 14951456
370
    35
100
AcDbVertex
100
AcDb2dVertex
 10
63.44999998413575
 20
-138.2384615039012
 30
0.0
  0
VERTEX
  5
F0
330
EE
100
AcDbEntity
  8
Capa 1
 62
    22
420
 14951456
370
    35
100
AcDbVertex
100
AcDb2dVertex
 10
152.4499999618893
 20
-138.2384615039012
 30
0.0
  0
SEQEND
  5
F1
330
EE
100
AcDbEntity
  8
Capa 1
 62
    22
420
 14951456
370
    35
  0
POLYLINE
  5
F2
330
1F
100
AcDbEntity
  8
Capa 1
 62
    22
420
 14951456
370
    35
100
AcDb2dPolyline
 66
     1
 10
0.0
 20
0.0
 30
0.0
  0
VERTEX
  5
F3
330
F2
100
AcDbEntity
  8
Capa 1
 62
    22
420
 14951456
370
    35
100
AcDbVertex
100
AcDb2dVertex
 10
63.44999998413575
 20
-135.3153845815549
 30
0.0
  0
VERTEX
  5
F4
330
F2
100
AcDbEntity
  8
Capa 1
 62
    22
420
 14951456
370
    35
100
AcDbVertex
100
AcDb2dVertex
 10
152.4499999618893
 20
-135.3153845815549
 30
0.0
  0
SEQEND
  5
F5
330
F2
100
AcDbEntity
  8
Capa 1
 62
    22
420
 14951456
370
    35
  0
POLYLINE
  5
F6
330
1F
100
AcDbEntity
  8
Capa 1
 62
    22
420
 14951456
370
    35
100
AcDb2dPolyline
 66
     1
 10
0.0
 20
0.0
 30
0.0
  0
VERTEX
  5
F7
330
F6
100
AcDbEntity
  8
Capa 1
 62
    22
420
 14951456
370
    35
100
AcDbVertex
100
AcDb2dVertex
 10
63.44999998413575
 20
-132.3923076592085
 30
0.0
  0
VERTEX
  5
F8
330
F6
100
AcDbEntity
  8
Capa 1
 62
    22
420
 14951456
370
    35
100
AcDbVertex
100
AcDb2dVertex
 10
152.4499999618893
 20
-132.3923076592085
 30
0.0
  0
SEQEND
  5
F9
330
F6
100
AcDbEntity
  8
Capa 1
 62
    22
420
 14951456
370
    35
  0
POLYLINE
  5
FA
330
1F
100
AcDbEntity
  8
Capa 1
 62
    22
420
 14951456
370
    35
100
AcDb2dPolyline
 66
     1
 10
0.0
 20
0.0
 30
0.0
  0
VERTEX
  5
FB
330
FA
100
AcDbEntity
  8
Capa 1
 62
    22
420
 14951456
370
    35
100
AcDbVertex
100
AcDb2dVertex
 10
63.44999998413575
 20
-129.4692307368622
 30
0.0
  0
VERTEX
  5
FC
330
FA
100
AcDbEntity
  8
Capa 1
 62
    22
420
 14951456
370
    35
100
AcDbVertex
100
AcDb2dVertex
 10
152.4499999618893
 20
-129.4692307368622
 30
0.0
  0
SEQEND
  5
FD
330
FA
100
AcDbEntity
  8
Capa 1
 62
    22
420
 14951456
370
    35
  0
POLYLINE
  5
FE
330
1F
100
AcDbEntity
  8
Capa 1
 62
    22
420
 14951456
370
    35
100
AcDb2dPolyline
 66
     1
 10
0.0
 20
0.0
 30
0.0
  0
VERTEX
  5
FF
330
FE
100
AcDbEntity
  8
Capa 1
 62
    22
420
 14951456
370
    35
100
AcDbVertex
100
AcDb2dVertex
 10
63.44999998413575
 20
-126.5461538145165
 30
0.0
  0
VERTEX
  5
100
330
FE
100
AcDbEntity
  8
Capa 1
 62
    22
420
 14951456
370
    35
100
AcDbVertex
100
AcDb2dVertex
 10
152.4499999618893
 20
-126.5461538145165
 30
0.0
  0
SEQEND
  5
101
330
FE
100
AcDbEntity
  8
Capa 1
 62
    22
420
 14951456
370
    35
  0
POLYLINE
  5
102
330
1F
100
AcDbEntity
  8
Capa 1
 62
    22
420
 14951456
370
    35
100
AcDb2dPolyline
 66
     1
 10
0.0
 20
0.0
 30
0.0
  0
VERTEX
  5
103
330
102
100
AcDbEntity
  8
Capa 1
 62
    22
420
 14951456
370
    35
100
AcDbVertex
100
AcDb2dVertex
 10
63.44999998413575
 20
-123.6230768921702
 30
0.0
  0
VERTEX
  5
104
330
102
100
AcDbEntity
  8
Capa 1
 62
    22
420
 14951456
370
    35
100
AcDbVertex
100
AcDb2dVertex
 10
152.4499999618893
 20
-123.6230768921702
 30
0.0
  0
SEQEND
  5
105
330
102
100
AcDbEntity
  8
Capa 1
 62
    22
420
 14951456
370
    35
  0
POLYLINE
  5
106
330
1F
100
AcDbEntity
  8
Capa 1
 62
    22
420
 14951456
370
    35
100
AcDb2dPolyline
 66
     1
 10
0.0
 20
0.0
 30
0.0
  0
VERTEX
  5
107
330
106
100
AcDbEntity
  8
Capa 1
 62
    22
420
 14951456
370
    35
100
AcDbVertex
100
AcDb2dVertex
 10
152.4499999618893
 20
-120.6999999698239
 30
0.0
  0
VERTEX
  5
108
330
106
100
AcDbEntity
  8
Capa 1
 62
    22
420
 14951456
370
    35
100
AcDbVertex
100
AcDb2dVertex
 10
63.44999998413575
 20
-120.6999999698239
 30
0.0
  0
SEQEND
  5
109
330
106
100
AcDbEntity
  8
Capa 1
 62
    22
420
 14951456
370
    35
  0
POLYLINE
  5
10A
330
1F
100
AcDbEntity
  8
Capa 1
 62
    22
420
 14951456
370
    35
100
AcDb2dPolyline
 66
     1
 10
0.0
 20
0.0
 30
0.0
  0
VERTEX
  5
10B
330
10A
100
AcDbEntity
  8
Capa 1
 62
    22
420
 14951456
370
    35
100
AcDbVertex
100
AcDb2dVertex
 10
63.37124361799349
 20
-120.6999999698239
 30
0.0
  0
VERTEX
  5
10C
330
10A
100
AcDbEntity
  8
Capa 1
 62
    22
420
 14951456
370
    35
100
AcDbVertex
100
AcDb2dVertex
 10
63.37124361799349
 20
-158.6999999603239
 30
0.0
  0
SEQEND
  5
10D
330
10A
100
AcDbEntity
  8
Capa 1
 62
    22
420
 14951456
370
    35
  0
POLYLINE
  5
10E
330
1F
100
AcDbEntity
  8
Capa 1
 62
    22
420
 14951456
370
    35
100
AcDb2dPolyline
 66
     1
 10
0.0
 20
0.0
 30
0.0
  0
VERTEX
  5
10F
330
10E
100
AcDbEntity
  8
Capa 1
 62
    22
420
 14951456
370
    35
100
AcDbVertex
100
AcDb2dVertex
 10
66.44292487123087
 20
-120.6999999698239
 30
0.0
  0
VERTEX
  5
110
330
10E
100
AcDbEntity
  8
Capa 1
 62
    22
420
 14951456
370
    35
100
AcDbVertex
100
AcDb2dVertex
 10
66.44292487123087
 20
-158.6999999603239
 30
0.0
  0
SEQEND
  5
111
330
10E
100
AcDbEntity
  8
Capa 1
 62
    22
420
 14951456
370
    35
  0
POLYLINE
  5
112
330
1F
100
AcDbEntity
  8
Capa 1
 62
    22
420
 14951456
370
    35
100
AcDb2dPolyline
 66
     1
 10
0.0
 20
0.0
 30
0.0
  0
VERTEX
  5
113
330
112
100
AcDbEntity
  8
Capa 1
 62
    22
420
 14951456
370
    35
100
AcDbVertex
100
AcDb2dVertex
 10
69.51460612446827
 20
-120.6999999698239
 30
0.0
  0
VERTEX
  5
114
330
112
100
AcDbEntity
  8
Capa 1
 62
    22
420
 14951456
370
    35
100
AcDbVertex
100
AcDb2dVertex
 10
69.51460612446827
 20
-158.6999999603239
 30
0.0
  0
SEQEND
  5
115
330
112
100
AcDbEntity
  8
Capa 1
 62
    22
420
 14951456
370
    35
  0
POLYLINE
  5
116
330
1F
100
AcDbEntity
  8
Capa 1
 62
    22
420
 14951456
370
    35
100
AcDb2dPolyline
 66
     1
 10
0.0
 20
0.0
 30
0.0
  0
VERTEX
  5
117
330
116
100
AcDbEntity
  8
Capa 1
 62
    22
420
 14951456
370
    35
100
AcDbVertex
100
AcDb2dVertex
 10
72.5862873777095
 20
-120.6999999698239
 30
0.0
  0
VERTEX
  5
118
330
116
100
AcDbEntity
  8
Capa 1
 62
    22
420
 14951456
370
    35
100
AcDbVertex
100
AcDb2dVertex
 10
72.5862873777095
 20
-158.6999999603239
 30
0.0
  0
SEQEND
  5
119
330
116
100
AcDbEntity
  8
Capa 1
 62
    22
420
 14951456
370
    35
  0
POLYLINE
  5
11A
330
1F
100
AcDbEntity
  8
Capa 1
 62
    22
420
 14951456
370
    35
100
AcDb2dPolyline
 66
     1
 10
0.0
 20
0.0
 30
0.0
  0
VERTEX
  5
11B
330
11A
100
AcDbEntity
  8
Capa 1
 62
    22
420
 14951456
370
    35
100
AcDbVertex
100
AcDb2dVertex
 10
75.65796863094305
 20
-120.6999999698239
 30
0.0
  0
VERTEX
  5
11C
330
11A
100
AcDbEntity
  8
Capa 1
 62
    22
420
 14951456
370
    35
100
AcDbVertex
100
AcDb2dVertex
 10
75.65796863094305
 20
-158.6999999603239
 30
0.0
  0
SEQEND
  5
11D
330
11A
100
AcDbEntity
  8
Capa 1
 62
    22
420
 14951456
370
    35
  0
POLYLINE
  5
11E
330
1F
100
AcDbEntity
  8
Capa 1
 62
    22
420
 14951456
370
    35
100
AcDb2dPolyline
 66
     1
 10
0.0
 20
0.0
 30
0.0
  0
VERTEX
  5
11F
330
11E
100
AcDbEntity
  8
Capa 1
 62
    22
420
 14951456
370
    35
100
AcDbVertex
100
AcDb2dVertex
 10
78.72964988418428
 20
-120.6999999698239
 30
0.0
  0
VERTEX
  5
120
330
11E
100
AcDbEntity
  8
Capa 1
 62
    22
420
 14951456
370
    35
100
AcDbVertex
100
AcDb2dVertex
 10
78.72964988418428
 20
-158.6999999603239
 30
0.0
  0
SEQEND
  5
121
330
11E
100
AcDbEntity
  8
Capa 1
 62
    22
420
 14951456
370
    35
  0
POLYLINE
  5
122
330
1F
100
AcDbEntity
  8
Capa 1
 62
    22
420
 14951456
370
    35
100
AcDb2dPolyline
 66
     1
 10
0.0
 20
0.0
 30
0.0
  0
VERTEX
  5
123
330
122
100
AcDbEntity
  8
Capa 1
 62
    22
420
 14951456
370
    35
100
AcDbVertex
100
AcDb2dVertex
 10
81.80133113742167
 20
-120.6999999698239
 30
0.0
  0
VERTEX
  5
124
330
122
100
AcDbEntity
  8
Capa 1
 62
    22
420
 14951456
370
    35
100
AcDbVertex
100
AcDb2dVertex
 10
81.80133113742167
 20
-158.6999999603239
 30
0.0
  0
SEQEND
  5
125
330
122
100
AcDbEntity
  8
Capa 1
 62
    22
420
 14951456
370
    35
  0
POLYLINE
  5
126
330
1F
100
AcDbEntity
  8
Capa 1
 62
    22
420
 14951456
370
    35
100
AcDb2dPolyline
 66
     1
 10
0.0
 20
0.0
 30
0.0
  0
VERTEX
  5
127
330
126
100
AcDbEntity
  8
Capa 1
 62
    22
420
 14951456
370
    35
100
AcDbVertex
100
AcDb2dVertex
 10
84.87301239065906
 20
-120.6999999698239
 30
0.0
  0
VERTEX
  5
128
330
126
100
AcDbEntity
  8
Capa 1
 62
    22
420
 14951456
370
    35
100
AcDbVertex
100
AcDb2dVertex
 10
84.87301239065906
 20
-158.6999999603239
 30
0.0
  0
SEQEND
  5
129
330
126
100
AcDbEntity
  8
Capa 1
 62
    22
420
 14951456
370
    35
  0
POLYLINE
  5
12A
330
1F
100
AcDbEntity
  8
Capa 1
 62
    22
420
 14951456
370
    35
100
AcDb2dPolyline
 66
     1
 10
0.0
 20
0.0
 30
0.0
  0
VERTEX
  5
12B
330
12A
100
AcDbEntity
  8
Capa 1
 62
    22
420
 14951456
370
    35
100
AcDbVertex
100
AcDb2dVertex
 10
87.94469364389644
 20
-120.6999999698239
 30
0.0
  0
VERTEX
  5
12C
330
12A
100
AcDbEntity
  8
Capa 1
 62
    22
420
 14951456
370
    35
100
AcDbVertex
100
AcDb2dVertex
 10
87.94469364389644
 20
-158.6999999603239
 30
0.0
  0
SEQEND
  5
12D
330
12A
100
AcDbEntity
  8
Capa 1
 62
    22
420
 14951456
370
    35
  0
POLYLINE
  5
12E
330
1F
100
AcDbEntity
  8
Capa 1
 62
    22
420
 14951456
370
    35
100
AcDb2dPolyline
 66
     1
 10
0.0
 20
0.0
 30
0.0
  0
VERTEX
  5
12F
330
12E
100
AcDbEntity
  8
Capa 1
 62
    22
420
 14951456
370
    35
100
AcDbVertex
100
AcDb2dVertex
 10
91.01637489713383
 20
-120.6999999698239
 30
0.0
  0
VERTEX
  5
130
330
12E
100
AcDbEntity
  8
Capa 1
 62
    22
420
 14951456
370
    35
100
AcDbVertex
100
AcDb2dVertex
 10
91.01637489713383
 20
-158.6999999603239
 30
0.0
  0
SEQEND
  5
131
330
12E
100
AcDbEntity
  8
Capa 1
 62
    22
420
 14951456
370
    35
  0
POLYLINE
  5
132
330
1F
100
AcDbEntity
  8
Capa 1
 62
    22
420
 14951456
370
    35
100
AcDb2dPolyline
 66
     1
 10
0.0
 20
0.0
 30
0.0
  0
VERTEX
  5
133
330
132
100
AcDbEntity
  8
Capa 1
 62
    22
420
 14951456
370
    35
100
AcDbVertex
100
AcDb2dVertex
 10
94.0880561503725
 20
-120.6999999698239
 30
0.0
  0
VERTEX
  5
134
330
132
100
AcDbEntity
  8
Capa 1
 62
    22
420
 14951456
370
    35
100
AcDbVertex
100
AcDb2dVertex
 10
94.0880561503725
 20
-158.6999999603239
 30
0.0
  0
SEQEND
  5
135
330
132
100
AcDbEntity
  8
Capa 1
 62
    22
420
 14951456
370
    35
  0
POLYLINE
  5
136
330
1F
100
AcDbEntity
  8
Capa 1
 62
    22
420
 14951456
370
    35
100
AcDb2dPolyline
 66
     1
 10
0.0
 20
0.0
 30
0.0
  0
VERTEX
  5
137
330
136
100
AcDbEntity
  8
Capa 1
 62
    22
420
 14951456
370
    35
100
AcDbVertex
100
AcDb2dVertex
 10
97.15973740360988
 20
-120.6999999698239
 30
0.0
  0
VERTEX
  5
138
330
136
100
AcDbEntity
  8
Capa 1
 62
    22
420
 14951456
370
    35
100
AcDbVertex
100
AcDb2dVertex
 10
97.15973740360988
 20
-158.6999999603239
 30
0.0
  0
SEQEND
  5
139
330
136
100
AcDbEntity
  8
Capa 1
 62
    22
420
 14951456
370
    35
  0
POLYLINE
  5
13A
330
1F
100
AcDbEntity
  8
Capa 1
 62
    22
420
 14951456
370
    35
100
AcDb2dPolyline
 66
     1
 10
0.0
 20
0.0
 30
0.0
  0
VERTEX
  5
13B
330
13A
100
AcDbEntity
  8
Capa 1
 62
    22
420
 14951456
370
    35
100
AcDbVertex
100
AcDb2dVertex
 10
100.2314186568473
 20
-120.6999999698239
 30
0.0
  0
VERTEX
  5
13C
330
13A
100
AcDbEntity
  8
Capa 1
 62
    22
420
 14951456
370
    35
100
AcDbVertex
100
AcDb2dVertex
 10
100.2314186568473
 20
-158.6999999603239
 30
0.0
  0
SEQEND
  5
13D
330
13A
100
AcDbEntity
  8
Capa 1
 62
    22
420
 14951456
370
    35
  0
POLYLINE
  5
13E
330
1F
100
AcDbEntity
  8
Capa 1
 62
    22
420
 14951456
370
    35
100
AcDb2dPolyline
 66
     1
 10
0.0
 20
0.0
 30
0.0
  0
VERTEX
  5
13F
330
13E
100
AcDbEntity
  8
Capa 1
 62
    22
420
 14951456
370
    35
100
AcDbVertex
100
AcDb2dVertex
 10
103.3030999100847
 20
-120.6999999698239
 30
0.0
  0
VERTEX
  5
140
330
13E
100
AcDbEntity
  8
Capa 1
 62
    22
420
 14951456
370
    35
100
AcDbVertex
100
AcDb2dVertex
 10
103.3030999100847
 20
-158.6999999603239
 30
0.0
  0
SEQEND
  5
141
330
13E
100
AcDbEntity
  8
Capa 1
 62
    22
420
 14951456
370
    35
  0
POLYLINE
  5
142
330
1F
100
AcDbEntity
  8
Capa 1
 62
    22
420
 14951456
370
    35
100
AcDb2dPolyline
 66
     1
 10
0.0
 20
0.0
 30
0.0
  0
VERTEX
  5
143
330
142
100
AcDbEntity
  8
Capa 1
 62
    22
420
 14951456
370
    35
100
AcDbVertex
100
AcDb2dVertex
 10
106.374781163322
 20
-120.6999999698239
 30
0.0
  0
VERTEX
  5
144
330
142
100
AcDbEntity
  8
Capa 1
 62
    22
420
 14951456
370
    35
100
AcDbVertex
100
AcDb2dVertex
 10
106.374781163322
 20
-158.6999999603239
 30
0.0
  0
SEQEND
  5
145
330
142
100
AcDbEntity
  8
Capa 1
 62
    22
420
 14951456
370
    35
  0
POLYLINE
  5
146
330
1F
100
AcDbEntity
  8
Capa 1
 62
    22
420
 14951456
370
    35
100
AcDb2dPolyline
 66
     1
 10
0.0
 20
0.0
 30
0.0
  0
VERTEX
  5
147
330
146
100
AcDbEntity
  8
Capa 1
 62
    22
420
 14951456
370
    35
100
AcDbVertex
100
AcDb2dVertex
 10
109.4464624165594
 20
-120.6999999698239
 30
0.0
  0
VERTEX
  5
148
330
146
100
AcDbEntity
  8
Capa 1
 62
    22
420
 14951456
370
    35
100
AcDbVertex
100
AcDb2dVertex
 10
109.4464624165594
 20
-158.6999999603239
 30
0.0
  0
SEQEND
  5
149
330
146
100
AcDbEntity
  8
Capa 1
 62
    22
420
 14951456
370
    35
  0
POLYLINE
  5
14A
330
1F
100
AcDbEntity
  8
Capa 1
 62
    22
420
 14951456
370
    35
100
AcDb2dPolyline
 66
     1
 10
0.0
 20
0.0
 30
0.0
  0
VERTEX
  5
14B
330
14A
100
AcDbEntity
  8
Capa 1
 62
    22
420
 14951456
370
    35
100
AcDbVertex
100
AcDb2dVertex
 10
112.5181436697968
 20
-120.6999999698239
 30
0.0
  0
VERTEX
  5
14C
330
14A
100
AcDbEntity
  8
Capa 1
 62
    22
420
 14951456
370
    35
100
AcDbVertex
100
AcDb2dVertex
 10
112.5181436697968
 20
-158.6999999603239
 30
0.0
  0
SEQEND
  5
14D
330
14A
100
AcDbEntity
  8
Capa 1
 62
    22
420
 14951456
370
    35
  0
POLYLINE
  5
14E
330
1F
100
AcDbEntity
  8
Capa 1
 62
    22
420
 14951456
370
    35
100
AcDb2dPolyline
 66
     1
 10
0.0
 20
0.0
 30
0.0
  0
VERTEX
  5
14F
330
14E
100
AcDbEntity
  8
Capa 1
 62
    22
420
 14951456
370
    35
100
AcDbVertex
100
AcDb2dVertex
 10
115.5898249230381
 20
-120.6999999698239
 30
0.0
  0
VERTEX
  5
150
330
14E
100
AcDbEntity
  8
Capa 1
 62
    22
420
 14951456
370
    35
100
AcDbVertex
100
AcDb2dVertex
 10
115.5898249230381
 20
-158.6999999603239
 30
0.0
  0
SEQEND
  5
151
330
14E
100
AcDbEntity
  8
Capa 1
 62
    22
420
 14951456
370
    35
  0
POLYLINE
  5
152
330
1F
100
AcDbEntity
  8
Capa 1
 62
    22
420
 14951456
370
    35
100
AcDb2dPolyline
 66
     1
 10
0.0
 20
0.0
 30
0.0
  0
VERTEX
  5
153
330
152
100
AcDbEntity
  8
Capa 1
 62
    22
420
 14951456
370
    35
100
AcDbVertex
100
AcDb2dVertex
 10
118.6615061762729
 20
-120.6999999698239
 30
0.0
  0
VERTEX
  5
154
330
152
100
AcDbEntity
  8
Capa 1
 62
    22
420
 14951456
370
    35
100
AcDbVertex
100
AcDb2dVertex
 10
118.6615061762729
 20
-158.6999999603239
 30
0.0
  0
SEQEND
  5
155
330
152
100
AcDbEntity
  8
Capa 1
 62
    22
420
 14951456
370
    35
  0
POLYLINE
  5
156
330
1F
100
AcDbEntity
  8
Capa 1
 62
    22
420
 14951456
370
    35
100
AcDb2dPolyline
 66
     1
 10
0.0
 20
0.0
 30
0.0
  0
VERTEX
  5
157
330
156
100
AcDbEntity
  8
Capa 1
 62
    22
420
 14951456
370
    35
100
AcDbVertex
100
AcDb2dVertex
 10
121.7331874295103
 20
-120.6999999698239
 30
0.0
  0
VERTEX
  5
158
330
156
100
AcDbEntity
  8
Capa 1
 62
    22
420
 14951456
370
    35
100
AcDbVertex
100
AcDb2dVertex
 10
121.7331874295103
 20
-158.6999999603239
 30
0.0
  0
SEQEND
  5
159
330
156
100
AcDbEntity
  8
Capa 1
 62
    22
420
 14951456
370
    35
  0
POLYLINE
  5
15A
330
1F
100
AcDbEntity
  8
Capa 1
 62
    22
420
 14951456
370
    35
100
AcDb2dPolyline
 66
     1
 10
0.0
 20
0.0
 30
0.0
  0
VERTEX
  5
15B
330
15A
100
AcDbEntity
  8
Capa 1
 62
    22
420
 14951456
370
    35
100
AcDbVertex
100
AcDb2dVertex
 10
124.8048686827515
 20
-120.6999999698239
 30
0.0
  0
VERTEX
  5
15C
330
15A
100
AcDbEntity
  8
Capa 1
 62
    22
420
 14951456
370
    35
100
AcDbVertex
100
AcDb2dVertex
 10
124.8048686827515
 20
-158.6999999603239
 30
0.0
  0
SEQEND
  5
15D
330
15A
100
AcDbEntity
  8
Capa 1
 62
    22
420
 14951456
370
    35
  0
POLYLINE
  5
15E
330
1F
100
AcDbEntity
  8
Capa 1
 62
    22
420
 14951456
370
    35
100
AcDb2dPolyline
 66
     1
 10
0.0
 20
0.0
 30
0.0
  0
VERTEX
  5
15F
330
15E
100
AcDbEntity
  8
Capa 1
 62
    22
420
 14951456
370
    35
100
AcDbVertex
100
AcDb2dVertex
 10
127.8765499359889
 20
-120.6999999698239
 30
0.0
  0
VERTEX
  5
160
330
15E
100
AcDbEntity
  8
Capa 1
 62
    22
420
 14951456
370
    35
100
AcDbVertex
100
AcDb2dVertex
 10
127.8765499359889
 20
-158.6999999603239
 30
0.0
  0
SEQEND
  5
161
330
15E
100
AcDbEntity
  8
Capa 1
 62
    22
420
 14951456
370
    35
  0
POLYLINE
  5
162
330
1F
100
AcDbEntity
  8
Capa 1
 62
    22
420
 14951456
370
    35
100
AcDb2dPolyline
 66
     1
 10
0.0
 20
0.0
 30
0.0
  0
VERTEX
  5
163
330
162
100
AcDbEntity
  8
Capa 1
 62
    22
420
 14951456
370
    35
100
AcDbVertex
100
AcDb2dVertex
 10
130.9482311892263
 20
-120.6999999698239
 30
0.0
  0
VERTEX
  5
164
330
162
100
AcDbEntity
  8
Capa 1
 62
    22
420
 14951456
370
    35
100
AcDbVertex
100
AcDb2dVertex
 10
130.9482311892263
 20
-158.6999999603239
 30
0.0
  0
SEQEND
  5
165
330
162
100
AcDbEntity
  8
Capa 1
 62
    22
420
 14951456
370
    35
  0
POLYLINE
  5
166
330
1F
100
AcDbEntity
  8
Capa 1
 62
    22
420
 14951456
370
    35
100
AcDb2dPolyline
 66
     1
 10
0.0
 20
0.0
 30
0.0
  0
VERTEX
  5
167
330
166
100
AcDbEntity
  8
Capa 1
 62
    22
420
 14951456
370
    35
100
AcDbVertex
100
AcDb2dVertex
 10
134.0199124424637
 20
-120.6999999698239
 30
0.0
  0
VERTEX
  5
168
330
166
100
AcDbEntity
  8
Capa 1
 62
    22
420
 14951456
370
    35
100
AcDbVertex
100
AcDb2dVertex
 10
134.0199124424637
 20
-158.6999999603239
 30
0.0
  0
SEQEND
  5
169
330
166
100
AcDbEntity
  8
Capa 1
 62
    22
420
 14951456
370
    35
  0
POLYLINE
  5
16A
330
1F
100
AcDbEntity
  8
Capa 1
 62
    22
420
 14951456
370
    35
100
AcDb2dPolyline
 66
     1
 10
0.0
 20
0.0
 30
0.0
  0
VERTEX
  5
16B
330
16A
100
AcDbEntity
  8
Capa 1
 62
    22
420
 14951456
370
    35
100
AcDbVertex
100
AcDb2dVertex
 10
137.0915936957011
 20
-120.6999999698239
 30
0.0
  0
VERTEX
  5
16C
330
16A
100
AcDbEntity
  8
Capa 1
 62
    22
420
 14951456
370
    35
100
AcDbVertex
100
AcDb2dVertex
 10
137.0915936957011
 20
-158.6999999603239
 30
0.0
  0
SEQEND
  5
16D
330
16A
100
AcDbEntity
  8
Capa 1
 62
    22
420
 14951456
370
    35
  0
POLYLINE
  5
16E
330
1F
100
AcDbEntity
  8
Capa 1
 62
    22
420
 14951456
370
    35
100
AcDb2dPolyline
 66
     1
 10
0.0
 20
0.0
 30
0.0
  0
VERTEX
  5
16F
330
16E
100
AcDbEntity
  8
Capa 1
 62
    22
420
 14951456
370
    35
100
AcDbVertex
100
AcDb2dVertex
 10
140.1632749489384
 20
-120.6999999698239
 30
0.0
  0
VERTEX
  5
170
330
16E
100
AcDbEntity
  8
Capa 1
 62
    22
420
 14951456
370
    35
100
AcDbVertex
100
AcDb2dVertex
 10
140.1632749489384
 20
-158.6999999603239
 30
0.0
  0
SEQEND
  5
171
330
16E
100
AcDbEntity
  8
Capa 1
 62
    22
420
 14951456
370
    35
  0
POLYLINE
  5
172
330
1F
100
AcDbEntity
  8
Capa 1
 62
    22
420
 14951456
370
    35
100
AcDb2dPolyline
 66
     1
 10
0.0
 20
0.0
 30
0.0
  0
VERTEX
  5
173
330
172
100
AcDbEntity
  8
Capa 1
 62
    22
420
 14951456
370
    35
100
AcDbVertex
100
AcDb2dVertex
 10
143.2349562021758
 20
-120.6999999698239
 30
0.0
  0
VERTEX
  5
174
330
172
100
AcDbEntity
  8
Capa 1
 62
    22
420
 14951456
370
    35
100
AcDbVertex
100
AcDb2dVertex
 10
143.2349562021758
 20
-158.6999999603239
 30
0.0
  0
SEQEND
  5
175
330
172
100
AcDbEntity
  8
Capa 1
 62
    22
420
 14951456
370
    35
  0
POLYLINE
  5
176
330
1F
100
AcDbEntity
  8
Capa 1
 62
    22
420
 14951456
370
    35
100
AcDb2dPolyline
 66
     1
 10
0.0
 20
0.0
 30
0.0
  0
VERTEX
  5
177
330
176
100
AcDbEntity
  8
Capa 1
 62
    22
420
 14951456
370
    35
100
AcDbVertex
100
AcDb2dVertex
 10
146.3066374554145
 20
-120.6999999698239
 30
0.0
  0
VERTEX
  5
178
330
176
100
AcDbEntity
  8
Capa 1
 62
    22
420
 14951456
370
    35
100
AcDbVertex
100
AcDb2dVertex
 10
146.3066374554145
 20
-158.6999999603239
 30
0.0
  0
SEQEND
  5
179
330
176
100
AcDbEntity
  8
Capa 1
 62
    22
420
 14951456
370
    35
  0
POLYLINE
  5
17A
330
1F
100
AcDbEntity
  8
Capa 1
 62
    22
420
 14951456
370
    35
100
AcDb2dPolyline
 66
     1
 10
0.0
 20
0.0
 30
0.0
  0
VERTEX
  5
17B
330
17A
100
AcDbEntity
  8
Capa 1
 62
    22
420
 14951456
370
    35
100
AcDbVertex
100
AcDb2dVertex
 10
149.3783187086519
 20
-120.6999999698239
 30
0.0
  0
VERTEX
  5
17C
330
17A
100
AcDbEntity
  8
Capa 1
 62
    22
420
 14951456
370
    35
100
AcDbVertex
100
AcDb2dVertex
 10
149.3783187086519
 20
-158.6999999603239
 30
0.0
  0
SEQEND
  5
17D
330
17A
100
AcDbEntity
  8
Capa 1
 62
    22
420
 14951456
370
    35
  0
POLYLINE
  5
17E
330
1F
100
AcDbEntity
  8
Capa 1
 62
    22
420
 14951456
370
    35
100
AcDb2dPolyline
 66
     1
 10
0.0
 20
0.0
 30
0.0
  0
VERTEX
  5
17F
330
17E
100
AcDbEntity
  8
Capa 1
 62
    22
420
 14951456
370
    35
100
AcDbVertex
100
AcDb2dVertex
 10
152.4499999618893
 20
-120.6999999698239
 30
0.0
  0
VERTEX
  5
180
330
17E
100
AcDbEntity
  8
Capa 1
 62
    22
420
 14951456
370
    35
100
AcDbVertex
100
AcDb2dVertex
 10
152.4499999618893
 20
-158.6999999603239
 30
0.0
  0
SEQEND
  5
181
330
17E
100
AcDbEntity
  8
Capa 1
 62
    22
420
 14951456
370
    35
  0
MTEXT
  5
182
330
1F
100
AcDbEntity
  8
Capa 1
 62
   250
420
  1842203
100
AcDbMText
 10
3.864327270813297
 20
-19.53215994876415
 30
0.0
 40
13.2289744270313
 41
0.0
 46
0.0
 71
     7
 72
     1
  1
\fMyriad Pro|b0|i0|c0|p34;\W1;Foam Sheets
 73
     1
 44
1.0
  0
MTEXT
  5
183
330
1F
100
AcDbEntity
  8
Capa 1
 62
   250
420
  1842203
100
AcDbMText
 10
3.864327270813297
 20
-33.92542437658945
 30
0.0
 40
8.49206666454365
 41
0.0
 46
0.0
 71
     7
 72
     1
  1
\fMyriad Pro|b0|i0|c0|p34;\W1;3mm
 73
     1
 44
1.0
  0
MTEXT
  5
184
330
1F
100
AcDbEntity
  8
Capa 1
 62
   250
420
  1842203
100
AcDbMText
 10
13.5919870289625
 20
-45.2381833334255
 30
0.0
 40
5.49486666529295
 41
0.0
 46
0.0
 71
     7
 72
     1
  1
\fMyriad Pro|b0|i0|c0|p34;\W1;Cut
 73
     1
 44
1.0
  0
MTEXT
  5
185
330
1F
100
AcDbEntity
  8
Capa 1
 62
   250
420
  1842203
100
AcDbMText
 10
13.5919870289625
 20
-54.55148221347564
 30
0.0
 40
5.49486666529295
 41
0.0
 46
0.0
 71
     7
 72
     1
  1
\fMyriad Pro|b0|i0|c0|p34;\W1;Engraving
 73
     1
 44
1.0
  0
POLYLINE
  5
186
330
1F
100
AcDbEntity
  8
Capa 1
370
     0
100
AcDb2dPolyline
 66
     1
 10
0.0
 20
0.0
 30
0.0
  0
VERTEX
  5
187
330
186
100
AcDbEntity
  8
Capa 1
370
     0
100
AcDbVertex
100
AcDb2dVertex
 10
11.43028471573029
 20
-45.23812055606686
 30
0.0
  0
VERTEX
  5
188
330
186
100
AcDbEntity
  8
Capa 1
370
     0
100
AcDbVertex
100
AcDb2dVertex
 10
3.864327270813297
 20
-45.23812055606686
 30
0.0
  0
VERTEX
  5
189
330
186
100
AcDbEntity
  8
Capa 1
370
     0
100
AcDbVertex
100
AcDb2dVertex
 10
3.864327270813297
 20
-37.67216311114987
 30
0.0
  0
VERTEX
  5
18A
330
186
100
AcDbEntity
  8
Capa 1
370
     0
100
AcDbVertex
100
AcDb2dVertex
 10
11.43028471573029
 20
-37.67216311114987
 30
0.0
  0
VERTEX
  5
18B
330
186
100
AcDbEntity
  8
Capa 1
370
     0
100
AcDbVertex
100
AcDb2dVertex
 10
11.43028471573029
 20
-45.23812055606686
 30
0.0
  0
SEQEND
  5
18D
330
186
100
AcDbEntity
  8
Capa 1
370
     0
  0
HATCH
  5
18C
330
1F
100
AcDbEntity
  8
Capa 1
 62
   250
420
  1842203
100
AcDbHatch
 10
0.0
 20
0.0
 30
0.0
210
0.0
220
0.0
230
1.0
  2
SOLID
 70
     1
 71
     0
 91
        1
 92
        1
 93
        4
 72
     1
 10
11.43028471573029
 20
-45.23812055606686
 11
3.864327270813297
 21
-45.23812055606686
 72
     1
 10
3.864327270813297
 20
-45.23812055606686
 11
3.864327270813297
 21
-37.67216311114987
 72
     1
 10
3.864327270813297
 20
-37.67216311114987
 11
11.43028471573029
 21
-37.67216311114987
 72
     1
 10
11.43028471573029
 20
-37.67216311114987
 11
11.43028471573029
 21
-45.23812055606686
 97
        0
 75
     2
 76
     1
 98
        0
  0
POLYLINE
  5
18E
330
1F
100
AcDbEntity
  8
Capa 1
370
     0
100
AcDb2dPolyline
 66
     1
 10
0.0
 20
0.0
 30
0.0
  0
VERTEX
  5
18F
330
18E
100
AcDbEntity
  8
Capa 1
370
     0
100
AcDbVertex
100
AcDb2dVertex
 10
11.43028471573029
 20
-55.38611109726523
 30
0.0
  0
VERTEX
  5
190
330
18E
100
AcDbEntity
  8
Capa 1
370
     0
100
AcDbVertex
100
AcDb2dVertex
 10
3.864327270813297
 20
-55.38611109726523
 30
0.0
  0
VERTEX
  5
191
330
18E
100
AcDbEntity
  8
Capa 1
370
     0
100
AcDbVertex
100
AcDb2dVertex
 10
3.864327270813297
 20
-47.82015365234823
 30
0.0
  0
VERTEX
  5
192
330
18E
100
AcDbEntity
  8
Capa 1
370
     0
100
AcDbVertex
100
AcDb2dVertex
 10
11.43028471573029
 20
-47.82015365234823
 30
0.0
  0
VERTEX
  5
193
330
18E
100
AcDbEntity
  8
Capa 1
370
     0
100
AcDbVertex
100
AcDb2dVertex
 10
11.43028471573029
 20
-55.38611109726523
 30
0.0
  0
SEQEND
  5
195
330
18E
100
AcDbEntity
  8
Capa 1
370
     0
  0
HATCH
  5
194
330
1F
100
AcDbEntity
  8
Capa 1
 62
    22
420
 14951456
100
AcDbHatch
 10
0.0
 20
0.0
 30
0.0
210
0.0
220
0.0
230
1.0
  2
SOLID
 70
     1
 71
     0
 91
        1
 92
        1
 93
        4
 72
     1
 10
11.43028471573029
 20
-55.38611109726523
 11
3.864327270813297
 21
-55.38611109726523
 72
     1
 10
3.864327270813297
 20
-55.38611109726523
 11
3.864327270813297
 21
-47.82015365234823
 72
     1
 10
3.864327270813297
 20
-47.82015365234823
 11
11.43028471573029
 21
-47.82015365234823
 72
     1
 10
11.43028471573029
 20
-47.82015365234823
 11
11.43028471573029
 21
-55.38611109726523
 97
        0
 75
     2
 76
     1
 98
        0
  0
MTEXT
  5
196
330
1F
100
AcDbEntity
  8
Capa 1
 62
   250
420
  1842203
100
AcDbMText
 10
243.8132616917051
 20
-19.53215994876415
 30
0.0
 40
13.2289744270313
 41
0.0
 46
0.0
 71
     7
 72
     1
  1
\fMyriad Pro|b0|i0|c0|p34;\W1;MDF
 73
     1
 44
1.0
  0
MTEXT
  5
197
330
1F
100
AcDbEntity
  8
Capa 1
 62
   250
420
  1842203
100
AcDbMText
 10
243.8132616917051
 20
-33.92542437658945
 30
0.0
 40
8.49206666454365
 41
0.0
 46
0.0
 71
     7
 72
     1
  1
\fMyriad Pro|b0|i0|c0|p34;\W1;3mm
 73
     1
 44
1.0
  0
MTEXT
  5
198
330
1F
100
AcDbEntity
  8
Capa 1
 62
   250
420
  1842203
100
AcDbMText
 10
253.5409194312437
 20
-45.2381833334255
 30
0.0
 40
5.49486666529295
 41
0.0
 46
0.0
 71
     7
 72
     1
  1
\fMyriad Pro|b0|i0|c0|p34;\W1;Cut
 73
     1
 44
1.0
  0
MTEXT
  5
199
330
1F
100
AcDbEntity
  8
Capa 1
 62
   250
420
  1842203
100
AcDbMText
 10
253.5409194312437
 20
-54.55148221347564
 30
0.0
 40
5.49486666529295
 41
0.0
 46
0.0
 71
     7
 72
     1
  1
\fMyriad Pro|b0|i0|c0|p34;\W1;Engraving
 73
     1
 44
1.0
  0
POLYLINE
  5
19A
330
1F
100
AcDbEntity
  8
Capa 1
370
     0
100
AcDb2dPolyline
 66
     1
 10
0.0
 20
0.0
 30
0.0
  0
VERTEX
  5
19B
330
19A
100
AcDbEntity
  8
Capa 1
370
     0
100
AcDbVertex
100
AcDb2dVertex
 10
251.3792208259558
 20
-45.23812055606686
 30
0.0
  0
VERTEX
  5
19C
330
19A
100
AcDbEntity
  8
Capa 1
370
     0
100
AcDbVertex
100
AcDb2dVertex
 10
243.8132633810388
 20
-45.23812055606686
 30
0.0
  0
VERTEX
  5
19D
330
19A
100
AcDbEntity
  8
Capa 1
370
     0
100
AcDbVertex
100
AcDb2dVertex
 10
243.8132633810388
 20
-37.67216311114987
 30
0.0
  0
VERTEX
  5
19E
330
19A
100
AcDbEntity
  8
Capa 1
370
     0
100
AcDbVertex
100
AcDb2dVertex
 10
251.3792208259558
 20
-37.67216311114987
 30
0.0
  0
VERTEX
  5
19F
330
19A
100
AcDbEntity
  8
Capa 1
370
     0
100
AcDbVertex
100
AcDb2dVertex
 10
251.3792208259558
 20
-45.23812055606686
 30
0.0
  0
SEQEND
  5
1A1
330
19A
100
AcDbEntity
  8
Capa 1
370
     0
  0
HATCH
  5
1A0
330
1F
100
AcDbEntity
  8
Capa 1
 62
   250
420
  1842203
100
AcDbHatch
 10
0.0
 20
0.0
 30
0.0
210
0.0
220
0.0
230
1.0
  2
SOLID
 70
     1
 71
     0
 91
        1
 92
        1
 93
        4
 72
     1
 10
251.3792208259558
 20
-45.23812055606686
 11
243.8132633810388
 21
-45.23812055606686
 72
     1
 10
243.8132633810388
 20
-45.23812055606686
 11
243.8132633810388
 21
-37.67216311114987
 72
     1
 10
243.8132633810388
 20
-37.67216311114987
 11
251.3792208259558
 21
-37.67216311114987
 72
     1
 10
251.3792208259558
 20
-37.67216311114987
 11
251.3792208259558
 21
-45.23812055606686
 97
        0
 75
     2
 76
     1
 98
        0
  0
POLYLINE
  5
1A2
330
1F
100
AcDbEntity
  8
Capa 1
370
     0
100
AcDb2dPolyline
 66
     1
 10
0.0
 20
0.0
 30
0.0
  0
VERTEX
  5
1A3
330
1A2
100
AcDbEntity
  8
Capa 1
370
     0
100
AcDbVertex
100
AcDb2dVertex
 10
251.3792208259558
 20
-55.38611109726523
 30
0.0
  0
VERTEX
  5
1A4
330
1A2
100
AcDbEntity
  8
Capa 1
370
     0
100
AcDbVertex
100
AcDb2dVertex
 10
243.8132633810388
 20
-55.38611109726523
 30
0.0
  0
VERTEX
  5
1A5
330
1A2
100
AcDbEntity
  8
Capa 1
370
     0
100
AcDbVertex
100
AcDb2dVertex
 10
243.8132633810388
 20
-47.82015365234823
 30
0.0
  0
VERTEX
  5
1A6
330
1A2
100
AcDbEntity
  8
Capa 1
370
     0
100
AcDbVertex
100
AcDb2dVertex
 10
251.3792208259558
 20
-47.82015365234823
 30
0.0
  0
VERTEX
  5
1A7
330
1A2
100
AcDbEntity
  8
Capa 1
370
     0
100
AcDbVertex
100
AcDb2dVertex
 10
251.3792208259558
 20
-55.38611109726523
 30
0.0
  0
SEQEND
  5
1A9
330
1A2
100
AcDbEntity
  8
Capa 1
370
     0
  0
HATCH
  5
1A8
330
1F
100
AcDbEntity
  8
Capa 1
 62
    22
420
 14951456
100
AcDbHatch
 10
0.0
 20
0.0
 30
0.0
210
0.0
220
0.0
230
1.0
  2
SOLID
 70
     1
 71
     0
 91
        1
 92
        1
 93
        4
 72
     1
 10
251.3792208259558
 20
-55.38611109726523
 11
243.8132633810388
 21
-55.38611109726523
 72
     1
 10
243.8132633810388
 20
-55.38611109726523
 11
243.8132633810388
 21
-47.82015365234823
 72
     1
 10
243.8132633810388
 20
-47.82015365234823
 11
251.3792208259558
 21
-47.82015365234823
 72
     1
 10
251.3792208259558
 20
-47.82015365234823
 11
251.3792208259558
 21
-55.38611109726523
 97
        0
 75
     2
 76
     1
 98
        0
  0
MTEXT
  5
1AA
330
1F
100
AcDbEntity
  8
Capa 1
 62
   250
420
  1842203
100
AcDbMText
 10
483.762202841299
 20
-19.53215994876415
 30
0.0
 40
13.2289744270313
 41
0.0
 46
0.0
 71
     7
 72
     1
  1
\fMyriad Pro|b0|i0|c0|p34;\W1;MDF
 73
     1
 44
1.0
  0
MTEXT
  5
1AB
330
1F
100
AcDbEntity
  8
Capa 1
 62
   250
420
  1842203
100
AcDbMText
 10
483.762202841299
 20
-33.92542437658945
 30
0.0
 40
8.49206666454365
 41
0.0
 46
0.0
 71
     7
 72
     1
  1
\fMyriad Pro|b0|i0|c0|p34;\W1;6mm
 73
     1
 44
1.0
  0
MTEXT
  5
1AC
330
1F
100
AcDbEntity
  8
Capa 1
 62
   250
420
  1842203
100
AcDbMText
 10
493.4898605808376
 20
-45.2381833334255
 30
0.0
 40
5.49486666529295
 41
0.0
 46
0.0
 71
     7
 72
     1
  1
\fMyriad Pro|b0|i0|c0|p34;\W1;Cut
 73
     1
 44
1.0
  0
POLYLINE
  5
1AD
330
1F
100
AcDbEntity
  8
Capa 1
370
     0
100
AcDb2dPolyline
 66
     1
 10
0.0
 20
0.0
 30
0.0
  0
VERTEX
  5
1AE
330
1AD
100
AcDbEntity
  8
Capa 1
370
     0
100
AcDbVertex
100
AcDb2dVertex
 10
491.3281569361813
 20
-45.23812055606686
 30
0.0
  0
VERTEX
  5
1AF
330
1AD
100
AcDbEntity
  8
Capa 1
370
     0
100
AcDbVertex
100
AcDb2dVertex
 10
483.7621994912643
 20
-45.23812055606686
 30
0.0
  0
VERTEX
  5
1B0
330
1AD
100
AcDbEntity
  8
Capa 1
370
     0
100
AcDbVertex
100
AcDb2dVertex
 10
483.7621994912643
 20
-37.67216311114987
 30
0.0
  0
VERTEX
  5
1B1
330
1AD
100
AcDbEntity
  8
Capa 1
370
     0
100
AcDbVertex
100
AcDb2dVertex
 10
491.3281569361813
 20
-37.67216311114987
 30
0.0
  0
VERTEX
  5
1B2
330
1AD
100
AcDbEntity
  8
Capa 1
370
     0
100
AcDbVertex
100
AcDb2dVertex
 10
491.3281569361813
 20
-45.23812055606686
 30
0.0
  0
SEQEND
  5
1B4
330
1AD
100
AcDbEntity
  8
Capa 1
370
     0
  0
HATCH
  5
1B3
330
1F
100
AcDbEntity
  8
Capa 1
 62
   250
420
  1842203
100
AcDbHatch
 10
0.0
 20
0.0
 30
0.0
210
0.0
220
0.0
230
1.0
  2
SOLID
 70
     1
 71
     0
 91
        1
 92
        1
 93
        4
 72
     1
 10
491.3281569361813
 20
-45.23812055606686
 11
483.7621994912643
 21
-45.23812055606686
 72
     1
 10
483.7621994912643
 20
-45.23812055606686
 11
483.7621994912643
 21
-37.67216311114987
 72
     1
 10
483.7621994912643
 20
-37.67216311114987
 11
491.3281569361813
 21
-37.67216311114987
 72
     1
 10
491.3281569361813
 20
-37.67216311114987
 11
491.3281569361813
 21
-45.23812055606686
 97
        0
 75
     2
 76
     1
 98
        0
  0
MTEXT
  5
1B5
330
1F
100
AcDbEntity
  8
Capa 1
 62
   250
420
  1842203
100
AcDbMText
 10
723.7111224590462
 20
-19.53215994876415
 30
0.0
 40
13.2289744270313
 41
0.0
 46
0.0
 71
     7
 72
     1
  1
\fMyriad Pro|b0|i0|c0|p34;\W1;Acrylic
 73
     1
 44
1.0
  0
MTEXT
  5
1B6
330
1F
100
AcDbEntity
  8
Capa 1
 62
   250
420
  1842203
100
AcDbMText
 10
723.7111224590462
 20
-33.92542437658945
 30
0.0
 40
8.49206666454365
 41
0.0
 46
0.0
 71
     7
 72
     1
  1
\fMyriad Pro|b0|i0|c0|p34;\W1;2mm
 73
     1
 44
1.0
  0
MTEXT
  5
1B7
330
1F
100
AcDbEntity
  8
Capa 1
 62
   250
420
  1842203
100
AcDbMText
 10
733.4387801985848
 20
-45.2381833334255
 30
0.0
 40
5.49486666529295
 41
0.0
 46
0.0
 71
     7
 72
     1
  1
\fMyriad Pro|b0|i0|c0|p34;\W1;Cut
 73
     1
 44
1.0
  0
POLYLINE
  5
1B8
330
1F
100
AcDbEntity
  8
Capa 1
370
     0
100
AcDb2dPolyline
 66
     1
 10
0.0
 20
0.0
 30
0.0
  0
VERTEX
  5
1B9
330
1B8
100
AcDbEntity
  8
Capa 1
370
     0
100
AcDbVertex
100
AcDb2dVertex
 10
731.2770930464068
 20
-45.23812055606686
 30
0.0
  0
VERTEX
  5
1BA
330
1B8
100
AcDbEntity
  8
Capa 1
370
     0
100
AcDbVertex
100
AcDb2dVertex
 10
723.7111356014898
 20
-45.23812055606686
 30
0.0
  0
VERTEX
  5
1BB
330
1B8
100
AcDbEntity
  8
Capa 1
370
     0
100
AcDbVertex
100
AcDb2dVertex
 10
723.7111356014898
 20
-37.67216311114987
 30
0.0
  0
VERTEX
  5
1BC
330
1B8
100
AcDbEntity
  8
Capa 1
370
     0
100
AcDbVertex
100
AcDb2dVertex
 10
731.2770930464068
 20
-37.67216311114987
 30
0.0
  0
VERTEX
  5
1BD
330
1B8
100
AcDbEntity
  8
Capa 1
370
     0
100
AcDbVertex
100
AcDb2dVertex
 10
731.2770930464068
 20
-45.23812055606686
 30
0.0
  0
SEQEND
  5
1BF
330
1B8
100
AcDbEntity
  8
Capa 1
370
     0
  0
HATCH
  5
1BE
330
1F
100
AcDbEntity
  8
Capa 1
 62
   250
420
  1842203
100
AcDbHatch
 10
0.0
 20
0.0
 30
0.0
210
0.0
220
0.0
230
1.0
  2
SOLID
 70
     1
 71
     0
 91
        1
 92
        1
 93
        4
 72
     1
 10
731.2770930464068
 20
-45.23812055606686
 11
723.7111356014898
 21
-45.23812055606686
 72
     1
 10
723.7111356014898
 20
-45.23812055606686
 11
723.7111356014898
 21
-37.67216311114987
 72
     1
 10
723.7111356014898
 20
-37.67216311114987
 11
731.2770930464068
 21
-37.67216311114987
 72
     1
 10
731.2770930464068
 20
-37.67216311114987
 11
731.2770930464068
 21
-45.23812055606686
 97
        0
 75
     2
 76
     1
 98
        0
  0
ENDSEC
  0
SECTION
  2
OBJECTS
  0
DICTIONARY
  5
C
330
0
100
AcDbDictionary
281
     1
  3
ACAD_GROUP
350
D
  3
ACAD_LAYOUT
350
1A
  3
ACAD_MATERIAL
350
3B
  3
ACAD_MLEADERSTYLE
350
1C1
  3
ACAD_MLINESTYLE
350
17
  3
ACAD_PLOTSETTINGS
350
19
  3
ACAD_PLOTSTYLENAME
350
E
  3
ACAD_TABLESTYLE
350
1C0
  3
ACAD_VISUALSTYLE
350
2A
  0
SUN
  5
3F
330
29
100
AcDbSun
 90
        1
290
     0
 63
     7
421
 16777215
 40
1.0
291
     1
 91
  2455826
 92
 54000000
292
     0
 70
     2
 71
   256
280
     1
  0
DICTIONARY
  5
D
102
{ACAD_REACTORS
330
C
102
}
330
C
100
AcDbDictionary
281
     1
  0
DICTIONARY
  5
1A
102
{ACAD_REACTORS
330
C
102
}
330
C
100
AcDbDictionary
281
     1
  3
Layout1
350
1E
  3
Layout2
350
26
  3
Model
350
22
  0
DICTIONARY
  5
3B
102
{ACAD_REACTORS
330
C
102
}
330
C
100
AcDbDictionary
281
     1
  3
ByBlock
350
3D
  3
ByLayer
350
3C
  3
Global
350
3E
  0
DICTIONARY
  5
1C1
102
{ACAD_REACTORS
330
C
102
}
330
C
100
AcDbDictionary
281
     1
  0
DICTIONARY
  5
17
102
{ACAD_REACTORS
330
C
102
}
330
C
100
AcDbDictionary
281
     1
  3
Standard
350
18
  0
DICTIONARY
  5
19
102
{ACAD_REACTORS
330
C
102
}
330
C
100
AcDbDictionary
281
     1
  0
ACDBDICTIONARYWDFLT
  5
E
102
{ACAD_REACTORS
330
C
102
}
330
C
100
AcDbDictionary
281
     1
  3
Normal
350
F
100
AcDbDictionaryWithDefault
340
F
  0
DICTIONARY
  5
1C0
102
{ACAD_REACTORS
330
C
102
}
330
C
100
AcDbDictionary
281
     1
  0
DICTIONARY
  5
2A
102
{ACAD_REACTORS
330
C
102
}
330
C
100
AcDbDictionary
281
     1
  3
2dWireframe
350
2F
  3
3D Hidden
350
31
  3
3dWireframe
350
30
  3
Basic
350
32
  3
Brighten
350
36
  3
ColorChange
350
3A
  3
Conceptual
350
34
  3
Dim
350
35
  3
Facepattern
350
39
  3
Flat
350
2B
  3
FlatWithEdges
350
2C
  3
Gouraud
350
2D
  3
GouraudWithEdges
350
2E
  3
Linepattern
350
38
  3
Realistic
350
33
  3
Thicken
350
37
  0
LAYOUT
  5
1E
102
{ACAD_REACTORS
330
1A
102
}
330
1A
100
AcDbPlotSettings
  1

  2
none_device
  4

  6

 40
0.0
 41
0.0
 42
0.0
 43
0.0
 44
0.0
 45
0.0
 46
0.0
 47
0.0
 48
0.0
 49
0.0
140
0.0
141
0.0
142
1.0
143
1.0
 70
   688
 72
     0
 73
     0
 74
     5
  7

 75
    16
 76
     0
 77
     2
 78
   300
147
1.0
148
0.0
149
0.0
100
AcDbLayout
  1
Layout1
 70
     1
 71
     1
 10
0.0
 20
0.0
 11
12.0
 21
9.0
 12
0.0
 22
0.0
 32
0.0
 14
1.000000000000000E+20
 24
1.000000000000000E+20
 34
1.000000000000000E+20
 15
-1.000000000000000E+20
 25
-1.000000000000000E+20
 35
-1.000000000000000E+20
146
0.0
 13
0.0
 23
0.0
 33
0.0
 16
1.0
 26
0.0
 36
0.0
 17
0.0
 27
1.0
 37
0.0
 76
     0
330
1B
  0
LAYOUT
  5
26
102
{ACAD_REACTORS
330
1A
102
}
330
1A
100
AcDbPlotSettings
  1

  2
none_device
  4

  6

 40
0.0
 41
0.0
 42
0.0
 43
0.0
 44
0.0
 45
0.0
 46
0.0
 47
0.0
 48
0.0
 49
0.0
140
0.0
141
0.0
142
1.0
143
1.0
 70
   688
 72
     0
 73
     0
 74
     5
  7

 75
    16
 76
     0
 77
     2
 78
   300
147
1.0
148
0.0
149
0.0
100
AcDbLayout
  1
Layout2
 70
     1
 71
     2
 10
0.0
 20
0.0
 11
0.0
 21
0.0
 12
0.0
 22
0.0
 32
0.0
 14
0.0
 24
0.0
 34
0.0
 15
0.0
 25
0.0
 35
0.0
146
0.0
 13
0.0
 23
0.0
 33
0.0
 16
1.0
 26
0.0
 36
0.0
 17
0.0
 27
1.0
 37
0.0
 76
     0
330
23
  0
LAYOUT
  5
22
102
{ACAD_REACTORS
330
1A
102
}
330
1A
100
AcDbPlotSettings
  1

  2
none_device
  4

  6

 40
0.0
 41
0.0
 42
0.0
 43
0.0
 44
0.0
 45
0.0
 46
0.0
 47
0.0
 48
0.0
 49
0.0
140
0.0
141
0.0
142
1.0
143
1.0
 70
  1712
 72
     0
 73
     0
 74
     0
  7

 75
     0
 76
     0
 77
     2
 78
   300
147
1.0
148
0.0
149
0.0
100
AcDbLayout
  1
Model
 70
     1
 71
     0
 10
0.0
 20
0.0
 11
12.0
 21
9.0
 12
0.0
 22
0.0
 32
0.0
 14
1.000000000000000E+20
 24
1.000000000000000E+20
 34
1.000000000000000E+20
 15
-1.000000000000000E+20
 25
-1.000000000000000E+20
 35
-1.000000000000000E+20
146
0.0
 13
0.0
 23
0.0
 33
0.0
 16
1.0
 26
0.0
 36
0.0
 17
0.0
 27
1.0
 37
0.0
 76
     0
330
1F
331
29
  0
MATERIAL
  5
3D
102
{ACAD_REACTORS
330
3B
102
}
330
3B
100
AcDbMaterial
  1
ByBlock
 72
     1
 94
      127
  0
MATERIAL
  5
3C
102
{ACAD_REACTORS
330
3B
102
}
330
3B
100
AcDbMaterial
  1
ByLayer
 72
     1
 94
      127
  0
MATERIAL
  5
3E
102
{ACAD_REACTORS
330
3B
102
}
330
3B
100
AcDbMaterial
  1
Global
 72
     1
 94
      127
  0
MLINESTYLE
  5
18
102
{ACAD_REACTORS
330
17
102
}
330
17
100
AcDbMlineStyle
  2
Standard
 70
     0
  3

 62
   256
 51
90.0
 52
90.0
 71
     2
 49
0.5
 62
   256
  6
BYLAYER
 49
-0.5
 62
   256
  6
BYLAYER
  0
ACDBPLACEHOLDER
  5
F
102
{ACAD_REACTORS
330
E
102
}
330
E
  0
VISUALSTYLE
  5
2F
102
{ACAD_REACTORS
330
2A
102
}
330
2A
100
AcDbVisualStyle
  2
2dWireframe
 70
     4
177
     2
291
     0
 71
     0
176
     1
 72
     2
176
     1
 73
     0
176
     1
 90
        0
176
     1
 40
-0.6
176
     1
 41
-30.0
176
     1
 62
     5
 63
     7
421
 16777215
176
     1
 74
     1
176
     1
 91
        4
176
     1
 64
     7
176
     1
 65
   257
176
     1
 75
     1
176
     1
175
     1
176
     1
 42
1.0
176
     1
 92
        0
176
     1
 66
   257
176
     1
 43
1.0
176
     1
 76
     1
176
     1
 77
     6
176
     1
 78
     2
176
     1
 67
     7
176
     1
 79
     5
176
     1
170
     0
176
     1
171
     0
176
     1
290
     0
176
     1
 93
        1
176
     1
 44
0.0
176
     1
173
     0
176
     1
  0
VISUALSTYLE
  5
31
102
{ACAD_REACTORS
330
2A
102
}
330
2A
100
AcDbVisualStyle
  2
3D Hidden
 70
     6
177
     2
291
     0
 71
     1
176
     1
 72
     2
176
     1
 73
     2
176
     1
 90
        0
176
     1
 40
-0.6
176
     1
 41
-30.0
176
     1
 62
     5
 63
     7
421
 16777215
176
     1
 74
     2
176
     1
 91
        2
176
     1
 64
     7
176
     1
 65
   257
176
     1
 75
     2
176
     1
175
     1
176
     1
 42
40.0
176
     1
 92
        0
176
     1
 66
   257
176
     1
 43
1.0
176
     1
 76
     1
176
     1
 77
     6
176
     1
 78
     2
176
     1
 67
     7
176
     1
 79
     3
176
     1
170
     0
176
     1
171
     0
176
     1
290
     0
176
     1
 93
        1
176
     1
 44
0.0
176
     1
173
     0
176
     1
  0
VISUALSTYLE
  5
30
102
{ACAD_REACTORS
330
2A
102
}
330
2A
100
AcDbVisualStyle
  2
3dWireframe
 70
     5
177
     2
291
     0
 71
     0
176
     1
 72
     2
176
     1
 73
     0
176
     1
 90
        0
176
     1
 40
-0.6
176
     1
 41
-30.0
176
     1
 62
     5
 63
     7
421
 16777215
176
     1
 74
     1
176
     1
 91
        4
176
     1
 64
     7
176
     1
 65
   257
176
     1
 75
     1
176
     1
175
     1
176
     1
 42
1.0
176
     1
 92
        0
176
     1
 66
   257
176
     1
 43
1.0
176
     1
 76
     1
176
     1
 77
     6
176
     1
 78
     2
176
     1
 67
     7
176
     1
 79
     5
176
     1
170
     0
176
     1
171
     0
176
     1
290
     0
176
     1
 93
        1
176
     1
 44
0.0
176
     1
173
     0
176
     1
  0
VISUALSTYLE
  5
32
102
{ACAD_REACTORS
330
2A
102
}
330
2A
100
AcDbVisualStyle
  2
Basic
 70
     7
177
     2
291
     1
 71
     1
176
     1
 72
     0
176
     1
 73
     1
176
     1
 90
        0
176
     1
 40
-0.6
176
     1
 41
-30.0
176
     1
 62
     5
 63
     7
421
 16777215
176
     1
 74
     0
176
     1
 91
        4
176
     1
 64
     7
176
     1
 65
   257
176
     1
 75
     1
176
     1
175
     1
176
     1
 42
1.0
176
     1
 92
        8
176
     1
 66
     7
176
     1
 43
1.0
176
     1
 76
     1
176
     1
 77
     6
176
     1
 78
     2
176
     1
 67
     7
176
     1
 79
     5
176
     1
170
     0
176
     1
171
     0
176
     1
290
     0
176
     1
 93
        1
176
     1
 44
0.0
176
     1
173
     0
176
     1
  0
VISUALSTYLE
  5
36
102
{ACAD_REACTORS
330
2A
102
}
330
2A
100
AcDbVisualStyle
  2
Brighten
 70
    12
177
     2
291
     1
 71
     2
176
     1
 72
     2
176
     1
 73
     0
176
     1
 90
        0
176
     1
 40
-0.6
176
     1
 41
-30.0
176
     1
 62
     5
 63
     7
421
 16777215
176
     1
 74
     1
176
     1
 91
        4
176
     1
 64
     7
176
     1
 65
   257
176
     1
 75
     1
176
     1
175
     1
176
     1
 42
1.0
176
     1
 92
        8
176
     1
 66
     7
176
     1
 43
1.0
176
     1
 76
     1
176
     1
 77
     6
176
     1
 78
     2
176
     1
 67
     7
176
     1
 79
     5
176
     1
170
     0
176
     1
171
     0
176
     1
290
     0
176
     1
 93
        1
176
     1
 44
50.0
176
     1
173
     0
176
     1
  0
VISUALSTYLE
  5
3A
102
{ACAD_REACTORS
330
2A
102
}
330
2A
100
AcDbVisualStyle
  2
ColorChange
 70
    16
177
     2
291
     1
 71
     2
176
     1
 72
     2
176
     1
 73
     3
176
     1
 90
        0
176
     1
 40
-0.6
176
     1
 41
-30.0
176
     1
 62
     5
 63
     8
421
  8421504
176
     1
 74
     1
176
     1
 91
        4
176
     1
 64
     7
176
     1
 65
   257
176
     1
 75
     1
176
     1
175
     1
176
     1
 42
1.0
176
     1
 92
        8
176
     1
 66
     8
424
  8421504
176
     1
 43
1.0
176
     1
 76
     1
176
     1
 77
     6
176
     1
 78
     2
176
     1
 67
     7
176
     1
 79
     5
176
     1
170
     0
176
     1
171
     0
176
     1
290
     0
176
     1
 93
        1
176
     1
 44
0.0
176
     1
173
     0
176
     1
  0
VISUALSTYLE
  5
34
102
{ACAD_REACTORS
330
2A
102
}
330
2A
100
AcDbVisualStyle
  2
Conceptual
 70
     9
177
     2
291
     0
 71
     3
176
     1
 72
     2
176
     1
 73
     0
176
     1
 90
        0
176
     1
 40
-0.6
176
     1
 41
-30.0
176
     1
 62
     5
 63
     7
421
 16777215
176
     1
 74
     2
176
     1
 91
        2
176
     1
 64
     7
176
     1
 65
   257
176
     1
 75
     1
176
     1
175
     1
176
     1
 42
40.0
176
     1
 92
        8
176
     1
 66
     7
176
     1
 43
1.0
176
     1
 76
     1
176
     1
 77
     6
176
     1
 78
     2
176
     1
 67
     7
176
     1
 79
     3
176
     1
170
     0
176
     1
171
     0
176
     1
290
     0
176
     1
 93
        1
176
     1
 44
0.0
176
     1
173
     0
176
     1
  0
VISUALSTYLE
  5
35
102
{ACAD_REACTORS
330
2A
102
}
330
2A
100
AcDbVisualStyle
  2
Dim
 70
    11
177
     2
291
     1
 71
     2
176
     1
 72
     2
176
     1
 73
     0
176
     1
 90
        0
176
     1
 40
-0.6
176
     1
 41
-30.0
176
     1
 62
     5
 63
     7
421
 16777215
176
     1
 74
     1
176
     1
 91
        4
176
     1
 64
     7
176
     1
 65
   257
176
     1
 75
     1
176
     1
175
     1
176
     1
 42
1.0
176
     1
 92
        8
176
     1
 66
     7
176
     1
 43
1.0
176
     1
 76
     1
176
     1
 77
     6
176
     1
 78
     2
176
     1
 67
     7
176
     1
 79
     5
176
     1
170
     0
176
     1
171
     0
176
     1
290
     0
176
     1
 93
        1
176
     1
 44
-50.0
176
     1
173
     0
176
     1
  0
VISUALSTYLE
  5
39
102
{ACAD_REACTORS
330
2A
102
}
330
2A
100
AcDbVisualStyle
  2
Facepattern
 70
    15
177
     2
291
     1
 71
     2
176
     1
 72
     2
176
     1
 73
     0
176
     1
 90
        0
176
     1
 40
-0.6
176
     1
 41
-30.0
176
     1
 62
     5
 63
     7
421
 16777215
176
     1
 74
     1
176
     1
 91
        4
176
     1
 64
     7
176
     1
 65
   257
176
     1
 75
     1
176
     1
175
     1
176
     1
 42
1.0
176
     1
 92
        8
176
     1
 66
     7
176
     1
 43
1.0
176
     1
 76
     1
176
     1
 77
     6
176
     1
 78
     2
176
     1
 67
     7
176
     1
 79
     5
176
     1
170
     0
176
     1
171
     0
176
     1
290
     0
176
     1
 93
        1
176
     1
 44
0.0
176
     1
173
     0
176
     1
  0
VISUALSTYLE
  5
2B
102
{ACAD_REACTORS
330
2A
102
}
330
2A
100
AcDbVisualStyle
  2
Flat
 70
     0
177
     2
291
     1
 71
     2
176
     1
 72
     1
176
     1
 73
     1
176
     1
 90
        2
176
     1
 40
-0.6
176
     1
 41
30.0
176
     1
 62
     5
 63
     7
421
 16777215
176
     1
 74
     0
176
     1
 91
        4
176
     1
 64
     7
176
     1
 65
   257
176
     1
 75
     1
176
     1
175
     1
176
     1
 42
1.0
176
     1
 92
        8
176
     1
 66
     7
176
     1
 43
1.0
176
     1
 76
     1
176
     1
 77
     6
176
     1
 78
     2
176
     1
 67
     7
176
     1
 79
     5
176
     1
170
     0
176
     1
171
     0
176
     1
290
     0
176
     1
 93
       13
176
     1
 44
0.0
176
     1
173
     0
176
     1
  0
VISUALSTYLE
  5
2C
102
{ACAD_REACTORS
330
2A
102
}
330
2A
100
AcDbVisualStyle
  2
FlatWithEdges
 70
     1
177
     2
291
     1
 71
     2
176
     1
 72
     1
176
     1
 73
     1
176
     1
 90
        2
176
     1
 40
-0.6
176
     1
 41
30.0
176
     1
 62
     5
 63
     7
421
 16777215
176
     1
 74
     1
176
     1
 91
        4
176
     1
 64
     7
176
     1
 65
   257
176
     1
 75
     1
176
     1
175
     1
176
     1
 42
1.0
176
     1
 92
        0
176
     1
 66
   257
176
     1
 43
1.0
176
     1
 76
     1
176
     1
 77
     6
176
     1
 78
     2
176
     1
 67
     7
176
     1
 79
     5
176
     1
170
     0
176
     1
171
     0
176
     1
290
     0
176
     1
 93
       13
176
     1
 44
0.0
176
     1
173
     0
176
     1
  0
VISUALSTYLE
  5
2D
102
{ACAD_REACTORS
330
2A
102
}
330
2A
100
AcDbVisualStyle
  2
Gouraud
 70
     2
177
     2
291
     1
 71
     2
176
     1
 72
     2
176
     1
 73
     1
176
     1
 90
        2
176
     1
 40
-0.6
176
     1
 41
30.0
176
     1
 62
     5
 63
     7
421
 16777215
176
     1
 74
     0
176
     1
 91
        4
176
     1
 64
     7
176
     1
 65
   257
176
     1
 75
     1
176
     1
175
     1
176
     1
 42
1.0
176
     1
 92
        0
176
     1
 66
     7
176
     1
 43
1.0
176
     1
 76
     1
176
     1
 77
     6
176
     1
 78
     2
176
     1
 67
     7
176
     1
 79
     5
176
     1
170
     0
176
     1
171
     0
176
     1
290
     0
176
     1
 93
       13
176
     1
 44
0.0
176
     1
173
     0
176
     1
  0
VISUALSTYLE
  5
2E
102
{ACAD_REACTORS
330
2A
102
}
330
2A
100
AcDbVisualStyle
  2
GouraudWithEdges
 70
     3
177
     2
291
     1
 71
     2
176
     1
 72
     2
176
     1
 73
     1
176
     1
 90
        2
176
     1
 40
-0.6
176
     1
 41
30.0
176
     1
 62
     5
 63
     7
421
 16777215
176
     1
 74
     1
176
     1
 91
        4
176
     1
 64
     7
176
     1
 65
   257
176
     1
 75
     1
176
     1
175
     1
176
     1
 42
1.0
176
     1
 92
        0
176
     1
 66
   257
176
     1
 43
1.0
176
     1
 76
     1
176
     1
 77
     6
176
     1
 78
     2
176
     1
 67
     7
176
     1
 79
     5
176
     1
170
     0
176
     1
171
     0
176
     1
290
     0
176
     1
 93
       13
176
     1
 44
0.0
176
     1
173
     0
176
     1
  0
VISUALSTYLE
  5
38
102
{ACAD_REACTORS
330
2A
102
}
330
2A
100
AcDbVisualStyle
  2
Linepattern
 70
    14
177
     2
291
     1
 71
     2
176
     1
 72
     2
176
     1
 73
     0
176
     1
 90
        0
176
     1
 40
-0.6
176
     1
 41
-30.0
176
     1
 62
     5
 63
     7
421
 16777215
176
     1
 74
     1
176
     1
 91
        4
176
     1
 64
     7
176
     1
 65
   257
176
     1
 75
     7
176
     1
175
     7
176
     1
 42
1.0
176
     1
 92
        8
176
     1
 66
     7
176
     1
 43
1.0
176
     1
 76
     1
176
     1
 77
     6
176
     1
 78
     2
176
     1
 67
     7
176
     1
 79
     5
176
     1
170
     0
176
     1
171
     0
176
     1
290
     0
176
     1
 93
        1
176
     1
 44
0.0
176
     1
173
     0
176
     1
  0
VISUALSTYLE
  5
33
102
{ACAD_REACTORS
330
2A
102
}
330
2A
100
AcDbVisualStyle
  2
Realistic
 70
     8
177
     2
291
     0
 71
     2
176
     1
 72
     2
176
     1
 73
     0
176
     1
 90
        0
176
     1
 40
-0.6
176
     1
 41
-30.0
176
     1
 62
     5
 63
     7
421
 16777215
176
     1
 74
     1
176
     1
 91
        0
176
     1
 64
     7
176
     1
 65
   257
176
     1
 75
     1
176
     1
175
     1
176
     1
 42
1.0
176
     1
 92
        8
176
     1
 66
     8
424
  7895160
176
     1
 43
1.0
176
     1
 76
     1
176
     1
 77
     6
176
     1
 78
     2
176
     1
 67
     7
176
     1
 79
     5
176
     1
170
     0
176
     1
171
     0
176
     1
290
     0
176
     1
 93
       13
176
     1
 44
0.0
176
     1
173
     0
176
     1
  0
VISUALSTYLE
  5
37
102
{ACAD_REACTORS
330
2A
102
}
330
2A
100
AcDbVisualStyle
  2
Thicken
 70
    13
177
     2
291
     1
 71
     2
176
     1
 72
     2
176
     1
 73
     0
176
     1
 90
        0
176
     1
 40
-0.6
176
     1
 41
-30.0
176
     1
 62
     5
 63
     7
421
 16777215
176
     1
 74
     1
176
     1
 91
        4
176
     1
 64
     7
176
     1
 65
   257
176
     1
 75
     1
176
     1
175
     1
176
     1
 42
1.0
176
     1
 92
       12
176
     1
 66
     7
176
     1
 43
1.0
176
     1
 76
     1
176
     1
 77
     6
176
     1
 78
     2
176
     1
 67
     7
176
     1
 79
     5
176
     1
170
     0
176
     1
171
     0
176
     1
290
     0
176
     1
 93
        1
176
     1
 44
0.0
176
     1
173
     0
176
     1
  0
ENDSEC
  0
EOF
