0
SECTION
2
HEADER
9
$INSUNITS
70
4
9
$ACADVER
1
AC1014
9
$HANDSEED
5
FFFF
0
ENDSEC
0
SECTION
2
TABLES
0
TABLE
2
VPORT
5
8
100
AcDbSymbolTable
0
ENDTAB
0
TABLE
2
LTYPE
5
5
100
AcDbSymbolTable
0
LTYPE
5
14
100
AcDbSymbolTableRecord
100
AcDbLinetypeTableRecord
2
BYBLOCK
70
0
0
LTYPE
5
15
100
AcDbSymbolTableRecord
100
AcDbLinetypeTableRecord
2
BYLAYER
70
0
0
ENDTAB
0
TABLE
2
LAYER
5
2
100
AcDbSymbolTable
70
2
0
LAYER
5
50
100
AcDbSymbolTableRecord
100
AcDbLayerTableRecord
2
0
70
0
6
CONTINUOUS
0
ENDTAB
0
TABLE
2
STYLE
5
3
100
AcDbSymbolTable
70
1
0
STYLE
5
11
100
AcDbSymbolTableRecord
100
AcDbTextStyleTableRecord
2
STANDARD
70
0
0
ENDTAB
0
TABLE
2
VIEW
5
6
100
AcDbSymbolTable
70
0
0
ENDTAB
0
TABLE
2
UCS
5
7
100
AcDbSymbolTable
70
0
0
ENDTAB
0
TABLE
2
APPID
5
9
100
AcDbSymbolTable
70
2
0
APPID
5
12
100
AcDbSymbolTableRecord
100
AcDbRegAppTableRecord
2
ACAD
70
0
0
ENDTAB
0
TABLE
2
DIMSTYLE
5
A
100
AcDbSymbolTable
70
1
0
ENDTAB
0
TABLE
2
BLOCK_RECORD
5
1
100
AcDbSymbolTable
70
1
0
BLOCK_RECORD
5
1F
100
AcDbSymbolTableRecord
100
AcDbBlockTableRecord
2
*MODEL_SPACE
0
BLOCK_RECORD
5
1B
100
AcDbSymbolTableRecord
100
AcDbBlockTableRecord
2
*PAPER_SPACE
0
ENDTAB
0
ENDSEC
0
SECTION
2
BLOCKS
0
BLOCK
5
20
100
AcDbEntity
100
AcDbBlockBegin
2
*MODEL_SPACE
0
ENDBLK
5
21
100
AcDbEntity
100
AcDbBlockEnd
0
BLOCK
5
1C
100
AcDbEntity
100
AcDbBlockBegin
2
*PAPER_SPACE
0
ENDBLK
5
1D
100
AcDbEntity
100
AcDbBlockEnd
0
ENDSEC
0
SECTION
2
ENTITIES
0
ARC
5
100
100
AcDbEntity
8
0
100
AcDbCircle
10
-0.10353802223268559
20
0.0039633321072808161
30
0
40
9.3791132468034846
100
AcDbArc
50
59.638953252806786
51
88.18182086263829
0
ARC
5
101
100
AcDbEntity
8
0
100
AcDbCircle
10
-0.10353802223268559
20
0.0039633321072808161
30
0
40
9.3791132468034828
100
AcDbArc
50
91.002498667101761
51
119.65447958591045
0
LINE
5
102
100
AcDbEntity
8
0
100
AcDbLine
10
-24.063658797304917
20
52.264522371981087
30
0
11
-2.3817000957696868
21
14.624787304311376
31
0
0
LINE
5
103
100
AcDbEntity
8
0
100
AcDbLine
10
-11.858561944122652
20
10.040705843329324
30
0
11
-33.156925537041523
21
47.01452237198108
31
0
0
LINE
5
104
100
AcDbEntity
8
0
100
AcDbLine
10
2.4355824061905462
20
14.624787304311377
30
0
11
-2.4501414166768072
21
14.624787304311376
31
0
0
LINE
5
105
100
AcDbEntity
8
0
100
AcDbLine
10
33.175373334738431
20
46.884316121000033
30
0
11
11.859492099925337
21
10.04016881762626
31
0
0
LINE
5
106
100
AcDbEntity
8
0
100
AcDbLine
10
2.7662253601887326
20
15.290168817626256
30
0
11
24.082106595001825
21
52.134316121000019
31
0
0
LINE
5
107
100
AcDbEntity
8
0
100
AcDbLine
10
-26.929684201089334
20
55.228623987118837
30
0
11
-34.290900133257082
21
50.978623987118809
31
0
0
ARC
5
108
100
AcDbEntity
8
0
100
AcDbCircle
10
-33.790900133257097
20
50.112598583334361
30
0
40
0.99999999999999378
100
AcDbArc
50
119.99999999999903
51
210.00000000000014
0
LINE
5
109
100
AcDbEntity
8
0
100
AcDbLine
10
-34.656925537041531
20
49.612598583334361
30
0
11
-33.156925537041523
21
47.01452237198108
31
0
0
ARC
5
110
100
AcDbEntity
8
0
100
AcDbCircle
10
-26.429684201089341
20
54.362598583334403
30
0
40
0.99999999999999178
100
AcDbArc
50
30.000000000000792
51
119.99999999999979
0
LINE
5
111
100
AcDbEntity
8
0
100
AcDbLine
10
-24.063658797304917
20
52.264522371981087
30
0
11
-25.563658797304917
21
54.86259858333441
31
0
0
LWPOLYLINE
5
112
100
AcDbEntity
8
0
100
AcDbPolyline
90
6
70
1
43
0.0
10
-5.2233317712516332
20
57.24299546415061
10
-5.2233317712516447
20
60.242995464150574
42
-0.41421356237309598
10
-4.2233317712516456
20
61.242995464150567
10
4.2766682287483846
20
61.242995464150596
42
-0.41421356237309637
10
5.2766682287483659
20
60.242995464150596
10
5.2766682287483668
20
57.24299546415061
0
LINE
5
113
100
AcDbEntity
8
0
100
AcDbLine
10
25.582106595001793
20
54.732392332353321
30
0
11
24.082106595001825
21
52.134316121000019
31
0
0
LINE
5
114
100
AcDbEntity
8
0
100
AcDbLine
10
33.175373334738431
20
46.884316121000033
30
0
11
34.675373334738438
21
49.482392332353335
31
0
0
ARC
5
115
100
AcDbEntity
8
0
100
AcDbCircle
10
33.809347930954004
20
49.982392332353328
30
0
40
0.99999999999999512
100
AcDbArc
50
-29.999999999999762
51
59.999999999999872
0
ARC
5
116
100
AcDbEntity
8
0
100
AcDbCircle
10
26.448131998786227
20
54.232392332353314
30
0
40
1.0000000000000093
100
AcDbArc
50
59.999999999999531
51
149.99999999999952
0
LINE
5
117
100
AcDbEntity
8
0
100
AcDbLine
10
34.309347930954004
20
50.848417736137762
30
0
11
26.948131998786238
21
55.098417736137755
31
0
0
CIRCLE
5
118
100
AcDbEntity
8
0
100
AcDbCircle
10
0
20
0
30
0
40
67.5
0
CIRCLE
5
119
100
AcDbEntity
8
0
100
AcDbCircle
10
-4.7631397853383319
20
2.7500000372529056
30
0
40
0.97500000000000009
0
CIRCLE
5
120
100
AcDbEntity
8
0
100
AcDbCircle
10
4.7631397853383337
20
2.7500000372529021
30
0
40
0.97500000000000009
0
CIRCLE
5
121
100
AcDbEntity
8
0
100
AcDbCircle
10
0
20
0
30
0
40
2.4750000000000001
0
CIRCLE
5
122
100
AcDbEntity
8
0
100
AcDbCircle
10
0
20
-5.500000074505806
30
0
40
0.97500000000000009
0
ARC
5
123
100
AcDbEntity
8
0
100
AcDbCircle
10
0.00053702570306447253
20
14.624787304311383
30
0
40
5.2500000000000089
100
AcDbArc
50
267.07203439189732
51
272.11228513784272
0
ARC
5
124
100
AcDbEntity
8
0
100
AcDbCircle
10
-7.3417283615299365
20
12.717320588945388
30
0
40
5.2503382852237879
100
AcDbArc
50
209.23683745763111
51
299.65447958591045
0
ARC
5
125
100
AcDbEntity
8
0
100
AcDbCircle
10
7.2908008179641186
20
12.626963393172439
30
0
40
5.2501853496875306
100
AcDbArc
50
239.63895325280683
51
330.48144591335182
0
ARC
5
126
100
AcDbEntity
8
0
100
AcDbCircle
10
7.2908008179641186
20
12.626963393172439
30
0
40
5.2501853496751494
100
AcDbArc
50
149.51855408664824
51
157.63382770419085
0
ENDSEC
0
SECTION
2
OBJECTS
0
DICTIONARY
5
C
100
AcDbDictionary
3
ACAD_GROUP
350
D
3
ACAD_MLINESTYLE
350
17
0
DICTIONARY
5
D
100
AcDbDictionary
0
DICTIONARY
5
1A
330
C
100
AcDbDictionary
0
DICTIONARY
5
17
100
AcDbDictionary
0
ENDSEC
0
EOF
