  0
SECTION
  2
HEADER
  9
$ACADVER
  1
AC1014
  9
$HANDSEED
  5
FFFF
  9
$MEASUREMENT
 70
     1
  0
ENDSEC
  0
SECTION
  2
TABLES
  0
TABLE
  2
VPORT
  5
8
330
0
100
AcDbSymbolTable
 70
     4
  0
VPORT
  5
2E
330
8
100
AcDbSymbolTableRecord
100
AcDbViewportTableRecord
  2
*ACTIVE
 70
     0
 10
0.0
 20
0.0
 11
1.0
 21
1.0
 12
210.0
 22
148.5
 13
0.0
 23
0.0
 14
10.0
 24
10.0
 15
10.0
 25
10.0
 16
0.0
 26
0.0
 36
1.0
 17
0.0
 27
0.0
 37
0.0
 40
341.0
 41
1.24
 42
50.0
 43
0.0
 44
0.0
 50
0.0
 51
0.0
 71
     0
 72
   100
 73
     1
 74
     3
 75
     0
 76
     0
 77
     0
 78
     0
  0
ENDTAB
  0
TABLE
  2
LTYPE
  5
5
330
0
100
AcDbSymbolTable
 70
     1
  0
LTYPE
  5
14
330
5
100
AcDbSymbolTableRecord
100
AcDbLinetypeTableRecord
  2
BYBLOCK
 70
     0
  3

 72
    65
 73
     0
 40
0.0
  0
LTYPE
  5
15
330
5
100
AcDbSymbolTableRecord
100
AcDbLinetypeTableRecord
  2
BYLAYER
 70
     0
  3

 72
    65
 73
     0
 40
0.0
  0
LTYPE
  5
16
330
5
100
AcDbSymbolTableRecord
100
AcDbLinetypeTableRecord
  2
CONTINUOUS
 70
     0
  3
Solid line
 72
    65
 73
     0
 40
0.0
  0
ENDTAB
  0
TABLE
  2
LAYER
  5
2
100
AcDbSymbolTable
 70
2
  0
LAYER
  5
50
100
AcDbSymbolTableRecord
100
AcDbLayerTableRecord
  2
0
 70
0
  6
CONTINUOUS
  0
LAYER
  5
51
100
AcDbSymbolTableRecord
100
AcDbLayerTableRecord
  2
Layer_1
 70
0
  6
CONTINUOUS
  0
ENDTAB
  0
TABLE
  2
STYLE
  5
3
330
0
100
AcDbSymbolTable
 70
     1
  0
STYLE
  5
11
330
3
100
AcDbSymbolTableRecord
100
AcDbTextStyleTableRecord
  2
STANDARD
 70
     0
 40
0.0
 41
1.0
 50
0.0
 71
     0
 42
2.5
  3
txt
  4

  0
ENDTAB
  0
TABLE
  2
VIEW
  5
6
330
0
100
AcDbSymbolTable
 70
     0
  0
ENDTAB
  0
TABLE
  2
UCS
  5
7
330
0
100
AcDbSymbolTable
 70
     0
  0
ENDTAB
  0
TABLE
  2
APPID
  5
9
330
0
100
AcDbSymbolTable
 70
     2
  0
APPID
  5
12
330
9
100
AcDbSymbolTableRecord
100
AcDbRegAppTableRecord
  2
ACAD
 70
     0
  0
ENDTAB
  0
TABLE
  2
DIMSTYLE
  5
A
330
0
100
AcDbSymbolTable
 70
     1
  0
DIMSTYLE
105
27
330
A
100
AcDbSymbolTableRecord
100
AcDbDimStyleTableRecord
  2
ISO-25
 70
     0
  3

  4

  5

  6

  7

 40
1.0
 41
2.5
 42
0.625
 43
3.75
 44
1.25
 45
0.0
 46
0.0
 47
0.0
 48
0.0
140
2.5
141
2.5
142
0.0
143
0.03937007874016
144
1.0
145
0.0
146
1.0
147
0.625
 71
     0
 72
     0
 73
     0
 74
     0
 75
     0
 76
     0
 77
     1
 78
     8
170
     0
171
     3
172
     1
173
     0
174
     0
175
     0
176
     0
177
     0
178
     0
270
     2
271
     2
272
     2
273
     2
274
     3
340
11
275
     0
280
     0
281
     0
282
     0
283
     0
284
     8
285
     0
286
     0
287
     3
288
     0
  0
ENDTAB
  0
TABLE
  2
BLOCK_RECORD
  5
1
330
0
100
AcDbSymbolTable
 70
     1
  0
BLOCK_RECORD
  5
1F
330
1
100
AcDbSymbolTableRecord
100
AcDbBlockTableRecord
  2
*MODEL_SPACE
  0
BLOCK_RECORD
  5
1B
330
1
100
AcDbSymbolTableRecord
100
AcDbBlockTableRecord
  2
*PAPER_SPACE
  0
ENDTAB
  0
ENDSEC
  0
SECTION
  2
BLOCKS
  0
BLOCK
  5
20
330
1F
100
AcDbEntity
  8
0
100
AcDbBlockBegin
  2
*MODEL_SPACE
 70
     0
 10
0.0
 20
0.0
 30
0.0
  3
*MODEL_SPACE
  1

  0
ENDBLK
  5
21
330
1F
100
AcDbEntity
  8
0
100
AcDbBlockEnd
  0
BLOCK
  5
1C
330
1B
100
AcDbEntity
 67
     1
  8
0
100
AcDbBlockBegin
  2
*PAPER_SPACE
  1

  0
ENDBLK
  5
1D
330
1B
100
AcDbEntity
 67
     1
  8
0
100
AcDbBlockEnd
  0
ENDSEC
  0
SECTION
  2
ENTITIES
  0
SPLINE
  5
100
100
AcDbEntity
  8
Layer_1
 62
5
100
AcDbSpline
 70
8
 71
3
 72
8
 73
4
 74
0
 40
0
 40
0
 40
0
 40
0
 40
1
 40
1
 40
1
 40
1
 10
287.562704
 20
277.561734
 30
0.0
 10
287.562704
 20
269.056646
 30
0.0
 10
283.025294
 20
261.197620
 30
0.0
 10
275.659671
 20
256.945076
 30
0.0
  0
SPLINE
  5
101
100
AcDbEntity
  8
Layer_1
 62
5
100
AcDbSpline
 70
8
 71
3
 72
8
 73
4
 74
0
 40
0
 40
0
 40
0
 40
0
 40
1
 40
1
 40
1
 40
1
 10
275.659671
 20
256.945076
 30
0.0
 10
268.294048
 20
252.692532
 30
0.0
 10
259.219227
 20
252.692532
 30
0.0
 10
251.853604
 20
256.945076
 30
0.0
  0
SPLINE
  5
102
100
AcDbEntity
  8
Layer_1
 62
5
100
AcDbSpline
 70
8
 71
3
 72
8
 73
4
 74
0
 40
0
 40
0
 40
0
 40
0
 40
1
 40
1
 40
1
 40
1
 10
251.853604
 20
256.945076
 30
0.0
 10
244.487981
 20
261.197620
 30
0.0
 10
239.950571
 20
269.056646
 30
0.0
 10
239.950571
 20
277.561734
 30
0.0
  0
SPLINE
  5
103
100
AcDbEntity
  8
Layer_1
 62
5
100
AcDbSpline
 70
8
 71
3
 72
8
 73
4
 74
0
 40
0
 40
0
 40
0
 40
0
 40
1
 40
1
 40
1
 40
1
 10
239.950571
 20
277.561734
 30
0.0
 10
239.950571
 20
286.066823
 30
0.0
 10
244.487981
 20
293.925849
 30
0.0
 10
251.853604
 20
298.178393
 30
0.0
  0
SPLINE
  5
104
100
AcDbEntity
  8
Layer_1
 62
5
100
AcDbSpline
 70
8
 71
3
 72
8
 73
4
 74
0
 40
0
 40
0
 40
0
 40
0
 40
1
 40
1
 40
1
 40
1
 10
251.853604
 20
298.178393
 30
0.0
 10
259.219227
 20
302.430937
 30
0.0
 10
268.294048
 20
302.430937
 30
0.0
 10
275.659671
 20
298.178393
 30
0.0
  0
SPLINE
  5
105
100
AcDbEntity
  8
Layer_1
 62
5
100
AcDbSpline
 70
8
 71
3
 72
8
 73
4
 74
0
 40
0
 40
0
 40
0
 40
0
 40
1
 40
1
 40
1
 40
1
 10
275.659671
 20
298.178393
 30
0.0
 10
283.025294
 20
293.925849
 30
0.0
 10
287.562704
 20
286.066823
 30
0.0
 10
287.562704
 20
277.561734
 30
0.0
  0
LINE
  5
106
100
AcDbEntity
  8
Layer_1
 62
5
100
AcDbLine
 10
287.562704
 20
277.561734
 30
0.0
 11
287.562704
 21
277.561734
 31
0.0
  0
SPLINE
  5
107
100
AcDbEntity
  8
Layer_1
 62
5
100
AcDbSpline
 70
8
 71
3
 72
8
 73
4
 74
0
 40
0
 40
0
 40
0
 40
0
 40
1
 40
1
 40
1
 40
1
 10
277.297137
 20
277.561734
 30
0.0
 10
277.297136
 20
270.083524
 30
0.0
 10
271.234848
 20
264.021236
 30
0.0
 10
263.756638
 20
264.021236
 30
0.0
  0
SPLINE
  5
108
100
AcDbEntity
  8
Layer_1
 62
5
100
AcDbSpline
 70
8
 71
3
 72
8
 73
4
 74
0
 40
0
 40
0
 40
0
 40
0
 40
1
 40
1
 40
1
 40
1
 10
263.756638
 20
264.021236
 30
0.0
 10
256.278427
 20
264.021236
 30
0.0
 10
250.216139
 20
270.083524
 30
0.0
 10
250.216138
 20
277.561734
 30
0.0
  0
SPLINE
  5
109
100
AcDbEntity
  8
Layer_1
 62
5
100
AcDbSpline
 70
8
 71
3
 72
8
 73
4
 74
0
 40
0
 40
0
 40
0
 40
0
 40
1
 40
1
 40
1
 40
1
 10
250.216138
 20
277.561734
 30
0.0
 10
250.216139
 20
285.039945
 30
0.0
 10
256.278427
 20
291.102233
 30
0.0
 10
263.756638
 20
291.102233
 30
0.0
  0
SPLINE
  5
10a
100
AcDbEntity
  8
Layer_1
 62
5
100
AcDbSpline
 70
8
 71
3
 72
8
 73
4
 74
0
 40
0
 40
0
 40
0
 40
0
 40
1
 40
1
 40
1
 40
1
 10
263.756638
 20
291.102233
 30
0.0
 10
271.234848
 20
291.102233
 30
0.0
 10
277.297136
 20
285.039945
 30
0.0
 10
277.297137
 20
277.561734
 30
0.0
  0
LINE
  5
10b
100
AcDbEntity
  8
Layer_1
 62
5
100
AcDbLine
 10
277.297137
 20
277.561734
 30
0.0
 11
277.297137
 21
277.561734
 31
0.0
  0
LINE
  5
10c
100
AcDbEntity
  8
Layer_1
 62
5
100
AcDbLine
 10
155.621813
 20
161.082897
 30
0.0
 11
155.621813
 21
139.032076
 31
0.0
  0
LINE
  5
10d
100
AcDbEntity
  8
Layer_1
 62
5
100
AcDbLine
 10
155.621813
 20
139.032076
 30
0.0
 11
152.693758
 21
139.032076
 31
0.0
  0
LINE
  5
10e
100
AcDbEntity
  8
Layer_1
 62
5
100
AcDbLine
 10
152.693758
 20
139.032076
 30
0.0
 11
152.693758
 21
129.031929
 31
0.0
  0
LINE
  5
10f
100
AcDbEntity
  8
Layer_1
 62
5
100
AcDbLine
 10
152.693758
 20
129.031929
 30
0.0
 11
155.621813
 21
129.031929
 31
0.0
  0
LINE
  5
110
100
AcDbEntity
  8
Layer_1
 62
5
100
AcDbLine
 10
155.621813
 20
129.031929
 30
0.0
 11
155.621813
 21
125.632032
 31
0.0
  0
LINE
  5
111
100
AcDbEntity
  8
Layer_1
 62
5
100
AcDbLine
 10
155.621813
 20
125.632032
 30
0.0
 11
158.414289
 21
125.632032
 31
0.0
  0
LINE
  5
112
100
AcDbEntity
  8
Layer_1
 62
5
100
AcDbLine
 10
158.414289
 20
125.632032
 30
0.0
 11
158.414289
 21
127.231659
 31
0.0
  0
LINE
  5
113
100
AcDbEntity
  8
Layer_1
 62
5
100
AcDbLine
 10
158.414289
 20
127.231659
 30
0.0
 11
161.414001
 21
127.231659
 31
0.0
  0
LINE
  5
114
100
AcDbEntity
  8
Layer_1
 62
5
100
AcDbLine
 10
161.414001
 20
127.231659
 30
0.0
 11
161.414001
 21
125.632032
 31
0.0
  0
LINE
  5
115
100
AcDbEntity
  8
Layer_1
 62
5
100
AcDbLine
 10
161.414001
 20
125.632032
 30
0.0
 11
163.414364
 21
125.632032
 31
0.0
  0
LINE
  5
116
100
AcDbEntity
  8
Layer_1
 62
5
100
AcDbLine
 10
163.414364
 20
125.632032
 30
0.0
 11
163.414364
 21
122.431677
 31
0.0
  0
LINE
  5
117
100
AcDbEntity
  8
Layer_1
 62
5
100
AcDbLine
 10
163.414364
 20
122.431677
 30
0.0
 11
161.414001
 21
122.431677
 31
0.0
  0
LINE
  5
118
100
AcDbEntity
  8
Layer_1
 62
5
100
AcDbLine
 10
161.414001
 20
122.431677
 30
0.0
 11
161.414001
 21
120.832049
 31
0.0
  0
LINE
  5
119
100
AcDbEntity
  8
Layer_1
 62
5
100
AcDbLine
 10
161.414001
 20
120.832049
 30
0.0
 11
158.414289
 21
120.832049
 31
0.0
  0
LINE
  5
11a
100
AcDbEntity
  8
Layer_1
 62
5
100
AcDbLine
 10
158.414289
 20
120.832049
 30
0.0
 11
158.414289
 21
122.431677
 31
0.0
  0
LINE
  5
11b
100
AcDbEntity
  8
Layer_1
 62
5
100
AcDbLine
 10
158.414289
 20
122.431677
 30
0.0
 11
155.621813
 21
122.431677
 31
0.0
  0
LINE
  5
11c
100
AcDbEntity
  8
Layer_1
 62
5
100
AcDbLine
 10
155.621813
 20
122.431677
 30
0.0
 11
155.621813
 21
106.179644
 31
0.0
  0
LINE
  5
11d
100
AcDbEntity
  8
Layer_1
 62
5
100
AcDbLine
 10
155.621813
 20
106.179644
 30
0.0
 11
175.395008
 21
106.179644
 31
0.0
  0
LINE
  5
11e
100
AcDbEntity
  8
Layer_1
 62
5
100
AcDbLine
 10
175.395008
 20
106.179644
 30
0.0
 11
175.395008
 21
129.031929
 31
0.0
  0
LINE
  5
11f
100
AcDbEntity
  8
Layer_1
 62
5
100
AcDbLine
 10
175.395008
 20
129.031929
 30
0.0
 11
178.376545
 21
129.031929
 31
0.0
  0
LINE
  5
120
100
AcDbEntity
  8
Layer_1
 62
5
100
AcDbLine
 10
178.376545
 20
129.031929
 30
0.0
 11
178.376545
 21
139.032076
 31
0.0
  0
LINE
  5
121
100
AcDbEntity
  8
Layer_1
 62
5
100
AcDbLine
 10
178.376545
 20
139.032076
 30
0.0
 11
175.395008
 21
139.032076
 31
0.0
  0
LINE
  5
122
100
AcDbEntity
  8
Layer_1
 62
5
100
AcDbLine
 10
175.395008
 20
139.032076
 30
0.0
 11
175.395008
 21
142.388976
 31
0.0
  0
LINE
  5
123
100
AcDbEntity
  8
Layer_1
 62
5
100
AcDbLine
 10
175.395008
 20
142.388976
 30
0.0
 11
172.471920
 21
142.388976
 31
0.0
  0
LINE
  5
124
100
AcDbEntity
  8
Layer_1
 62
5
100
AcDbLine
 10
172.471920
 20
142.388976
 30
0.0
 11
172.471920
 21
140.788799
 31
0.0
  0
LINE
  5
125
100
AcDbEntity
  8
Layer_1
 62
5
100
AcDbLine
 10
172.471920
 20
140.788799
 30
0.0
 11
169.471643
 21
140.788799
 31
0.0
  0
LINE
  5
126
100
AcDbEntity
  8
Layer_1
 62
5
100
AcDbLine
 10
169.471643
 20
140.788799
 30
0.0
 11
169.471643
 21
142.388976
 31
0.0
  0
LINE
  5
127
100
AcDbEntity
  8
Layer_1
 62
5
100
AcDbLine
 10
169.471643
 20
142.388976
 30
0.0
 11
167.471845
 21
142.388976
 31
0.0
  0
LINE
  5
128
100
AcDbEntity
  8
Layer_1
 62
5
100
AcDbLine
 10
167.471845
 20
142.388976
 30
0.0
 11
167.471845
 21
145.588781
 31
0.0
  0
LINE
  5
129
100
AcDbEntity
  8
Layer_1
 62
5
100
AcDbLine
 10
167.471845
 20
145.588781
 30
0.0
 11
169.471643
 21
145.588781
 31
0.0
  0
LINE
  5
12a
100
AcDbEntity
  8
Layer_1
 62
5
100
AcDbLine
 10
169.471643
 20
145.588781
 30
0.0
 11
169.471643
 21
147.188961
 31
0.0
  0
LINE
  5
12b
100
AcDbEntity
  8
Layer_1
 62
5
100
AcDbLine
 10
169.471643
 20
147.188961
 30
0.0
 11
172.471920
 21
147.188961
 31
0.0
  0
LINE
  5
12c
100
AcDbEntity
  8
Layer_1
 62
5
100
AcDbLine
 10
172.471920
 20
147.188961
 30
0.0
 11
172.471920
 21
145.588781
 31
0.0
  0
LINE
  5
12d
100
AcDbEntity
  8
Layer_1
 62
5
100
AcDbLine
 10
172.471920
 20
145.588781
 30
0.0
 11
175.395008
 21
145.588781
 31
0.0
  0
LINE
  5
12e
100
AcDbEntity
  8
Layer_1
 62
5
100
AcDbLine
 10
175.395008
 20
145.588781
 30
0.0
 11
175.395008
 21
161.082897
 31
0.0
  0
LINE
  5
12f
100
AcDbEntity
  8
Layer_1
 62
5
100
AcDbLine
 10
175.395008
 20
161.082897
 30
0.0
 11
155.621813
 21
161.082897
 31
0.0
  0
LINE
  5
130
100
AcDbEntity
  8
Layer_1
 62
5
100
AcDbLine
 10
155.621813
 20
161.082897
 30
0.0
 11
155.621813
 21
161.082897
 31
0.0
  0
SPLINE
  5
131
100
AcDbEntity
  8
Layer_1
 62
5
100
AcDbSpline
 70
8
 71
3
 72
8
 73
4
 74
0
 40
0
 40
0
 40
0
 40
0
 40
1
 40
1
 40
1
 40
1
 10
292.516751
 20
226.161949
 30
0.0
 10
292.516751
 20
217.656860
 30
0.0
 10
287.979341
 20
209.797835
 30
0.0
 10
280.613718
 20
205.545290
 30
0.0
  0
SPLINE
  5
132
100
AcDbEntity
  8
Layer_1
 62
5
100
AcDbSpline
 70
8
 71
3
 72
8
 73
4
 74
0
 40
0
 40
0
 40
0
 40
0
 40
1
 40
1
 40
1
 40
1
 10
280.613718
 20
205.545290
 30
0.0
 10
273.248095
 20
201.292746
 30
0.0
 10
264.173274
 20
201.292746
 30
0.0
 10
256.807651
 20
205.545290
 30
0.0
  0
SPLINE
  5
133
100
AcDbEntity
  8
Layer_1
 62
5
100
AcDbSpline
 70
8
 71
3
 72
8
 73
4
 74
0
 40
0
 40
0
 40
0
 40
0
 40
1
 40
1
 40
1
 40
1
 10
256.807651
 20
205.545290
 30
0.0
 10
249.442029
 20
209.797835
 30
0.0
 10
244.904618
 20
217.656860
 30
0.0
 10
244.904618
 20
226.161949
 30
0.0
  0
SPLINE
  5
134
100
AcDbEntity
  8
Layer_1
 62
5
100
AcDbSpline
 70
8
 71
3
 72
8
 73
4
 74
0
 40
0
 40
0
 40
0
 40
0
 40
1
 40
1
 40
1
 40
1
 10
244.904618
 20
226.161949
 30
0.0
 10
244.904618
 20
234.667037
 30
0.0
 10
249.442029
 20
242.526063
 30
0.0
 10
256.807651
 20
246.778608
 30
0.0
  0
SPLINE
  5
135
100
AcDbEntity
  8
Layer_1
 62
5
100
AcDbSpline
 70
8
 71
3
 72
8
 73
4
 74
0
 40
0
 40
0
 40
0
 40
0
 40
1
 40
1
 40
1
 40
1
 10
256.807651
 20
246.778608
 30
0.0
 10
264.173274
 20
251.031152
 30
0.0
 10
273.248095
 20
251.031152
 30
0.0
 10
280.613718
 20
246.778608
 30
0.0
  0
SPLINE
  5
136
100
AcDbEntity
  8
Layer_1
 62
5
100
AcDbSpline
 70
8
 71
3
 72
8
 73
4
 74
0
 40
0
 40
0
 40
0
 40
0
 40
1
 40
1
 40
1
 40
1
 10
280.613718
 20
246.778608
 30
0.0
 10
287.979341
 20
242.526063
 30
0.0
 10
292.516751
 20
234.667037
 30
0.0
 10
292.516751
 20
226.161949
 30
0.0
  0
LINE
  5
137
100
AcDbEntity
  8
Layer_1
 62
5
100
AcDbLine
 10
292.516751
 20
226.161949
 30
0.0
 11
292.516751
 21
226.161949
 31
0.0
  0
SPLINE
  5
138
100
AcDbEntity
  8
Layer_1
 62
5
100
AcDbSpline
 70
8
 71
3
 72
8
 73
4
 74
0
 40
0
 40
0
 40
0
 40
0
 40
1
 40
1
 40
1
 40
1
 10
282.251184
 20
226.161949
 30
0.0
 10
282.251184
 20
218.683738
 30
0.0
 10
276.188896
 20
212.621450
 30
0.0
 10
268.710685
 20
212.621450
 30
0.0
  0
SPLINE
  5
139
100
AcDbEntity
  8
Layer_1
 62
5
100
AcDbSpline
 70
8
 71
3
 72
8
 73
4
 74
0
 40
0
 40
0
 40
0
 40
0
 40
1
 40
1
 40
1
 40
1
 10
268.710685
 20
212.621450
 30
0.0
 10
261.232474
 20
212.621450
 30
0.0
 10
255.170186
 20
218.683738
 30
0.0
 10
255.170185
 20
226.161949
 30
0.0
  0
SPLINE
  5
13a
100
AcDbEntity
  8
Layer_1
 62
5
100
AcDbSpline
 70
8
 71
3
 72
8
 73
4
 74
0
 40
0
 40
0
 40
0
 40
0
 40
1
 40
1
 40
1
 40
1
 10
255.170185
 20
226.161949
 30
0.0
 10
255.170186
 20
233.640160
 30
0.0
 10
261.232474
 20
239.702447
 30
0.0
 10
268.710685
 20
239.702447
 30
0.0
  0
SPLINE
  5
13b
100
AcDbEntity
  8
Layer_1
 62
5
100
AcDbSpline
 70
8
 71
3
 72
8
 73
4
 74
0
 40
0
 40
0
 40
0
 40
0
 40
1
 40
1
 40
1
 40
1
 10
268.710685
 20
239.702447
 30
0.0
 10
276.188896
 20
239.702447
 30
0.0
 10
282.251184
 20
233.640160
 30
0.0
 10
282.251184
 20
226.161949
 30
0.0
  0
LINE
  5
13c
100
AcDbEntity
  8
Layer_1
 62
5
100
AcDbLine
 10
282.251184
 20
226.161949
 30
0.0
 11
282.251184
 21
226.161949
 31
0.0
  0
SPLINE
  5
13d
100
AcDbEntity
  8
Layer_1
 62
5
100
AcDbSpline
 70
8
 71
3
 72
8
 73
4
 74
0
 40
0
 40
0
 40
0
 40
0
 40
1
 40
1
 40
1
 40
1
 10
239.004202
 20
189.477970
 30
0.0
 10
239.004202
 20
176.330243
 30
0.0
 10
228.345863
 20
165.671904
 30
0.0
 10
215.198136
 20
165.671904
 30
0.0
  0
SPLINE
  5
13e
100
AcDbEntity
  8
Layer_1
 62
5
100
AcDbSpline
 70
8
 71
3
 72
8
 73
4
 74
0
 40
0
 40
0
 40
0
 40
0
 40
1
 40
1
 40
1
 40
1
 10
215.198136
 20
165.671904
 30
0.0
 10
202.050408
 20
165.671904
 30
0.0
 10
191.392069
 20
176.330243
 30
0.0
 10
191.392069
 20
189.477970
 30
0.0
  0
SPLINE
  5
13f
100
AcDbEntity
  8
Layer_1
 62
5
100
AcDbSpline
 70
8
 71
3
 72
8
 73
4
 74
0
 40
0
 40
0
 40
0
 40
0
 40
1
 40
1
 40
1
 40
1
 10
191.392069
 20
189.477970
 30
0.0
 10
191.392069
 20
197.983058
 30
0.0
 10
195.929479
 20
205.842084
 30
0.0
 10
203.295102
 20
210.094628
 30
0.0
  0
SPLINE
  5
140
100
AcDbEntity
  8
Layer_1
 62
5
100
AcDbSpline
 70
8
 71
3
 72
8
 73
4
 74
0
 40
0
 40
0
 40
0
 40
0
 40
1
 40
1
 40
1
 40
1
 10
203.295102
 20
210.094628
 30
0.0
 10
210.660725
 20
214.347173
 30
0.0
 10
219.735546
 20
214.347173
 30
0.0
 10
227.101169
 20
210.094628
 30
0.0
  0
SPLINE
  5
141
100
AcDbEntity
  8
Layer_1
 62
5
100
AcDbSpline
 70
8
 71
3
 72
8
 73
4
 74
0
 40
0
 40
0
 40
0
 40
0
 40
1
 40
1
 40
1
 40
1
 10
227.101169
 20
210.094628
 30
0.0
 10
234.466792
 20
205.842084
 30
0.0
 10
239.004202
 20
197.983058
 30
0.0
 10
239.004202
 20
189.477970
 30
0.0
  0
LINE
  5
142
100
AcDbEntity
  8
Layer_1
 62
5
100
AcDbLine
 10
239.004202
 20
189.477970
 30
0.0
 11
239.004202
 21
189.477970
 31
0.0
  0
SPLINE
  5
143
100
AcDbEntity
  8
Layer_1
 62
5
100
AcDbSpline
 70
8
 71
3
 72
8
 73
4
 74
0
 40
0
 40
0
 40
0
 40
0
 40
1
 40
1
 40
1
 40
1
 10
228.738635
 20
189.477970
 30
0.0
 10
228.738635
 20
181.999759
 30
0.0
 10
222.676347
 20
175.937471
 30
0.0
 10
215.198136
 20
175.937471
 30
0.0
  0
SPLINE
  5
144
100
AcDbEntity
  8
Layer_1
 62
5
100
AcDbSpline
 70
8
 71
3
 72
8
 73
4
 74
0
 40
0
 40
0
 40
0
 40
0
 40
1
 40
1
 40
1
 40
1
 10
215.198136
 20
175.937471
 30
0.0
 10
207.719924
 20
175.937471
 30
0.0
 10
201.657637
 20
181.999759
 30
0.0
 10
201.657636
 20
189.477970
 30
0.0
  0
SPLINE
  5
145
100
AcDbEntity
  8
Layer_1
 62
5
100
AcDbSpline
 70
8
 71
3
 72
8
 73
4
 74
0
 40
0
 40
0
 40
0
 40
0
 40
1
 40
1
 40
1
 40
1
 10
201.657636
 20
189.477970
 30
0.0
 10
201.657636
 20
194.315524
 30
0.0
 10
204.238441
 20
198.785609
 30
0.0
 10
208.427886
 20
201.204386
 30
0.0
  0
SPLINE
  5
146
100
AcDbEntity
  8
Layer_1
 62
5
100
AcDbSpline
 70
8
 71
3
 72
8
 73
4
 74
0
 40
0
 40
0
 40
0
 40
0
 40
1
 40
1
 40
1
 40
1
 10
208.427886
 20
201.204386
 30
0.0
 10
212.617331
 20
203.623163
 30
0.0
 10
217.778940
 20
203.623163
 30
0.0
 10
221.968385
 20
201.204386
 30
0.0
  0
SPLINE
  5
147
100
AcDbEntity
  8
Layer_1
 62
5
100
AcDbSpline
 70
8
 71
3
 72
8
 73
4
 74
0
 40
0
 40
0
 40
0
 40
0
 40
1
 40
1
 40
1
 40
1
 10
221.968385
 20
201.204386
 30
0.0
 10
226.157830
 20
198.785609
 30
0.0
 10
228.738635
 20
194.315524
 30
0.0
 10
228.738635
 20
189.477970
 30
0.0
  0
LINE
  5
148
100
AcDbEntity
  8
Layer_1
 62
5
100
AcDbLine
 10
228.738635
 20
189.477970
 30
0.0
 11
228.738635
 21
189.477970
 31
0.0
  0
SPLINE
  5
149
100
AcDbEntity
  8
Layer_1
 62
5
100
AcDbSpline
 70
8
 71
3
 72
8
 73
4
 74
0
 40
0
 40
0
 40
0
 40
0
 40
1
 40
1
 40
1
 40
1
 10
287.661855
 20
174.319427
 30
0.0
 10
287.661855
 20
165.814339
 30
0.0
 10
283.124444
 20
157.955313
 30
0.0
 10
275.758821
 20
153.702769
 30
0.0
  0
SPLINE
  5
14a
100
AcDbEntity
  8
Layer_1
 62
5
100
AcDbSpline
 70
8
 71
3
 72
8
 73
4
 74
0
 40
0
 40
0
 40
0
 40
0
 40
1
 40
1
 40
1
 40
1
 10
275.758821
 20
153.702769
 30
0.0
 10
268.393199
 20
149.450224
 30
0.0
 10
259.318377
 20
149.450224
 30
0.0
 10
251.952754
 20
153.702769
 30
0.0
  0
SPLINE
  5
14b
100
AcDbEntity
  8
Layer_1
 62
5
100
AcDbSpline
 70
8
 71
3
 72
8
 73
4
 74
0
 40
0
 40
0
 40
0
 40
0
 40
1
 40
1
 40
1
 40
1
 10
251.952754
 20
153.702769
 30
0.0
 10
244.587132
 20
157.955313
 30
0.0
 10
240.049721
 20
165.814339
 30
0.0
 10
240.049721
 20
174.319427
 30
0.0
  0
SPLINE
  5
14c
100
AcDbEntity
  8
Layer_1
 62
5
100
AcDbSpline
 70
8
 71
3
 72
8
 73
4
 74
0
 40
0
 40
0
 40
0
 40
0
 40
1
 40
1
 40
1
 40
1
 10
240.049721
 20
174.319427
 30
0.0
 10
240.049721
 20
182.824516
 30
0.0
 10
244.587132
 20
190.683542
 30
0.0
 10
251.952754
 20
194.936086
 30
0.0
  0
SPLINE
  5
14d
100
AcDbEntity
  8
Layer_1
 62
5
100
AcDbSpline
 70
8
 71
3
 72
8
 73
4
 74
0
 40
0
 40
0
 40
0
 40
0
 40
1
 40
1
 40
1
 40
1
 10
251.952754
 20
194.936086
 30
0.0
 10
259.318377
 20
199.188630
 30
0.0
 10
268.393199
 20
199.188630
 30
0.0
 10
275.758821
 20
194.936086
 30
0.0
  0
SPLINE
  5
14e
100
AcDbEntity
  8
Layer_1
 62
5
100
AcDbSpline
 70
8
 71
3
 72
8
 73
4
 74
0
 40
0
 40
0
 40
0
 40
0
 40
1
 40
1
 40
1
 40
1
 10
275.758821
 20
194.936086
 30
0.0
 10
283.124444
 20
190.683542
 30
0.0
 10
287.661855
 20
182.824516
 30
0.0
 10
287.661855
 20
174.319427
 30
0.0
  0
LINE
  5
14f
100
AcDbEntity
  8
Layer_1
 62
5
100
AcDbLine
 10
287.661855
 20
174.319427
 30
0.0
 11
287.661855
 21
174.319427
 31
0.0
  0
SPLINE
  5
150
100
AcDbEntity
  8
Layer_1
 62
5
100
AcDbSpline
 70
8
 71
3
 72
8
 73
4
 74
0
 40
0
 40
0
 40
0
 40
0
 40
1
 40
1
 40
1
 40
1
 10
277.396287
 20
174.319427
 30
0.0
 10
277.396287
 20
166.841216
 30
0.0
 10
271.333999
 20
160.778929
 30
0.0
 10
263.855788
 20
160.778929
 30
0.0
  0
SPLINE
  5
151
100
AcDbEntity
  8
Layer_1
 62
5
100
AcDbSpline
 70
8
 71
3
 72
8
 73
4
 74
0
 40
0
 40
0
 40
0
 40
0
 40
1
 40
1
 40
1
 40
1
 10
263.855788
 20
160.778929
 30
0.0
 10
256.377577
 20
160.778929
 30
0.0
 10
250.315289
 20
166.841216
 30
0.0
 10
250.315289
 20
174.319427
 30
0.0
  0
SPLINE
  5
152
100
AcDbEntity
  8
Layer_1
 62
5
100
AcDbSpline
 70
8
 71
3
 72
8
 73
4
 74
0
 40
0
 40
0
 40
0
 40
0
 40
1
 40
1
 40
1
 40
1
 10
250.315289
 20
174.319427
 30
0.0
 10
250.315289
 20
181.797638
 30
0.0
 10
256.377577
 20
187.859926
 30
0.0
 10
263.855788
 20
187.859926
 30
0.0
  0
SPLINE
  5
153
100
AcDbEntity
  8
Layer_1
 62
5
100
AcDbSpline
 70
8
 71
3
 72
8
 73
4
 74
0
 40
0
 40
0
 40
0
 40
0
 40
1
 40
1
 40
1
 40
1
 10
263.855788
 20
187.859926
 30
0.0
 10
271.333999
 20
187.859926
 30
0.0
 10
277.396287
 20
181.797638
 30
0.0
 10
277.396287
 20
174.319427
 30
0.0
  0
LINE
  5
154
100
AcDbEntity
  8
Layer_1
 62
5
100
AcDbLine
 10
277.396287
 20
174.319427
 30
0.0
 11
277.396287
 21
174.319427
 31
0.0
  0
LINE
  5
155
100
AcDbEntity
  8
Layer_1
 62
7
100
AcDbLine
 10
189.566442
 20
104.168644
 30
0.0
 11
201.526709
 21
104.225419
 31
0.0
  0
LINE
  5
156
100
AcDbEntity
  8
Layer_1
 62
7
100
AcDbLine
 10
201.526709
 20
104.225419
 30
0.0
 11
209.691314
 21
104.251327
 31
0.0
  0
SPLINE
  5
157
100
AcDbEntity
  8
Layer_1
 62
7
100
AcDbSpline
 70
8
 71
3
 72
8
 73
4
 74
0
 40
0
 40
0
 40
0
 40
0
 40
1
 40
1
 40
1
 40
1
 10
209.691314
 20
104.251327
 30
0.0
 10
217.083871
 20
104.274751
 30
0.0
 10
224.822179
 20
105.653599
 30
0.0
 10
224.822179
 20
110.351075
 30
0.0
  0
LINE
  5
158
100
AcDbEntity
  8
Layer_1
 62
7
100
AcDbLine
 10
224.822179
 20
110.351075
 30
0.0
 11
224.822179
 21
120.552968
 31
0.0
  0
LINE
  5
159
100
AcDbEntity
  8
Layer_1
 62
7
100
AcDbLine
 10
224.822179
 20
120.552968
 30
0.0
 11
248.927937
 21
120.523479
 31
0.0
  0
LINE
  5
15a
100
AcDbEntity
  8
Layer_1
 62
7
100
AcDbLine
 10
248.927937
 20
120.523479
 30
0.0
 11
285.973471
 21
120.523479
 31
0.0
  0
LINE
  5
15b
100
AcDbEntity
  8
Layer_1
 62
7
100
AcDbLine
 10
285.973471
 20
120.523479
 30
0.0
 11
316.214232
 21
120.531466
 31
0.0
  0
SPLINE
  5
15c
100
AcDbEntity
  8
Layer_1
 62
7
100
AcDbSpline
 70
8
 71
3
 72
8
 73
4
 74
0
 40
0
 40
0
 40
0
 40
0
 40
1
 40
1
 40
1
 40
1
 10
316.214232
 20
120.531466
 30
0.0
 10
323.194011
 20
120.626462
 30
0.0
 10
328.910111
 20
125.836369
 30
0.0
 10
329.791209
 20
132.576620
 30
0.0
  0
LINE
  5
15d
100
AcDbEntity
  8
Layer_1
 62
7
100
AcDbLine
 10
329.791209
 20
132.576620
 30
0.0
 11
329.797418
 21
135.704218
 31
0.0
  0
SPLINE
  5
15e
100
AcDbEntity
  8
Layer_1
 62
7
100
AcDbSpline
 70
8
 71
3
 72
8
 73
4
 74
0
 40
0
 40
0
 40
0
 40
0
 40
1
 40
1
 40
1
 40
1
 10
329.797418
 20
135.704218
 30
0.0
 10
328.969999
 20
142.442805
 30
0.0
 10
323.230361
 20
147.707621
 30
0.0
 10
316.214373
 20
147.857963
 30
0.0
  0
LINE
  5
15f
100
AcDbEntity
  8
Layer_1
 62
7
100
AcDbLine
 10
316.214373
 20
147.857963
 30
0.0
 11
286.248101
 21
147.952773
 31
0.0
  0
LINE
  5
160
100
AcDbEntity
  8
Layer_1
 62
7
100
AcDbLine
 10
286.248101
 20
147.952773
 30
0.0
 11
249.202567
 21
147.667794
 31
0.0
  0
LINE
  5
161
100
AcDbEntity
  8
Layer_1
 62
7
100
AcDbLine
 10
249.202567
 20
147.667794
 30
0.0
 11
224.822320
 21
147.786304
 31
0.0
  0
LINE
  5
162
100
AcDbEntity
  8
Layer_1
 62
7
100
AcDbLine
 10
224.822320
 20
147.786304
 30
0.0
 11
224.822320
 21
158.144744
 31
0.0
  0
SPLINE
  5
163
100
AcDbEntity
  8
Layer_1
 62
7
100
AcDbSpline
 70
8
 71
3
 72
8
 73
4
 74
0
 40
0
 40
0
 40
0
 40
0
 40
1
 40
1
 40
1
 40
1
 10
224.822320
 20
158.144744
 30
0.0
 10
224.822320
 20
162.770902
 30
0.0
 10
217.239855
 20
164.059856
 30
0.0
 10
209.965972
 20
164.082434
 30
0.0
  0
LINE
  5
164
100
AcDbEntity
  8
Layer_1
 62
7
100
AcDbLine
 10
209.965972
 20
164.082434
 30
0.0
 11
201.664123
 21
164.108342
 31
0.0
  0
LINE
  5
165
100
AcDbEntity
  8
Layer_1
 62
7
100
AcDbLine
 10
201.664123
 20
164.108342
 30
0.0
 11
189.679048
 21
164.410407
 31
0.0
  0
SPLINE
  5
166
100
AcDbEntity
  8
Layer_1
 62
7
100
AcDbSpline
 70
8
 71
3
 72
8
 73
4
 74
0
 40
0
 40
0
 40
0
 40
0
 40
1
 40
1
 40
1
 40
1
 10
189.679048
 20
164.410407
 30
0.0
 10
188.228567
 20
161.312866
 30
0.0
 10
186.914287
 20
157.798372
 30
0.0
 10
186.026133
 20
154.150636
 30
0.0
  0
LINE
  5
167
100
AcDbEntity
  8
Layer_1
 62
7
100
AcDbLine
 10
186.026133
 20
154.150636
 30
0.0
 11
201.594527
 21
154.134098
 31
0.0
  0
LINE
  5
168
100
AcDbEntity
  8
Layer_1
 62
7
100
AcDbLine
 10
201.594527
 20
154.134098
 30
0.0
 11
201.594527
 21
150.734200
 31
0.0
  0
LINE
  5
169
100
AcDbEntity
  8
Layer_1
 62
7
100
AcDbLine
 10
201.594527
 20
150.734200
 30
0.0
 11
204.594239
 21
150.734200
 31
0.0
  0
LINE
  5
16a
100
AcDbEntity
  8
Layer_1
 62
7
100
AcDbLine
 10
204.594239
 20
150.734200
 30
0.0
 11
204.594239
 21
152.333827
 31
0.0
  0
LINE
  5
16b
100
AcDbEntity
  8
Layer_1
 62
7
100
AcDbLine
 10
204.594239
 20
152.333827
 30
0.0
 11
207.594487
 21
152.333827
 31
0.0
  0
LINE
  5
16c
100
AcDbEntity
  8
Layer_1
 62
7
100
AcDbLine
 10
207.594487
 20
152.333827
 30
0.0
 11
207.594487
 21
150.734200
 31
0.0
  0
LINE
  5
16d
100
AcDbEntity
  8
Layer_1
 62
7
100
AcDbLine
 10
207.594487
 20
150.734200
 30
0.0
 11
209.594314
 21
150.734200
 31
0.0
  0
LINE
  5
16e
100
AcDbEntity
  8
Layer_1
 62
7
100
AcDbLine
 10
209.594314
 20
150.734200
 30
0.0
 11
209.594314
 21
147.533845
 31
0.0
  0
LINE
  5
16f
100
AcDbEntity
  8
Layer_1
 62
7
100
AcDbLine
 10
209.594314
 20
147.533845
 30
0.0
 11
207.594487
 21
147.533845
 31
0.0
  0
LINE
  5
170
100
AcDbEntity
  8
Layer_1
 62
7
100
AcDbLine
 10
207.594487
 20
147.533845
 30
0.0
 11
207.594487
 21
145.934218
 31
0.0
  0
LINE
  5
171
100
AcDbEntity
  8
Layer_1
 62
7
100
AcDbLine
 10
207.594487
 20
145.934218
 30
0.0
 11
204.594239
 21
145.934218
 31
0.0
  0
LINE
  5
172
100
AcDbEntity
  8
Layer_1
 62
7
100
AcDbLine
 10
204.594239
 20
145.934218
 30
0.0
 11
204.594239
 21
147.533845
 31
0.0
  0
LINE
  5
173
100
AcDbEntity
  8
Layer_1
 62
7
100
AcDbLine
 10
204.594239
 20
147.533845
 30
0.0
 11
201.594527
 21
147.533845
 31
0.0
  0
LINE
  5
174
100
AcDbEntity
  8
Layer_1
 62
7
100
AcDbLine
 10
201.594527
 20
147.533845
 30
0.0
 11
201.594527
 21
144.133951
 31
0.0
  0
LINE
  5
175
100
AcDbEntity
  8
Layer_1
 62
7
100
AcDbLine
 10
201.594527
 20
144.133951
 30
0.0
 11
183.851442
 21
144.212222
 31
0.0
  0
SPLINE
  5
176
100
AcDbEntity
  8
Layer_1
 62
7
100
AcDbSpline
 70
8
 71
3
 72
8
 73
4
 74
0
 40
0
 40
0
 40
0
 40
0
 40
1
 40
1
 40
1
 40
1
 10
183.851442
 20
144.212222
 30
0.0
 10
183.401636
 20
141.465339
 30
0.0
 10
183.163525
 20
138.609654
 30
0.0
 10
183.101803
 20
135.704216
 30
0.0
  0
LINE
  5
177
100
AcDbEntity
  8
Layer_1
 62
7
100
AcDbLine
 10
183.101803
 20
135.704216
 30
0.0
 11
256.466911
 21
135.734532
 31
0.0
  0
LINE
  5
178
100
AcDbEntity
  8
Layer_1
 62
7
100
AcDbLine
 10
256.466911
 20
135.734532
 30
0.0
 11
256.466911
 21
132.598668
 31
0.0
  0
LINE
  5
179
100
AcDbEntity
  8
Layer_1
 62
7
100
AcDbLine
 10
256.466911
 20
132.598668
 30
0.0
 11
183.103468
 21
132.576626
 31
0.0
  0
SPLINE
  5
17a
100
AcDbEntity
  8
Layer_1
 62
7
100
AcDbSpline
 70
8
 71
3
 72
8
 73
4
 74
0
 40
0
 40
0
 40
0
 40
0
 40
1
 40
1
 40
1
 40
1
 10
183.103468
 20
132.576626
 30
0.0
 10
183.166516
 20
129.714365
 30
0.0
 10
183.401382
 20
126.896932
 30
0.0
 10
183.846503
 20
124.159018
 30
0.0
  0
LINE
  5
17b
100
AcDbEntity
  8
Layer_1
 62
7
100
AcDbLine
 10
183.846503
 20
124.159018
 30
0.0
 11
201.594527
 21
124.199807
 31
0.0
  0
LINE
  5
17c
100
AcDbEntity
  8
Layer_1
 62
7
100
AcDbLine
 10
201.594527
 20
124.199807
 30
0.0
 11
201.594527
 21
120.799913
 31
0.0
  0
LINE
  5
17d
100
AcDbEntity
  8
Layer_1
 62
7
100
AcDbLine
 10
201.594527
 20
120.799913
 30
0.0
 11
204.594239
 21
120.799913
 31
0.0
  0
LINE
  5
17e
100
AcDbEntity
  8
Layer_1
 62
7
100
AcDbLine
 10
204.594239
 20
120.799913
 30
0.0
 11
204.594239
 21
122.400090
 31
0.0
  0
LINE
  5
17f
100
AcDbEntity
  8
Layer_1
 62
7
100
AcDbLine
 10
204.594239
 20
122.400090
 30
0.0
 11
207.594487
 21
122.400090
 31
0.0
  0
LINE
  5
180
100
AcDbEntity
  8
Layer_1
 62
7
100
AcDbLine
 10
207.594487
 20
122.400090
 30
0.0
 11
207.594487
 21
120.799913
 31
0.0
  0
LINE
  5
181
100
AcDbEntity
  8
Layer_1
 62
7
100
AcDbLine
 10
207.594487
 20
120.799913
 30
0.0
 11
209.594314
 21
120.799913
 31
0.0
  0
LINE
  5
182
100
AcDbEntity
  8
Layer_1
 62
7
100
AcDbLine
 10
209.594314
 20
120.799913
 30
0.0
 11
209.594314
 21
117.600108
 31
0.0
  0
LINE
  5
183
100
AcDbEntity
  8
Layer_1
 62
7
100
AcDbLine
 10
209.594314
 20
117.600108
 30
0.0
 11
207.594487
 21
117.600108
 31
0.0
  0
LINE
  5
184
100
AcDbEntity
  8
Layer_1
 62
7
100
AcDbLine
 10
207.594487
 20
117.600108
 30
0.0
 11
207.594487
 21
115.999931
 31
0.0
  0
LINE
  5
185
100
AcDbEntity
  8
Layer_1
 62
7
100
AcDbLine
 10
207.594487
 20
115.999931
 30
0.0
 11
204.594239
 21
115.999931
 31
0.0
  0
LINE
  5
186
100
AcDbEntity
  8
Layer_1
 62
7
100
AcDbLine
 10
204.594239
 20
115.999931
 30
0.0
 11
204.594239
 21
117.600108
 31
0.0
  0
LINE
  5
187
100
AcDbEntity
  8
Layer_1
 62
7
100
AcDbLine
 10
204.594239
 20
117.600108
 30
0.0
 11
201.594527
 21
117.600108
 31
0.0
  0
LINE
  5
188
100
AcDbEntity
  8
Layer_1
 62
7
100
AcDbLine
 10
201.594527
 20
117.600108
 30
0.0
 11
201.594527
 21
114.199661
 31
0.0
  0
LINE
  5
189
100
AcDbEntity
  8
Layer_1
 62
7
100
AcDbLine
 10
201.594527
 20
114.199661
 30
0.0
 11
186.011655
 21
114.232181
 31
0.0
  0
SPLINE
  5
18a
100
AcDbEntity
  8
Layer_1
 62
7
100
AcDbSpline
 70
8
 71
3
 72
8
 73
4
 74
0
 40
0
 40
0
 40
0
 40
0
 40
1
 40
1
 40
1
 40
1
 10
186.011655
 20
114.232181
 30
0.0
 10
186.840119
 20
110.774541
 30
0.0
 10
188.088359
 20
107.391648
 30
0.0
 10
189.566442
 20
104.168644
 30
0.0
  0
LINE
  5
18b
100
AcDbEntity
  8
Layer_1
 62
7
100
AcDbLine
 10
189.566442
 20
104.168644
 30
0.0
 11
189.566442
 21
104.168644
 31
0.0
  0
LINE
  5
18c
100
AcDbEntity
  8
Layer_1
 62
1
100
AcDbLine
 10
313.053089
 20
139.011109
 30
0.0
 11
313.053089
 21
135.841473
 31
0.0
  0
LINE
  5
18d
100
AcDbEntity
  8
Layer_1
 62
1
100
AcDbLine
 10
313.053089
 20
135.841473
 30
0.0
 11
293.348380
 21
135.841473
 31
0.0
  0
LINE
  5
18e
100
AcDbEntity
  8
Layer_1
 62
1
100
AcDbLine
 10
293.348380
 20
135.841473
 30
0.0
 11
293.348380
 21
139.011109
 31
0.0
  0
LINE
  5
18f
100
AcDbEntity
  8
Layer_1
 62
1
100
AcDbLine
 10
293.348380
 20
139.011109
 30
0.0
 11
313.053089
 21
139.011109
 31
0.0
  0
LINE
  5
190
100
AcDbEntity
  8
Layer_1
 62
1
100
AcDbLine
 10
313.053089
 20
132.534312
 30
0.0
 11
313.053089
 21
129.364676
 31
0.0
  0
LINE
  5
191
100
AcDbEntity
  8
Layer_1
 62
1
100
AcDbLine
 10
313.053089
 20
129.364676
 30
0.0
 11
293.348380
 21
129.364676
 31
0.0
  0
LINE
  5
192
100
AcDbEntity
  8
Layer_1
 62
1
100
AcDbLine
 10
293.348380
 20
129.364676
 30
0.0
 11
293.348380
 21
132.534312
 31
0.0
  0
LINE
  5
193
100
AcDbEntity
  8
Layer_1
 62
1
100
AcDbLine
 10
293.348380
 20
132.534312
 30
0.0
 11
313.053089
 21
132.534312
 31
0.0
  0
LINE
  5
194
100
AcDbEntity
  8
Layer_1
 62
7
100
AcDbLine
 10
155.436915
 20
309.935054
 30
0.0
 11
155.406461
 21
236.848359
 31
0.0
  0
LINE
  5
195
100
AcDbEntity
  8
Layer_1
 62
7
100
AcDbLine
 10
155.406461
 20
236.848359
 30
0.0
 11
158.542429
 21
236.848359
 31
0.0
  0
LINE
  5
196
100
AcDbEntity
  8
Layer_1
 62
7
100
AcDbLine
 10
158.542429
 20
236.848359
 30
0.0
 11
158.564499
 21
309.928986
 31
0.0
  0
SPLINE
  5
197
100
AcDbEntity
  8
Layer_1
 62
7
100
AcDbSpline
 70
8
 71
3
 72
8
 73
4
 74
0
 40
0
 40
0
 40
0
 40
0
 40
1
 40
1
 40
1
 40
1
 10
158.564499
 20
309.928986
 30
0.0
 10
165.304751
 20
309.047889
 30
0.0
 10
170.522709
 20
303.332098
 30
0.0
 10
170.617705
 20
296.352319
 30
0.0
  0
LINE
  5
198
100
AcDbEntity
  8
Layer_1
 62
7
100
AcDbLine
 10
170.617705
 20
296.352319
 30
0.0
 11
170.617705
 21
266.111332
 31
0.0
  0
LINE
  5
199
100
AcDbEntity
  8
Layer_1
 62
7
100
AcDbLine
 10
170.617705
 20
266.111332
 30
0.0
 11
170.617705
 21
229.065883
 31
0.0
  0
LINE
  5
19a
100
AcDbEntity
  8
Layer_1
 62
7
100
AcDbLine
 10
170.617705
 20
229.065883
 30
0.0
 11
170.588199
 21
204.959928
 31
0.0
  0
LINE
  5
19b
100
AcDbEntity
  8
Layer_1
 62
7
100
AcDbLine
 10
170.588199
 20
204.959928
 30
0.0
 11
180.790222
 21
204.959928
 31
0.0
  0
SPLINE
  5
19c
100
AcDbEntity
  8
Layer_1
 62
7
100
AcDbSpline
 70
8
 71
3
 72
8
 73
4
 74
0
 40
0
 40
0
 40
0
 40
0
 40
1
 40
1
 40
1
 40
1
 10
180.790222
 20
204.959928
 30
0.0
 10
185.487698
 20
204.959928
 30
0.0
 10
186.866523
 20
197.221930
 30
0.0
 10
186.889948
 20
189.829373
 30
0.0
  0
LINE
  5
19d
100
AcDbEntity
  8
Layer_1
 62
7
100
AcDbLine
 10
186.889948
 20
189.829373
 30
0.0
 11
186.915630
 21
181.664599
 31
0.0
  0
LINE
  5
19e
100
AcDbEntity
  8
Layer_1
 62
7
100
AcDbLine
 10
186.915630
 20
181.664599
 30
0.0
 11
186.972343
 21
169.704134
 31
0.0
  0
SPLINE
  5
19f
100
AcDbEntity
  8
Layer_1
 62
7
100
AcDbSpline
 70
8
 71
3
 72
8
 73
4
 74
0
 40
0
 40
0
 40
0
 40
0
 40
1
 40
1
 40
1
 40
1
 10
186.972343
 20
169.704134
 30
0.0
 10
183.749339
 20
168.226052
 30
0.0
 10
180.366700
 20
166.978234
 30
0.0
 10
176.909060
 20
166.149771
 30
0.0
  0
LINE
  5
1a0
100
AcDbEntity
  8
Layer_1
 62
7
100
AcDbLine
 10
176.909060
 20
166.149771
 30
0.0
 11
176.941304
 21
181.732248
 31
0.0
  0
LINE
  5
1a1
100
AcDbEntity
  8
Layer_1
 62
7
100
AcDbLine
 10
176.941304
 20
181.732248
 30
0.0
 11
173.541288
 21
181.732248
 31
0.0
  0
LINE
  5
1a2
100
AcDbEntity
  8
Layer_1
 62
7
100
AcDbLine
 10
173.541288
 20
181.732248
 30
0.0
 11
173.541288
 21
184.732242
 31
0.0
  0
LINE
  5
1a3
100
AcDbEntity
  8
Layer_1
 62
7
100
AcDbLine
 10
173.541288
 20
184.732242
 30
0.0
 11
175.141290
 21
184.732242
 31
0.0
  0
LINE
  5
1a4
100
AcDbEntity
  8
Layer_1
 62
7
100
AcDbLine
 10
175.141290
 20
184.732242
 30
0.0
 11
175.141290
 21
187.732236
 31
0.0
  0
LINE
  5
1a5
100
AcDbEntity
  8
Layer_1
 62
7
100
AcDbLine
 10
175.141290
 20
187.732236
 30
0.0
 11
173.541288
 21
187.732236
 31
0.0
  0
LINE
  5
1a6
100
AcDbEntity
  8
Layer_1
 62
7
100
AcDbLine
 10
173.541288
 20
187.732236
 30
0.0
 11
173.541288
 21
189.732232
 31
0.0
  0
LINE
  5
1a7
100
AcDbEntity
  8
Layer_1
 62
7
100
AcDbLine
 10
173.541288
 20
189.732232
 30
0.0
 11
170.341311
 21
189.732232
 31
0.0
  0
LINE
  5
1a8
100
AcDbEntity
  8
Layer_1
 62
7
100
AcDbLine
 10
170.341311
 20
189.732232
 30
0.0
 11
170.341311
 21
187.732236
 31
0.0
  0
LINE
  5
1a9
100
AcDbEntity
  8
Layer_1
 62
7
100
AcDbLine
 10
170.341311
 20
187.732236
 30
0.0
 11
168.741309
 21
187.732236
 31
0.0
  0
LINE
  5
1aa
100
AcDbEntity
  8
Layer_1
 62
7
100
AcDbLine
 10
168.741309
 20
187.732236
 30
0.0
 11
168.741309
 21
184.732242
 31
0.0
  0
LINE
  5
1ab
100
AcDbEntity
  8
Layer_1
 62
7
100
AcDbLine
 10
168.741309
 20
184.732242
 30
0.0
 11
170.341311
 21
184.732242
 31
0.0
  0
LINE
  5
1ac
100
AcDbEntity
  8
Layer_1
 62
7
100
AcDbLine
 10
170.341311
 20
184.732242
 30
0.0
 11
170.341311
 21
181.732248
 31
0.0
  0
LINE
  5
1ad
100
AcDbEntity
  8
Layer_1
 62
7
100
AcDbLine
 10
170.341311
 20
181.732248
 30
0.0
 11
166.941323
 21
181.732248
 31
0.0
  0
LINE
  5
1ae
100
AcDbEntity
  8
Layer_1
 62
7
100
AcDbLine
 10
166.941323
 20
181.732248
 30
0.0
 11
166.981966
 21
163.984308
 31
0.0
  0
SPLINE
  5
1af
100
AcDbEntity
  8
Layer_1
 62
7
100
AcDbSpline
 70
8
 71
3
 72
8
 73
4
 74
0
 40
0
 40
0
 40
0
 40
0
 40
1
 40
1
 40
1
 40
1
 10
166.981966
 20
163.984308
 30
0.0
 10
163.738285
 20
163.456976
 30
0.0
 10
160.383712
 20
163.221828
 30
0.0
 10
156.974222
 20
163.221828
 30
0.0
  0
SPLINE
  5
1b0
100
AcDbEntity
  8
Layer_1
 62
7
100
AcDbSpline
 70
8
 71
3
 72
8
 73
4
 74
0
 40
0
 40
0
 40
0
 40
0
 40
1
 40
1
 40
1
 40
1
 10
156.974222
 20
163.221828
 30
0.0
 10
153.538835
 20
163.221828
 30
0.0
 10
150.159204
 20
163.460560
 30
0.0
 10
146.929052
 20
163.989501
 30
0.0
  0
LINE
  5
1b1
100
AcDbEntity
  8
Layer_1
 62
7
100
AcDbLine
 10
146.929052
 20
163.989501
 30
0.0
 11
147.007093
 21
181.732248
 31
0.0
  0
LINE
  5
1b2
100
AcDbEntity
  8
Layer_1
 62
7
100
AcDbLine
 10
147.007093
 20
181.732248
 30
0.0
 11
143.607105
 21
181.732248
 31
0.0
  0
LINE
  5
1b3
100
AcDbEntity
  8
Layer_1
 62
7
100
AcDbLine
 10
143.607105
 20
181.732248
 30
0.0
 11
143.607105
 21
184.732242
 31
0.0
  0
LINE
  5
1b4
100
AcDbEntity
  8
Layer_1
 62
7
100
AcDbLine
 10
143.607105
 20
184.732242
 30
0.0
 11
145.207107
 21
184.732242
 31
0.0
  0
LINE
  5
1b5
100
AcDbEntity
  8
Layer_1
 62
7
100
AcDbLine
 10
145.207107
 20
184.732242
 30
0.0
 11
145.207107
 21
187.732236
 31
0.0
  0
LINE
  5
1b6
100
AcDbEntity
  8
Layer_1
 62
7
100
AcDbLine
 10
145.207107
 20
187.732236
 30
0.0
 11
143.607105
 21
187.732236
 31
0.0
  0
LINE
  5
1b7
100
AcDbEntity
  8
Layer_1
 62
7
100
AcDbLine
 10
143.607105
 20
187.732236
 30
0.0
 11
143.607105
 21
189.732232
 31
0.0
  0
LINE
  5
1b8
100
AcDbEntity
  8
Layer_1
 62
7
100
AcDbLine
 10
143.607105
 20
189.732232
 30
0.0
 11
140.407128
 21
189.732232
 31
0.0
  0
LINE
  5
1b9
100
AcDbEntity
  8
Layer_1
 62
7
100
AcDbLine
 10
140.407128
 20
189.732232
 30
0.0
 11
140.407128
 21
187.732236
 31
0.0
  0
LINE
  5
1ba
100
AcDbEntity
  8
Layer_1
 62
7
100
AcDbLine
 10
140.407128
 20
187.732236
 30
0.0
 11
138.807126
 21
187.732236
 31
0.0
  0
LINE
  5
1bb
100
AcDbEntity
  8
Layer_1
 62
7
100
AcDbLine
 10
138.807126
 20
187.732236
 30
0.0
 11
138.807126
 21
184.732242
 31
0.0
  0
LINE
  5
1bc
100
AcDbEntity
  8
Layer_1
 62
7
100
AcDbLine
 10
138.807126
 20
184.732242
 30
0.0
 11
140.407128
 21
184.732242
 31
0.0
  0
LINE
  5
1bd
100
AcDbEntity
  8
Layer_1
 62
7
100
AcDbLine
 10
140.407128
 20
184.732242
 30
0.0
 11
140.407128
 21
181.732248
 31
0.0
  0
LINE
  5
1be
100
AcDbEntity
  8
Layer_1
 62
7
100
AcDbLine
 10
140.407128
 20
181.732248
 30
0.0
 11
137.007112
 21
181.732248
 31
0.0
  0
LINE
  5
1bf
100
AcDbEntity
  8
Layer_1
 62
7
100
AcDbLine
 10
137.007112
 20
181.732248
 30
0.0
 11
136.990518
 21
166.163713
 31
0.0
  0
SPLINE
  5
1c0
100
AcDbEntity
  8
Layer_1
 62
7
100
AcDbSpline
 70
8
 71
3
 72
8
 73
4
 74
0
 40
0
 40
0
 40
0
 40
0
 40
1
 40
1
 40
1
 40
1
 10
136.990518
 20
166.163713
 30
0.0
 10
133.342781
 20
167.051866
 30
0.0
 10
129.828101
 20
168.366514
 30
0.0
 10
126.730560
 20
169.816995
 30
0.0
  0
LINE
  5
1c1
100
AcDbEntity
  8
Layer_1
 62
7
100
AcDbLine
 10
126.730560
 20
169.816995
 30
0.0
 11
127.032826
 21
181.801788
 31
0.0
  0
LINE
  5
1c2
100
AcDbEntity
  8
Layer_1
 62
7
100
AcDbLine
 10
127.032826
 20
181.801788
 30
0.0
 11
127.058508
 21
190.103721
 31
0.0
  0
SPLINE
  5
1c3
100
AcDbEntity
  8
Layer_1
 62
7
100
AcDbSpline
 70
8
 71
3
 72
8
 73
4
 74
0
 40
0
 40
0
 40
0
 40
0
 40
1
 40
1
 40
1
 40
1
 10
127.058508
 20
190.103721
 30
0.0
 10
127.081086
 20
197.377604
 30
0.0
 10
128.370446
 20
204.959928
 30
0.0
 10
132.996605
 20
204.959928
 30
0.0
  0
LINE
  5
1c4
100
AcDbEntity
  8
Layer_1
 62
7
100
AcDbLine
 10
132.996605
 20
204.959928
 30
0.0
 11
143.354810
 21
204.959928
 31
0.0
  0
LINE
  5
1c5
100
AcDbEntity
  8
Layer_1
 62
7
100
AcDbLine
 10
143.354810
 20
204.959928
 30
0.0
 11
143.330708
 21
229.340231
 31
0.0
  0
LINE
  5
1c6
100
AcDbEntity
  8
Layer_1
 62
7
100
AcDbLine
 10
143.330708
 20
229.340231
 30
0.0
 11
143.330708
 21
266.385652
 31
0.0
  0
LINE
  5
1c7
100
AcDbEntity
  8
Layer_1
 62
7
100
AcDbLine
 10
143.330708
 20
266.385652
 30
0.0
 11
143.330708
 21
296.352376
 31
0.0
  0
SPLINE
  5
1c8
100
AcDbEntity
  8
Layer_1
 62
7
100
AcDbSpline
 70
8
 71
3
 72
8
 73
4
 74
0
 40
0
 40
0
 40
0
 40
0
 40
1
 40
1
 40
1
 40
1
 10
143.330708
 20
296.352376
 30
0.0
 10
143.481050
 20
303.368364
 30
0.0
 10
148.698315
 20
309.107635
 30
0.0
 10
155.436901
 20
309.935054
 30
0.0
  0
LINE
  5
1c9
100
AcDbEntity
  8
Layer_1
 62
7
100
AcDbLine
 10
155.436901
 20
309.935054
 30
0.0
 11
155.436915
 21
309.935054
 31
0.0
  0
SPLINE
  5
1ca
100
AcDbEntity
  8
Layer_1
 62
1
100
AcDbSpline
 70
8
 71
3
 72
8
 73
4
 74
0
 40
0
 40
0
 40
0
 40
0
 40
1
 40
1
 40
1
 40
1
 10
164.867842
 20
281.087624
 30
0.0
 10
164.451985
 20
281.087624
 30
0.0
 10
164.053160
 20
281.252824
 30
0.0
 10
163.759106
 20
281.546881
 30
0.0
  0
SPLINE
  5
1cb
100
AcDbEntity
  8
Layer_1
 62
1
100
AcDbSpline
 70
8
 71
3
 72
8
 73
4
 74
0
 40
0
 40
0
 40
0
 40
0
 40
1
 40
1
 40
1
 40
1
 10
163.759106
 20
281.546881
 30
0.0
 10
163.465052
 20
281.840939
 30
0.0
 10
163.299856
 20
282.239765
 30
0.0
 10
163.299861
 20
282.655623
 30
0.0
  0
SPLINE
  5
1cc
100
AcDbEntity
  8
Layer_1
 62
1
100
AcDbSpline
 70
8
 71
3
 72
8
 73
4
 74
0
 40
0
 40
0
 40
0
 40
0
 40
1
 40
1
 40
1
 40
1
 10
163.299861
 20
282.655623
 30
0.0
 10
163.299867
 20
283.521591
 30
0.0
 10
164.001874
 20
284.223593
 30
0.0
 10
164.867842
 20
284.223593
 30
0.0
  0
SPLINE
  5
1cd
100
AcDbEntity
  8
Layer_1
 62
1
100
AcDbSpline
 70
8
 71
3
 72
8
 73
4
 74
0
 40
0
 40
0
 40
0
 40
0
 40
1
 40
1
 40
1
 40
1
 10
164.867842
 20
284.223593
 30
0.0
 10
165.733810
 20
284.223593
 30
0.0
 10
166.435818
 20
283.521591
 30
0.0
 10
166.435824
 20
282.655623
 30
0.0
  0
SPLINE
  5
1ce
100
AcDbEntity
  8
Layer_1
 62
1
100
AcDbSpline
 70
8
 71
3
 72
8
 73
4
 74
0
 40
0
 40
0
 40
0
 40
0
 40
1
 40
1
 40
1
 40
1
 10
166.435824
 20
282.655623
 30
0.0
 10
166.435828
 20
282.239765
 30
0.0
 10
166.270633
 20
281.840939
 30
0.0
 10
165.976579
 20
281.546881
 30
0.0
  0
SPLINE
  5
1cf
100
AcDbEntity
  8
Layer_1
 62
1
100
AcDbSpline
 70
8
 71
3
 72
8
 73
4
 74
0
 40
0
 40
0
 40
0
 40
0
 40
1
 40
1
 40
1
 40
1
 10
165.976579
 20
281.546881
 30
0.0
 10
165.682525
 20
281.252824
 30
0.0
 10
165.283700
 20
281.087624
 30
0.0
 10
164.867842
 20
281.087624
 30
0.0
  0
LINE
  5
1d0
100
AcDbEntity
  8
Layer_1
 62
1
100
AcDbLine
 10
164.867842
 20
281.087624
 30
0.0
 11
164.867842
 21
281.087624
 31
0.0
  0
SPLINE
  5
1d1
100
AcDbEntity
  8
Layer_1
 62
1
100
AcDbSpline
 70
8
 71
3
 72
8
 73
4
 74
0
 40
0
 40
0
 40
0
 40
0
 40
1
 40
1
 40
1
 40
1
 10
148.834394
 20
281.087627
 30
0.0
 10
149.250251
 20
281.087627
 30
0.0
 10
149.649076
 20
281.252827
 30
0.0
 10
149.943130
 20
281.546884
 30
0.0
  0
SPLINE
  5
1d2
100
AcDbEntity
  8
Layer_1
 62
1
100
AcDbSpline
 70
8
 71
3
 72
8
 73
4
 74
0
 40
0
 40
0
 40
0
 40
0
 40
1
 40
1
 40
1
 40
1
 10
149.943130
 20
281.546884
 30
0.0
 10
150.237185
 20
281.840941
 30
0.0
 10
150.402380
 20
282.239768
 30
0.0
 10
150.402376
 20
282.655626
 30
0.0
  0
SPLINE
  5
1d3
100
AcDbEntity
  8
Layer_1
 62
1
100
AcDbSpline
 70
8
 71
3
 72
8
 73
4
 74
0
 40
0
 40
0
 40
0
 40
0
 40
1
 40
1
 40
1
 40
1
 10
150.402376
 20
282.655626
 30
0.0
 10
150.402369
 20
283.521594
 30
0.0
 10
149.700362
 20
284.223596
 30
0.0
 10
148.834394
 20
284.223596
 30
0.0
  0
SPLINE
  5
1d4
100
AcDbEntity
  8
Layer_1
 62
1
100
AcDbSpline
 70
8
 71
3
 72
8
 73
4
 74
0
 40
0
 40
0
 40
0
 40
0
 40
1
 40
1
 40
1
 40
1
 10
148.834394
 20
284.223596
 30
0.0
 10
147.968426
 20
284.223596
 30
0.0
 10
147.266419
 20
283.521594
 30
0.0
 10
147.266412
 20
282.655626
 30
0.0
  0
SPLINE
  5
1d5
100
AcDbEntity
  8
Layer_1
 62
1
100
AcDbSpline
 70
8
 71
3
 72
8
 73
4
 74
0
 40
0
 40
0
 40
0
 40
0
 40
1
 40
1
 40
1
 40
1
 10
147.266412
 20
282.655626
 30
0.0
 10
147.266408
 20
282.239768
 30
0.0
 10
147.431603
 20
281.840941
 30
0.0
 10
147.725658
 20
281.546884
 30
0.0
  0
SPLINE
  5
1d6
100
AcDbEntity
  8
Layer_1
 62
1
100
AcDbSpline
 70
8
 71
3
 72
8
 73
4
 74
0
 40
0
 40
0
 40
0
 40
0
 40
1
 40
1
 40
1
 40
1
 10
147.725658
 20
281.546884
 30
0.0
 10
148.019712
 20
281.252827
 30
0.0
 10
148.418536
 20
281.087627
 30
0.0
 10
148.834394
 20
281.087627
 30
0.0
  0
LINE
  5
1d7
100
AcDbEntity
  8
Layer_1
 62
1
100
AcDbLine
 10
148.834394
 20
281.087627
 30
0.0
 11
148.834394
 21
281.087627
 31
0.0
  0
SPLINE
  5
1d8
100
AcDbEntity
  8
Layer_1
 62
5
100
AcDbSpline
 70
8
 71
3
 72
8
 73
4
 74
0
 40
0
 40
0
 40
0
 40
0
 40
1
 40
1
 40
1
 40
1
 10
205.729856
 20
236.790644
 30
0.0
 10
205.605933
 20
238.564422
 30
0.0
 10
204.320834
 20
240.198734
 30
0.0
 10
202.602072
 20
240.685692
 30
0.0
  0
SPLINE
  5
1d9
100
AcDbEntity
  8
Layer_1
 62
5
100
AcDbSpline
 70
8
 71
3
 72
8
 73
4
 74
0
 40
0
 40
0
 40
0
 40
0
 40
1
 40
1
 40
1
 40
1
 10
202.602072
 20
240.685692
 30
0.0
 10
201.622055
 20
240.975633
 30
0.0
 10
200.596036
 20
240.876595
 30
0.0
 10
199.587374
 20
240.895400
 30
0.0
  0
LINE
  5
1da
100
AcDbEntity
  8
Layer_1
 62
5
100
AcDbLine
 10
199.587374
 20
240.895400
 30
0.0
 11
195.961919
 21
240.932137
 31
0.0
  0
LINE
  5
1db
100
AcDbEntity
  8
Layer_1
 62
5
100
AcDbLine
 10
195.961919
 20
240.932137
 30
0.0
 11
196.063406
 21
301.189473
 31
0.0
  0
LINE
  5
1dc
100
AcDbEntity
  8
Layer_1
 62
5
100
AcDbLine
 10
196.063406
 20
301.189473
 30
0.0
 11
215.734437
 21
301.189473
 31
0.0
  0
LINE
  5
1dd
100
AcDbEntity
  8
Layer_1
 62
5
100
AcDbLine
 10
215.734437
 20
301.189473
 30
0.0
 11
215.722301
 21
261.050588
 31
0.0
  0
LINE
  5
1de
100
AcDbEntity
  8
Layer_1
 62
5
100
AcDbLine
 10
215.722301
 20
261.050588
 30
0.0
 11
210.267312
 21
261.130330
 31
0.0
  0
SPLINE
  5
1df
100
AcDbEntity
  8
Layer_1
 62
5
100
AcDbSpline
 70
8
 71
3
 72
8
 73
4
 74
0
 40
0
 40
0
 40
0
 40
0
 40
1
 40
1
 40
1
 40
1
 10
210.267312
 20
261.130330
 30
0.0
 10
209.575614
 20
261.078909
 30
0.0
 10
208.873473
 20
260.974289
 30
0.0
 10
208.254927
 20
260.637993
 30
0.0
  0
SPLINE
  5
1e0
100
AcDbEntity
  8
Layer_1
 62
5
100
AcDbSpline
 70
8
 71
3
 72
8
 73
4
 74
0
 40
0
 40
0
 40
0
 40
0
 40
1
 40
1
 40
1
 40
1
 10
208.254927
 20
260.637993
 30
0.0
 10
206.697935
 20
259.857536
 30
0.0
 10
205.685096
 20
258.107899
 30
0.0
 10
205.840572
 20
256.364980
 30
0.0
  0
SPLINE
  5
1e1
100
AcDbEntity
  8
Layer_1
 62
5
100
AcDbSpline
 70
8
 71
3
 72
8
 73
4
 74
0
 40
0
 40
0
 40
0
 40
0
 40
1
 40
1
 40
1
 40
1
 10
205.840572
 20
256.364980
 30
0.0
 10
205.964496
 20
254.591185
 30
0.0
 10
207.249595
 20
252.956892
 30
0.0
 10
208.968356
 20
252.469918
 30
0.0
  0
SPLINE
  5
1e2
100
AcDbEntity
  8
Layer_1
 62
5
100
AcDbSpline
 70
8
 71
3
 72
8
 73
4
 74
0
 40
0
 40
0
 40
0
 40
0
 40
1
 40
1
 40
1
 40
1
 10
208.968356
 20
252.469918
 30
0.0
 10
209.948373
 20
252.179991
 30
0.0
 10
210.974392
 20
252.279023
 30
0.0
 10
211.983054
 20
252.260227
 30
0.0
  0
LINE
  5
1e3
100
AcDbEntity
  8
Layer_1
 62
5
100
AcDbLine
 10
211.983054
 20
252.260227
 30
0.0
 11
215.722301
 21
252.339223
 31
0.0
  0
LINE
  5
1e4
100
AcDbEntity
  8
Layer_1
 62
5
100
AcDbLine
 10
215.722301
 20
252.339223
 30
0.0
 11
215.727889
 21
236.755513
 31
0.0
  0
LINE
  5
1e5
100
AcDbEntity
  8
Layer_1
 62
5
100
AcDbLine
 10
215.727889
 20
236.755513
 30
0.0
 11
205.729856
 21
236.790644
 31
0.0
  0
SPLINE
  5
1e6
100
AcDbEntity
  8
Layer_1
 62
1
100
AcDbSpline
 70
8
 71
3
 72
8
 73
4
 74
0
 40
0
 40
0
 40
0
 40
0
 40
1
 40
1
 40
1
 40
1
 10
207.415908
 20
295.060088
 30
0.0
 10
207.415908
 20
294.644231
 30
0.0
 10
207.250708
 20
294.245406
 30
0.0
 10
206.956651
 20
293.951352
 30
0.0
  0
SPLINE
  5
1e7
100
AcDbEntity
  8
Layer_1
 62
1
100
AcDbSpline
 70
8
 71
3
 72
8
 73
4
 74
0
 40
0
 40
0
 40
0
 40
0
 40
1
 40
1
 40
1
 40
1
 10
206.956651
 20
293.951352
 30
0.0
 10
206.662594
 20
293.657298
 30
0.0
 10
206.263767
 20
293.492103
 30
0.0
 10
205.847910
 20
293.492107
 30
0.0
  0
SPLINE
  5
1e8
100
AcDbEntity
  8
Layer_1
 62
1
100
AcDbSpline
 70
8
 71
3
 72
8
 73
4
 74
0
 40
0
 40
0
 40
0
 40
0
 40
1
 40
1
 40
1
 40
1
 10
205.847910
 20
293.492107
 30
0.0
 10
204.981942
 20
293.492113
 30
0.0
 10
204.279940
 20
294.194121
 30
0.0
 10
204.279940
 20
295.060088
 30
0.0
  0
SPLINE
  5
1e9
100
AcDbEntity
  8
Layer_1
 62
1
100
AcDbSpline
 70
8
 71
3
 72
8
 73
4
 74
0
 40
0
 40
0
 40
0
 40
0
 40
1
 40
1
 40
1
 40
1
 10
204.279940
 20
295.060088
 30
0.0
 10
204.279939
 20
295.926056
 30
0.0
 10
204.981942
 20
296.628064
 30
0.0
 10
205.847910
 20
296.628070
 30
0.0
  0
SPLINE
  5
1ea
100
AcDbEntity
  8
Layer_1
 62
1
100
AcDbSpline
 70
8
 71
3
 72
8
 73
4
 74
0
 40
0
 40
0
 40
0
 40
0
 40
1
 40
1
 40
1
 40
1
 10
205.847910
 20
296.628070
 30
0.0
 10
206.263767
 20
296.628075
 30
0.0
 10
206.662594
 20
296.462879
 30
0.0
 10
206.956651
 20
296.168825
 30
0.0
  0
SPLINE
  5
1eb
100
AcDbEntity
  8
Layer_1
 62
1
100
AcDbSpline
 70
8
 71
3
 72
8
 73
4
 74
0
 40
0
 40
0
 40
0
 40
0
 40
1
 40
1
 40
1
 40
1
 10
206.956651
 20
296.168825
 30
0.0
 10
207.250709
 20
295.874771
 30
0.0
 10
207.415908
 20
295.475946
 30
0.0
 10
207.415908
 20
295.060088
 30
0.0
  0
LINE
  5
1ec
100
AcDbEntity
  8
Layer_1
 62
1
100
AcDbLine
 10
207.415908
 20
295.060088
 30
0.0
 11
207.415908
 21
295.060088
 31
0.0
  0
SPLINE
  5
1ed
100
AcDbEntity
  8
Layer_1
 62
1
100
AcDbSpline
 70
8
 71
3
 72
8
 73
4
 74
0
 40
0
 40
0
 40
0
 40
0
 40
1
 40
1
 40
1
 40
1
 10
207.415908
 20
279.438236
 30
0.0
 10
207.415908
 20
279.022378
 30
0.0
 10
207.250709
 20
278.623553
 30
0.0
 10
206.956651
 20
278.329499
 30
0.0
  0
SPLINE
  5
1ee
100
AcDbEntity
  8
Layer_1
 62
1
100
AcDbSpline
 70
8
 71
3
 72
8
 73
4
 74
0
 40
0
 40
0
 40
0
 40
0
 40
1
 40
1
 40
1
 40
1
 10
206.956651
 20
278.329499
 30
0.0
 10
206.662594
 20
278.035445
 30
0.0
 10
206.263767
 20
277.870250
 30
0.0
 10
205.847910
 20
277.870254
 30
0.0
  0
SPLINE
  5
1ef
100
AcDbEntity
  8
Layer_1
 62
1
100
AcDbSpline
 70
8
 71
3
 72
8
 73
4
 74
0
 40
0
 40
0
 40
0
 40
0
 40
1
 40
1
 40
1
 40
1
 10
205.847910
 20
277.870254
 30
0.0
 10
204.981942
 20
277.870260
 30
0.0
 10
204.279939
 20
278.572268
 30
0.0
 10
204.279940
 20
279.438236
 30
0.0
  0
SPLINE
  5
1f0
100
AcDbEntity
  8
Layer_1
 62
1
100
AcDbSpline
 70
8
 71
3
 72
8
 73
4
 74
0
 40
0
 40
0
 40
0
 40
0
 40
1
 40
1
 40
1
 40
1
 10
204.279940
 20
279.438236
 30
0.0
 10
204.279939
 20
280.304204
 30
0.0
 10
204.981942
 20
281.006211
 30
0.0
 10
205.847910
 20
281.006217
 30
0.0
  0
SPLINE
  5
1f1
100
AcDbEntity
  8
Layer_1
 62
1
100
AcDbSpline
 70
8
 71
3
 72
8
 73
4
 74
0
 40
0
 40
0
 40
0
 40
0
 40
1
 40
1
 40
1
 40
1
 10
205.847910
 20
281.006217
 30
0.0
 10
206.263767
 20
281.006222
 30
0.0
 10
206.662594
 20
280.841026
 30
0.0
 10
206.956651
 20
280.546972
 30
0.0
  0
SPLINE
  5
1f2
100
AcDbEntity
  8
Layer_1
 62
1
100
AcDbSpline
 70
8
 71
3
 72
8
 73
4
 74
0
 40
0
 40
0
 40
0
 40
0
 40
1
 40
1
 40
1
 40
1
 10
206.956651
 20
280.546972
 30
0.0
 10
207.250709
 20
280.252918
 30
0.0
 10
207.415908
 20
279.854093
 30
0.0
 10
207.415908
 20
279.438236
 30
0.0
  0
LINE
  5
1f3
100
AcDbEntity
  8
Layer_1
 62
1
100
AcDbLine
 10
207.415908
 20
279.438236
 30
0.0
 11
207.415908
 21
279.438236
 31
0.0
  0
SPLINE
  5
1f4
100
AcDbEntity
  8
Layer_1
 62
5
100
AcDbSpline
 70
8
 71
3
 72
8
 73
4
 74
0
 40
0
 40
0
 40
0
 40
0
 40
1
 40
1
 40
1
 40
1
 10
232.803037
 20
260.323101
 30
0.0
 10
232.111338
 20
260.271680
 30
0.0
 10
231.409198
 20
260.167061
 30
0.0
 10
230.790651
 20
259.830765
 30
0.0
  0
SPLINE
  5
1f5
100
AcDbEntity
  8
Layer_1
 62
5
100
AcDbSpline
 70
8
 71
3
 72
8
 73
4
 74
0
 40
0
 40
0
 40
0
 40
0
 40
1
 40
1
 40
1
 40
1
 10
230.790651
 20
259.830765
 30
0.0
 10
229.233659
 20
259.050307
 30
0.0
 10
228.220820
 20
257.300670
 30
0.0
 10
228.376296
 20
255.557751
 30
0.0
  0
SPLINE
  5
1f6
100
AcDbEntity
  8
Layer_1
 62
5
100
AcDbSpline
 70
8
 71
3
 72
8
 73
4
 74
0
 40
0
 40
0
 40
0
 40
0
 40
1
 40
1
 40
1
 40
1
 10
228.376296
 20
255.557751
 30
0.0
 10
228.500220
 20
253.783956
 30
0.0
 10
229.785319
 20
252.149663
 30
0.0
 10
231.504081
 20
251.662689
 30
0.0
  0
SPLINE
  5
1f7
100
AcDbEntity
  8
Layer_1
 62
5
100
AcDbSpline
 70
8
 71
3
 72
8
 73
4
 74
0
 40
0
 40
0
 40
0
 40
0
 40
1
 40
1
 40
1
 40
1
 10
231.504081
 20
251.662689
 30
0.0
 10
232.484097
 20
251.372762
 30
0.0
 10
233.510116
 20
251.471794
 30
0.0
 10
234.518779
 20
251.452998
 30
0.0
  0
LINE
  5
1f8
100
AcDbEntity
  8
Layer_1
 62
5
100
AcDbLine
 10
234.518779
 20
251.452998
 30
0.0
 11
238.258026
 21
251.531994
 31
0.0
  0
LINE
  5
1f9
100
AcDbEntity
  8
Layer_1
 62
5
100
AcDbLine
 10
238.258026
 20
251.531994
 30
0.0
 11
238.270161
 21
217.706867
 31
0.0
  0
LINE
  5
1fa
100
AcDbEntity
  8
Layer_1
 62
5
100
AcDbLine
 10
238.270161
 20
217.706867
 30
0.0
 11
218.599131
 21
217.706867
 31
0.0
  0
LINE
  5
1fb
100
AcDbEntity
  8
Layer_1
 62
5
100
AcDbLine
 10
218.599131
 20
217.706867
 30
0.0
 11
218.497644
 21
231.315798
 31
0.0
  0
LINE
  5
1fc
100
AcDbEntity
  8
Layer_1
 62
5
100
AcDbLine
 10
218.497644
 20
231.315798
 30
0.0
 11
223.838840
 21
231.315798
 31
0.0
  0
SPLINE
  5
1fd
100
AcDbEntity
  8
Layer_1
 62
5
100
AcDbSpline
 70
8
 71
3
 72
8
 73
4
 74
0
 40
0
 40
0
 40
0
 40
0
 40
1
 40
1
 40
1
 40
1
 10
223.838840
 20
231.315798
 30
0.0
 10
224.530539
 20
231.367222
 30
0.0
 10
225.232680
 20
231.374083
 30
0.0
 10
225.851226
 20
231.710379
 30
0.0
  0
SPLINE
  5
1fe
100
AcDbEntity
  8
Layer_1
 62
5
100
AcDbSpline
 70
8
 71
3
 72
8
 73
4
 74
0
 40
0
 40
0
 40
0
 40
0
 40
1
 40
1
 40
1
 40
1
 10
225.851226
 20
231.710379
 30
0.0
 10
227.408218
 20
232.490839
 30
0.0
 10
228.421057
 20
234.240498
 30
0.0
 10
228.265581
 20
235.983415
 30
0.0
  0
SPLINE
  5
1ff
100
AcDbEntity
  8
Layer_1
 62
5
100
AcDbSpline
 70
8
 71
3
 72
8
 73
4
 74
0
 40
0
 40
0
 40
0
 40
0
 40
1
 40
1
 40
1
 40
1
 10
228.265581
 20
235.983415
 30
0.0
 10
228.141657
 20
237.757193
 30
0.0
 10
226.856558
 20
239.391505
 30
0.0
 10
225.137796
 20
239.878463
 30
0.0
  0
SPLINE
  5
200
100
AcDbEntity
  8
Layer_1
 62
5
100
AcDbSpline
 70
8
 71
3
 72
8
 73
4
 74
0
 40
0
 40
0
 40
0
 40
0
 40
1
 40
1
 40
1
 40
1
 10
225.137796
 20
239.878463
 30
0.0
 10
224.157780
 20
240.168404
 30
0.0
 10
223.131761
 20
240.069366
 30
0.0
 10
222.123099
 20
240.088171
 30
0.0
  0
LINE
  5
201
100
AcDbEntity
  8
Layer_1
 62
5
100
AcDbLine
 10
222.123099
 20
240.088171
 30
0.0
 11
218.497644
 21
240.124908
 31
0.0
  0
LINE
  5
202
100
AcDbEntity
  8
Layer_1
 62
5
100
AcDbLine
 10
218.497644
 20
240.124908
 30
0.0
 11
218.599131
 21
300.382244
 31
0.0
  0
LINE
  5
203
100
AcDbEntity
  8
Layer_1
 62
5
100
AcDbLine
 10
218.599131
 20
300.382244
 30
0.0
 11
238.270161
 21
300.382244
 31
0.0
  0
LINE
  5
204
100
AcDbEntity
  8
Layer_1
 62
5
100
AcDbLine
 10
238.270161
 20
300.382244
 30
0.0
 11
238.258026
 21
260.243359
 31
0.0
  0
LINE
  5
205
100
AcDbEntity
  8
Layer_1
 62
5
100
AcDbLine
 10
238.258026
 20
260.243359
 30
0.0
 11
232.803037
 21
260.323101
 31
0.0
  0
SPLINE
  5
206
100
AcDbEntity
  8
Layer_1
 62
1
100
AcDbSpline
 70
8
 71
3
 72
8
 73
4
 74
0
 40
0
 40
0
 40
0
 40
0
 40
1
 40
1
 40
1
 40
1
 10
229.951633
 20
294.252859
 30
0.0
 10
229.951633
 20
293.837002
 30
0.0
 10
229.786433
 20
293.438177
 30
0.0
 10
229.492376
 20
293.144123
 30
0.0
  0
SPLINE
  5
207
100
AcDbEntity
  8
Layer_1
 62
1
100
AcDbSpline
 70
8
 71
3
 72
8
 73
4
 74
0
 40
0
 40
0
 40
0
 40
0
 40
1
 40
1
 40
1
 40
1
 10
229.492376
 20
293.144123
 30
0.0
 10
229.198318
 20
292.850069
 30
0.0
 10
228.799492
 20
292.684874
 30
0.0
 10
228.383634
 20
292.684878
 30
0.0
  0
SPLINE
  5
208
100
AcDbEntity
  8
Layer_1
 62
1
100
AcDbSpline
 70
8
 71
3
 72
8
 73
4
 74
0
 40
0
 40
0
 40
0
 40
0
 40
1
 40
1
 40
1
 40
1
 10
228.383634
 20
292.684878
 30
0.0
 10
227.517666
 20
292.684884
 30
0.0
 10
226.815664
 20
293.386892
 30
0.0
 10
226.815664
 20
294.252859
 30
0.0
  0
SPLINE
  5
209
100
AcDbEntity
  8
Layer_1
 62
1
100
AcDbSpline
 70
8
 71
3
 72
8
 73
4
 74
0
 40
0
 40
0
 40
0
 40
0
 40
1
 40
1
 40
1
 40
1
 10
226.815664
 20
294.252859
 30
0.0
 10
226.815664
 20
295.118827
 30
0.0
 10
227.517666
 20
295.820835
 30
0.0
 10
228.383634
 20
295.820841
 30
0.0
  0
SPLINE
  5
20a
100
AcDbEntity
  8
Layer_1
 62
1
100
AcDbSpline
 70
8
 71
3
 72
8
 73
4
 74
0
 40
0
 40
0
 40
0
 40
0
 40
1
 40
1
 40
1
 40
1
 10
228.383634
 20
295.820841
 30
0.0
 10
228.799492
 20
295.820846
 30
0.0
 10
229.198318
 20
295.655650
 30
0.0
 10
229.492376
 20
295.361596
 30
0.0
  0
SPLINE
  5
20b
100
AcDbEntity
  8
Layer_1
 62
1
100
AcDbSpline
 70
8
 71
3
 72
8
 73
4
 74
0
 40
0
 40
0
 40
0
 40
0
 40
1
 40
1
 40
1
 40
1
 10
229.492376
 20
295.361596
 30
0.0
 10
229.786433
 20
295.067542
 30
0.0
 10
229.951633
 20
294.668717
 30
0.0
 10
229.951633
 20
294.252859
 30
0.0
  0
LINE
  5
20c
100
AcDbEntity
  8
Layer_1
 62
1
100
AcDbLine
 10
229.951633
 20
294.252859
 30
0.0
 11
229.951633
 21
294.252859
 31
0.0
  0
SPLINE
  5
20d
100
AcDbEntity
  8
Layer_1
 62
1
100
AcDbSpline
 70
8
 71
3
 72
8
 73
4
 74
0
 40
0
 40
0
 40
0
 40
0
 40
1
 40
1
 40
1
 40
1
 10
229.951633
 20
278.631007
 30
0.0
 10
229.951633
 20
278.215149
 30
0.0
 10
229.786433
 20
277.816324
 30
0.0
 10
229.492376
 20
277.522270
 30
0.0
  0
SPLINE
  5
20e
100
AcDbEntity
  8
Layer_1
 62
1
100
AcDbSpline
 70
8
 71
3
 72
8
 73
4
 74
0
 40
0
 40
0
 40
0
 40
0
 40
1
 40
1
 40
1
 40
1
 10
229.492376
 20
277.522270
 30
0.0
 10
229.198318
 20
277.228216
 30
0.0
 10
228.799492
 20
277.063021
 30
0.0
 10
228.383634
 20
277.063025
 30
0.0
  0
SPLINE
  5
20f
100
AcDbEntity
  8
Layer_1
 62
1
100
AcDbSpline
 70
8
 71
3
 72
8
 73
4
 74
0
 40
0
 40
0
 40
0
 40
0
 40
1
 40
1
 40
1
 40
1
 10
228.383634
 20
277.063025
 30
0.0
 10
227.517666
 20
277.063031
 30
0.0
 10
226.815664
 20
277.765039
 30
0.0
 10
226.815664
 20
278.631007
 30
0.0
  0
SPLINE
  5
210
100
AcDbEntity
  8
Layer_1
 62
1
100
AcDbSpline
 70
8
 71
3
 72
8
 73
4
 74
0
 40
0
 40
0
 40
0
 40
0
 40
1
 40
1
 40
1
 40
1
 10
226.815664
 20
278.631007
 30
0.0
 10
226.815664
 20
279.496975
 30
0.0
 10
227.517666
 20
280.198982
 30
0.0
 10
228.383634
 20
280.198988
 30
0.0
  0
SPLINE
  5
211
100
AcDbEntity
  8
Layer_1
 62
1
100
AcDbSpline
 70
8
 71
3
 72
8
 73
4
 74
0
 40
0
 40
0
 40
0
 40
0
 40
1
 40
1
 40
1
 40
1
 10
228.383634
 20
280.198988
 30
0.0
 10
228.799492
 20
280.198993
 30
0.0
 10
229.198318
 20
280.033797
 30
0.0
 10
229.492376
 20
279.739743
 30
0.0
  0
SPLINE
  5
212
100
AcDbEntity
  8
Layer_1
 62
1
100
AcDbSpline
 70
8
 71
3
 72
8
 73
4
 74
0
 40
0
 40
0
 40
0
 40
0
 40
1
 40
1
 40
1
 40
1
 10
229.492376
 20
279.739743
 30
0.0
 10
229.786433
 20
279.445689
 30
0.0
 10
229.951633
 20
279.046864
 30
0.0
 10
229.951633
 20
278.631007
 30
0.0
  0
LINE
  5
213
100
AcDbEntity
  8
Layer_1
 62
1
100
AcDbLine
 10
229.951633
 20
278.631007
 30
0.0
 11
229.951633
 21
278.631007
 31
0.0
  0
LINE
  5
214
100
AcDbEntity
  8
Layer_1
 62
5
100
AcDbLine
 10
77.635299
 20
191.258707
 30
0.0
 11
77.635299
 21
194.338898
 31
0.0
  0
LINE
  5
215
100
AcDbEntity
  8
Layer_1
 62
5
100
AcDbLine
 10
77.635299
 20
194.338898
 30
0.0
 11
81.631055
 21
194.338898
 31
0.0
  0
LINE
  5
216
100
AcDbEntity
  8
Layer_1
 62
5
100
AcDbLine
 10
81.631055
 20
194.338898
 30
0.0
 11
81.631055
 21
197.480274
 31
0.0
  0
LINE
  5
217
100
AcDbEntity
  8
Layer_1
 62
5
100
AcDbLine
 10
81.631055
 20
197.480274
 30
0.0
 11
80.030881
 21
197.480274
 31
0.0
  0
LINE
  5
218
100
AcDbEntity
  8
Layer_1
 62
5
100
AcDbLine
 10
80.030881
 20
197.480274
 30
0.0
 11
80.030881
 21
200.480539
 31
0.0
  0
LINE
  5
219
100
AcDbEntity
  8
Layer_1
 62
5
100
AcDbLine
 10
80.030881
 20
200.480539
 30
0.0
 11
81.631055
 21
200.480539
 31
0.0
  0
LINE
  5
21a
100
AcDbEntity
  8
Layer_1
 62
5
100
AcDbLine
 10
81.631055
 20
200.480539
 30
0.0
 11
81.631055
 21
202.480349
 31
0.0
  0
LINE
  5
21b
100
AcDbEntity
  8
Layer_1
 62
5
100
AcDbLine
 10
81.631055
 20
202.480349
 30
0.0
 11
84.830860
 21
202.480349
 31
0.0
  0
LINE
  5
21c
100
AcDbEntity
  8
Layer_1
 62
5
100
AcDbLine
 10
84.830860
 20
202.480349
 30
0.0
 11
84.830860
 21
200.480539
 31
0.0
  0
LINE
  5
21d
100
AcDbEntity
  8
Layer_1
 62
5
100
AcDbLine
 10
84.830860
 20
200.480539
 30
0.0
 11
86.431040
 21
200.480539
 31
0.0
  0
LINE
  5
21e
100
AcDbEntity
  8
Layer_1
 62
5
100
AcDbLine
 10
86.431040
 20
200.480539
 30
0.0
 11
86.431040
 21
197.480274
 31
0.0
  0
LINE
  5
21f
100
AcDbEntity
  8
Layer_1
 62
5
100
AcDbLine
 10
86.431040
 20
197.480274
 30
0.0
 11
84.830860
 21
197.480274
 31
0.0
  0
LINE
  5
220
100
AcDbEntity
  8
Layer_1
 62
5
100
AcDbLine
 10
84.830860
 20
197.480274
 30
0.0
 11
84.830860
 21
194.338898
 31
0.0
  0
LINE
  5
221
100
AcDbEntity
  8
Layer_1
 62
5
100
AcDbLine
 10
84.830860
 20
194.338898
 30
0.0
 11
94.253888
 21
194.338898
 31
0.0
  0
LINE
  5
222
100
AcDbEntity
  8
Layer_1
 62
5
100
AcDbLine
 10
94.253888
 20
194.338898
 30
0.0
 11
94.253888
 21
214.119267
 31
0.0
  0
LINE
  5
223
100
AcDbEntity
  8
Layer_1
 62
5
100
AcDbLine
 10
94.253888
 20
214.119267
 30
0.0
 11
84.164993
 21
214.119267
 31
0.0
  0
LINE
  5
224
100
AcDbEntity
  8
Layer_1
 62
5
100
AcDbLine
 10
84.164993
 20
214.119267
 30
0.0
 11
84.164993
 21
292.179047
 31
0.0
  0
SPLINE
  5
225
100
AcDbEntity
  8
Layer_1
 62
5
100
AcDbSpline
 70
8
 71
3
 72
8
 73
4
 74
0
 40
0
 40
0
 40
0
 40
0
 40
1
 40
1
 40
1
 40
1
 10
84.164993
 20
292.179047
 30
0.0
 10
84.166687
 20
292.208257
 30
0.0
 10
84.168041
 20
292.237495
 30
0.0
 10
84.169396
 20
292.266705
 30
0.0
  0
SPLINE
  5
226
100
AcDbEntity
  8
Layer_1
 62
5
100
AcDbSpline
 70
8
 71
3
 72
8
 73
4
 74
0
 40
0
 40
0
 40
0
 40
0
 40
1
 40
1
 40
1
 40
1
 10
84.169396
 20
292.266705
 30
0.0
 10
84.167985
 20
292.307882
 30
0.0
 10
84.166574
 20
292.349030
 30
0.0
 10
84.164993
 20
292.390178
 30
0.0
  0
LINE
  5
227
100
AcDbEntity
  8
Layer_1
 62
5
100
AcDbLine
 10
84.164993
 20
292.390178
 30
0.0
 11
84.164993
 21
293.482688
 31
0.0
  0
LINE
  5
228
100
AcDbEntity
  8
Layer_1
 62
5
100
AcDbLine
 10
84.164993
 20
293.482688
 30
0.0
 11
84.103808
 21
293.482688
 31
0.0
  0
SPLINE
  5
229
100
AcDbEntity
  8
Layer_1
 62
5
100
AcDbSpline
 70
8
 71
3
 72
8
 73
4
 74
0
 40
0
 40
0
 40
0
 40
0
 40
1
 40
1
 40
1
 40
1
 10
84.103808
 20
293.482688
 30
0.0
 10
83.474977
 20
300.457302
 30
0.0
 10
77.631710
 20
305.801717
 30
0.0
 10
70.628802
 20
305.807305
 30
0.0
  0
SPLINE
  5
22a
100
AcDbEntity
  8
Layer_1
 62
5
100
AcDbSpline
 70
8
 71
3
 72
8
 73
4
 74
0
 40
0
 40
0
 40
0
 40
0
 40
1
 40
1
 40
1
 40
1
 10
70.628802
 20
305.807305
 30
0.0
 10
63.624202
 20
305.803918
 30
0.0
 10
57.778366
 20
300.458996
 30
0.0
 10
57.149383
 20
293.482688
 30
0.0
  0
LINE
  5
22b
100
AcDbEntity
  8
Layer_1
 62
5
100
AcDbLine
 10
57.149383
 20
293.482688
 30
0.0
 11
57.092056
 21
293.482688
 31
0.0
  0
LINE
  5
22c
100
AcDbEntity
  8
Layer_1
 62
5
100
AcDbLine
 10
57.092056
 20
293.482688
 30
0.0
 11
57.092056
 21
292.343865
 31
0.0
  0
SPLINE
  5
22d
100
AcDbEntity
  8
Layer_1
 62
5
100
AcDbSpline
 70
8
 71
3
 72
8
 73
4
 74
0
 40
0
 40
0
 40
0
 40
0
 40
1
 40
1
 40
1
 40
1
 10
57.092056
 20
292.343865
 30
0.0
 10
57.090644
 20
292.318183
 30
0.0
 10
57.089516
 20
292.292416
 30
0.0
 10
57.088189
 20
292.266705
 30
0.0
  0
SPLINE
  5
22e
100
AcDbEntity
  8
Layer_1
 62
5
100
AcDbSpline
 70
8
 71
3
 72
8
 73
4
 74
0
 40
0
 40
0
 40
0
 40
0
 40
1
 40
1
 40
1
 40
1
 10
57.088189
 20
292.266705
 30
0.0
 10
57.089318
 20
292.230694
 30
0.0
 10
57.090729
 20
292.194654
 30
0.0
 10
57.092056
 20
292.158671
 30
0.0
  0
LINE
  5
22f
100
AcDbEntity
  8
Layer_1
 62
5
100
AcDbLine
 10
57.092056
 20
292.158671
 30
0.0
 11
57.092056
 21
214.119267
 31
0.0
  0
LINE
  5
230
100
AcDbEntity
  8
Layer_1
 62
5
100
AcDbLine
 10
57.092056
 20
214.119267
 30
0.0
 11
47.003712
 21
214.119267
 31
0.0
  0
LINE
  5
231
100
AcDbEntity
  8
Layer_1
 62
5
100
AcDbLine
 10
47.003712
 20
214.119267
 30
0.0
 11
47.003712
 21
194.338898
 31
0.0
  0
LINE
  5
232
100
AcDbEntity
  8
Layer_1
 62
5
100
AcDbLine
 10
47.003712
 20
194.338898
 30
0.0
 11
56.432804
 21
194.338898
 31
0.0
  0
LINE
  5
233
100
AcDbEntity
  8
Layer_1
 62
5
100
AcDbLine
 10
56.432804
 20
194.338898
 30
0.0
 11
56.432804
 21
197.419641
 31
0.0
  0
LINE
  5
234
100
AcDbEntity
  8
Layer_1
 62
5
100
AcDbLine
 10
56.432804
 20
197.419641
 30
0.0
 11
54.832627
 21
197.419641
 31
0.0
  0
LINE
  5
235
100
AcDbEntity
  8
Layer_1
 62
5
100
AcDbLine
 10
54.832627
 20
197.419641
 30
0.0
 11
54.832627
 21
200.419906
 31
0.0
  0
LINE
  5
236
100
AcDbEntity
  8
Layer_1
 62
5
100
AcDbLine
 10
54.832627
 20
200.419906
 30
0.0
 11
56.432804
 21
200.419906
 31
0.0
  0
LINE
  5
237
100
AcDbEntity
  8
Layer_1
 62
5
100
AcDbLine
 10
56.432804
 20
200.419906
 30
0.0
 11
56.432804
 21
202.419713
 31
0.0
  0
LINE
  5
238
100
AcDbEntity
  8
Layer_1
 62
5
100
AcDbLine
 10
56.432804
 20
202.419713
 30
0.0
 11
59.632609
 21
202.419713
 31
0.0
  0
LINE
  5
239
100
AcDbEntity
  8
Layer_1
 62
5
100
AcDbLine
 10
59.632609
 20
202.419713
 30
0.0
 11
59.632609
 21
200.419906
 31
0.0
  0
LINE
  5
23a
100
AcDbEntity
  8
Layer_1
 62
5
100
AcDbLine
 10
59.632609
 20
200.419906
 30
0.0
 11
61.232786
 21
200.419906
 31
0.0
  0
LINE
  5
23b
100
AcDbEntity
  8
Layer_1
 62
5
100
AcDbLine
 10
61.232786
 20
200.419906
 30
0.0
 11
61.232786
 21
197.419641
 31
0.0
  0
LINE
  5
23c
100
AcDbEntity
  8
Layer_1
 62
5
100
AcDbLine
 10
61.232786
 20
197.419641
 30
0.0
 11
59.632609
 21
197.419641
 31
0.0
  0
LINE
  5
23d
100
AcDbEntity
  8
Layer_1
 62
5
100
AcDbLine
 10
59.632609
 20
197.419641
 30
0.0
 11
59.632609
 21
194.338898
 31
0.0
  0
LINE
  5
23e
100
AcDbEntity
  8
Layer_1
 62
5
100
AcDbLine
 10
59.632609
 20
194.338898
 30
0.0
 11
63.622305
 21
194.338898
 31
0.0
  0
LINE
  5
23f
100
AcDbEntity
  8
Layer_1
 62
5
100
AcDbLine
 10
63.622305
 20
194.338898
 30
0.0
 11
63.622305
 21
191.258707
 31
0.0
  0
LINE
  5
240
100
AcDbEntity
  8
Layer_1
 62
5
100
AcDbLine
 10
63.622305
 20
191.258707
 30
0.0
 11
69.180209
 21
191.258707
 31
0.0
  0
LINE
  5
241
100
AcDbEntity
  8
Layer_1
 62
5
100
AcDbLine
 10
69.180209
 20
191.258707
 30
0.0
 11
69.180209
 21
246.139346
 31
0.0
  0
LINE
  5
242
100
AcDbEntity
  8
Layer_1
 62
5
100
AcDbLine
 10
69.180209
 20
246.139346
 30
0.0
 11
72.077395
 21
246.139346
 31
0.0
  0
LINE
  5
243
100
AcDbEntity
  8
Layer_1
 62
5
100
AcDbLine
 10
72.077395
 20
246.139346
 30
0.0
 11
72.077395
 21
191.258707
 31
0.0
  0
LINE
  5
244
100
AcDbEntity
  8
Layer_1
 62
5
100
AcDbLine
 10
72.077395
 20
191.258707
 30
0.0
 11
77.635299
 21
191.258707
 31
0.0
  0
LINE
  5
245
100
AcDbEntity
  8
Layer_1
 62
1
100
AcDbLine
 10
311.447667
 20
289.837052
 30
0.0
 11
311.447667
 21
277.881193
 31
0.0
  0
LINE
  5
246
100
AcDbEntity
  8
Layer_1
 62
1
100
AcDbLine
 10
311.447667
 20
277.881193
 30
0.0
 11
299.491802
 21
277.881193
 31
0.0
  0
LINE
  5
247
100
AcDbEntity
  8
Layer_1
 62
1
100
AcDbLine
 10
299.491802
 20
277.881193
 30
0.0
 11
299.491802
 21
274.724382
 31
0.0
  0
LINE
  5
248
100
AcDbEntity
  8
Layer_1
 62
1
100
AcDbLine
 10
299.491802
 20
274.724382
 30
0.0
 11
311.447667
 21
274.724382
 31
0.0
  0
LINE
  5
249
100
AcDbEntity
  8
Layer_1
 62
1
100
AcDbLine
 10
311.447667
 20
274.724382
 30
0.0
 11
311.447667
 21
262.768523
 31
0.0
  0
LINE
  5
24a
100
AcDbEntity
  8
Layer_1
 62
1
100
AcDbLine
 10
311.447667
 20
262.768523
 30
0.0
 11
314.604492
 21
262.768523
 31
0.0
  0
LINE
  5
24b
100
AcDbEntity
  8
Layer_1
 62
1
100
AcDbLine
 10
314.604492
 20
262.768523
 30
0.0
 11
314.604492
 21
274.724382
 31
0.0
  0
LINE
  5
24c
100
AcDbEntity
  8
Layer_1
 62
1
100
AcDbLine
 10
314.604492
 20
274.724382
 30
0.0
 11
326.560329
 21
274.724382
 31
0.0
  0
LINE
  5
24d
100
AcDbEntity
  8
Layer_1
 62
1
100
AcDbLine
 10
326.560329
 20
274.724382
 30
0.0
 11
326.560329
 21
277.881193
 31
0.0
  0
LINE
  5
24e
100
AcDbEntity
  8
Layer_1
 62
1
100
AcDbLine
 10
326.560329
 20
277.881193
 30
0.0
 11
314.604492
 21
277.881193
 31
0.0
  0
LINE
  5
24f
100
AcDbEntity
  8
Layer_1
 62
1
100
AcDbLine
 10
314.604492
 20
277.881193
 30
0.0
 11
314.604492
 21
289.837052
 31
0.0
  0
LINE
  5
250
100
AcDbEntity
  8
Layer_1
 62
1
100
AcDbLine
 10
314.604492
 20
289.837052
 30
0.0
 11
311.447667
 21
289.837052
 31
0.0
  0
LINE
  5
251
100
AcDbEntity
  8
Layer_1
 62
1
100
AcDbLine
 10
311.447667
 20
289.837052
 30
0.0
 11
311.447667
 21
289.837052
 31
0.0
  0
LINE
  5
252
100
AcDbEntity
  8
Layer_1
 62
1
100
AcDbLine
 10
314.527192
 20
240.125354
 30
0.0
 11
314.527192
 21
230.125348
 31
0.0
  0
LINE
  5
253
100
AcDbEntity
  8
Layer_1
 62
1
100
AcDbLine
 10
314.527192
 20
230.125348
 30
0.0
 11
311.527198
 21
230.125348
 31
0.0
  0
LINE
  5
254
100
AcDbEntity
  8
Layer_1
 62
1
100
AcDbLine
 10
311.527198
 20
230.125348
 30
0.0
 11
311.527198
 21
240.125354
 31
0.0
  0
LINE
  5
255
100
AcDbEntity
  8
Layer_1
 62
1
100
AcDbLine
 10
311.527198
 20
240.125354
 30
0.0
 11
314.527192
 21
240.125354
 31
0.0
  0
SPLINE
  5
256
100
AcDbEntity
  8
Layer_1
 62
1
100
AcDbSpline
 70
8
 71
3
 72
8
 73
4
 74
0
 40
0
 40
0
 40
0
 40
0
 40
1
 40
1
 40
1
 40
1
 10
313.026080
 20
223.575381
 30
0.0
 10
312.472318
 20
223.575381
 30
0.0
 10
311.960622
 20
223.870809
 30
0.0
 10
311.683741
 20
224.350381
 30
0.0
  0
SPLINE
  5
257
100
AcDbEntity
  8
Layer_1
 62
1
100
AcDbSpline
 70
8
 71
3
 72
8
 73
4
 74
0
 40
0
 40
0
 40
0
 40
0
 40
1
 40
1
 40
1
 40
1
 10
311.683741
 20
224.350381
 30
0.0
 10
311.406860
 20
224.829952
 30
0.0
 10
311.406860
 20
225.420809
 30
0.0
 10
311.683741
 20
225.900380
 30
0.0
  0
SPLINE
  5
258
100
AcDbEntity
  8
Layer_1
 62
1
100
AcDbSpline
 70
8
 71
3
 72
8
 73
4
 74
0
 40
0
 40
0
 40
0
 40
0
 40
1
 40
1
 40
1
 40
1
 10
311.683741
 20
225.900380
 30
0.0
 10
311.960622
 20
226.379952
 30
0.0
 10
312.472318
 20
226.675380
 30
0.0
 10
313.026080
 20
226.675380
 30
0.0
  0
SPLINE
  5
259
100
AcDbEntity
  8
Layer_1
 62
1
100
AcDbSpline
 70
8
 71
3
 72
8
 73
4
 74
0
 40
0
 40
0
 40
0
 40
0
 40
1
 40
1
 40
1
 40
1
 10
313.026080
 20
226.675380
 30
0.0
 10
313.579841
 20
226.675380
 30
0.0
 10
314.091538
 20
226.379952
 30
0.0
 10
314.368419
 20
225.900380
 30
0.0
  0
SPLINE
  5
25a
100
AcDbEntity
  8
Layer_1
 62
1
100
AcDbSpline
 70
8
 71
3
 72
8
 73
4
 74
0
 40
0
 40
0
 40
0
 40
0
 40
1
 40
1
 40
1
 40
1
 10
314.368419
 20
225.900380
 30
0.0
 10
314.645300
 20
225.420809
 30
0.0
 10
314.645300
 20
224.829952
 30
0.0
 10
314.368419
 20
224.350381
 30
0.0
  0
SPLINE
  5
25b
100
AcDbEntity
  8
Layer_1
 62
1
100
AcDbSpline
 70
8
 71
3
 72
8
 73
4
 74
0
 40
0
 40
0
 40
0
 40
0
 40
1
 40
1
 40
1
 40
1
 10
314.368419
 20
224.350381
 30
0.0
 10
314.091538
 20
223.870809
 30
0.0
 10
313.579841
 20
223.575381
 30
0.0
 10
313.026080
 20
223.575381
 30
0.0
  0
LINE
  5
25c
100
AcDbEntity
  8
Layer_1
 62
1
100
AcDbLine
 10
313.026080
 20
223.575381
 30
0.0
 11
313.026080
 21
223.575381
 31
0.0
  0
SPLINE
  5
25d
100
AcDbEntity
  8
Layer_1
 62
5
100
AcDbSpline
 70
8
 71
3
 72
8
 73
4
 74
0
 40
0
 40
0
 40
0
 40
0
 40
1
 40
1
 40
1
 40
1
 10
295.867448
 20
202.775316
 30
0.0
 10
291.659628
 20
198.420472
 30
0.0
 10
289.225517
 20
192.514419
 30
0.0
 10
289.220155
 20
186.295389
 30
0.0
  0
SPLINE
  5
25e
100
AcDbEntity
  8
Layer_1
 62
5
100
AcDbSpline
 70
8
 71
3
 72
8
 73
4
 74
0
 40
0
 40
0
 40
0
 40
0
 40
1
 40
1
 40
1
 40
1
 10
289.220155
 20
186.295389
 30
0.0
 10
289.220240
 20
173.147799
 30
0.0
 10
299.878447
 20
162.489594
 30
0.0
 10
313.026052
 20
162.489501
 30
0.0
  0
LINE
  5
25f
100
AcDbEntity
  8
Layer_1
 62
5
100
AcDbLine
 10
313.026052
 20
162.489501
 30
0.0
 11
313.026136
 21
162.489501
 31
0.0
  0
SPLINE
  5
260
100
AcDbEntity
  8
Layer_1
 62
5
100
AcDbSpline
 70
8
 71
3
 72
8
 73
4
 74
0
 40
0
 40
0
 40
0
 40
0
 40
1
 40
1
 40
1
 40
1
 10
313.026136
 20
162.489501
 30
0.0
 10
326.173713
 20
162.489611
 30
0.0
 10
336.831920
 20
173.147810
 30
0.0
 10
336.832005
 20
186.295389
 30
0.0
  0
SPLINE
  5
261
100
AcDbEntity
  8
Layer_1
 62
5
100
AcDbSpline
 70
8
 71
3
 72
8
 73
4
 74
0
 40
0
 40
0
 40
0
 40
0
 40
1
 40
1
 40
1
 40
1
 10
336.832005
 20
186.295389
 30
0.0
 10
336.822691
 20
192.513459
 30
0.0
 10
334.384969
 20
198.417254
 30
0.0
 10
330.204383
 20
202.772251
 30
0.0
  0
SPLINE
  5
262
100
AcDbEntity
  8
Layer_1
 62
5
100
AcDbSpline
 70
8
 71
3
 72
8
 73
4
 74
0
 40
0
 40
0
 40
0
 40
0
 40
1
 40
1
 40
1
 40
1
 10
330.204383
 20
202.772251
 30
0.0
 10
328.052269
 20
205.148797
 30
0.0
 10
326.699944
 20
208.364947
 30
0.0
 10
326.680302
 20
211.959496
 30
0.0
  0
LINE
  5
263
100
AcDbEntity
  8
Layer_1
 62
5
100
AcDbLine
 10
326.680302
 20
211.959496
 30
0.0
 11
326.730340
 21
250.499552
 31
0.0
  0
SPLINE
  5
264
100
AcDbEntity
  8
Layer_1
 62
5
100
AcDbSpline
 70
8
 71
3
 72
8
 73
4
 74
0
 40
0
 40
0
 40
0
 40
0
 40
1
 40
1
 40
1
 40
1
 10
326.730340
 20
250.499552
 30
0.0
 10
326.699944
 20
254.031603
 30
0.0
 10
328.052269
 20
257.247754
 30
0.0
 10
330.204383
 20
259.624299
 30
0.0
  0
SPLINE
  5
265
100
AcDbEntity
  8
Layer_1
 62
5
100
AcDbSpline
 70
8
 71
3
 72
8
 73
4
 74
0
 40
0
 40
0
 40
0
 40
0
 40
1
 40
1
 40
1
 40
1
 10
330.204383
 20
259.624299
 30
0.0
 10
334.384969
 20
263.979296
 30
0.0
 10
336.822691
 20
269.883091
 30
0.0
 10
336.832005
 20
276.101161
 30
0.0
  0
SPLINE
  5
266
100
AcDbEntity
  8
Layer_1
 62
5
100
AcDbSpline
 70
8
 71
3
 72
8
 73
4
 74
0
 40
0
 40
0
 40
0
 40
0
 40
1
 40
1
 40
1
 40
1
 10
336.832005
 20
276.101161
 30
0.0
 10
336.831920
 20
289.248740
 30
0.0
 10
326.173713
 20
299.906938
 30
0.0
 10
313.026136
 20
299.907048
 30
0.0
  0
LINE
  5
267
100
AcDbEntity
  8
Layer_1
 62
5
100
AcDbLine
 10
313.026136
 20
299.907048
 30
0.0
 11
313.026052
 21
299.907048
 31
0.0
  0
SPLINE
  5
268
100
AcDbEntity
  8
Layer_1
 62
5
100
AcDbSpline
 70
8
 71
3
 72
8
 73
4
 74
0
 40
0
 40
0
 40
0
 40
0
 40
1
 40
1
 40
1
 40
1
 10
313.026052
 20
299.907048
 30
0.0
 10
299.878447
 20
299.906955
 30
0.0
 10
289.220240
 20
289.248751
 30
0.0
 10
289.220155
 20
276.101161
 30
0.0
  0
SPLINE
  5
269
100
AcDbEntity
  8
Layer_1
 62
5
100
AcDbSpline
 70
8
 71
3
 72
8
 73
4
 74
0
 40
0
 40
0
 40
0
 40
0
 40
1
 40
1
 40
1
 40
1
 10
289.220155
 20
276.101161
 30
0.0
 10
289.225517
 20
269.882132
 30
0.0
 10
291.659628
 20
263.976078
 30
0.0
 10
295.867448
 20
259.621234
 30
0.0
  0
SPLINE
  5
26a
100
AcDbEntity
  8
Layer_1
 62
5
100
AcDbSpline
 70
8
 71
3
 72
8
 73
4
 74
0
 40
0
 40
0
 40
0
 40
0
 40
1
 40
1
 40
1
 40
1
 10
295.867448
 20
259.621234
 30
0.0
 10
298.048998
 20
257.247754
 30
0.0
 10
299.401322
 20
254.031603
 30
0.0
 10
299.346571
 20
250.549951
 30
0.0
  0
LINE
  5
26b
100
AcDbEntity
  8
Layer_1
 62
5
100
AcDbLine
 10
299.346571
 20
250.549951
 30
0.0
 11
299.390626
 21
211.934268
 31
0.0
  0
SPLINE
  5
26c
100
AcDbEntity
  8
Layer_1
 62
5
100
AcDbSpline
 70
8
 71
3
 72
8
 73
4
 74
0
 40
0
 40
0
 40
0
 40
0
 40
1
 40
1
 40
1
 40
1
 10
299.390626
 20
211.934268
 30
0.0
 10
299.401350
 20
208.364947
 30
0.0
 10
298.048998
 20
205.148797
 30
0.0
 10
295.867448
 20
202.775316
 30
0.0
  0
LINE
  5
26d
100
AcDbEntity
  8
Layer_1
 62
5
100
AcDbLine
 10
295.867448
 20
202.775316
 30
0.0
 11
295.867448
 21
202.775316
 31
0.0
  0
LINE
  5
26e
100
AcDbEntity
  8
Layer_1
 62
1
100
AcDbLine
 10
318.987291
 20
182.458606
 30
0.0
 11
315.052210
 21
186.393704
 31
0.0
  0
LINE
  5
26f
100
AcDbEntity
  8
Layer_1
 62
1
100
AcDbLine
 10
315.052210
 20
186.393704
 30
0.0
 11
318.988871
 21
190.330363
 31
0.0
  0
LINE
  5
270
100
AcDbEntity
  8
Layer_1
 62
1
100
AcDbLine
 10
318.988871
 20
190.330363
 30
0.0
 11
316.877482
 21
192.441735
 31
0.0
  0
LINE
  5
271
100
AcDbEntity
  8
Layer_1
 62
1
100
AcDbLine
 10
316.877482
 20
192.441735
 30
0.0
 11
312.940821
 21
188.505079
 31
0.0
  0
LINE
  5
272
100
AcDbEntity
  8
Layer_1
 62
1
100
AcDbLine
 10
312.940821
 20
188.505079
 30
0.0
 11
309.004159
 21
192.441735
 31
0.0
  0
LINE
  5
273
100
AcDbEntity
  8
Layer_1
 62
1
100
AcDbLine
 10
309.004159
 20
192.441735
 30
0.0
 11
306.892798
 21
190.330363
 31
0.0
  0
LINE
  5
274
100
AcDbEntity
  8
Layer_1
 62
1
100
AcDbLine
 10
306.892798
 20
190.330363
 30
0.0
 11
310.829460
 21
186.393704
 31
0.0
  0
LINE
  5
275
100
AcDbEntity
  8
Layer_1
 62
1
100
AcDbLine
 10
310.829460
 20
186.393704
 30
0.0
 11
306.894350
 21
182.458606
 31
0.0
  0
LINE
  5
276
100
AcDbEntity
  8
Layer_1
 62
1
100
AcDbLine
 10
306.894350
 20
182.458606
 30
0.0
 11
309.005740
 21
180.347231
 31
0.0
  0
LINE
  5
277
100
AcDbEntity
  8
Layer_1
 62
1
100
AcDbLine
 10
309.005740
 20
180.347231
 30
0.0
 11
312.940821
 21
184.282332
 31
0.0
  0
LINE
  5
278
100
AcDbEntity
  8
Layer_1
 62
1
100
AcDbLine
 10
312.940821
 20
184.282332
 30
0.0
 11
316.875930
 21
180.347231
 31
0.0
  0
LINE
  5
279
100
AcDbEntity
  8
Layer_1
 62
1
100
AcDbLine
 10
316.875930
 20
180.347231
 30
0.0
 11
318.987291
 21
182.458606
 31
0.0
  0
LINE
  5
27a
100
AcDbEntity
  8
Layer_1
 62
1
100
AcDbLine
 10
318.987291
 20
182.458606
 30
0.0
 11
318.987291
 21
182.458606
 31
0.0
  0
SPLINE
  5
27b
100
AcDbEntity
  8
Layer_1
 62
1
100
AcDbSpline
 70
8
 71
3
 72
8
 73
4
 74
0
 40
0
 40
0
 40
0
 40
0
 40
1
 40
1
 40
1
 40
1
 10
302.896052
 20
176.350392
 30
0.0
 10
302.605370
 20
176.641073
 30
0.0
 10
302.442067
 20
177.035322
 30
0.0
 10
302.442067
 20
177.446407
 30
0.0
  0
SPLINE
  5
27c
100
AcDbEntity
  8
Layer_1
 62
1
100
AcDbSpline
 70
8
 71
3
 72
8
 73
4
 74
0
 40
0
 40
0
 40
0
 40
0
 40
1
 40
1
 40
1
 40
1
 10
302.442067
 20
177.446407
 30
0.0
 10
302.442067
 20
177.857493
 30
0.0
 10
302.605370
 20
178.251742
 30
0.0
 10
302.896052
 20
178.542423
 30
0.0
  0
SPLINE
  5
27d
100
AcDbEntity
  8
Layer_1
 62
1
100
AcDbSpline
 70
8
 71
3
 72
8
 73
4
 74
0
 40
0
 40
0
 40
0
 40
0
 40
1
 40
1
 40
1
 40
1
 10
302.896052
 20
178.542423
 30
0.0
 10
303.501363
 20
179.147728
 30
0.0
 10
304.482760
 20
179.147728
 30
0.0
 10
305.088072
 20
178.542423
 30
0.0
  0
SPLINE
  5
27e
100
AcDbEntity
  8
Layer_1
 62
1
100
AcDbSpline
 70
8
 71
3
 72
8
 73
4
 74
0
 40
0
 40
0
 40
0
 40
0
 40
1
 40
1
 40
1
 40
1
 10
305.088072
 20
178.542423
 30
0.0
 10
305.693383
 20
177.937111
 30
0.0
 10
305.693383
 20
176.955707
 30
0.0
 10
305.088072
 20
176.350394
 30
0.0
  0
SPLINE
  5
27f
100
AcDbEntity
  8
Layer_1
 62
1
100
AcDbSpline
 70
8
 71
3
 72
8
 73
4
 74
0
 40
0
 40
0
 40
0
 40
0
 40
1
 40
1
 40
1
 40
1
 10
305.088072
 20
176.350394
 30
0.0
 10
304.482761
 20
175.745088
 30
0.0
 10
303.501364
 20
175.745087
 30
0.0
 10
302.896052
 20
176.350392
 30
0.0
  0
LINE
  5
280
100
AcDbEntity
  8
Layer_1
 62
1
100
AcDbLine
 10
302.896052
 20
176.350392
 30
0.0
 11
302.896052
 21
176.350392
 31
0.0
  0
SPLINE
  5
281
100
AcDbEntity
  8
Layer_1
 62
1
100
AcDbSpline
 70
8
 71
3
 72
8
 73
4
 74
0
 40
0
 40
0
 40
0
 40
0
 40
1
 40
1
 40
1
 40
1
 10
322.985872
 20
196.440220
 30
0.0
 10
322.695190
 20
196.730907
 30
0.0
 10
322.300937
 20
196.894213
 30
0.0
 10
321.889848
 20
196.894213
 30
0.0
  0
SPLINE
  5
282
100
AcDbEntity
  8
Layer_1
 62
1
100
AcDbSpline
 70
8
 71
3
 72
8
 73
4
 74
0
 40
0
 40
0
 40
0
 40
0
 40
1
 40
1
 40
1
 40
1
 10
321.889848
 20
196.894213
 30
0.0
 10
321.478758
 20
196.894213
 30
0.0
 10
321.084505
 20
196.730907
 30
0.0
 10
320.793823
 20
196.440220
 30
0.0
  0
SPLINE
  5
283
100
AcDbEntity
  8
Layer_1
 62
1
100
AcDbSpline
 70
8
 71
3
 72
8
 73
4
 74
0
 40
0
 40
0
 40
0
 40
0
 40
1
 40
1
 40
1
 40
1
 10
320.793823
 20
196.440220
 30
0.0
 10
320.503142
 20
196.149539
 30
0.0
 10
320.339839
 20
195.755290
 30
0.0
 10
320.339839
 20
195.344204
 30
0.0
  0
SPLINE
  5
284
100
AcDbEntity
  8
Layer_1
 62
1
100
AcDbSpline
 70
8
 71
3
 72
8
 73
4
 74
0
 40
0
 40
0
 40
0
 40
0
 40
1
 40
1
 40
1
 40
1
 10
320.339839
 20
195.344204
 30
0.0
 10
320.339839
 20
194.933119
 30
0.0
 10
320.503142
 20
194.538870
 30
0.0
 10
320.793823
 20
194.248189
 30
0.0
  0
SPLINE
  5
285
100
AcDbEntity
  8
Layer_1
 62
1
100
AcDbSpline
 70
8
 71
3
 72
8
 73
4
 74
0
 40
0
 40
0
 40
0
 40
0
 40
1
 40
1
 40
1
 40
1
 10
320.793823
 20
194.248189
 30
0.0
 10
321.084506
 20
193.957502
 30
0.0
 10
321.478758
 20
193.794196
 30
0.0
 10
321.889848
 20
193.794197
 30
0.0
  0
SPLINE
  5
286
100
AcDbEntity
  8
Layer_1
 62
1
100
AcDbSpline
 70
8
 71
3
 72
8
 73
4
 74
0
 40
0
 40
0
 40
0
 40
0
 40
1
 40
1
 40
1
 40
1
 10
321.889848
 20
193.794197
 30
0.0
 10
322.300938
 20
193.794197
 30
0.0
 10
322.695190
 20
193.957504
 30
0.0
 10
322.985872
 20
194.248192
 30
0.0
  0
SPLINE
  5
287
100
AcDbEntity
  8
Layer_1
 62
1
100
AcDbSpline
 70
8
 71
3
 72
8
 73
4
 74
0
 40
0
 40
0
 40
0
 40
0
 40
1
 40
1
 40
1
 40
1
 10
322.985872
 20
194.248192
 30
0.0
 10
323.591183
 20
194.853504
 30
0.0
 10
323.591183
 20
195.834908
 30
0.0
 10
322.985872
 20
196.440220
 30
0.0
  0
LINE
  5
288
100
AcDbEntity
  8
Layer_1
 62
1
100
AcDbLine
 10
322.985872
 20
196.440220
 30
0.0
 11
322.985872
 21
196.440220
 31
0.0
  0
SPLINE
  5
289
100
AcDbEntity
  8
Layer_1
 62
1
100
AcDbSpline
 70
8
 71
3
 72
8
 73
4
 74
0
 40
0
 40
0
 40
0
 40
0
 40
1
 40
1
 40
1
 40
1
 10
302.896052
 20
196.440229
 30
0.0
 10
303.501364
 20
197.045533
 30
0.0
 10
304.482761
 20
197.045532
 30
0.0
 10
305.088072
 20
196.440226
 30
0.0
  0
SPLINE
  5
28a
100
AcDbEntity
  8
Layer_1
 62
1
100
AcDbSpline
 70
8
 71
3
 72
8
 73
4
 74
0
 40
0
 40
0
 40
0
 40
0
 40
1
 40
1
 40
1
 40
1
 10
305.088072
 20
196.440226
 30
0.0
 10
305.693383
 20
195.834913
 30
0.0
 10
305.693383
 20
194.853509
 30
0.0
 10
305.088072
 20
194.248197
 30
0.0
  0
SPLINE
  5
28b
100
AcDbEntity
  8
Layer_1
 62
1
100
AcDbSpline
 70
8
 71
3
 72
8
 73
4
 74
0
 40
0
 40
0
 40
0
 40
0
 40
1
 40
1
 40
1
 40
1
 10
305.088072
 20
194.248197
 30
0.0
 10
304.482760
 20
193.642892
 30
0.0
 10
303.501363
 20
193.642892
 30
0.0
 10
302.896052
 20
194.248197
 30
0.0
  0
SPLINE
  5
28c
100
AcDbEntity
  8
Layer_1
 62
1
100
AcDbSpline
 70
8
 71
3
 72
8
 73
4
 74
0
 40
0
 40
0
 40
0
 40
0
 40
1
 40
1
 40
1
 40
1
 10
302.896052
 20
194.248197
 30
0.0
 10
302.605370
 20
194.538879
 30
0.0
 10
302.442067
 20
194.933127
 30
0.0
 10
302.442067
 20
195.344213
 30
0.0
  0
SPLINE
  5
28d
100
AcDbEntity
  8
Layer_1
 62
1
100
AcDbSpline
 70
8
 71
3
 72
8
 73
4
 74
0
 40
0
 40
0
 40
0
 40
0
 40
1
 40
1
 40
1
 40
1
 10
302.442067
 20
195.344213
 30
0.0
 10
302.442067
 20
195.755299
 30
0.0
 10
302.605370
 20
196.149547
 30
0.0
 10
302.896052
 20
196.440229
 30
0.0
  0
LINE
  5
28e
100
AcDbEntity
  8
Layer_1
 62
1
100
AcDbLine
 10
302.896052
 20
196.440229
 30
0.0
 11
302.896052
 21
196.440229
 31
0.0
  0
SPLINE
  5
28f
100
AcDbEntity
  8
Layer_1
 62
1
100
AcDbSpline
 70
8
 71
3
 72
8
 73
4
 74
0
 40
0
 40
0
 40
0
 40
0
 40
1
 40
1
 40
1
 40
1
 10
322.985872
 20
176.350400
 30
0.0
 10
323.591183
 20
176.955712
 30
0.0
 10
323.591183
 20
177.937116
 30
0.0
 10
322.985872
 20
178.542429
 30
0.0
  0
SPLINE
  5
290
100
AcDbEntity
  8
Layer_1
 62
1
100
AcDbSpline
 70
8
 71
3
 72
8
 73
4
 74
0
 40
0
 40
0
 40
0
 40
0
 40
1
 40
1
 40
1
 40
1
 10
322.985872
 20
178.542429
 30
0.0
 10
322.380561
 20
179.147735
 30
0.0
 10
321.399164
 20
179.147736
 30
0.0
 10
320.793852
 20
178.542431
 30
0.0
  0
SPLINE
  5
291
100
AcDbEntity
  8
Layer_1
 62
1
100
AcDbSpline
 70
8
 71
3
 72
8
 73
4
 74
0
 40
0
 40
0
 40
0
 40
0
 40
1
 40
1
 40
1
 40
1
 10
320.793852
 20
178.542431
 30
0.0
 10
320.503170
 20
178.251750
 30
0.0
 10
320.339867
 20
177.857501
 30
0.0
 10
320.339867
 20
177.446416
 30
0.0
  0
SPLINE
  5
292
100
AcDbEntity
  8
Layer_1
 62
1
100
AcDbSpline
 70
8
 71
3
 72
8
 73
4
 74
0
 40
0
 40
0
 40
0
 40
0
 40
1
 40
1
 40
1
 40
1
 10
320.339867
 20
177.446416
 30
0.0
 10
320.339867
 20
177.035330
 30
0.0
 10
320.503170
 20
176.641081
 30
0.0
 10
320.793852
 20
176.350400
 30
0.0
  0
SPLINE
  5
293
100
AcDbEntity
  8
Layer_1
 62
1
100
AcDbSpline
 70
8
 71
3
 72
8
 73
4
 74
0
 40
0
 40
0
 40
0
 40
0
 40
1
 40
1
 40
1
 40
1
 10
320.793852
 20
176.350400
 30
0.0
 10
321.399163
 20
175.745094
 30
0.0
 10
322.380560
 20
175.745094
 30
0.0
 10
322.985872
 20
176.350400
 30
0.0
  0
LINE
  5
294
100
AcDbEntity
  8
Layer_1
 62
1
100
AcDbLine
 10
322.985872
 20
176.350400
 30
0.0
 11
322.985872
 21
176.350400
 31
0.0
  0
LINE
  5
295
100
AcDbEntity
  8
Layer_1
 62
1
100
AcDbLine
 10
352.500249
 20
247.980755
 30
0.0
 11
352.500249
 21
236.024896
 31
0.0
  0
LINE
  5
296
100
AcDbEntity
  8
Layer_1
 62
1
100
AcDbLine
 10
352.500249
 20
236.024896
 30
0.0
 11
340.544384
 21
236.024896
 31
0.0
  0
LINE
  5
297
100
AcDbEntity
  8
Layer_1
 62
1
100
AcDbLine
 10
340.544384
 20
236.024896
 30
0.0
 11
340.544384
 21
232.868085
 31
0.0
  0
LINE
  5
298
100
AcDbEntity
  8
Layer_1
 62
1
100
AcDbLine
 10
340.544384
 20
232.868085
 30
0.0
 11
352.500249
 21
232.868085
 31
0.0
  0
LINE
  5
299
100
AcDbEntity
  8
Layer_1
 62
1
100
AcDbLine
 10
352.500249
 20
232.868085
 30
0.0
 11
352.500249
 21
220.912226
 31
0.0
  0
LINE
  5
29a
100
AcDbEntity
  8
Layer_1
 62
1
100
AcDbLine
 10
352.500249
 20
220.912226
 30
0.0
 11
355.657074
 21
220.912226
 31
0.0
  0
LINE
  5
29b
100
AcDbEntity
  8
Layer_1
 62
1
100
AcDbLine
 10
355.657074
 20
220.912226
 30
0.0
 11
355.657074
 21
232.868085
 31
0.0
  0
LINE
  5
29c
100
AcDbEntity
  8
Layer_1
 62
1
100
AcDbLine
 10
355.657074
 20
232.868085
 30
0.0
 11
367.612911
 21
232.868085
 31
0.0
  0
LINE
  5
29d
100
AcDbEntity
  8
Layer_1
 62
1
100
AcDbLine
 10
367.612911
 20
232.868085
 30
0.0
 11
367.612911
 21
236.024896
 31
0.0
  0
LINE
  5
29e
100
AcDbEntity
  8
Layer_1
 62
1
100
AcDbLine
 10
367.612911
 20
236.024896
 30
0.0
 11
355.657074
 21
236.024896
 31
0.0
  0
LINE
  5
29f
100
AcDbEntity
  8
Layer_1
 62
1
100
AcDbLine
 10
355.657074
 20
236.024896
 30
0.0
 11
355.657074
 21
247.980755
 31
0.0
  0
LINE
  5
2a0
100
AcDbEntity
  8
Layer_1
 62
1
100
AcDbLine
 10
355.657074
 20
247.980755
 30
0.0
 11
352.500249
 21
247.980755
 31
0.0
  0
LINE
  5
2a1
100
AcDbEntity
  8
Layer_1
 62
1
100
AcDbLine
 10
352.500249
 20
247.980755
 30
0.0
 11
352.500249
 21
247.980755
 31
0.0
  0
SPLINE
  5
2a2
100
AcDbEntity
  8
Layer_1
 62
5
100
AcDbSpline
 70
8
 71
3
 72
8
 73
4
 74
0
 40
0
 40
0
 40
0
 40
0
 40
1
 40
1
 40
1
 40
1
 10
336.920030
 20
160.919019
 30
0.0
 10
332.712209
 20
156.564175
 30
0.0
 10
330.278099
 20
150.658122
 30
0.0
 10
330.272737
 20
144.439092
 30
0.0
  0
SPLINE
  5
2a3
100
AcDbEntity
  8
Layer_1
 62
5
100
AcDbSpline
 70
8
 71
3
 72
8
 73
4
 74
0
 40
0
 40
0
 40
0
 40
0
 40
1
 40
1
 40
1
 40
1
 10
330.272737
 20
144.439092
 30
0.0
 10
330.272821
 20
131.291502
 30
0.0
 10
340.931029
 20
120.633297
 30
0.0
 10
354.078633
 20
120.633204
 30
0.0
  0
LINE
  5
2a4
100
AcDbEntity
  8
Layer_1
 62
5
100
AcDbLine
 10
354.078633
 20
120.633204
 30
0.0
 11
354.078718
 21
120.633204
 31
0.0
  0
SPLINE
  5
2a5
100
AcDbEntity
  8
Layer_1
 62
5
100
AcDbSpline
 70
8
 71
3
 72
8
 73
4
 74
0
 40
0
 40
0
 40
0
 40
0
 40
1
 40
1
 40
1
 40
1
 10
354.078718
 20
120.633204
 30
0.0
 10
367.226295
 20
120.633314
 30
0.0
 10
377.884502
 20
131.291513
 30
0.0
 10
377.884586
 20
144.439092
 30
0.0
  0
SPLINE
  5
2a6
100
AcDbEntity
  8
Layer_1
 62
5
100
AcDbSpline
 70
8
 71
3
 72
8
 73
4
 74
0
 40
0
 40
0
 40
0
 40
0
 40
1
 40
1
 40
1
 40
1
 10
377.884586
 20
144.439092
 30
0.0
 10
377.875273
 20
150.657162
 30
0.0
 10
375.437550
 20
156.560958
 30
0.0
 10
371.256964
 20
160.915954
 30
0.0
  0
SPLINE
  5
2a7
100
AcDbEntity
  8
Layer_1
 62
5
100
AcDbSpline
 70
8
 71
3
 72
8
 73
4
 74
0
 40
0
 40
0
 40
0
 40
0
 40
1
 40
1
 40
1
 40
1
 10
371.256964
 20
160.915954
 30
0.0
 10
369.104850
 20
163.292500
 30
0.0
 10
367.752526
 20
166.508650
 30
0.0
 10
367.732883
 20
170.103199
 30
0.0
  0
LINE
  5
2a8
100
AcDbEntity
  8
Layer_1
 62
5
100
AcDbLine
 10
367.732883
 20
170.103199
 30
0.0
 11
367.782921
 21
208.643255
 31
0.0
  0
SPLINE
  5
2a9
100
AcDbEntity
  8
Layer_1
 62
5
100
AcDbSpline
 70
8
 71
3
 72
8
 73
4
 74
0
 40
0
 40
0
 40
0
 40
0
 40
1
 40
1
 40
1
 40
1
 10
367.782921
 20
208.643255
 30
0.0
 10
367.752526
 20
212.175306
 30
0.0
 10
369.104850
 20
215.391457
 30
0.0
 10
371.256964
 20
217.768002
 30
0.0
  0
SPLINE
  5
2aa
100
AcDbEntity
  8
Layer_1
 62
5
100
AcDbSpline
 70
8
 71
3
 72
8
 73
4
 74
0
 40
0
 40
0
 40
0
 40
0
 40
1
 40
1
 40
1
 40
1
 10
371.256964
 20
217.768002
 30
0.0
 10
375.437550
 20
222.122999
 30
0.0
 10
377.875273
 20
228.026794
 30
0.0
 10
377.884586
 20
234.244864
 30
0.0
  0
SPLINE
  5
2ab
100
AcDbEntity
  8
Layer_1
 62
5
100
AcDbSpline
 70
8
 71
3
 72
8
 73
4
 74
0
 40
0
 40
0
 40
0
 40
0
 40
1
 40
1
 40
1
 40
1
 10
377.884586
 20
234.244864
 30
0.0
 10
377.884502
 20
247.392443
 30
0.0
 10
367.226295
 20
258.050642
 30
0.0
 10
354.078718
 20
258.050752
 30
0.0
  0
LINE
  5
2ac
100
AcDbEntity
  8
Layer_1
 62
5
100
AcDbLine
 10
354.078718
 20
258.050752
 30
0.0
 11
354.078633
 21
258.050752
 31
0.0
  0
SPLINE
  5
2ad
100
AcDbEntity
  8
Layer_1
 62
5
100
AcDbSpline
 70
8
 71
3
 72
8
 73
4
 74
0
 40
0
 40
0
 40
0
 40
0
 40
1
 40
1
 40
1
 40
1
 10
354.078633
 20
258.050752
 30
0.0
 10
340.931029
 20
258.050659
 30
0.0
 10
330.272821
 20
247.392455
 30
0.0
 10
330.272737
 20
234.244864
 30
0.0
  0
SPLINE
  5
2ae
100
AcDbEntity
  8
Layer_1
 62
5
100
AcDbSpline
 70
8
 71
3
 72
8
 73
4
 74
0
 40
0
 40
0
 40
0
 40
0
 40
1
 40
1
 40
1
 40
1
 10
330.272737
 20
234.244864
 30
0.0
 10
330.278099
 20
228.025835
 30
0.0
 10
332.712209
 20
222.119782
 30
0.0
 10
336.920030
 20
217.764937
 30
0.0
  0
SPLINE
  5
2af
100
AcDbEntity
  8
Layer_1
 62
5
100
AcDbSpline
 70
8
 71
3
 72
8
 73
4
 74
0
 40
0
 40
0
 40
0
 40
0
 40
1
 40
1
 40
1
 40
1
 10
336.920030
 20
217.764937
 30
0.0
 10
339.101579
 20
215.391457
 30
0.0
 10
340.453904
 20
212.175306
 30
0.0
 10
340.399153
 20
208.693654
 30
0.0
  0
LINE
  5
2b0
100
AcDbEntity
  8
Layer_1
 62
5
100
AcDbLine
 10
340.399153
 20
208.693654
 30
0.0
 11
340.443207
 21
170.077971
 31
0.0
  0
SPLINE
  5
2b1
100
AcDbEntity
  8
Layer_1
 62
5
100
AcDbSpline
 70
8
 71
3
 72
8
 73
4
 74
0
 40
0
 40
0
 40
0
 40
0
 40
1
 40
1
 40
1
 40
1
 10
340.443207
 20
170.077971
 30
0.0
 10
340.453932
 20
166.508650
 30
0.0
 10
339.101579
 20
163.292500
 30
0.0
 10
336.920030
 20
160.919019
 30
0.0
  0
LINE
  5
2b2
100
AcDbEntity
  8
Layer_1
 62
5
100
AcDbLine
 10
336.920030
 20
160.919019
 30
0.0
 11
336.920030
 21
160.919019
 31
0.0
  0
LINE
  5
2b3
100
AcDbEntity
  8
Layer_1
 62
1
100
AcDbLine
 10
355.579773
 20
198.269051
 30
0.0
 11
355.579773
 21
188.269045
 31
0.0
  0
LINE
  5
2b4
100
AcDbEntity
  8
Layer_1
 62
1
100
AcDbLine
 10
355.579773
 20
188.269045
 30
0.0
 11
352.579779
 21
188.269045
 31
0.0
  0
LINE
  5
2b5
100
AcDbEntity
  8
Layer_1
 62
1
100
AcDbLine
 10
352.579779
 20
188.269045
 30
0.0
 11
352.579779
 21
198.269051
 31
0.0
  0
LINE
  5
2b6
100
AcDbEntity
  8
Layer_1
 62
1
100
AcDbLine
 10
352.579779
 20
198.269051
 30
0.0
 11
355.579773
 21
198.269051
 31
0.0
  0
LINE
  5
2b7
100
AcDbEntity
  8
Layer_1
 62
1
100
AcDbLine
 10
362.518828
 20
155.151427
 30
0.0
 11
354.064776
 21
146.697358
 31
0.0
  0
LINE
  5
2b8
100
AcDbEntity
  8
Layer_1
 62
1
100
AcDbLine
 10
354.064776
 20
146.697358
 30
0.0
 11
345.610696
 21
155.151430
 31
0.0
  0
LINE
  5
2b9
100
AcDbEntity
  8
Layer_1
 62
1
100
AcDbLine
 10
345.610696
 20
155.151430
 30
0.0
 11
343.378488
 21
152.919227
 31
0.0
  0
LINE
  5
2ba
100
AcDbEntity
  8
Layer_1
 62
1
100
AcDbLine
 10
343.378488
 20
152.919227
 30
0.0
 11
351.832568
 21
144.465156
 31
0.0
  0
LINE
  5
2bb
100
AcDbEntity
  8
Layer_1
 62
1
100
AcDbLine
 10
351.832568
 20
144.465156
 30
0.0
 11
343.378488
 21
136.011084
 31
0.0
  0
LINE
  5
2bc
100
AcDbEntity
  8
Layer_1
 62
1
100
AcDbLine
 10
343.378488
 20
136.011084
 30
0.0
 11
345.610696
 21
133.778873
 31
0.0
  0
LINE
  5
2bd
100
AcDbEntity
  8
Layer_1
 62
1
100
AcDbLine
 10
345.610696
 20
133.778873
 30
0.0
 11
354.064776
 21
142.232941
 31
0.0
  0
LINE
  5
2be
100
AcDbEntity
  8
Layer_1
 62
1
100
AcDbLine
 10
354.064776
 20
142.232941
 30
0.0
 11
362.518828
 21
133.778890
 31
0.0
  0
LINE
  5
2bf
100
AcDbEntity
  8
Layer_1
 62
1
100
AcDbLine
 10
362.518828
 20
133.778890
 30
0.0
 11
364.751036
 21
136.011093
 31
0.0
  0
LINE
  5
2c0
100
AcDbEntity
  8
Layer_1
 62
1
100
AcDbLine
 10
364.751036
 20
136.011093
 30
0.0
 11
356.296985
 21
144.465144
 31
0.0
  0
LINE
  5
2c1
100
AcDbEntity
  8
Layer_1
 62
1
100
AcDbLine
 10
356.296985
 20
144.465144
 30
0.0
 11
364.751036
 21
152.919213
 31
0.0
  0
LINE
  5
2c2
100
AcDbEntity
  8
Layer_1
 62
1
100
AcDbLine
 10
364.751036
 20
152.919213
 30
0.0
 11
362.518828
 21
155.151427
 31
0.0
  0
LINE
  5
2c3
100
AcDbEntity
  8
Layer_1
 62
1
100
AcDbLine
 10
362.518828
 20
155.151427
 30
0.0
 11
362.518828
 21
155.151427
 31
0.0
  0
LINE
  5
2c4
100
AcDbEntity
  8
Layer_1
 62
5
100
AcDbLine
 10
105.826594
 20
305.520680
 30
0.0
 11
105.826594
 21
302.440490
 31
0.0
  0
LINE
  5
2c5
100
AcDbEntity
  8
Layer_1
 62
5
100
AcDbLine
 10
105.826594
 20
302.440490
 30
0.0
 11
101.830832
 21
302.440490
 31
0.0
  0
LINE
  5
2c6
100
AcDbEntity
  8
Layer_1
 62
5
100
AcDbLine
 10
101.830832
 20
302.440490
 30
0.0
 11
101.830832
 21
299.299114
 31
0.0
  0
LINE
  5
2c7
100
AcDbEntity
  8
Layer_1
 62
5
100
AcDbLine
 10
101.830832
 20
299.299114
 30
0.0
 11
103.431010
 21
299.299114
 31
0.0
  0
LINE
  5
2c8
100
AcDbEntity
  8
Layer_1
 62
5
100
AcDbLine
 10
103.431010
 20
299.299114
 30
0.0
 11
103.431010
 21
296.298849
 31
0.0
  0
LINE
  5
2c9
100
AcDbEntity
  8
Layer_1
 62
5
100
AcDbLine
 10
103.431010
 20
296.298849
 30
0.0
 11
101.830832
 21
296.298849
 31
0.0
  0
LINE
  5
2ca
100
AcDbEntity
  8
Layer_1
 62
5
100
AcDbLine
 10
101.830832
 20
296.298849
 30
0.0
 11
101.830832
 21
294.299039
 31
0.0
  0
LINE
  5
2cb
100
AcDbEntity
  8
Layer_1
 62
5
100
AcDbLine
 10
101.830832
 20
294.299039
 30
0.0
 11
98.631027
 21
294.299039
 31
0.0
  0
LINE
  5
2cc
100
AcDbEntity
  8
Layer_1
 62
5
100
AcDbLine
 10
98.631027
 20
294.299039
 30
0.0
 11
98.631027
 21
296.298849
 31
0.0
  0
LINE
  5
2cd
100
AcDbEntity
  8
Layer_1
 62
5
100
AcDbLine
 10
98.631027
 20
296.298849
 30
0.0
 11
97.030850
 21
296.298849
 31
0.0
  0
LINE
  5
2ce
100
AcDbEntity
  8
Layer_1
 62
5
100
AcDbLine
 10
97.030850
 20
296.298849
 30
0.0
 11
97.030850
 21
299.299114
 31
0.0
  0
LINE
  5
2cf
100
AcDbEntity
  8
Layer_1
 62
5
100
AcDbLine
 10
97.030850
 20
299.299114
 30
0.0
 11
98.631027
 21
299.299114
 31
0.0
  0
LINE
  5
2d0
100
AcDbEntity
  8
Layer_1
 62
5
100
AcDbLine
 10
98.631027
 20
299.299114
 30
0.0
 11
98.631027
 21
302.440490
 31
0.0
  0
LINE
  5
2d1
100
AcDbEntity
  8
Layer_1
 62
5
100
AcDbLine
 10
98.631027
 20
302.440490
 30
0.0
 11
89.208003
 21
302.440490
 31
0.0
  0
LINE
  5
2d2
100
AcDbEntity
  8
Layer_1
 62
5
100
AcDbLine
 10
89.208003
 20
302.440490
 30
0.0
 11
89.208003
 21
282.660127
 31
0.0
  0
LINE
  5
2d3
100
AcDbEntity
  8
Layer_1
 62
5
100
AcDbLine
 10
89.208003
 20
282.660127
 30
0.0
 11
99.296897
 21
282.660127
 31
0.0
  0
LINE
  5
2d4
100
AcDbEntity
  8
Layer_1
 62
5
100
AcDbLine
 10
99.296897
 20
282.660127
 30
0.0
 11
99.296897
 21
204.600315
 31
0.0
  0
SPLINE
  5
2d5
100
AcDbEntity
  8
Layer_1
 62
5
100
AcDbSpline
 70
8
 71
3
 72
8
 73
4
 74
0
 40
0
 40
0
 40
0
 40
0
 40
1
 40
1
 40
1
 40
1
 10
99.296897
 20
204.600315
 30
0.0
 10
99.295204
 20
204.571105
 30
0.0
 10
99.293849
 20
204.541895
 30
0.0
 10
99.292494
 20
204.512685
 30
0.0
  0
SPLINE
  5
2d6
100
AcDbEntity
  8
Layer_1
 62
5
100
AcDbSpline
 70
8
 71
3
 72
8
 73
4
 74
0
 40
0
 40
0
 40
0
 40
0
 40
1
 40
1
 40
1
 40
1
 10
99.292494
 20
204.512685
 30
0.0
 10
99.293905
 20
204.471508
 30
0.0
 10
99.295316
 20
204.430360
 30
0.0
 10
99.296897
 20
204.389212
 30
0.0
  0
LINE
  5
2d7
100
AcDbEntity
  8
Layer_1
 62
5
100
AcDbLine
 10
99.296897
 20
204.389212
 30
0.0
 11
99.296897
 21
203.296702
 31
0.0
  0
LINE
  5
2d8
100
AcDbEntity
  8
Layer_1
 62
5
100
AcDbLine
 10
99.296897
 20
203.296702
 30
0.0
 11
99.358080
 21
203.296702
 31
0.0
  0
SPLINE
  5
2d9
100
AcDbEntity
  8
Layer_1
 62
5
100
AcDbSpline
 70
8
 71
3
 72
8
 73
4
 74
0
 40
0
 40
0
 40
0
 40
0
 40
1
 40
1
 40
1
 40
1
 10
99.358080
 20
203.296702
 30
0.0
 10
99.942983
 20
196.809316
 30
0.0
 10
105.039902
 20
191.734734
 30
0.0
 10
111.384498
 20
191.052547
 30
0.0
  0
LINE
  5
2da
100
AcDbEntity
  8
Layer_1
 62
5
100
AcDbLine
 10
111.384498
 20
191.052547
 30
0.0
 11
111.384498
 21
251.174715
 31
0.0
  0
LINE
  5
2db
100
AcDbEntity
  8
Layer_1
 62
5
100
AcDbLine
 10
111.384498
 20
251.174715
 30
0.0
 11
114.281684
 21
251.174715
 31
0.0
  0
LINE
  5
2dc
100
AcDbEntity
  8
Layer_1
 62
5
100
AcDbLine
 10
114.281684
 20
251.174715
 30
0.0
 11
114.281684
 21
191.052011
 31
0.0
  0
SPLINE
  5
2dd
100
AcDbEntity
  8
Layer_1
 62
5
100
AcDbSpline
 70
8
 71
3
 72
8
 73
4
 74
0
 40
0
 40
0
 40
0
 40
0
 40
1
 40
1
 40
1
 40
1
 10
114.281684
 20
191.052011
 30
0.0
 10
120.628071
 20
191.732364
 30
0.0
 10
125.727457
 20
196.807651
 30
0.0
 10
126.312510
 20
203.296702
 30
0.0
  0
LINE
  5
2de
100
AcDbEntity
  8
Layer_1
 62
5
100
AcDbLine
 10
126.312510
 20
203.296702
 30
0.0
 11
126.369835
 21
203.296702
 31
0.0
  0
LINE
  5
2df
100
AcDbEntity
  8
Layer_1
 62
5
100
AcDbLine
 10
126.369835
 20
203.296702
 30
0.0
 11
126.369835
 21
204.435525
 31
0.0
  0
SPLINE
  5
2e0
100
AcDbEntity
  8
Layer_1
 62
5
100
AcDbSpline
 70
8
 71
3
 72
8
 73
4
 74
0
 40
0
 40
0
 40
0
 40
0
 40
1
 40
1
 40
1
 40
1
 10
126.369835
 20
204.435525
 30
0.0
 10
126.371246
 20
204.461207
 30
0.0
 10
126.372375
 20
204.486974
 30
0.0
 10
126.373701
 20
204.512685
 30
0.0
  0
SPLINE
  5
2e1
100
AcDbEntity
  8
Layer_1
 62
5
100
AcDbSpline
 70
8
 71
3
 72
8
 73
4
 74
0
 40
0
 40
0
 40
0
 40
0
 40
1
 40
1
 40
1
 40
1
 10
126.373701
 20
204.512685
 30
0.0
 10
126.372572
 20
204.548696
 30
0.0
 10
126.371161
 20
204.584708
 30
0.0
 10
126.369835
 20
204.620719
 30
0.0
  0
LINE
  5
2e2
100
AcDbEntity
  8
Layer_1
 62
5
100
AcDbLine
 10
126.369835
 20
204.620719
 30
0.0
 11
126.369835
 21
282.660127
 31
0.0
  0
LINE
  5
2e3
100
AcDbEntity
  8
Layer_1
 62
5
100
AcDbLine
 10
126.369835
 20
282.660127
 30
0.0
 11
136.458179
 21
282.660127
 31
0.0
  0
LINE
  5
2e4
100
AcDbEntity
  8
Layer_1
 62
5
100
AcDbLine
 10
136.458179
 20
282.660127
 30
0.0
 11
136.458179
 21
302.440490
 31
0.0
  0
LINE
  5
2e5
100
AcDbEntity
  8
Layer_1
 62
5
100
AcDbLine
 10
136.458179
 20
302.440490
 30
0.0
 11
127.029089
 21
302.440490
 31
0.0
  0
LINE
  5
2e6
100
AcDbEntity
  8
Layer_1
 62
5
100
AcDbLine
 10
127.029089
 20
302.440490
 30
0.0
 11
127.029089
 21
299.359747
 31
0.0
  0
LINE
  5
2e7
100
AcDbEntity
  8
Layer_1
 62
5
100
AcDbLine
 10
127.029089
 20
299.359747
 30
0.0
 11
128.629266
 21
299.359747
 31
0.0
  0
LINE
  5
2e8
100
AcDbEntity
  8
Layer_1
 62
5
100
AcDbLine
 10
128.629266
 20
299.359747
 30
0.0
 11
128.629266
 21
296.359482
 31
0.0
  0
LINE
  5
2e9
100
AcDbEntity
  8
Layer_1
 62
5
100
AcDbLine
 10
128.629266
 20
296.359482
 30
0.0
 11
127.029089
 21
296.359482
 31
0.0
  0
LINE
  5
2ea
100
AcDbEntity
  8
Layer_1
 62
5
100
AcDbLine
 10
127.029089
 20
296.359482
 30
0.0
 11
127.029089
 21
294.359672
 31
0.0
  0
LINE
  5
2eb
100
AcDbEntity
  8
Layer_1
 62
5
100
AcDbLine
 10
127.029089
 20
294.359672
 30
0.0
 11
123.829284
 21
294.359672
 31
0.0
  0
LINE
  5
2ec
100
AcDbEntity
  8
Layer_1
 62
5
100
AcDbLine
 10
123.829284
 20
294.359672
 30
0.0
 11
123.829284
 21
296.359482
 31
0.0
  0
LINE
  5
2ed
100
AcDbEntity
  8
Layer_1
 62
5
100
AcDbLine
 10
123.829284
 20
296.359482
 30
0.0
 11
122.229107
 21
296.359482
 31
0.0
  0
LINE
  5
2ee
100
AcDbEntity
  8
Layer_1
 62
5
100
AcDbLine
 10
122.229107
 20
296.359482
 30
0.0
 11
122.229107
 21
299.359747
 31
0.0
  0
LINE
  5
2ef
100
AcDbEntity
  8
Layer_1
 62
5
100
AcDbLine
 10
122.229107
 20
299.359747
 30
0.0
 11
123.829284
 21
299.359747
 31
0.0
  0
LINE
  5
2f0
100
AcDbEntity
  8
Layer_1
 62
5
100
AcDbLine
 10
123.829284
 20
299.359747
 30
0.0
 11
123.829284
 21
302.440490
 31
0.0
  0
LINE
  5
2f1
100
AcDbEntity
  8
Layer_1
 62
5
100
AcDbLine
 10
123.829284
 20
302.440490
 30
0.0
 11
119.839588
 21
302.440490
 31
0.0
  0
LINE
  5
2f2
100
AcDbEntity
  8
Layer_1
 62
5
100
AcDbLine
 10
119.839588
 20
302.440490
 30
0.0
 11
119.839588
 21
305.520680
 31
0.0
  0
LINE
  5
2f3
100
AcDbEntity
  8
Layer_1
 62
5
100
AcDbLine
 10
119.839588
 20
305.520680
 30
0.0
 11
105.826594
 21
305.520680
 31
0.0
  0
LINE
  5
2f4
100
AcDbEntity
  8
Layer_1
 62
1
100
AcDbLine
 10
370.780517
 20
295.678940
 30
0.0
 11
362.326465
 21
287.224871
 31
0.0
  0
LINE
  5
2f5
100
AcDbEntity
  8
Layer_1
 62
1
100
AcDbLine
 10
362.326465
 20
287.224871
 30
0.0
 11
353.872385
 21
295.678943
 31
0.0
  0
LINE
  5
2f6
100
AcDbEntity
  8
Layer_1
 62
1
100
AcDbLine
 10
353.872385
 20
295.678943
 30
0.0
 11
351.640177
 21
293.446740
 31
0.0
  0
LINE
  5
2f7
100
AcDbEntity
  8
Layer_1
 62
1
100
AcDbLine
 10
351.640177
 20
293.446740
 30
0.0
 11
360.094257
 21
284.992668
 31
0.0
  0
LINE
  5
2f8
100
AcDbEntity
  8
Layer_1
 62
1
100
AcDbLine
 10
360.094257
 20
284.992668
 30
0.0
 11
351.640177
 21
276.538597
 31
0.0
  0
LINE
  5
2f9
100
AcDbEntity
  8
Layer_1
 62
1
100
AcDbLine
 10
351.640177
 20
276.538597
 30
0.0
 11
353.872385
 21
274.306386
 31
0.0
  0
LINE
  5
2fa
100
AcDbEntity
  8
Layer_1
 62
1
100
AcDbLine
 10
353.872385
 20
274.306386
 30
0.0
 11
362.326465
 21
282.760454
 31
0.0
  0
LINE
  5
2fb
100
AcDbEntity
  8
Layer_1
 62
1
100
AcDbLine
 10
362.326465
 20
282.760454
 30
0.0
 11
370.780517
 21
274.306403
 31
0.0
  0
LINE
  5
2fc
100
AcDbEntity
  8
Layer_1
 62
1
100
AcDbLine
 10
370.780517
 20
274.306403
 30
0.0
 11
373.012725
 21
276.538606
 31
0.0
  0
LINE
  5
2fd
100
AcDbEntity
  8
Layer_1
 62
1
100
AcDbLine
 10
373.012725
 20
276.538606
 30
0.0
 11
364.558674
 21
284.992657
 31
0.0
  0
LINE
  5
2fe
100
AcDbEntity
  8
Layer_1
 62
1
100
AcDbLine
 10
364.558674
 20
284.992657
 30
0.0
 11
373.012725
 21
293.446726
 31
0.0
  0
LINE
  5
2ff
100
AcDbEntity
  8
Layer_1
 62
1
100
AcDbLine
 10
373.012725
 20
293.446726
 30
0.0
 11
370.780517
 21
295.678940
 31
0.0
  0
LINE
  5
300
100
AcDbEntity
  8
Layer_1
 62
1
100
AcDbLine
 10
370.780517
 20
295.678940
 30
0.0
 11
370.780517
 21
295.678940
 31
0.0
  0
SPLINE
  5
301
100
AcDbEntity
  8
Layer_1
 62
5
100
AcDbSpline
 70
8
 71
3
 72
8
 73
4
 74
0
 40
0
 40
0
 40
0
 40
0
 40
1
 40
1
 40
1
 40
1
 10
386.132532
 20
284.992663
 30
0.0
 10
386.132532
 20
276.487574
 30
0.0
 10
381.595121
 20
268.628548
 30
0.0
 10
374.229498
 20
264.376004
 30
0.0
  0
SPLINE
  5
302
100
AcDbEntity
  8
Layer_1
 62
5
100
AcDbSpline
 70
8
 71
3
 72
8
 73
4
 74
0
 40
0
 40
0
 40
0
 40
0
 40
1
 40
1
 40
1
 40
1
 10
374.229498
 20
264.376004
 30
0.0
 10
366.863876
 20
260.123460
 30
0.0
 10
357.789054
 20
260.123460
 30
0.0
 10
350.423432
 20
264.376004
 30
0.0
  0
SPLINE
  5
303
100
AcDbEntity
  8
Layer_1
 62
5
100
AcDbSpline
 70
8
 71
3
 72
8
 73
4
 74
0
 40
0
 40
0
 40
0
 40
0
 40
1
 40
1
 40
1
 40
1
 10
350.423432
 20
264.376004
 30
0.0
 10
343.057809
 20
268.628548
 30
0.0
 10
338.520398
 20
276.487574
 30
0.0
 10
338.520398
 20
284.992663
 30
0.0
  0
SPLINE
  5
304
100
AcDbEntity
  8
Layer_1
 62
5
100
AcDbSpline
 70
8
 71
3
 72
8
 73
4
 74
0
 40
0
 40
0
 40
0
 40
0
 40
1
 40
1
 40
1
 40
1
 10
338.520398
 20
284.992663
 30
0.0
 10
338.520398
 20
293.497751
 30
0.0
 10
343.057809
 20
301.356777
 30
0.0
 10
350.423432
 20
305.609321
 30
0.0
  0
SPLINE
  5
305
100
AcDbEntity
  8
Layer_1
 62
5
100
AcDbSpline
 70
8
 71
3
 72
8
 73
4
 74
0
 40
0
 40
0
 40
0
 40
0
 40
1
 40
1
 40
1
 40
1
 10
350.423432
 20
305.609321
 30
0.0
 10
357.789054
 20
309.861866
 30
0.0
 10
366.863876
 20
309.861866
 30
0.0
 10
374.229498
 20
305.609321
 30
0.0
  0
SPLINE
  5
306
100
AcDbEntity
  8
Layer_1
 62
5
100
AcDbSpline
 70
8
 71
3
 72
8
 73
4
 74
0
 40
0
 40
0
 40
0
 40
0
 40
1
 40
1
 40
1
 40
1
 10
374.229498
 20
305.609321
 30
0.0
 10
381.595121
 20
301.356777
 30
0.0
 10
386.132532
 20
293.497751
 30
0.0
 10
386.132532
 20
284.992663
 30
0.0
  0
LINE
  5
307
100
AcDbEntity
  8
Layer_1
 62
5
100
AcDbLine
 10
386.132532
 20
284.992663
 30
0.0
 11
386.132532
 21
284.992663
 31
0.0
  0
SPLINE
  5
308
100
AcDbEntity
  8
Layer_1
 62
1
100
AcDbSpline
 70
8
 71
3
 72
8
 73
4
 74
0
 40
0
 40
0
 40
0
 40
0
 40
1
 40
1
 40
1
 40
1
 10
347.345883
 20
286.088681
 30
0.0
 10
347.951195
 20
286.693986
 30
0.0
 10
348.932593
 20
286.693985
 30
0.0
 10
349.537903
 20
286.088678
 30
0.0
  0
SPLINE
  5
309
100
AcDbEntity
  8
Layer_1
 62
1
100
AcDbSpline
 70
8
 71
3
 72
8
 73
4
 74
0
 40
0
 40
0
 40
0
 40
0
 40
1
 40
1
 40
1
 40
1
 10
349.537903
 20
286.088678
 30
0.0
 10
350.143215
 20
285.483366
 30
0.0
 10
350.143215
 20
284.501962
 30
0.0
 10
349.537903
 20
283.896650
 30
0.0
  0
SPLINE
  5
30a
100
AcDbEntity
  8
Layer_1
 62
1
100
AcDbSpline
 70
8
 71
3
 72
8
 73
4
 74
0
 40
0
 40
0
 40
0
 40
0
 40
1
 40
1
 40
1
 40
1
 10
349.537903
 20
283.896650
 30
0.0
 10
348.932592
 20
283.291344
 30
0.0
 10
347.951195
 20
283.291344
 30
0.0
 10
347.345883
 20
283.896650
 30
0.0
  0
SPLINE
  5
30b
100
AcDbEntity
  8
Layer_1
 62
1
100
AcDbSpline
 70
8
 71
3
 72
8
 73
4
 74
0
 40
0
 40
0
 40
0
 40
0
 40
1
 40
1
 40
1
 40
1
 10
347.345883
 20
283.896650
 30
0.0
 10
347.055202
 20
284.187331
 30
0.0
 10
346.891899
 20
284.581580
 30
0.0
 10
346.891899
 20
284.992666
 30
0.0
  0
SPLINE
  5
30c
100
AcDbEntity
  8
Layer_1
 62
1
100
AcDbSpline
 70
8
 71
3
 72
8
 73
4
 74
0
 40
0
 40
0
 40
0
 40
0
 40
1
 40
1
 40
1
 40
1
 10
346.891899
 20
284.992666
 30
0.0
 10
346.891899
 20
285.403751
 30
0.0
 10
347.055202
 20
285.798000
 30
0.0
 10
347.345883
 20
286.088681
 30
0.0
  0
LINE
  5
30d
100
AcDbEntity
  8
Layer_1
 62
1
100
AcDbLine
 10
347.345883
 20
286.088681
 30
0.0
 11
347.345883
 21
286.088681
 31
0.0
  0
SPLINE
  5
30e
100
AcDbEntity
  8
Layer_1
 62
1
100
AcDbSpline
 70
8
 71
3
 72
8
 73
4
 74
0
 40
0
 40
0
 40
0
 40
0
 40
1
 40
1
 40
1
 40
1
 10
377.307019
 20
286.088681
 30
0.0
 10
376.701706
 20
286.693986
 30
0.0
 10
375.720309
 20
286.693985
 30
0.0
 10
375.114999
 20
286.088678
 30
0.0
  0
SPLINE
  5
30f
100
AcDbEntity
  8
Layer_1
 62
1
100
AcDbSpline
 70
8
 71
3
 72
8
 73
4
 74
0
 40
0
 40
0
 40
0
 40
0
 40
1
 40
1
 40
1
 40
1
 10
375.114999
 20
286.088678
 30
0.0
 10
374.509687
 20
285.483366
 30
0.0
 10
374.509687
 20
284.501962
 30
0.0
 10
375.114999
 20
283.896650
 30
0.0
  0
SPLINE
  5
310
100
AcDbEntity
  8
Layer_1
 62
1
100
AcDbSpline
 70
8
 71
3
 72
8
 73
4
 74
0
 40
0
 40
0
 40
0
 40
0
 40
1
 40
1
 40
1
 40
1
 10
375.114999
 20
283.896650
 30
0.0
 10
375.720310
 20
283.291344
 30
0.0
 10
376.701707
 20
283.291344
 30
0.0
 10
377.307019
 20
283.896650
 30
0.0
  0
SPLINE
  5
311
100
AcDbEntity
  8
Layer_1
 62
1
100
AcDbSpline
 70
8
 71
3
 72
8
 73
4
 74
0
 40
0
 40
0
 40
0
 40
0
 40
1
 40
1
 40
1
 40
1
 10
377.307019
 20
283.896650
 30
0.0
 10
377.597700
 20
284.187331
 30
0.0
 10
377.761003
 20
284.581580
 30
0.0
 10
377.761003
 20
284.992666
 30
0.0
  0
SPLINE
  5
312
100
AcDbEntity
  8
Layer_1
 62
1
100
AcDbSpline
 70
8
 71
3
 72
8
 73
4
 74
0
 40
0
 40
0
 40
0
 40
0
 40
1
 40
1
 40
1
 40
1
 10
377.761003
 20
284.992666
 30
0.0
 10
377.761003
 20
285.403751
 30
0.0
 10
377.597700
 20
285.798000
 30
0.0
 10
377.307019
 20
286.088681
 30
0.0
  0
LINE
  5
313
100
AcDbEntity
  8
Layer_1
 62
1
100
AcDbLine
 10
377.307019
 20
286.088681
 30
0.0
 11
377.307019
 21
286.088681
 31
0.0
  0
SPLINE
  5
314
100
AcDbEntity
  8
Layer_1
 62
1
100
AcDbSpline
 70
8
 71
3
 72
8
 73
4
 74
0
 40
0
 40
0
 40
0
 40
0
 40
1
 40
1
 40
1
 40
1
 10
363.422475
 20
299.973236
 30
0.0
 10
364.027781
 20
299.367925
 30
0.0
 10
364.027781
 20
298.386527
 30
0.0
 10
363.422475
 20
297.781216
 30
0.0
  0
SPLINE
  5
315
100
AcDbEntity
  8
Layer_1
 62
1
100
AcDbSpline
 70
8
 71
3
 72
8
 73
4
 74
0
 40
0
 40
0
 40
0
 40
0
 40
1
 40
1
 40
1
 40
1
 10
363.422475
 20
297.781216
 30
0.0
 10
362.817164
 20
297.175910
 30
0.0
 10
361.835766
 20
297.175910
 30
0.0
 10
361.230455
 20
297.781216
 30
0.0
  0
SPLINE
  5
316
100
AcDbEntity
  8
Layer_1
 62
1
100
AcDbSpline
 70
8
 71
3
 72
8
 73
4
 74
0
 40
0
 40
0
 40
0
 40
0
 40
1
 40
1
 40
1
 40
1
 10
361.230455
 20
297.781216
 30
0.0
 10
360.625149
 20
298.386527
 30
0.0
 10
360.625149
 20
299.367925
 30
0.0
 10
361.230455
 20
299.973236
 30
0.0
  0
SPLINE
  5
317
100
AcDbEntity
  8
Layer_1
 62
1
100
AcDbSpline
 70
8
 71
3
 72
8
 73
4
 74
0
 40
0
 40
0
 40
0
 40
0
 40
1
 40
1
 40
1
 40
1
 10
361.230455
 20
299.973236
 30
0.0
 10
361.835766
 20
300.578542
 30
0.0
 10
362.817164
 20
300.578542
 30
0.0
 10
363.422475
 20
299.973236
 30
0.0
  0
LINE
  5
318
100
AcDbEntity
  8
Layer_1
 62
1
100
AcDbLine
 10
363.422475
 20
299.973236
 30
0.0
 11
363.422475
 21
299.973236
 31
0.0
  0
SPLINE
  5
319
100
AcDbEntity
  8
Layer_1
 62
1
100
AcDbSpline
 70
8
 71
3
 72
8
 73
4
 74
0
 40
0
 40
0
 40
0
 40
0
 40
1
 40
1
 40
1
 40
1
 10
363.422475
 20
270.012101
 30
0.0
 10
364.027781
 20
270.617412
 30
0.0
 10
364.027781
 20
271.598810
 30
0.0
 10
363.422475
 20
272.204121
 30
0.0
  0
SPLINE
  5
31a
100
AcDbEntity
  8
Layer_1
 62
1
100
AcDbSpline
 70
8
 71
3
 72
8
 73
4
 74
0
 40
0
 40
0
 40
0
 40
0
 40
1
 40
1
 40
1
 40
1
 10
363.422475
 20
272.204121
 30
0.0
 10
362.817164
 20
272.809426
 30
0.0
 10
361.835766
 20
272.809426
 30
0.0
 10
361.230455
 20
272.204121
 30
0.0
  0
SPLINE
  5
31b
100
AcDbEntity
  8
Layer_1
 62
1
100
AcDbSpline
 70
8
 71
3
 72
8
 73
4
 74
0
 40
0
 40
0
 40
0
 40
0
 40
1
 40
1
 40
1
 40
1
 10
361.230455
 20
272.204121
 30
0.0
 10
360.625149
 20
271.598810
 30
0.0
 10
360.625149
 20
270.617412
 30
0.0
 10
361.230455
 20
270.012101
 30
0.0
  0
SPLINE
  5
31c
100
AcDbEntity
  8
Layer_1
 62
1
100
AcDbSpline
 70
8
 71
3
 72
8
 73
4
 74
0
 40
0
 40
0
 40
0
 40
0
 40
1
 40
1
 40
1
 40
1
 10
361.230455
 20
270.012101
 30
0.0
 10
361.835766
 20
269.406795
 30
0.0
 10
362.817164
 20
269.406795
 30
0.0
 10
363.422475
 20
270.012101
 30
0.0
  0
LINE
  5
31d
100
AcDbEntity
  8
Layer_1
 62
1
100
AcDbLine
 10
363.422475
 20
270.012101
 30
0.0
 11
363.422475
 21
270.012101
 31
0.0
  0
SPLINE
  5
31e
100
AcDbEntity
  8
Layer_1
 62
1
100
AcDbSpline
 70
8
 71
3
 72
8
 73
4
 74
0
 40
0
 40
0
 40
0
 40
0
 40
1
 40
1
 40
1
 40
1
 10
339.098108
 20
145.394169
 30
0.0
 10
339.703420
 20
145.999474
 30
0.0
 10
340.684818
 20
145.999473
 30
0.0
 10
341.290128
 20
145.394166
 30
0.0
  0
SPLINE
  5
31f
100
AcDbEntity
  8
Layer_1
 62
1
100
AcDbSpline
 70
8
 71
3
 72
8
 73
4
 74
0
 40
0
 40
0
 40
0
 40
0
 40
1
 40
1
 40
1
 40
1
 10
341.290128
 20
145.394166
 30
0.0
 10
341.895439
 20
144.788854
 30
0.0
 10
341.895439
 20
143.807450
 30
0.0
 10
341.290128
 20
143.202138
 30
0.0
  0
SPLINE
  5
320
100
AcDbEntity
  8
Layer_1
 62
1
100
AcDbSpline
 70
8
 71
3
 72
8
 73
4
 74
0
 40
0
 40
0
 40
0
 40
0
 40
1
 40
1
 40
1
 40
1
 10
341.290128
 20
143.202138
 30
0.0
 10
340.684817
 20
142.596832
 30
0.0
 10
339.703419
 20
142.596832
 30
0.0
 10
339.098108
 20
143.202138
 30
0.0
  0
SPLINE
  5
321
100
AcDbEntity
  8
Layer_1
 62
1
100
AcDbSpline
 70
8
 71
3
 72
8
 73
4
 74
0
 40
0
 40
0
 40
0
 40
0
 40
1
 40
1
 40
1
 40
1
 10
339.098108
 20
143.202138
 30
0.0
 10
338.807426
 20
143.492819
 30
0.0
 10
338.644123
 20
143.887068
 30
0.0
 10
338.644123
 20
144.298153
 30
0.0
  0
SPLINE
  5
322
100
AcDbEntity
  8
Layer_1
 62
1
100
AcDbSpline
 70
8
 71
3
 72
8
 73
4
 74
0
 40
0
 40
0
 40
0
 40
0
 40
1
 40
1
 40
1
 40
1
 10
338.644123
 20
144.298153
 30
0.0
 10
338.644123
 20
144.709239
 30
0.0
 10
338.807426
 20
145.103488
 30
0.0
 10
339.098108
 20
145.394169
 30
0.0
  0
LINE
  5
323
100
AcDbEntity
  8
Layer_1
 62
1
100
AcDbLine
 10
339.098108
 20
145.394169
 30
0.0
 11
339.098108
 21
145.394169
 31
0.0
  0
SPLINE
  5
324
100
AcDbEntity
  8
Layer_1
 62
1
100
AcDbSpline
 70
8
 71
3
 72
8
 73
4
 74
0
 40
0
 40
0
 40
0
 40
0
 40
1
 40
1
 40
1
 40
1
 10
369.059215
 20
145.394169
 30
0.0
 10
368.453903
 20
145.999474
 30
0.0
 10
367.472505
 20
145.999473
 30
0.0
 10
366.867195
 20
145.394166
 30
0.0
  0
SPLINE
  5
325
100
AcDbEntity
  8
Layer_1
 62
1
100
AcDbSpline
 70
8
 71
3
 72
8
 73
4
 74
0
 40
0
 40
0
 40
0
 40
0
 40
1
 40
1
 40
1
 40
1
 10
366.867195
 20
145.394166
 30
0.0
 10
366.261884
 20
144.788854
 30
0.0
 10
366.261884
 20
143.807450
 30
0.0
 10
366.867195
 20
143.202138
 30
0.0
  0
SPLINE
  5
326
100
AcDbEntity
  8
Layer_1
 62
1
100
AcDbSpline
 70
8
 71
3
 72
8
 73
4
 74
0
 40
0
 40
0
 40
0
 40
0
 40
1
 40
1
 40
1
 40
1
 10
366.867195
 20
143.202138
 30
0.0
 10
367.472506
 20
142.596832
 30
0.0
 10
368.453904
 20
142.596832
 30
0.0
 10
369.059215
 20
143.202138
 30
0.0
  0
SPLINE
  5
327
100
AcDbEntity
  8
Layer_1
 62
1
100
AcDbSpline
 70
8
 71
3
 72
8
 73
4
 74
0
 40
0
 40
0
 40
0
 40
0
 40
1
 40
1
 40
1
 40
1
 10
369.059215
 20
143.202138
 30
0.0
 10
369.349897
 20
143.492819
 30
0.0
 10
369.513200
 20
143.887068
 30
0.0
 10
369.513200
 20
144.298153
 30
0.0
  0
SPLINE
  5
328
100
AcDbEntity
  8
Layer_1
 62
1
100
AcDbSpline
 70
8
 71
3
 72
8
 73
4
 74
0
 40
0
 40
0
 40
0
 40
0
 40
1
 40
1
 40
1
 40
1
 10
369.513200
 20
144.298153
 30
0.0
 10
369.513200
 20
144.709239
 30
0.0
 10
369.349897
 20
145.103488
 30
0.0
 10
369.059215
 20
145.394169
 30
0.0
  0
LINE
  5
329
100
AcDbEntity
  8
Layer_1
 62
1
100
AcDbLine
 10
369.059215
 20
145.394169
 30
0.0
 11
369.059215
 21
145.394169
 31
0.0
  0
SPLINE
  5
32a
100
AcDbEntity
  8
Layer_1
 62
1
100
AcDbSpline
 70
8
 71
3
 72
8
 73
4
 74
0
 40
0
 40
0
 40
0
 40
0
 40
1
 40
1
 40
1
 40
1
 10
355.174672
 20
159.278724
 30
0.0
 10
355.779977
 20
158.673412
 30
0.0
 10
355.779977
 20
157.692015
 30
0.0
 10
355.174672
 20
157.086704
 30
0.0
  0
SPLINE
  5
32b
100
AcDbEntity
  8
Layer_1
 62
1
100
AcDbSpline
 70
8
 71
3
 72
8
 73
4
 74
0
 40
0
 40
0
 40
0
 40
0
 40
1
 40
1
 40
1
 40
1
 10
355.174672
 20
157.086704
 30
0.0
 10
354.569360
 20
156.481398
 30
0.0
 10
353.587963
 20
156.481398
 30
0.0
 10
352.982652
 20
157.086704
 30
0.0
  0
SPLINE
  5
32c
100
AcDbEntity
  8
Layer_1
 62
1
100
AcDbSpline
 70
8
 71
3
 72
8
 73
4
 74
0
 40
0
 40
0
 40
0
 40
0
 40
1
 40
1
 40
1
 40
1
 10
352.982652
 20
157.086704
 30
0.0
 10
352.377346
 20
157.692015
 30
0.0
 10
352.377346
 20
158.673412
 30
0.0
 10
352.982652
 20
159.278724
 30
0.0
  0
SPLINE
  5
32d
100
AcDbEntity
  8
Layer_1
 62
1
100
AcDbSpline
 70
8
 71
3
 72
8
 73
4
 74
0
 40
0
 40
0
 40
0
 40
0
 40
1
 40
1
 40
1
 40
1
 10
352.982652
 20
159.278724
 30
0.0
 10
353.587963
 20
159.884029
 30
0.0
 10
354.569360
 20
159.884029
 30
0.0
 10
355.174672
 20
159.278724
 30
0.0
  0
LINE
  5
32e
100
AcDbEntity
  8
Layer_1
 62
1
100
AcDbLine
 10
355.174672
 20
159.278724
 30
0.0
 11
355.174672
 21
159.278724
 31
0.0
  0
SPLINE
  5
32f
100
AcDbEntity
  8
Layer_1
 62
1
100
AcDbSpline
 70
8
 71
3
 72
8
 73
4
 74
0
 40
0
 40
0
 40
0
 40
0
 40
1
 40
1
 40
1
 40
1
 10
355.174672
 20
129.317589
 30
0.0
 10
355.779977
 20
129.922900
 30
0.0
 10
355.779977
 20
130.904297
 30
0.0
 10
355.174672
 20
131.509609
 30
0.0
  0
SPLINE
  5
330
100
AcDbEntity
  8
Layer_1
 62
1
100
AcDbSpline
 70
8
 71
3
 72
8
 73
4
 74
0
 40
0
 40
0
 40
0
 40
0
 40
1
 40
1
 40
1
 40
1
 10
355.174672
 20
131.509609
 30
0.0
 10
354.569360
 20
132.114914
 30
0.0
 10
353.587963
 20
132.114914
 30
0.0
 10
352.982652
 20
131.509609
 30
0.0
  0
SPLINE
  5
331
100
AcDbEntity
  8
Layer_1
 62
1
100
AcDbSpline
 70
8
 71
3
 72
8
 73
4
 74
0
 40
0
 40
0
 40
0
 40
0
 40
1
 40
1
 40
1
 40
1
 10
352.982652
 20
131.509609
 30
0.0
 10
352.377346
 20
130.904297
 30
0.0
 10
352.377346
 20
129.922900
 30
0.0
 10
352.982652
 20
129.317589
 30
0.0
  0
SPLINE
  5
332
100
AcDbEntity
  8
Layer_1
 62
1
100
AcDbSpline
 70
8
 71
3
 72
8
 73
4
 74
0
 40
0
 40
0
 40
0
 40
0
 40
1
 40
1
 40
1
 40
1
 10
352.982652
 20
129.317589
 30
0.0
 10
353.587963
 20
128.712283
 30
0.0
 10
354.569360
 20
128.712283
 30
0.0
 10
355.174672
 20
129.317589
 30
0.0
  0
LINE
  5
333
100
AcDbEntity
  8
Layer_1
 62
1
100
AcDbLine
 10
355.174672
 20
129.317589
 30
0.0
 11
355.174672
 21
129.317589
 31
0.0
  0
LINE
  5
334
100
AcDbEntity
  8
Layer_1
 62
1
100
AcDbLine
 10
120.954972
 20
186.154690
 30
0.0
 11
48.246920
 21
186.154690
 31
0.0
  0
LINE
  5
335
100
AcDbEntity
  8
Layer_1
 62
1
100
AcDbLine
 10
48.246920
 20
186.154690
 30
0.0
 11
48.246920
 21
178.130124
 31
0.0
  0
LINE
  5
336
100
AcDbEntity
  8
Layer_1
 62
1
100
AcDbLine
 10
48.246920
 20
178.130124
 30
0.0
 11
51.197023
 21
178.130124
 31
0.0
  0
LINE
  5
337
100
AcDbEntity
  8
Layer_1
 62
1
100
AcDbLine
 10
51.197023
 20
178.130124
 30
0.0
 11
51.197023
 21
179.730296
 31
0.0
  0
LINE
  5
338
100
AcDbEntity
  8
Layer_1
 62
1
100
AcDbLine
 10
51.197023
 20
179.730296
 30
0.0
 11
54.196738
 21
179.730296
 31
0.0
  0
LINE
  5
339
100
AcDbEntity
  8
Layer_1
 62
1
100
AcDbLine
 10
54.196738
 20
179.730296
 30
0.0
 11
54.196738
 21
178.130124
 31
0.0
  0
LINE
  5
33a
100
AcDbEntity
  8
Layer_1
 62
1
100
AcDbLine
 10
54.196738
 20
178.130124
 30
0.0
 11
56.196547
 21
178.130124
 31
0.0
  0
LINE
  5
33b
100
AcDbEntity
  8
Layer_1
 62
1
100
AcDbLine
 10
56.196547
 20
178.130124
 30
0.0
 11
56.196547
 21
174.930317
 31
0.0
  0
LINE
  5
33c
100
AcDbEntity
  8
Layer_1
 62
1
100
AcDbLine
 10
56.196547
 20
174.930317
 30
0.0
 11
54.196738
 21
174.930317
 31
0.0
  0
LINE
  5
33d
100
AcDbEntity
  8
Layer_1
 62
1
100
AcDbLine
 10
54.196738
 20
174.930317
 30
0.0
 11
54.196738
 21
173.330117
 31
0.0
  0
LINE
  5
33e
100
AcDbEntity
  8
Layer_1
 62
1
100
AcDbLine
 10
54.196738
 20
173.330117
 30
0.0
 11
51.197023
 21
173.330117
 31
0.0
  0
LINE
  5
33f
100
AcDbEntity
  8
Layer_1
 62
1
100
AcDbLine
 10
51.197023
 20
173.330117
 30
0.0
 11
51.197023
 21
174.930317
 31
0.0
  0
LINE
  5
340
100
AcDbEntity
  8
Layer_1
 62
1
100
AcDbLine
 10
51.197023
 20
174.930317
 30
0.0
 11
48.246920
 21
174.930317
 31
0.0
  0
LINE
  5
341
100
AcDbEntity
  8
Layer_1
 62
1
100
AcDbLine
 10
48.246920
 20
174.930317
 30
0.0
 11
48.246920
 21
166.905723
 31
0.0
  0
LINE
  5
342
100
AcDbEntity
  8
Layer_1
 62
1
100
AcDbLine
 10
48.246920
 20
166.905723
 30
0.0
 11
120.954972
 21
166.905723
 31
0.0
  0
LINE
  5
343
100
AcDbEntity
  8
Layer_1
 62
1
100
AcDbLine
 10
120.954972
 20
166.905723
 30
0.0
 11
120.954972
 21
174.930317
 31
0.0
  0
LINE
  5
344
100
AcDbEntity
  8
Layer_1
 62
1
100
AcDbLine
 10
120.954972
 20
174.930317
 30
0.0
 11
118.004869
 21
174.930317
 31
0.0
  0
LINE
  5
345
100
AcDbEntity
  8
Layer_1
 62
1
100
AcDbLine
 10
118.004869
 20
174.930317
 30
0.0
 11
118.004869
 21
173.330117
 31
0.0
  0
LINE
  5
346
100
AcDbEntity
  8
Layer_1
 62
1
100
AcDbLine
 10
118.004869
 20
173.330117
 30
0.0
 11
115.005155
 21
173.330117
 31
0.0
  0
LINE
  5
347
100
AcDbEntity
  8
Layer_1
 62
1
100
AcDbLine
 10
115.005155
 20
173.330117
 30
0.0
 11
115.005155
 21
174.930317
 31
0.0
  0
LINE
  5
348
100
AcDbEntity
  8
Layer_1
 62
1
100
AcDbLine
 10
115.005155
 20
174.930317
 30
0.0
 11
113.004795
 21
174.930317
 31
0.0
  0
LINE
  5
349
100
AcDbEntity
  8
Layer_1
 62
1
100
AcDbLine
 10
113.004795
 20
174.930317
 30
0.0
 11
113.004795
 21
178.130124
 31
0.0
  0
LINE
  5
34a
100
AcDbEntity
  8
Layer_1
 62
1
100
AcDbLine
 10
113.004795
 20
178.130124
 30
0.0
 11
115.005155
 21
178.130124
 31
0.0
  0
LINE
  5
34b
100
AcDbEntity
  8
Layer_1
 62
1
100
AcDbLine
 10
115.005155
 20
178.130124
 30
0.0
 11
115.005155
 21
179.730296
 31
0.0
  0
LINE
  5
34c
100
AcDbEntity
  8
Layer_1
 62
1
100
AcDbLine
 10
115.005155
 20
179.730296
 30
0.0
 11
118.004869
 21
179.730296
 31
0.0
  0
LINE
  5
34d
100
AcDbEntity
  8
Layer_1
 62
1
100
AcDbLine
 10
118.004869
 20
179.730296
 30
0.0
 11
118.004869
 21
178.130124
 31
0.0
  0
LINE
  5
34e
100
AcDbEntity
  8
Layer_1
 62
1
100
AcDbLine
 10
118.004869
 20
178.130124
 30
0.0
 11
120.954972
 21
178.130124
 31
0.0
  0
LINE
  5
34f
100
AcDbEntity
  8
Layer_1
 62
1
100
AcDbLine
 10
120.954972
 20
178.130124
 30
0.0
 11
120.954972
 21
186.154690
 31
0.0
  0
LINE
  5
350
100
AcDbEntity
  8
Layer_1
 62
1
100
AcDbLine
 10
120.954972
 20
186.154690
 30
0.0
 11
120.954972
 21
186.154690
 31
0.0
  0
LINE
  5
351
100
AcDbEntity
  8
Layer_1
 62
1
100
AcDbLine
 10
143.785015
 20
164.561568
 30
0.0
 11
71.076946
 21
164.561568
 31
0.0
  0
LINE
  5
352
100
AcDbEntity
  8
Layer_1
 62
1
100
AcDbLine
 10
71.076946
 20
164.561568
 30
0.0
 11
71.076946
 21
156.537003
 31
0.0
  0
LINE
  5
353
100
AcDbEntity
  8
Layer_1
 62
1
100
AcDbLine
 10
71.076946
 20
156.537003
 30
0.0
 11
74.027063
 21
156.537003
 31
0.0
  0
LINE
  5
354
100
AcDbEntity
  8
Layer_1
 62
1
100
AcDbLine
 10
74.027063
 20
156.537003
 30
0.0
 11
74.027063
 21
158.137174
 31
0.0
  0
LINE
  5
355
100
AcDbEntity
  8
Layer_1
 62
1
100
AcDbLine
 10
74.027063
 20
158.137174
 30
0.0
 11
77.026778
 21
158.137174
 31
0.0
  0
LINE
  5
356
100
AcDbEntity
  8
Layer_1
 62
1
100
AcDbLine
 10
77.026778
 20
158.137174
 30
0.0
 11
77.026778
 21
156.537003
 31
0.0
  0
LINE
  5
357
100
AcDbEntity
  8
Layer_1
 62
1
100
AcDbLine
 10
77.026778
 20
156.537003
 30
0.0
 11
79.026587
 21
156.537003
 31
0.0
  0
LINE
  5
358
100
AcDbEntity
  8
Layer_1
 62
1
100
AcDbLine
 10
79.026587
 20
156.537003
 30
0.0
 11
79.026587
 21
153.337195
 31
0.0
  0
LINE
  5
359
100
AcDbEntity
  8
Layer_1
 62
1
100
AcDbLine
 10
79.026587
 20
153.337195
 30
0.0
 11
77.026778
 21
153.337195
 31
0.0
  0
LINE
  5
35a
100
AcDbEntity
  8
Layer_1
 62
1
100
AcDbLine
 10
77.026778
 20
153.337195
 30
0.0
 11
77.026778
 21
151.736995
 31
0.0
  0
LINE
  5
35b
100
AcDbEntity
  8
Layer_1
 62
1
100
AcDbLine
 10
77.026778
 20
151.736995
 30
0.0
 11
74.027063
 21
151.736995
 31
0.0
  0
LINE
  5
35c
100
AcDbEntity
  8
Layer_1
 62
1
100
AcDbLine
 10
74.027063
 20
151.736995
 30
0.0
 11
74.027063
 21
153.337195
 31
0.0
  0
LINE
  5
35d
100
AcDbEntity
  8
Layer_1
 62
1
100
AcDbLine
 10
74.027063
 20
153.337195
 30
0.0
 11
71.076946
 21
153.337195
 31
0.0
  0
LINE
  5
35e
100
AcDbEntity
  8
Layer_1
 62
1
100
AcDbLine
 10
71.076946
 20
153.337195
 30
0.0
 11
71.076946
 21
145.312601
 31
0.0
  0
LINE
  5
35f
100
AcDbEntity
  8
Layer_1
 62
1
100
AcDbLine
 10
71.076946
 20
145.312601
 30
0.0
 11
143.785015
 21
145.312601
 31
0.0
  0
LINE
  5
360
100
AcDbEntity
  8
Layer_1
 62
1
100
AcDbLine
 10
143.785015
 20
145.312601
 30
0.0
 11
143.785015
 21
153.337195
 31
0.0
  0
LINE
  5
361
100
AcDbEntity
  8
Layer_1
 62
1
100
AcDbLine
 10
143.785015
 20
153.337195
 30
0.0
 11
140.834912
 21
153.337195
 31
0.0
  0
LINE
  5
362
100
AcDbEntity
  8
Layer_1
 62
1
100
AcDbLine
 10
140.834912
 20
153.337195
 30
0.0
 11
140.834912
 21
151.736995
 31
0.0
  0
LINE
  5
363
100
AcDbEntity
  8
Layer_1
 62
1
100
AcDbLine
 10
140.834912
 20
151.736995
 30
0.0
 11
137.835197
 21
151.736995
 31
0.0
  0
LINE
  5
364
100
AcDbEntity
  8
Layer_1
 62
1
100
AcDbLine
 10
137.835197
 20
151.736995
 30
0.0
 11
137.835197
 21
153.337195
 31
0.0
  0
LINE
  5
365
100
AcDbEntity
  8
Layer_1
 62
1
100
AcDbLine
 10
137.835197
 20
153.337195
 30
0.0
 11
135.834837
 21
153.337195
 31
0.0
  0
LINE
  5
366
100
AcDbEntity
  8
Layer_1
 62
1
100
AcDbLine
 10
135.834837
 20
153.337195
 30
0.0
 11
135.834837
 21
156.537003
 31
0.0
  0
LINE
  5
367
100
AcDbEntity
  8
Layer_1
 62
1
100
AcDbLine
 10
135.834837
 20
156.537003
 30
0.0
 11
137.835197
 21
156.537003
 31
0.0
  0
LINE
  5
368
100
AcDbEntity
  8
Layer_1
 62
1
100
AcDbLine
 10
137.835197
 20
156.537003
 30
0.0
 11
137.835197
 21
158.137174
 31
0.0
  0
LINE
  5
369
100
AcDbEntity
  8
Layer_1
 62
1
100
AcDbLine
 10
137.835197
 20
158.137174
 30
0.0
 11
140.834912
 21
158.137174
 31
0.0
  0
LINE
  5
36a
100
AcDbEntity
  8
Layer_1
 62
1
100
AcDbLine
 10
140.834912
 20
158.137174
 30
0.0
 11
140.834912
 21
156.537003
 31
0.0
  0
LINE
  5
36b
100
AcDbEntity
  8
Layer_1
 62
1
100
AcDbLine
 10
140.834912
 20
156.537003
 30
0.0
 11
143.785015
 21
156.537003
 31
0.0
  0
LINE
  5
36c
100
AcDbEntity
  8
Layer_1
 62
1
100
AcDbLine
 10
143.785015
 20
156.537003
 30
0.0
 11
143.785015
 21
164.561568
 31
0.0
  0
LINE
  5
36d
100
AcDbEntity
  8
Layer_1
 62
1
100
AcDbLine
 10
143.785015
 20
164.561568
 30
0.0
 11
143.785015
 21
164.561568
 31
0.0
  0
LINE
  5
36e
100
AcDbEntity
  8
Layer_1
 62
1
100
AcDbLine
 10
148.801312
 20
141.884803
 30
0.0
 11
76.093260
 21
141.884803
 31
0.0
  0
LINE
  5
36f
100
AcDbEntity
  8
Layer_1
 62
1
100
AcDbLine
 10
76.093260
 20
141.884803
 30
0.0
 11
76.093260
 21
133.860238
 31
0.0
  0
LINE
  5
370
100
AcDbEntity
  8
Layer_1
 62
1
100
AcDbLine
 10
76.093260
 20
133.860238
 30
0.0
 11
79.043363
 21
133.860238
 31
0.0
  0
LINE
  5
371
100
AcDbEntity
  8
Layer_1
 62
1
100
AcDbLine
 10
79.043363
 20
133.860238
 30
0.0
 11
79.043363
 21
135.460409
 31
0.0
  0
LINE
  5
372
100
AcDbEntity
  8
Layer_1
 62
1
100
AcDbLine
 10
79.043363
 20
135.460409
 30
0.0
 11
82.043077
 21
135.460409
 31
0.0
  0
LINE
  5
373
100
AcDbEntity
  8
Layer_1
 62
1
100
AcDbLine
 10
82.043077
 20
135.460409
 30
0.0
 11
82.043077
 21
133.860238
 31
0.0
  0
LINE
  5
374
100
AcDbEntity
  8
Layer_1
 62
1
100
AcDbLine
 10
82.043077
 20
133.860238
 30
0.0
 11
84.042887
 21
133.860238
 31
0.0
  0
LINE
  5
375
100
AcDbEntity
  8
Layer_1
 62
1
100
AcDbLine
 10
84.042887
 20
133.860238
 30
0.0
 11
84.042887
 21
130.660430
 31
0.0
  0
LINE
  5
376
100
AcDbEntity
  8
Layer_1
 62
1
100
AcDbLine
 10
84.042887
 20
130.660430
 30
0.0
 11
82.043077
 21
130.660430
 31
0.0
  0
LINE
  5
377
100
AcDbEntity
  8
Layer_1
 62
1
100
AcDbLine
 10
82.043077
 20
130.660430
 30
0.0
 11
82.043077
 21
129.060230
 31
0.0
  0
LINE
  5
378
100
AcDbEntity
  8
Layer_1
 62
1
100
AcDbLine
 10
82.043077
 20
129.060230
 30
0.0
 11
79.043363
 21
129.060230
 31
0.0
  0
LINE
  5
379
100
AcDbEntity
  8
Layer_1
 62
1
100
AcDbLine
 10
79.043363
 20
129.060230
 30
0.0
 11
79.043363
 21
130.660430
 31
0.0
  0
LINE
  5
37a
100
AcDbEntity
  8
Layer_1
 62
1
100
AcDbLine
 10
79.043363
 20
130.660430
 30
0.0
 11
76.093260
 21
130.660430
 31
0.0
  0
LINE
  5
37b
100
AcDbEntity
  8
Layer_1
 62
1
100
AcDbLine
 10
76.093260
 20
130.660430
 30
0.0
 11
76.093260
 21
122.635836
 31
0.0
  0
LINE
  5
37c
100
AcDbEntity
  8
Layer_1
 62
1
100
AcDbLine
 10
76.093260
 20
122.635836
 30
0.0
 11
148.801312
 21
122.635836
 31
0.0
  0
LINE
  5
37d
100
AcDbEntity
  8
Layer_1
 62
1
100
AcDbLine
 10
148.801312
 20
122.635836
 30
0.0
 11
148.801312
 21
130.660430
 31
0.0
  0
LINE
  5
37e
100
AcDbEntity
  8
Layer_1
 62
1
100
AcDbLine
 10
148.801312
 20
130.660430
 30
0.0
 11
145.851209
 21
130.660430
 31
0.0
  0
LINE
  5
37f
100
AcDbEntity
  8
Layer_1
 62
1
100
AcDbLine
 10
145.851209
 20
130.660430
 30
0.0
 11
145.851209
 21
129.060230
 31
0.0
  0
LINE
  5
380
100
AcDbEntity
  8
Layer_1
 62
1
100
AcDbLine
 10
145.851209
 20
129.060230
 30
0.0
 11
142.851494
 21
129.060230
 31
0.0
  0
LINE
  5
381
100
AcDbEntity
  8
Layer_1
 62
1
100
AcDbLine
 10
142.851494
 20
129.060230
 30
0.0
 11
142.851494
 21
130.660430
 31
0.0
  0
LINE
  5
382
100
AcDbEntity
  8
Layer_1
 62
1
100
AcDbLine
 10
142.851494
 20
130.660430
 30
0.0
 11
140.851134
 21
130.660430
 31
0.0
  0
LINE
  5
383
100
AcDbEntity
  8
Layer_1
 62
1
100
AcDbLine
 10
140.851134
 20
130.660430
 30
0.0
 11
140.851134
 21
133.860238
 31
0.0
  0
LINE
  5
384
100
AcDbEntity
  8
Layer_1
 62
1
100
AcDbLine
 10
140.851134
 20
133.860238
 30
0.0
 11
142.851494
 21
133.860238
 31
0.0
  0
LINE
  5
385
100
AcDbEntity
  8
Layer_1
 62
1
100
AcDbLine
 10
142.851494
 20
133.860238
 30
0.0
 11
142.851494
 21
135.460409
 31
0.0
  0
LINE
  5
386
100
AcDbEntity
  8
Layer_1
 62
1
100
AcDbLine
 10
142.851494
 20
135.460409
 30
0.0
 11
145.851209
 21
135.460409
 31
0.0
  0
LINE
  5
387
100
AcDbEntity
  8
Layer_1
 62
1
100
AcDbLine
 10
145.851209
 20
135.460409
 30
0.0
 11
145.851209
 21
133.860238
 31
0.0
  0
LINE
  5
388
100
AcDbEntity
  8
Layer_1
 62
1
100
AcDbLine
 10
145.851209
 20
133.860238
 30
0.0
 11
148.801312
 21
133.860238
 31
0.0
  0
LINE
  5
389
100
AcDbEntity
  8
Layer_1
 62
1
100
AcDbLine
 10
148.801312
 20
133.860238
 30
0.0
 11
148.801312
 21
141.884803
 31
0.0
  0
LINE
  5
38a
100
AcDbEntity
  8
Layer_1
 62
1
100
AcDbLine
 10
148.801312
 20
141.884803
 30
0.0
 11
148.801312
 21
141.884803
 31
0.0
  0
LINE
  5
38b
100
AcDbEntity
  8
Layer_1
 62
1
100
AcDbLine
 10
193.282761
 20
214.617931
 30
0.0
 11
193.282761
 21
287.326000
 31
0.0
  0
LINE
  5
38c
100
AcDbEntity
  8
Layer_1
 62
1
100
AcDbLine
 10
193.282761
 20
287.326000
 30
0.0
 11
185.258195
 21
287.326000
 31
0.0
  0
LINE
  5
38d
100
AcDbEntity
  8
Layer_1
 62
1
100
AcDbLine
 10
185.258195
 20
287.326000
 30
0.0
 11
185.258195
 21
284.375883
 31
0.0
  0
LINE
  5
38e
100
AcDbEntity
  8
Layer_1
 62
1
100
AcDbLine
 10
185.258195
 20
284.375883
 30
0.0
 11
186.858367
 21
284.375883
 31
0.0
  0
LINE
  5
38f
100
AcDbEntity
  8
Layer_1
 62
1
100
AcDbLine
 10
186.858367
 20
284.375883
 30
0.0
 11
186.858367
 21
281.376168
 31
0.0
  0
LINE
  5
390
100
AcDbEntity
  8
Layer_1
 62
1
100
AcDbLine
 10
186.858367
 20
281.376168
 30
0.0
 11
185.258195
 21
281.376168
 31
0.0
  0
LINE
  5
391
100
AcDbEntity
  8
Layer_1
 62
1
100
AcDbLine
 10
185.258195
 20
281.376168
 30
0.0
 11
185.258195
 21
279.376359
 31
0.0
  0
LINE
  5
392
100
AcDbEntity
  8
Layer_1
 62
1
100
AcDbLine
 10
185.258195
 20
279.376359
 30
0.0
 11
182.058388
 21
279.376359
 31
0.0
  0
LINE
  5
393
100
AcDbEntity
  8
Layer_1
 62
1
100
AcDbLine
 10
182.058388
 20
279.376359
 30
0.0
 11
182.058388
 21
281.376168
 31
0.0
  0
LINE
  5
394
100
AcDbEntity
  8
Layer_1
 62
1
100
AcDbLine
 10
182.058388
 20
281.376168
 30
0.0
 11
180.458188
 21
281.376168
 31
0.0
  0
LINE
  5
395
100
AcDbEntity
  8
Layer_1
 62
1
100
AcDbLine
 10
180.458188
 20
281.376168
 30
0.0
 11
180.458188
 21
284.375883
 31
0.0
  0
LINE
  5
396
100
AcDbEntity
  8
Layer_1
 62
1
100
AcDbLine
 10
180.458188
 20
284.375883
 30
0.0
 11
182.058388
 21
284.375883
 31
0.0
  0
LINE
  5
397
100
AcDbEntity
  8
Layer_1
 62
1
100
AcDbLine
 10
182.058388
 20
284.375883
 30
0.0
 11
182.058388
 21
287.326000
 31
0.0
  0
LINE
  5
398
100
AcDbEntity
  8
Layer_1
 62
1
100
AcDbLine
 10
182.058388
 20
287.326000
 30
0.0
 11
174.033794
 21
287.326000
 31
0.0
  0
LINE
  5
399
100
AcDbEntity
  8
Layer_1
 62
1
100
AcDbLine
 10
174.033794
 20
287.326000
 30
0.0
 11
174.033794
 21
214.617931
 31
0.0
  0
LINE
  5
39a
100
AcDbEntity
  8
Layer_1
 62
1
100
AcDbLine
 10
174.033794
 20
214.617931
 30
0.0
 11
182.058388
 21
214.617931
 31
0.0
  0
LINE
  5
39b
100
AcDbEntity
  8
Layer_1
 62
1
100
AcDbLine
 10
182.058388
 20
214.617931
 30
0.0
 11
182.058388
 21
217.568034
 31
0.0
  0
LINE
  5
39c
100
AcDbEntity
  8
Layer_1
 62
1
100
AcDbLine
 10
182.058388
 20
217.568034
 30
0.0
 11
180.458188
 21
217.568034
 31
0.0
  0
LINE
  5
39d
100
AcDbEntity
  8
Layer_1
 62
1
100
AcDbLine
 10
180.458188
 20
217.568034
 30
0.0
 11
180.458188
 21
220.567748
 31
0.0
  0
LINE
  5
39e
100
AcDbEntity
  8
Layer_1
 62
1
100
AcDbLine
 10
180.458188
 20
220.567748
 30
0.0
 11
182.058388
 21
220.567748
 31
0.0
  0
LINE
  5
39f
100
AcDbEntity
  8
Layer_1
 62
1
100
AcDbLine
 10
182.058388
 20
220.567748
 30
0.0
 11
182.058388
 21
222.568108
 31
0.0
  0
LINE
  5
3a0
100
AcDbEntity
  8
Layer_1
 62
1
100
AcDbLine
 10
182.058388
 20
222.568108
 30
0.0
 11
185.258195
 21
222.568108
 31
0.0
  0
LINE
  5
3a1
100
AcDbEntity
  8
Layer_1
 62
1
100
AcDbLine
 10
185.258195
 20
222.568108
 30
0.0
 11
185.258195
 21
220.567748
 31
0.0
  0
LINE
  5
3a2
100
AcDbEntity
  8
Layer_1
 62
1
100
AcDbLine
 10
185.258195
 20
220.567748
 30
0.0
 11
186.858367
 21
220.567748
 31
0.0
  0
LINE
  5
3a3
100
AcDbEntity
  8
Layer_1
 62
1
100
AcDbLine
 10
186.858367
 20
220.567748
 30
0.0
 11
186.858367
 21
217.568034
 31
0.0
  0
LINE
  5
3a4
100
AcDbEntity
  8
Layer_1
 62
1
100
AcDbLine
 10
186.858367
 20
217.568034
 30
0.0
 11
185.258195
 21
217.568034
 31
0.0
  0
LINE
  5
3a5
100
AcDbEntity
  8
Layer_1
 62
1
100
AcDbLine
 10
185.258195
 20
217.568034
 30
0.0
 11
185.258195
 21
214.617931
 31
0.0
  0
LINE
  5
3a6
100
AcDbEntity
  8
Layer_1
 62
1
100
AcDbLine
 10
185.258195
 20
214.617931
 30
0.0
 11
193.282761
 21
214.617931
 31
0.0
  0
LINE
  5
3a7
100
AcDbEntity
  8
Layer_1
 62
1
100
AcDbLine
 10
193.282761
 20
214.617931
 30
0.0
 11
193.282761
 21
214.617931
 31
0.0
  0
SPLINE
  5
3a8
100
AcDbEntity
  8
Layer_1
 62
1
100
AcDbSpline
 70
8
 71
3
 72
8
 73
4
 74
0
 40
0
 40
0
 40
0
 40
0
 40
1
 40
1
 40
1
 40
1
 10
354.080919
 20
204.819004
 30
0.0
 10
354.634681
 20
204.819004
 30
0.0
 10
355.146378
 20
204.523576
 30
0.0
 10
355.423258
 20
204.044004
 30
0.0
  0
SPLINE
  5
3a9
100
AcDbEntity
  8
Layer_1
 62
1
100
AcDbSpline
 70
8
 71
3
 72
8
 73
4
 74
0
 40
0
 40
0
 40
0
 40
0
 40
1
 40
1
 40
1
 40
1
 10
355.423258
 20
204.044004
 30
0.0
 10
355.700139
 20
203.564433
 30
0.0
 10
355.700139
 20
202.973576
 30
0.0
 10
355.423258
 20
202.494005
 30
0.0
  0
SPLINE
  5
3aa
100
AcDbEntity
  8
Layer_1
 62
1
100
AcDbSpline
 70
8
 71
3
 72
8
 73
4
 74
0
 40
0
 40
0
 40
0
 40
0
 40
1
 40
1
 40
1
 40
1
 10
355.423258
 20
202.494005
 30
0.0
 10
355.146378
 20
202.014433
 30
0.0
 10
354.634681
 20
201.719005
 30
0.0
 10
354.080919
 20
201.719005
 30
0.0
  0
SPLINE
  5
3ab
100
AcDbEntity
  8
Layer_1
 62
1
100
AcDbSpline
 70
8
 71
3
 72
8
 73
4
 74
0
 40
0
 40
0
 40
0
 40
0
 40
1
 40
1
 40
1
 40
1
 10
354.080919
 20
201.719005
 30
0.0
 10
353.527158
 20
201.719005
 30
0.0
 10
353.015461
 20
202.014433
 30
0.0
 10
352.738580
 20
202.494005
 30
0.0
  0
SPLINE
  5
3ac
100
AcDbEntity
  8
Layer_1
 62
1
100
AcDbSpline
 70
8
 71
3
 72
8
 73
4
 74
0
 40
0
 40
0
 40
0
 40
0
 40
1
 40
1
 40
1
 40
1
 10
352.738580
 20
202.494005
 30
0.0
 10
352.461700
 20
202.973576
 30
0.0
 10
352.461700
 20
203.564433
 30
0.0
 10
352.738580
 20
204.044004
 30
0.0
  0
SPLINE
  5
3ad
100
AcDbEntity
  8
Layer_1
 62
1
100
AcDbSpline
 70
8
 71
3
 72
8
 73
4
 74
0
 40
0
 40
0
 40
0
 40
0
 40
1
 40
1
 40
1
 40
1
 10
352.738580
 20
204.044004
 30
0.0
 10
353.015461
 20
204.523576
 30
0.0
 10
353.527158
 20
204.819004
 30
0.0
 10
354.080919
 20
204.819004
 30
0.0
  0
LINE
  5
3ae
100
AcDbEntity
  8
Layer_1
 62
1
100
AcDbLine
 10
354.080919
 20
204.819004
 30
0.0
 11
354.080919
 21
204.819004
 31
0.0
  0
ENDSEC
  0
SECTION
  2
OBJECTS
  0
DICTIONARY
  5
C
330
0
100
AcDbDictionary
  3
ACAD_GROUP
350
D
  3
ACAD_MLINESTYLE
350
17
  0
DICTIONARY
  5
D
330
C
100
AcDbDictionary
  0
DICTIONARY
  5
1A
330
C
100
AcDbDictionary
  0
DICTIONARY
  5
17
330
C
100
AcDbDictionary
  3
STANDARD
350
18
  0
DICTIONARY
  5
19
330
C
100
AcDbDictionary
  0
ENDSEC
  0
EOF
