  0
SECTION
  2
HEADER
  9
$EXTMIN
 10
0.210630
 20
0.238958
  9
$EXTMAX
 10
11.755724
 20
11.789370
  0
ENDSEC
  0
SECTION
  2
TABLES
  0
ENDSEC
  0
SECTION
  2
ENTITIES
  0
POLYLINE
  8
1
 66
1
 70
1
  0
VERTEX
  8
1
 10
2.179370
 20
11.750000
 42
-0.097394
  0
VERTEX
  8
1
 10
2.221465
 20
11.741624
 42
-0.098313
  0
VERTEX
  8
1
 10
2.257149
 20
11.717780
 42
-0.197998
  0
VERTEX
  8
1
 10
2.289370
 20
11.640000
  0
VERTEX
  8
1
 10
2.289370
 20
10.027023
 42
-0.097394
  0
VERTEX
  8
1
 10
2.280994
 20
9.984928
 42
-0.098313
  0
VERTEX
  8
1
 10
2.257150
 20
9.949244
 42
-0.197998
  0
VERTEX
  8
1
 10
2.179370
 20
9.917023
  0
VERTEX
  8
1
 10
0.320630
 20
9.917023
 42
-0.097394
  0
VERTEX
  8
1
 10
0.278535
 20
9.925399
 42
-0.098313
  0
VERTEX
  8
1
 10
0.242851
 20
9.949243
 42
-0.197998
  0
VERTEX
  8
1
 10
0.210630
 20
10.027023
  0
VERTEX
  8
1
 10
0.210630
 20
11.640000
 42
-0.097394
  0
VERTEX
  8
1
 10
0.219006
 20
11.682095
 42
-0.098313
  0
VERTEX
  8
1
 10
0.242851
 20
11.717779
 42
-0.197998
  0
VERTEX
  8
1
 10
0.320630
 20
11.750000
  0
SEQEND
  0
POLYLINE
  8
1
 66
1
 70
1
  0
VERTEX
  8
1
 10
4.468740
 20
11.750001
 42
-0.097394
  0
VERTEX
  8
1
 10
4.510835
 20
11.741625
 42
-0.098313
  0
VERTEX
  8
1
 10
4.546520
 20
11.717780
 42
-0.197998
  0
VERTEX
  8
1
 10
4.578740
 20
11.640001
  0
VERTEX
  8
1
 10
4.578740
 20
10.397928
 42
-0.097394
  0
VERTEX
  8
1
 10
4.570364
 20
10.355833
 42
-0.098313
  0
VERTEX
  8
1
 10
4.546520
 20
10.320149
 42
-0.197998
  0
VERTEX
  8
1
 10
4.468740
 20
10.287928
  0
VERTEX
  8
1
 10
2.610000
 20
10.287928
 42
-0.097394
  0
VERTEX
  8
1
 10
2.567905
 20
10.296304
 42
-0.098313
  0
VERTEX
  8
1
 10
2.532221
 20
10.320148
 42
-0.197998
  0
VERTEX
  8
1
 10
2.500000
 20
10.397928
  0
VERTEX
  8
1
 10
2.500000
 20
11.640001
 42
-0.097394
  0
VERTEX
  8
1
 10
2.508376
 20
11.682096
 42
-0.098313
  0
VERTEX
  8
1
 10
2.532221
 20
11.717780
 42
-0.197998
  0
VERTEX
  8
1
 10
2.610000
 20
11.750001
  0
SEQEND
  0
POLYLINE
  8
1
 66
1
 70
1
  0
VERTEX
  8
1
 10
8.290907
 20
11.789370
 42
-0.097394
  0
VERTEX
  8
1
 10
8.333002
 20
11.780994
 42
-0.098313
  0
VERTEX
  8
1
 10
8.368687
 20
11.757150
 42
-0.197998
  0
VERTEX
  8
1
 10
8.400907
 20
11.679370
  0
VERTEX
  8
1
 10
8.400907
 20
9.820630
 42
-0.097394
  0
VERTEX
  8
1
 10
8.392531
 20
9.778535
 42
-0.098313
  0
VERTEX
  8
1
 10
8.368687
 20
9.742851
 42
-0.197998
  0
VERTEX
  8
1
 10
8.290907
 20
9.710630
  0
VERTEX
  8
1
 10
7.110001
 20
9.710630
 42
-0.097394
  0
VERTEX
  8
1
 10
7.067906
 20
9.719006
 42
-0.098313
  0
VERTEX
  8
1
 10
7.032222
 20
9.742851
 42
-0.197998
  0
VERTEX
  8
1
 10
7.000001
 20
9.820630
  0
VERTEX
  8
1
 10
7.000001
 20
11.679370
 42
-0.097394
  0
VERTEX
  8
1
 10
7.008377
 20
11.721465
 42
-0.098313
  0
VERTEX
  8
1
 10
7.032221
 20
11.757149
 42
-0.197998
  0
VERTEX
  8
1
 10
7.110001
 20
11.789370
  0
SEQEND
  0
POLYLINE
  8
1
 66
1
 70
1
  0
VERTEX
  8
1
 10
10.034429
 20
11.750000
 42
-0.097394
  0
VERTEX
  8
1
 10
10.076524
 20
11.741624
 42
-0.098313
  0
VERTEX
  8
1
 10
10.112209
 20
11.717779
 42
-0.197998
  0
VERTEX
  8
1
 10
10.144429
 20
11.640000
  0
VERTEX
  8
1
 10
10.144429
 20
9.781259
 42
-0.097394
  0
VERTEX
  8
1
 10
10.136053
 20
9.739164
 42
-0.098313
  0
VERTEX
  8
1
 10
10.112209
 20
9.703480
 42
-0.197998
  0
VERTEX
  8
1
 10
10.034429
 20
9.671259
  0
VERTEX
  8
1
 10
8.716512
 20
9.671259
 42
-0.097394
  0
VERTEX
  8
1
 10
8.674417
 20
9.679635
 42
-0.098313
  0
VERTEX
  8
1
 10
8.638733
 20
9.703480
 42
-0.197998
  0
VERTEX
  8
1
 10
8.606512
 20
9.781259
  0
VERTEX
  8
1
 10
8.606512
 20
11.640000
 42
-0.097394
  0
VERTEX
  8
1
 10
8.614888
 20
11.682095
 42
-0.098313
  0
VERTEX
  8
1
 10
8.638732
 20
11.717779
 42
-0.197998
  0
VERTEX
  8
1
 10
8.716512
 20
11.750000
  0
SEQEND
  0
POLYLINE
  8
1
 66
1
 70
1
  0
VERTEX
  8
1
 10
4.429370
 20
10.039370
 42
-0.097394
  0
VERTEX
  8
1
 10
4.471465
 20
10.030994
 42
-0.098313
  0
VERTEX
  8
1
 10
4.507149
 20
10.007150
 42
-0.197998
  0
VERTEX
  8
1
 10
4.539370
 20
9.929370
  0
VERTEX
  8
1
 10
4.539370
 20
8.727773
 42
-0.097394
  0
VERTEX
  8
1
 10
4.530994
 20
8.685679
 42
-0.098313
  0
VERTEX
  8
1
 10
4.507150
 20
8.649994
 42
-0.197998
  0
VERTEX
  8
1
 10
4.429370
 20
8.617773
  0
VERTEX
  8
1
 10
2.570630
 20
8.617773
 42
-0.097394
  0
VERTEX
  8
1
 10
2.528535
 20
8.626150
 42
-0.098313
  0
VERTEX
  8
1
 10
2.492851
 20
8.649994
 42
-0.197998
  0
VERTEX
  8
1
 10
2.460630
 20
8.727773
  0
VERTEX
  8
1
 10
2.460630
 20
9.929370
 42
-0.097394
  0
VERTEX
  8
1
 10
2.469006
 20
9.971465
 42
-0.098313
  0
VERTEX
  8
1
 10
2.492851
 20
10.007149
 42
-0.197998
  0
VERTEX
  8
1
 10
2.570630
 20
10.039370
  0
SEQEND
  0
POLYLINE
  8
1
 66
1
 70
1
  0
VERTEX
  8
1
 10
9.140000
 20
9.500001
 42
-0.097394
  0
VERTEX
  8
1
 10
9.182095
 20
9.491625
 42
-0.098313
  0
VERTEX
  8
1
 10
9.217779
 20
9.467780
 42
-0.197998
  0
VERTEX
  8
1
 10
9.250000
 20
9.390001
  0
VERTEX
  8
1
 10
9.250000
 20
7.720636
 42
-0.097394
  0
VERTEX
  8
1
 10
9.241624
 20
7.678542
 42
-0.098313
  0
VERTEX
  8
1
 10
9.217780
 20
7.642857
 42
-0.197998
  0
VERTEX
  8
1
 10
9.140000
 20
7.610636
  0
VERTEX
  8
1
 10
7.281260
 20
7.610636
 42
-0.097394
  0
VERTEX
  8
1
 10
7.239165
 20
7.619013
 42
-0.098313
  0
VERTEX
  8
1
 10
7.203481
 20
7.642857
 42
-0.197998
  0
VERTEX
  8
1
 10
7.171260
 20
7.720636
  0
VERTEX
  8
1
 10
7.171260
 20
9.390001
 42
-0.097394
  0
VERTEX
  8
1
 10
7.179636
 20
9.432096
 42
-0.098313
  0
VERTEX
  8
1
 10
7.203481
 20
9.467780
 42
-0.197998
  0
VERTEX
  8
1
 10
7.281260
 20
9.500001
  0
SEQEND
  0
POLYLINE
  8
1
 66
1
 70
1
  0
VERTEX
  8
1
 10
6.718740
 20
11.750000
 42
-0.097394
  0
VERTEX
  8
1
 10
6.760835
 20
11.741624
 42
-0.098313
  0
VERTEX
  8
1
 10
6.796519
 20
11.717780
 42
-0.197998
  0
VERTEX
  8
1
 10
6.828740
 20
11.640000
  0
VERTEX
  8
1
 10
6.828740
 20
10.328895
 42
-0.097394
  0
VERTEX
  8
1
 10
6.820364
 20
10.286800
 42
-0.098313
  0
VERTEX
  8
1
 10
6.796520
 20
10.251115
 42
-0.197998
  0
VERTEX
  8
1
 10
6.718740
 20
10.218895
  0
VERTEX
  8
1
 10
4.860000
 20
10.218895
 42
-0.097394
  0
VERTEX
  8
1
 10
4.817905
 20
10.227271
 42
-0.098313
  0
VERTEX
  8
1
 10
4.782221
 20
10.251115
 42
-0.197998
  0
VERTEX
  8
1
 10
4.750000
 20
10.328895
  0
VERTEX
  8
1
 10
4.750000
 20
11.640000
 42
-0.097394
  0
VERTEX
  8
1
 10
4.758376
 20
11.682095
 42
-0.098313
  0
VERTEX
  8
1
 10
4.782221
 20
11.717780
 42
-0.197998
  0
VERTEX
  8
1
 10
4.860000
 20
11.750000
  0
SEQEND
  0
POLYLINE
  8
1
 66
1
 70
1
  0
VERTEX
  8
1
 10
6.679370
 20
8.428764
 42
-0.097394
  0
VERTEX
  8
1
 10
6.721465
 20
8.420388
 42
-0.098313
  0
VERTEX
  8
1
 10
6.757149
 20
8.396544
 42
-0.197998
  0
VERTEX
  8
1
 10
6.789370
 20
8.318764
  0
VERTEX
  8
1
 10
6.789370
 20
7.820630
 42
-0.097394
  0
VERTEX
  8
1
 10
6.780994
 20
7.778535
 42
-0.098313
  0
VERTEX
  8
1
 10
6.757150
 20
7.742851
 42
-0.197998
  0
VERTEX
  8
1
 10
6.679370
 20
7.710630
  0
VERTEX
  8
1
 10
4.820630
 20
7.710630
 42
-0.097394
  0
VERTEX
  8
1
 10
4.778535
 20
7.719006
 42
-0.098313
  0
VERTEX
  8
1
 10
4.742851
 20
7.742850
 42
-0.197998
  0
VERTEX
  8
1
 10
4.710630
 20
7.820630
  0
VERTEX
  8
1
 10
4.710630
 20
8.318764
 42
-0.097394
  0
VERTEX
  8
1
 10
4.719006
 20
8.360859
 42
-0.098313
  0
VERTEX
  8
1
 10
4.742851
 20
8.396543
 42
-0.197998
  0
VERTEX
  8
1
 10
4.820630
 20
8.428764
  0
SEQEND
  0
POLYLINE
  8
1
 66
1
 70
1
  0
VERTEX
  8
1
 10
6.679370
 20
9.986710
 42
-0.097394
  0
VERTEX
  8
1
 10
6.721465
 20
9.978334
 42
-0.098313
  0
VERTEX
  8
1
 10
6.757149
 20
9.954490
 42
-0.197998
  0
VERTEX
  8
1
 10
6.789370
 20
9.876710
  0
VERTEX
  8
1
 10
6.789370
 20
8.623289
 42
-0.097394
  0
VERTEX
  8
1
 10
6.780994
 20
8.581194
 42
-0.098313
  0
VERTEX
  8
1
 10
6.757150
 20
8.545510
 42
-0.197998
  0
VERTEX
  8
1
 10
6.679370
 20
8.513289
  0
VERTEX
  8
1
 10
4.820630
 20
8.513289
 42
-0.097394
  0
VERTEX
  8
1
 10
4.778535
 20
8.521665
 42
-0.098313
  0
VERTEX
  8
1
 10
4.742850
 20
8.545509
 42
-0.197998
  0
VERTEX
  8
1
 10
4.710630
 20
8.623289
  0
VERTEX
  8
1
 10
4.710630
 20
9.876710
 42
-0.097394
  0
VERTEX
  8
1
 10
4.719006
 20
9.918805
 42
-0.098313
  0
VERTEX
  8
1
 10
4.742850
 20
9.954489
 42
-0.197998
  0
VERTEX
  8
1
 10
4.820630
 20
9.986710
  0
SEQEND
  0
POLYLINE
  8
1
 66
1
 70
1
  0
VERTEX
  8
1
 10
2.179370
 20
9.775171
 42
-0.097394
  0
VERTEX
  8
1
 10
2.221465
 20
9.766795
 42
-0.098313
  0
VERTEX
  8
1
 10
2.257149
 20
9.742951
 42
-0.197998
  0
VERTEX
  8
1
 10
2.289370
 20
9.665171
  0
VERTEX
  8
1
 10
2.289370
 20
7.834829
 42
-0.097394
  0
VERTEX
  8
1
 10
2.280994
 20
7.792734
 42
-0.098313
  0
VERTEX
  8
1
 10
2.257150
 20
7.757050
 42
-0.197998
  0
VERTEX
  8
1
 10
2.179370
 20
7.724829
  0
VERTEX
  8
1
 10
0.320630
 20
7.724829
 42
-0.097394
  0
VERTEX
  8
1
 10
0.278535
 20
7.733205
 42
-0.098313
  0
VERTEX
  8
1
 10
0.242851
 20
7.757049
 42
-0.197998
  0
VERTEX
  8
1
 10
0.210630
 20
7.834829
  0
VERTEX
  8
1
 10
0.210630
 20
9.665171
 42
-0.097394
  0
VERTEX
  8
1
 10
0.219006
 20
9.707266
 42
-0.098313
  0
VERTEX
  8
1
 10
0.242851
 20
9.742951
 42
-0.197998
  0
VERTEX
  8
1
 10
0.320630
 20
9.775171
  0
SEQEND
  0
POLYLINE
  8
1
 66
1
 70
1
  0
VERTEX
  8
1
 10
11.429370
 20
9.539370
 42
-0.097394
  0
VERTEX
  8
1
 10
11.471464
 20
9.530994
 42
-0.098313
  0
VERTEX
  8
1
 10
11.507149
 20
9.507150
 42
-0.197998
  0
VERTEX
  8
1
 10
11.539370
 20
9.429370
  0
VERTEX
  8
1
 10
11.539370
 20
7.547823
 42
-0.097394
  0
VERTEX
  8
1
 10
11.530993
 20
7.505728
 42
-0.098313
  0
VERTEX
  8
1
 10
11.507149
 20
7.470044
 42
-0.197998
  0
VERTEX
  8
1
 10
11.429370
 20
7.437823
  0
VERTEX
  8
1
 10
9.570630
 20
7.437823
 42
-0.097394
  0
VERTEX
  8
1
 10
9.528536
 20
7.446199
 42
-0.098313
  0
VERTEX
  8
1
 10
9.492851
 20
7.470043
 42
-0.197998
  0
VERTEX
  8
1
 10
9.460630
 20
7.547823
  0
VERTEX
  8
1
 10
9.460630
 20
9.429370
 42
-0.097394
  0
VERTEX
  8
1
 10
9.469007
 20
9.471465
 42
-0.098313
  0
VERTEX
  8
1
 10
9.492851
 20
9.507149
 42
-0.197998
  0
VERTEX
  8
1
 10
9.570630
 20
9.539370
  0
SEQEND
  0
POLYLINE
  8
1
 66
1
 70
1
  0
VERTEX
  8
1
 10
11.514724
 20
11.750000
 42
-0.097394
  0
VERTEX
  8
1
 10
11.556819
 20
11.741624
 42
-0.098313
  0
VERTEX
  8
1
 10
11.592504
 20
11.717780
 42
-0.197998
  0
VERTEX
  8
1
 10
11.624724
 20
11.640000
  0
VERTEX
  8
1
 10
11.624724
 20
9.781260
 42
-0.097394
  0
VERTEX
  8
1
 10
11.616348
 20
9.739165
 42
-0.098313
  0
VERTEX
  8
1
 10
11.592504
 20
9.703481
 42
-0.197998
  0
VERTEX
  8
1
 10
11.514724
 20
9.671260
  0
VERTEX
  8
1
 10
10.485277
 20
9.671260
 42
-0.097394
  0
VERTEX
  8
1
 10
10.443182
 20
9.679636
 42
-0.098313
  0
VERTEX
  8
1
 10
10.407498
 20
9.703481
 42
-0.197998
  0
VERTEX
  8
1
 10
10.375277
 20
9.781260
  0
VERTEX
  8
1
 10
10.375277
 20
11.640000
 42
-0.097394
  0
VERTEX
  8
1
 10
10.383653
 20
11.682095
 42
-0.098313
  0
VERTEX
  8
1
 10
10.407498
 20
11.717779
 42
-0.197998
  0
VERTEX
  8
1
 10
10.485277
 20
11.750000
  0
SEQEND
  0
POLYLINE
  8
1
 66
1
 70
1
  0
VERTEX
  8
1
 10
4.429370
 20
8.500000
 42
-0.097394
  0
VERTEX
  8
1
 10
4.471465
 20
8.491624
 42
-0.098313
  0
VERTEX
  8
1
 10
4.507149
 20
8.467779
 42
-0.197998
  0
VERTEX
  8
1
 10
4.539370
 20
8.390000
  0
VERTEX
  8
1
 10
4.539370
 20
7.891866
 42
-0.097394
  0
VERTEX
  8
1
 10
4.530994
 20
7.849771
 42
-0.098313
  0
VERTEX
  8
1
 10
4.507150
 20
7.814086
 42
-0.197998
  0
VERTEX
  8
1
 10
4.429370
 20
7.781866
  0
VERTEX
  8
1
 10
2.570630
 20
7.781866
 42
-0.097394
  0
VERTEX
  8
1
 10
2.528535
 20
7.790242
 42
-0.098313
  0
VERTEX
  8
1
 10
2.492851
 20
7.814086
 42
-0.197998
  0
VERTEX
  8
1
 10
2.460630
 20
7.891866
  0
VERTEX
  8
1
 10
2.460630
 20
8.390000
 42
-0.097394
  0
VERTEX
  8
1
 10
2.469006
 20
8.432095
 42
-0.098313
  0
VERTEX
  8
1
 10
2.492851
 20
8.467779
 42
-0.197998
  0
VERTEX
  8
1
 10
2.570630
 20
8.500000
  0
SEQEND
  0
POLYLINE
  8
1
 66
1
 70
1
  0
VERTEX
  8
1
 10
2.179370
 20
7.499993
 42
-0.097394
  0
VERTEX
  8
1
 10
2.221465
 20
7.491617
 42
-0.098313
  0
VERTEX
  8
1
 10
2.257149
 20
7.467772
 42
-0.197998
  0
VERTEX
  8
1
 10
2.289370
 20
7.389993
  0
VERTEX
  8
1
 10
2.289370
 20
5.777015
 42
-0.097394
  0
VERTEX
  8
1
 10
2.280994
 20
5.734921
 42
-0.098313
  0
VERTEX
  8
1
 10
2.257150
 20
5.699236
 42
-0.197998
  0
VERTEX
  8
1
 10
2.179370
 20
5.667015
  0
VERTEX
  8
1
 10
0.320630
 20
5.667015
 42
-0.097394
  0
VERTEX
  8
1
 10
0.278535
 20
5.675392
 42
-0.098313
  0
VERTEX
  8
1
 10
0.242851
 20
5.699236
 42
-0.197998
  0
VERTEX
  8
1
 10
0.210630
 20
5.777015
  0
VERTEX
  8
1
 10
0.210630
 20
7.389993
 42
-0.097394
  0
VERTEX
  8
1
 10
0.219006
 20
7.432088
 42
-0.098313
  0
VERTEX
  8
1
 10
0.242851
 20
7.467772
 42
-0.197998
  0
VERTEX
  8
1
 10
0.320630
 20
7.499993
  0
SEQEND
  0
POLYLINE
  8
1
 66
1
 70
1
  0
VERTEX
  8
1
 10
4.390000
 20
7.500013
 42
-0.097394
  0
VERTEX
  8
1
 10
4.432095
 20
7.491637
 42
-0.098313
  0
VERTEX
  8
1
 10
4.467779
 20
7.467793
 42
-0.197998
  0
VERTEX
  8
1
 10
4.500000
 20
7.390013
  0
VERTEX
  8
1
 10
4.500000
 20
6.147940
 42
-0.097394
  0
VERTEX
  8
1
 10
4.491624
 20
6.105845
 42
-0.098313
  0
VERTEX
  8
1
 10
4.467780
 20
6.070161
 42
-0.197998
  0
VERTEX
  8
1
 10
4.390000
 20
6.037940
  0
VERTEX
  8
1
 10
2.531260
 20
6.037940
 42
-0.097394
  0
VERTEX
  8
1
 10
2.489165
 20
6.046316
 42
-0.098313
  0
VERTEX
  8
1
 10
2.453481
 20
6.070160
 42
-0.197998
  0
VERTEX
  8
1
 10
2.421260
 20
6.147940
  0
VERTEX
  8
1
 10
2.421260
 20
7.390013
 42
-0.097394
  0
VERTEX
  8
1
 10
2.429636
 20
7.432108
 42
-0.098313
  0
VERTEX
  8
1
 10
2.453480
 20
7.467792
 42
-0.197998
  0
VERTEX
  8
1
 10
2.531260
 20
7.500013
  0
SEQEND
  0
POLYLINE
  8
1
 66
1
 70
1
  0
VERTEX
  8
1
 10
8.290907
 20
7.499999
 42
-0.097394
  0
VERTEX
  8
1
 10
8.333001
 20
7.491623
 42
-0.098313
  0
VERTEX
  8
1
 10
8.368686
 20
7.467779
 42
-0.197998
  0
VERTEX
  8
1
 10
8.400907
 20
7.389999
  0
VERTEX
  8
1
 10
8.400907
 20
5.531259
 42
-0.097394
  0
VERTEX
  8
1
 10
8.392530
 20
5.489164
 42
-0.098313
  0
VERTEX
  8
1
 10
8.368686
 20
5.453480
 42
-0.197998
  0
VERTEX
  8
1
 10
8.290907
 20
5.421259
  0
VERTEX
  8
1
 10
7.110000
 20
5.421259
 42
-0.097394
  0
VERTEX
  8
1
 10
7.067905
 20
5.429635
 42
-0.098313
  0
VERTEX
  8
1
 10
7.032221
 20
5.453480
 42
-0.197998
  0
VERTEX
  8
1
 10
7.000000
 20
5.531259
  0
VERTEX
  8
1
 10
7.000000
 20
7.389999
 42
-0.097394
  0
VERTEX
  8
1
 10
7.008376
 20
7.432094
 42
-0.098313
  0
VERTEX
  8
1
 10
7.032220
 20
7.467778
 42
-0.197998
  0
VERTEX
  8
1
 10
7.110000
 20
7.499999
  0
SEQEND
  0
POLYLINE
  8
1
 66
1
 70
1
  0
VERTEX
  8
1
 10
9.995218
 20
7.328741
 42
-0.097394
  0
VERTEX
  8
1
 10
10.037313
 20
7.320364
 42
-0.098313
  0
VERTEX
  8
1
 10
10.072998
 20
7.296520
 42
-0.197998
  0
VERTEX
  8
1
 10
10.105218
 20
7.218741
  0
VERTEX
  8
1
 10
10.105218
 20
5.360000
 42
-0.097394
  0
VERTEX
  8
1
 10
10.096842
 20
5.317905
 42
-0.098313
  0
VERTEX
  8
1
 10
10.072998
 20
5.282221
 42
-0.197998
  0
VERTEX
  8
1
 10
9.995218
 20
5.250000
  0
VERTEX
  8
1
 10
8.677301
 20
5.250000
 42
-0.097394
  0
VERTEX
  8
1
 10
8.635206
 20
5.258376
 42
-0.098313
  0
VERTEX
  8
1
 10
8.599522
 20
5.282220
 42
-0.197998
  0
VERTEX
  8
1
 10
8.567301
 20
5.360000
  0
VERTEX
  8
1
 10
8.567301
 20
7.218741
 42
-0.097394
  0
VERTEX
  8
1
 10
8.575677
 20
7.260835
 42
-0.098313
  0
VERTEX
  8
1
 10
8.599521
 20
7.296520
 42
-0.197998
  0
VERTEX
  8
1
 10
8.677301
 20
7.328741
  0
SEQEND
  0
POLYLINE
  8
1
 66
1
 70
1
  0
VERTEX
  8
1
 10
4.390000
 20
5.750000
 42
-0.097394
  0
VERTEX
  8
1
 10
4.432095
 20
5.741624
 42
-0.098313
  0
VERTEX
  8
1
 10
4.467779
 20
5.717780
 42
-0.197998
  0
VERTEX
  8
1
 10
4.500000
 20
5.640000
  0
VERTEX
  8
1
 10
4.500000
 20
4.438403
 42
-0.097394
  0
VERTEX
  8
1
 10
4.491624
 20
4.396309
 42
-0.098313
  0
VERTEX
  8
1
 10
4.467780
 20
4.360624
 42
-0.197998
  0
VERTEX
  8
1
 10
4.390000
 20
4.328403
  0
VERTEX
  8
1
 10
2.531260
 20
4.328403
 42
-0.097394
  0
VERTEX
  8
1
 10
2.489165
 20
4.336780
 42
-0.098313
  0
VERTEX
  8
1
 10
2.453481
 20
4.360624
 42
-0.197998
  0
VERTEX
  8
1
 10
2.421260
 20
4.438403
  0
VERTEX
  8
1
 10
2.421260
 20
5.640000
 42
-0.097394
  0
VERTEX
  8
1
 10
2.429636
 20
5.682095
 42
-0.098313
  0
VERTEX
  8
1
 10
2.453481
 20
5.717779
 42
-0.197998
  0
VERTEX
  8
1
 10
2.531260
 20
5.750000
  0
SEQEND
  0
POLYLINE
  8
1
 66
1
 70
1
  0
VERTEX
  8
1
 10
8.968741
 20
5.148856
 42
-0.097394
  0
VERTEX
  8
1
 10
9.010836
 20
5.140479
 42
-0.098313
  0
VERTEX
  8
1
 10
9.046520
 20
5.116635
 42
-0.197998
  0
VERTEX
  8
1
 10
9.078741
 20
5.038856
  0
VERTEX
  8
1
 10
9.078741
 20
3.369491
 42
-0.097394
  0
VERTEX
  8
1
 10
9.070365
 20
3.327396
 42
-0.098313
  0
VERTEX
  8
1
 10
9.046520
 20
3.291712
 42
-0.197998
  0
VERTEX
  8
1
 10
8.968741
 20
3.259491
  0
VERTEX
  8
1
 10
7.110001
 20
3.259491
 42
-0.097394
  0
VERTEX
  8
1
 10
7.067906
 20
3.267867
 42
-0.098313
  0
VERTEX
  8
1
 10
7.032222
 20
3.291712
 42
-0.197998
  0
VERTEX
  8
1
 10
7.000001
 20
3.369491
  0
VERTEX
  8
1
 10
7.000001
 20
5.038856
 42
-0.097394
  0
VERTEX
  8
1
 10
7.008377
 20
5.080950
 42
-0.098313
  0
VERTEX
  8
1
 10
7.032221
 20
5.116635
 42
-0.197998
  0
VERTEX
  8
1
 10
7.110001
 20
5.148856
  0
SEQEND
  0
POLYLINE
  8
1
 66
1
 70
1
  0
VERTEX
  8
1
 10
6.640000
 20
7.531103
 42
-0.097394
  0
VERTEX
  8
1
 10
6.682095
 20
7.522727
 42
-0.098313
  0
VERTEX
  8
1
 10
6.717779
 20
7.498883
 42
-0.197998
  0
VERTEX
  8
1
 10
6.750000
 20
7.421103
  0
VERTEX
  8
1
 10
6.750000
 20
6.109997
 42
-0.097394
  0
VERTEX
  8
1
 10
6.741624
 20
6.067903
 42
-0.098313
  0
VERTEX
  8
1
 10
6.717779
 20
6.032218
 42
-0.197998
  0
VERTEX
  8
1
 10
6.640000
 20
5.999997
  0
VERTEX
  8
1
 10
4.781260
 20
5.999997
 42
-0.097394
  0
VERTEX
  8
1
 10
4.739165
 20
6.008374
 42
-0.098313
  0
VERTEX
  8
1
 10
4.703481
 20
6.032218
 42
-0.197998
  0
VERTEX
  8
1
 10
4.671260
 20
6.109997
  0
VERTEX
  8
1
 10
4.671260
 20
7.421103
 42
-0.097394
  0
VERTEX
  8
1
 10
4.679636
 20
7.463198
 42
-0.098313
  0
VERTEX
  8
1
 10
4.703480
 20
7.498882
 42
-0.197998
  0
VERTEX
  8
1
 10
4.781260
 20
7.531103
  0
SEQEND
  0
POLYLINE
  8
1
 66
1
 70
1
  0
VERTEX
  8
1
 10
6.640001
 20
4.146874
 42
-0.097394
  0
VERTEX
  8
1
 10
6.682096
 20
4.138498
 42
-0.098313
  0
VERTEX
  8
1
 10
6.717780
 20
4.114654
 42
-0.197998
  0
VERTEX
  8
1
 10
6.750001
 20
4.036874
  0
VERTEX
  8
1
 10
6.750001
 20
3.538740
 42
-0.097394
  0
VERTEX
  8
1
 10
6.741625
 20
3.496645
 42
-0.098313
  0
VERTEX
  8
1
 10
6.717780
 20
3.460961
 42
-0.197998
  0
VERTEX
  8
1
 10
6.640001
 20
3.428740
  0
VERTEX
  8
1
 10
4.781261
 20
3.428740
 42
-0.097394
  0
VERTEX
  8
1
 10
4.739166
 20
3.437116
 42
-0.098313
  0
VERTEX
  8
1
 10
4.703482
 20
3.460960
 42
-0.197998
  0
VERTEX
  8
1
 10
4.671261
 20
3.538740
  0
VERTEX
  8
1
 10
4.671261
 20
4.036874
 42
-0.097394
  0
VERTEX
  8
1
 10
4.679637
 20
4.078969
 42
-0.098313
  0
VERTEX
  8
1
 10
4.703481
 20
4.114654
 42
-0.197998
  0
VERTEX
  8
1
 10
4.781261
 20
4.146874
  0
SEQEND
  0
POLYLINE
  8
1
 66
1
 70
1
  0
VERTEX
  8
1
 10
6.640001
 20
5.750017
 42
-0.097394
  0
VERTEX
  8
1
 10
6.682096
 20
5.741641
 42
-0.098313
  0
VERTEX
  8
1
 10
6.717780
 20
5.717797
 42
-0.197998
  0
VERTEX
  8
1
 10
6.750001
 20
5.640017
  0
VERTEX
  8
1
 10
6.750001
 20
4.386596
 42
-0.097394
  0
VERTEX
  8
1
 10
6.741625
 20
4.344501
 42
-0.098313
  0
VERTEX
  8
1
 10
6.717780
 20
4.308817
 42
-0.197998
  0
VERTEX
  8
1
 10
6.640001
 20
4.276596
  0
VERTEX
  8
1
 10
4.781260
 20
4.276596
 42
-0.097394
  0
VERTEX
  8
1
 10
4.739166
 20
4.284972
 42
-0.098313
  0
VERTEX
  8
1
 10
4.703481
 20
4.308817
 42
-0.197998
  0
VERTEX
  8
1
 10
4.671260
 20
4.386596
  0
VERTEX
  8
1
 10
4.671260
 20
5.640017
 42
-0.097394
  0
VERTEX
  8
1
 10
4.679637
 20
5.682112
 42
-0.098313
  0
VERTEX
  8
1
 10
4.703481
 20
5.717796
 42
-0.197998
  0
VERTEX
  8
1
 10
4.781260
 20
5.750017
  0
SEQEND
  0
POLYLINE
  8
1
 66
1
 70
1
  0
VERTEX
  8
1
 10
2.218740
 20
5.500014
 42
-0.097394
  0
VERTEX
  8
1
 10
2.260835
 20
5.491638
 42
-0.098313
  0
VERTEX
  8
1
 10
2.296519
 20
5.467793
 42
-0.197998
  0
VERTEX
  8
1
 10
2.328740
 20
5.390014
  0
VERTEX
  8
1
 10
2.328740
 20
3.559671
 42
-0.097394
  0
VERTEX
  8
1
 10
2.320364
 20
3.517577
 42
-0.098313
  0
VERTEX
  8
1
 10
2.296520
 20
3.481892
 42
-0.197998
  0
VERTEX
  8
1
 10
2.218740
 20
3.449671
  0
VERTEX
  8
1
 10
0.360000
 20
3.449671
 42
-0.097394
  0
VERTEX
  8
1
 10
0.317905
 20
3.458048
 42
-0.098313
  0
VERTEX
  8
1
 10
0.282221
 20
3.481892
 42
-0.197998
  0
VERTEX
  8
1
 10
0.250000
 20
3.559671
  0
VERTEX
  8
1
 10
0.250000
 20
5.390014
 42
-0.097394
  0
VERTEX
  8
1
 10
0.258376
 20
5.432109
 42
-0.098313
  0
VERTEX
  8
1
 10
0.282221
 20
5.467793
 42
-0.197998
  0
VERTEX
  8
1
 10
0.360000
 20
5.500014
  0
SEQEND
  0
POLYLINE
  8
1
 66
1
 70
1
  0
VERTEX
  8
1
 10
11.304646
 20
5.148858
 42
-0.097394
  0
VERTEX
  8
1
 10
11.346741
 20
5.140482
 42
-0.098313
  0
VERTEX
  8
1
 10
11.382425
 20
5.116638
 42
-0.197998
  0
VERTEX
  8
1
 10
11.414646
 20
5.038858
  0
VERTEX
  8
1
 10
11.414646
 20
3.157311
 42
-0.097394
  0
VERTEX
  8
1
 10
11.406270
 20
3.115216
 42
-0.098313
  0
VERTEX
  8
1
 10
11.382426
 20
3.079532
 42
-0.197998
  0
VERTEX
  8
1
 10
11.304646
 20
3.047311
  0
VERTEX
  8
1
 10
9.445907
 20
3.047311
 42
-0.097394
  0
VERTEX
  8
1
 10
9.403812
 20
3.055687
 42
-0.098313
  0
VERTEX
  8
1
 10
9.368128
 20
3.079532
 42
-0.197998
  0
VERTEX
  8
1
 10
9.335907
 20
3.157311
  0
VERTEX
  8
1
 10
9.335907
 20
5.038858
 42
-0.097394
  0
VERTEX
  8
1
 10
9.344283
 20
5.080953
 42
-0.098313
  0
VERTEX
  8
1
 10
9.368127
 20
5.116637
 42
-0.197998
  0
VERTEX
  8
1
 10
9.445907
 20
5.148858
  0
SEQEND
  0
POLYLINE
  8
1
 66
1
 70
1
  0
VERTEX
  8
1
 10
11.390000
 20
7.328740
 42
-0.097394
  0
VERTEX
  8
1
 10
11.432094
 20
7.320364
 42
-0.098313
  0
VERTEX
  8
1
 10
11.467779
 20
7.296520
 42
-0.197998
  0
VERTEX
  8
1
 10
11.500000
 20
7.218740
  0
VERTEX
  8
1
 10
11.500000
 20
5.360000
 42
-0.097394
  0
VERTEX
  8
1
 10
11.491623
 20
5.317905
 42
-0.098313
  0
VERTEX
  8
1
 10
11.467779
 20
5.282221
 42
-0.197998
  0
VERTEX
  8
1
 10
11.390000
 20
5.250000
  0
VERTEX
  8
1
 10
10.360552
 20
5.250000
 42
-0.097394
  0
VERTEX
  8
1
 10
10.318457
 20
5.258376
 42
-0.098313
  0
VERTEX
  8
1
 10
10.282773
 20
5.282221
 42
-0.197998
  0
VERTEX
  8
1
 10
10.250552
 20
5.360000
  0
VERTEX
  8
1
 10
10.250552
 20
7.218740
 42
-0.097394
  0
VERTEX
  8
1
 10
10.258928
 20
7.260835
 42
-0.098313
  0
VERTEX
  8
1
 10
10.282773
 20
7.296519
 42
-0.197998
  0
VERTEX
  8
1
 10
10.360552
 20
7.328740
  0
SEQEND
  0
POLYLINE
  8
1
 66
1
 70
1
  0
VERTEX
  8
1
 10
4.390000
 20
4.218134
 42
-0.097394
  0
VERTEX
  8
1
 10
4.432095
 20
4.209758
 42
-0.098313
  0
VERTEX
  8
1
 10
4.467779
 20
4.185914
 42
-0.197998
  0
VERTEX
  8
1
 10
4.500000
 20
4.108134
  0
VERTEX
  8
1
 10
4.500000
 20
3.610000
 42
-0.097394
  0
VERTEX
  8
1
 10
4.491624
 20
3.567905
 42
-0.098313
  0
VERTEX
  8
1
 10
4.467780
 20
3.532221
 42
-0.197998
  0
VERTEX
  8
1
 10
4.390000
 20
3.500000
  0
VERTEX
  8
1
 10
2.531260
 20
3.500000
 42
-0.097394
  0
VERTEX
  8
1
 10
2.489165
 20
3.508376
 42
-0.098313
  0
VERTEX
  8
1
 10
2.453481
 20
3.532220
 42
-0.197998
  0
VERTEX
  8
1
 10
2.421260
 20
3.610000
  0
VERTEX
  8
1
 10
2.421260
 20
4.108134
 42
-0.097394
  0
VERTEX
  8
1
 10
2.429636
 20
4.150229
 42
-0.098313
  0
VERTEX
  8
1
 10
2.453481
 20
4.185913
 42
-0.197998
  0
VERTEX
  8
1
 10
2.531260
 20
4.218134
  0
SEQEND
  0
POLYLINE
  8
1
 66
1
 70
1
  0
VERTEX
  8
1
 10
2.228285
 20
3.314599
 42
-0.097394
  0
VERTEX
  8
1
 10
2.270379
 20
3.306223
 42
-0.098313
  0
VERTEX
  8
1
 10
2.306064
 20
3.282379
 42
-0.197998
  0
VERTEX
  8
1
 10
2.338285
 20
3.204599
  0
VERTEX
  8
1
 10
2.338285
 20
1.591622
 42
-0.097394
  0
VERTEX
  8
1
 10
2.329908
 20
1.549527
 42
-0.098313
  0
VERTEX
  8
1
 10
2.306064
 20
1.513842
 42
-0.197998
  0
VERTEX
  8
1
 10
2.228285
 20
1.481622
  0
VERTEX
  8
1
 10
0.369545
 20
1.481622
 42
-0.097394
  0
VERTEX
  8
1
 10
0.327450
 20
1.489998
 42
-0.098313
  0
VERTEX
  8
1
 10
0.291765
 20
1.513842
 42
-0.197998
  0
VERTEX
  8
1
 10
0.259545
 20
1.591622
  0
VERTEX
  8
1
 10
0.259545
 20
3.204599
 42
-0.097394
  0
VERTEX
  8
1
 10
0.267921
 20
3.246694
 42
-0.098313
  0
VERTEX
  8
1
 10
0.291765
 20
3.282378
 42
-0.197998
  0
VERTEX
  8
1
 10
0.369545
 20
3.314599
  0
SEQEND
  0
POLYLINE
  8
1
 66
1
 70
1
  0
VERTEX
  8
1
 10
4.417328
 20
3.341942
 42
-0.097394
  0
VERTEX
  8
1
 10
4.459423
 20
3.333566
 42
-0.098313
  0
VERTEX
  8
1
 10
4.495108
 20
3.309722
 42
-0.197998
  0
VERTEX
  8
1
 10
4.527328
 20
3.231942
  0
VERTEX
  8
1
 10
4.527328
 20
1.989869
 42
-0.097394
  0
VERTEX
  8
1
 10
4.518952
 20
1.947774
 42
-0.098313
  0
VERTEX
  8
1
 10
4.495108
 20
1.912090
 42
-0.197998
  0
VERTEX
  8
1
 10
4.417328
 20
1.879869
  0
VERTEX
  8
1
 10
2.558588
 20
1.879869
 42
-0.097394
  0
VERTEX
  8
1
 10
2.516493
 20
1.888245
 42
-0.098313
  0
VERTEX
  8
1
 10
2.480809
 20
1.912090
 42
-0.197998
  0
VERTEX
  8
1
 10
2.448588
 20
1.989869
  0
VERTEX
  8
1
 10
2.448588
 20
3.231942
 42
-0.097394
  0
VERTEX
  8
1
 10
2.456964
 20
3.274037
 42
-0.098313
  0
VERTEX
  8
1
 10
2.480809
 20
3.309721
 42
-0.197998
  0
VERTEX
  8
1
 10
2.558588
 20
3.341942
  0
SEQEND
  0
POLYLINE
  8
1
 66
1
 70
1
  0
VERTEX
  8
1
 10
8.311585
 20
3.149212
 42
-0.097394
  0
VERTEX
  8
1
 10
8.353680
 20
3.140836
 42
-0.098313
  0
VERTEX
  8
1
 10
8.389364
 20
3.116991
 42
-0.197998
  0
VERTEX
  8
1
 10
8.421585
 20
3.039212
  0
VERTEX
  8
1
 10
8.421585
 20
1.180472
 42
-0.097394
  0
VERTEX
  8
1
 10
8.413209
 20
1.138377
 42
-0.098313
  0
VERTEX
  8
1
 10
8.389364
 20
1.102693
 42
-0.197998
  0
VERTEX
  8
1
 10
8.311585
 20
1.070472
  0
VERTEX
  8
1
 10
7.130678
 20
1.070472
 42
-0.097394
  0
VERTEX
  8
1
 10
7.088583
 20
1.078848
 42
-0.098313
  0
VERTEX
  8
1
 10
7.052899
 20
1.102692
 42
-0.197998
  0
VERTEX
  8
1
 10
7.020678
 20
1.180472
  0
VERTEX
  8
1
 10
7.020678
 20
3.039212
 42
-0.097394
  0
VERTEX
  8
1
 10
7.029054
 20
3.081307
 42
-0.098313
  0
VERTEX
  8
1
 10
7.052899
 20
3.116991
 42
-0.197998
  0
VERTEX
  8
1
 10
7.130678
 20
3.149212
  0
SEQEND
  0
POLYLINE
  8
1
 66
1
 70
1
  0
VERTEX
  8
1
 10
10.165429
 20
2.967993
 42
-0.097394
  0
VERTEX
  8
1
 10
10.207524
 20
2.959616
 42
-0.098313
  0
VERTEX
  8
1
 10
10.243209
 20
2.935772
 42
-0.197998
  0
VERTEX
  8
1
 10
10.275429
 20
2.857993
  0
VERTEX
  8
1
 10
10.275429
 20
0.999252
 42
-0.097394
  0
VERTEX
  8
1
 10
10.267053
 20
0.957157
 42
-0.098313
  0
VERTEX
  8
1
 10
10.243209
 20
0.921472
 42
-0.197998
  0
VERTEX
  8
1
 10
10.165429
 20
0.889252
  0
VERTEX
  8
1
 10
8.847512
 20
0.889252
 42
-0.097394
  0
VERTEX
  8
1
 10
8.805417
 20
0.897628
 42
-0.098313
  0
VERTEX
  8
1
 10
8.769733
 20
0.921472
 42
-0.197998
  0
VERTEX
  8
1
 10
8.737512
 20
0.999252
  0
VERTEX
  8
1
 10
8.737512
 20
2.857993
 42
-0.097394
  0
VERTEX
  8
1
 10
8.745888
 20
2.900087
 42
-0.098313
  0
VERTEX
  8
1
 10
8.769732
 20
2.935772
 42
-0.197998
  0
VERTEX
  8
1
 10
8.847512
 20
2.967993
  0
SEQEND
  0
POLYLINE
  8
1
 66
1
 70
1
  0
VERTEX
  8
1
 10
4.434287
 20
1.745945
 42
-0.097394
  0
VERTEX
  8
1
 10
4.476382
 20
1.737569
 42
-0.098313
  0
VERTEX
  8
1
 10
4.512066
 20
1.713725
 42
-0.197998
  0
VERTEX
  8
1
 10
4.544287
 20
1.635945
  0
VERTEX
  8
1
 10
4.544287
 20
0.434348
 42
-0.097394
  0
VERTEX
  8
1
 10
4.535911
 20
0.392253
 42
-0.098313
  0
VERTEX
  8
1
 10
4.512067
 20
0.356569
 42
-0.197998
  0
VERTEX
  8
1
 10
4.434287
 20
0.324348
  0
VERTEX
  8
1
 10
2.575547
 20
0.324348
 42
-0.097394
  0
VERTEX
  8
1
 10
2.533452
 20
0.332724
 42
-0.098313
  0
VERTEX
  8
1
 10
2.497768
 20
0.356569
 42
-0.197998
  0
VERTEX
  8
1
 10
2.465547
 20
0.434348
  0
VERTEX
  8
1
 10
2.465547
 20
1.635945
 42
-0.097394
  0
VERTEX
  8
1
 10
2.473923
 20
1.678040
 42
-0.098313
  0
VERTEX
  8
1
 10
2.497767
 20
1.713724
 42
-0.197998
  0
VERTEX
  8
1
 10
2.575547
 20
1.745945
  0
SEQEND
  0
POLYLINE
  8
1
 66
1
 70
1
  0
VERTEX
  8
1
 10
6.633776
 20
3.345434
 42
-0.097394
  0
VERTEX
  8
1
 10
6.675871
 20
3.337058
 42
-0.098313
  0
VERTEX
  8
1
 10
6.711555
 20
3.313213
 42
-0.197998
  0
VERTEX
  8
1
 10
6.743776
 20
3.235434
  0
VERTEX
  8
1
 10
6.743776
 20
1.924328
 42
-0.097394
  0
VERTEX
  8
1
 10
6.735400
 20
1.882233
 42
-0.098313
  0
VERTEX
  8
1
 10
6.711555
 20
1.846549
 42
-0.197998
  0
VERTEX
  8
1
 10
6.633776
 20
1.814328
  0
VERTEX
  8
1
 10
4.775036
 20
1.814328
 42
-0.097394
  0
VERTEX
  8
1
 10
4.732941
 20
1.822704
 42
-0.098313
  0
VERTEX
  8
1
 10
4.697256
 20
1.846549
 42
-0.197998
  0
VERTEX
  8
1
 10
4.665036
 20
1.924328
  0
VERTEX
  8
1
 10
4.665036
 20
3.235434
 42
-0.097394
  0
VERTEX
  8
1
 10
4.673412
 20
3.277529
 42
-0.098313
  0
VERTEX
  8
1
 10
4.697256
 20
3.313213
 42
-0.197998
  0
VERTEX
  8
1
 10
4.775036
 20
3.345434
  0
SEQEND
  0
POLYLINE
  8
1
 66
1
 70
1
  0
VERTEX
  8
1
 10
6.644057
 20
1.712380
 42
-0.097394
  0
VERTEX
  8
1
 10
6.686151
 20
1.704003
 42
-0.098313
  0
VERTEX
  8
1
 10
6.721836
 20
1.680159
 42
-0.197998
  0
VERTEX
  8
1
 10
6.754057
 20
1.602380
  0
VERTEX
  8
1
 10
6.754057
 20
0.348958
 42
-0.097394
  0
VERTEX
  8
1
 10
6.745680
 20
0.306864
 42
-0.098313
  0
VERTEX
  8
1
 10
6.721836
 20
0.271179
 42
-0.197998
  0
VERTEX
  8
1
 10
6.644057
 20
0.238958
  0
VERTEX
  8
1
 10
4.785316
 20
0.238958
 42
-0.097394
  0
VERTEX
  8
1
 10
4.743221
 20
0.247334
 42
-0.098313
  0
VERTEX
  8
1
 10
4.707537
 20
0.271179
 42
-0.197998
  0
VERTEX
  8
1
 10
4.675316
 20
0.348958
  0
VERTEX
  8
1
 10
4.675316
 20
1.602380
 42
-0.097394
  0
VERTEX
  8
1
 10
4.683692
 20
1.644474
 42
-0.098313
  0
VERTEX
  8
1
 10
4.707537
 20
1.680159
 42
-0.197998
  0
VERTEX
  8
1
 10
4.785316
 20
1.712380
  0
SEQEND
  0
POLYLINE
  8
1
 66
1
 70
1
  0
VERTEX
  8
1
 10
11.645724
 20
2.967992
 42
-0.097394
  0
VERTEX
  8
1
 10
11.687819
 20
2.959616
 42
-0.098313
  0
VERTEX
  8
1
 10
11.723504
 20
2.935772
 42
-0.197998
  0
VERTEX
  8
1
 10
11.755724
 20
2.857992
  0
VERTEX
  8
1
 10
11.755724
 20
0.999252
 42
-0.097394
  0
VERTEX
  8
1
 10
11.747348
 20
0.957157
 42
-0.098313
  0
VERTEX
  8
1
 10
11.723504
 20
0.921473
 42
-0.197998
  0
VERTEX
  8
1
 10
11.645724
 20
0.889252
  0
VERTEX
  8
1
 10
10.616277
 20
0.889252
 42
-0.097394
  0
VERTEX
  8
1
 10
10.574182
 20
0.897628
 42
-0.098313
  0
VERTEX
  8
1
 10
10.538498
 20
0.921473
 42
-0.197998
  0
VERTEX
  8
1
 10
10.506277
 20
0.999252
  0
VERTEX
  8
1
 10
10.506277
 20
2.857992
 42
-0.097394
  0
VERTEX
  8
1
 10
10.514653
 20
2.900087
 42
-0.098313
  0
VERTEX
  8
1
 10
10.538497
 20
2.935771
 42
-0.197998
  0
VERTEX
  8
1
 10
10.616277
 20
2.967992
  0
SEQEND
  0
POLYLINE
  8
1
 66
1
 70
1
  0
VERTEX
  8
1
 10
2.218740
 20
1.359079
 42
-0.097394
  0
VERTEX
  8
1
 10
2.260835
 20
1.350703
 42
-0.098313
  0
VERTEX
  8
1
 10
2.296519
 20
1.326859
 42
-0.197998
  0
VERTEX
  8
1
 10
2.328740
 20
1.249079
  0
VERTEX
  8
1
 10
2.328740
 20
0.750945
 42
-0.097394
  0
VERTEX
  8
1
 10
2.320364
 20
0.708850
 42
-0.098313
  0
VERTEX
  8
1
 10
2.296520
 20
0.673166
 42
-0.197998
  0
VERTEX
  8
1
 10
2.218740
 20
0.640945
  0
VERTEX
  8
1
 10
0.360000
 20
0.640945
 42
-0.097394
  0
VERTEX
  8
1
 10
0.317905
 20
0.649321
 42
-0.098313
  0
VERTEX
  8
1
 10
0.282221
 20
0.673165
 42
-0.197998
  0
VERTEX
  8
1
 10
0.250000
 20
0.750945
  0
VERTEX
  8
1
 10
0.250000
 20
1.249079
 42
-0.097394
  0
VERTEX
  8
1
 10
0.258376
 20
1.291174
 42
-0.098313
  0
VERTEX
  8
1
 10
0.282221
 20
1.326858
 42
-0.197998
  0
VERTEX
  8
1
 10
0.360000
 20
1.359079
  0
SEQEND
  0
ENDSEC
   0
EOF
