ISO-10303-21;
HEADER;
/* Generated by software containing ST-Developer
 * from STEP Tools, Inc. (www.steptools.com) 
 */

FILE_DESCRIPTION(
/* description */ (''),
/* implementation_level */ '2;1');

FILE_NAME(
/* name */ 'Power button v2.step',
/* time_stamp */ '2022-11-13T21:19:55+01:00',
/* author */ (''),
/* organization */ (''),
/* preprocessor_version */ 'ST-DEVELOPER v19.2',
/* originating_system */ 'Autodesk Translation Framework v11.17.0.187',

/* authorisation */ '');

FILE_SCHEMA (('AUTOMOTIVE_DESIGN { 1 0 10303 214 3 1 1 }'));
ENDSEC;

DATA;
#10=MECHANICAL_DESIGN_GEOMETRIC_PRESENTATION_REPRESENTATION('',(#13),#252);
#11=SHAPE_REPRESENTATION_RELATIONSHIP('SRR','None',#259,#12);
#12=ADVANCED_BREP_SHAPE_REPRESENTATION('',(#14),#251);
#13=STYLED_ITEM('',(#269),#14);
#14=MANIFOLD_SOLID_BREP('Corps1',#115);
#15=(
BOUNDED_SURFACE()
B_SPLINE_SURFACE(2,2,((#218,#219,#220,#221,#222,#223,#224,#225,#226),(#227,
#228,#229,#230,#231,#232,#233,#234,#235),(#236,#237,#238,#239,#240,#241,
#242,#243,#244)),.UNSPECIFIED.,.F.,.T.,.F.)
B_SPLINE_SURFACE_WITH_KNOTS((3,3),(3,2,2,2,3),(-1.5707963267949,-1.17600520709514),
(-3.14159265358979,-1.5707963267949,0.,1.5707963267949,3.14159265358979),
 .UNSPECIFIED.)
GEOMETRIC_REPRESENTATION_ITEM()
RATIONAL_B_SPLINE_SURFACE(((1.,0.707106781186548,1.,0.707106781186548,1.,
0.707106781186548,1.,0.707106781186548,1.),(0.980580675690926,0.693375245281541,
0.980580675690926,0.693375245281541,0.980580675690926,0.693375245281541,
0.980580675690926,0.693375245281541,0.980580675690926),(1.,0.707106781186548,
1.,0.707106781186548,1.,0.707106781186548,1.,0.707106781186548,1.)))
REPRESENTATION_ITEM('')
SURFACE()
);
#16=PLANE('',#137);
#17=PLANE('',#147);
#18=LINE('',#204,#20);
#19=LINE('',#217,#21);
#20=VECTOR('',#166,3.);
#21=VECTOR('',#183,7.25);
#22=CYLINDRICAL_SURFACE('',#135,3.);
#23=CYLINDRICAL_SURFACE('',#144,7.25);
#24=FACE_OUTER_BOUND('',#31,.T.);
#25=FACE_OUTER_BOUND('',#32,.T.);
#26=FACE_OUTER_BOUND('',#33,.T.);
#27=FACE_OUTER_BOUND('',#34,.T.);
#28=FACE_OUTER_BOUND('',#35,.T.);
#29=FACE_OUTER_BOUND('',#36,.T.);
#30=FACE_OUTER_BOUND('',#37,.T.);
#31=EDGE_LOOP('',(#76,#77,#78,#79,#80,#81));
#32=EDGE_LOOP('',(#82,#83,#84,#85,#86));
#33=EDGE_LOOP('',(#87));
#34=EDGE_LOOP('',(#88,#89,#90,#91,#92,#93));
#35=EDGE_LOOP('',(#94,#95,#96,#97,#98,#99));
#36=EDGE_LOOP('',(#100,#101,#102,#103,#104));
#37=EDGE_LOOP('',(#105));
#38=CIRCLE('',#130,3.);
#39=CIRCLE('',#131,3.);
#40=CIRCLE('',#132,4.5);
#41=CIRCLE('',#133,7.25);
#42=CIRCLE('',#134,7.25);
#43=CIRCLE('',#136,3.);
#44=CIRCLE('',#139,7.25);
#45=CIRCLE('',#140,7.25);
#46=CIRCLE('',#141,0.5);
#47=CIRCLE('',#142,6.91625160816967);
#48=CIRCLE('',#143,6.91625160816967);
#49=CIRCLE('',#145,6.5);
#50=CIRCLE('',#146,4.41625160816967);
#51=VERTEX_POINT('',#192);
#52=VERTEX_POINT('',#193);
#53=VERTEX_POINT('',#196);
#54=VERTEX_POINT('',#198);
#55=VERTEX_POINT('',#202);
#56=VERTEX_POINT('',#207);
#57=VERTEX_POINT('',#208);
#58=VERTEX_POINT('',#211);
#59=VERTEX_POINT('',#213);
#60=VERTEX_POINT('',#245);
#61=EDGE_CURVE('',#51,#52,#38,.T.);
#62=EDGE_CURVE('',#52,#51,#39,.T.);
#63=EDGE_CURVE('',#51,#53,#40,.T.);
#64=EDGE_CURVE('',#54,#53,#41,.T.);
#65=EDGE_CURVE('',#53,#54,#42,.T.);
#66=EDGE_CURVE('',#55,#55,#43,.T.);
#67=EDGE_CURVE('',#55,#52,#18,.T.);
#68=EDGE_CURVE('',#56,#57,#44,.T.);
#69=EDGE_CURVE('',#57,#56,#45,.T.);
#70=EDGE_CURVE('',#56,#58,#46,.T.);
#71=EDGE_CURVE('',#58,#59,#47,.T.);
#72=EDGE_CURVE('',#59,#58,#48,.T.);
#73=EDGE_CURVE('',#57,#54,#19,.T.);
#74=EDGE_CURVE('',#59,#60,#49,.T.);
#75=EDGE_CURVE('',#60,#60,#50,.T.);
#76=ORIENTED_EDGE('',*,*,#61,.T.);
#77=ORIENTED_EDGE('',*,*,#62,.T.);
#78=ORIENTED_EDGE('',*,*,#63,.T.);
#79=ORIENTED_EDGE('',*,*,#64,.F.);
#80=ORIENTED_EDGE('',*,*,#65,.F.);
#81=ORIENTED_EDGE('',*,*,#63,.F.);
#82=ORIENTED_EDGE('',*,*,#66,.F.);
#83=ORIENTED_EDGE('',*,*,#67,.T.);
#84=ORIENTED_EDGE('',*,*,#61,.F.);
#85=ORIENTED_EDGE('',*,*,#62,.F.);
#86=ORIENTED_EDGE('',*,*,#67,.F.);
#87=ORIENTED_EDGE('',*,*,#66,.T.);
#88=ORIENTED_EDGE('',*,*,#68,.T.);
#89=ORIENTED_EDGE('',*,*,#69,.T.);
#90=ORIENTED_EDGE('',*,*,#70,.T.);
#91=ORIENTED_EDGE('',*,*,#71,.T.);
#92=ORIENTED_EDGE('',*,*,#72,.T.);
#93=ORIENTED_EDGE('',*,*,#70,.F.);
#94=ORIENTED_EDGE('',*,*,#68,.F.);
#95=ORIENTED_EDGE('',*,*,#69,.F.);
#96=ORIENTED_EDGE('',*,*,#73,.T.);
#97=ORIENTED_EDGE('',*,*,#64,.T.);
#98=ORIENTED_EDGE('',*,*,#65,.T.);
#99=ORIENTED_EDGE('',*,*,#73,.F.);
#100=ORIENTED_EDGE('',*,*,#71,.F.);
#101=ORIENTED_EDGE('',*,*,#72,.F.);
#102=ORIENTED_EDGE('',*,*,#74,.T.);
#103=ORIENTED_EDGE('',*,*,#75,.T.);
#104=ORIENTED_EDGE('',*,*,#74,.F.);
#105=ORIENTED_EDGE('',*,*,#75,.F.);
#106=TOROIDAL_SURFACE('',#129,7.5,4.5);
#107=TOROIDAL_SURFACE('',#138,6.75,0.5);
#108=ADVANCED_FACE('',(#24),#106,.F.);
#109=ADVANCED_FACE('',(#25),#22,.T.);
#110=ADVANCED_FACE('',(#26),#16,.T.);
#111=ADVANCED_FACE('',(#27),#107,.T.);
#112=ADVANCED_FACE('',(#28),#23,.T.);
#113=ADVANCED_FACE('',(#29),#15,.T.);
#114=ADVANCED_FACE('',(#30),#17,.T.);
#115=CLOSED_SHELL('',(#108,#109,#110,#111,#112,#113,#114));
#116=DERIVED_UNIT_ELEMENT(#118,1.);
#117=DERIVED_UNIT_ELEMENT(#254,-3.);
#118=(
MASS_UNIT()
NAMED_UNIT(*)
SI_UNIT(.KILO.,.GRAM.)
);
#119=DERIVED_UNIT((#116,#117));
#120=MEASURE_REPRESENTATION_ITEM('density measure',
POSITIVE_RATIO_MEASURE(952.),#119);
#121=PROPERTY_DEFINITION_REPRESENTATION(#126,#123);
#122=PROPERTY_DEFINITION_REPRESENTATION(#127,#124);
#123=REPRESENTATION('material name',(#125),#251);
#124=REPRESENTATION('density',(#120),#251);
#125=DESCRIPTIVE_REPRESENTATION_ITEM('Plastique, noir opaque',
'Plastique, noir opaque');
#126=PROPERTY_DEFINITION('material property','material name',#261);
#127=PROPERTY_DEFINITION('material property','density of part',#261);
#128=AXIS2_PLACEMENT_3D('placement',#190,#148,#149);
#129=AXIS2_PLACEMENT_3D('',#191,#150,#151);
#130=AXIS2_PLACEMENT_3D('',#194,#152,#153);
#131=AXIS2_PLACEMENT_3D('',#195,#154,#155);
#132=AXIS2_PLACEMENT_3D('',#197,#156,#157);
#133=AXIS2_PLACEMENT_3D('',#199,#158,#159);
#134=AXIS2_PLACEMENT_3D('',#200,#160,#161);
#135=AXIS2_PLACEMENT_3D('',#201,#162,#163);
#136=AXIS2_PLACEMENT_3D('',#203,#164,#165);
#137=AXIS2_PLACEMENT_3D('',#205,#167,#168);
#138=AXIS2_PLACEMENT_3D('',#206,#169,#170);
#139=AXIS2_PLACEMENT_3D('',#209,#171,#172);
#140=AXIS2_PLACEMENT_3D('',#210,#173,#174);
#141=AXIS2_PLACEMENT_3D('',#212,#175,#176);
#142=AXIS2_PLACEMENT_3D('',#214,#177,#178);
#143=AXIS2_PLACEMENT_3D('',#215,#179,#180);
#144=AXIS2_PLACEMENT_3D('',#216,#181,#182);
#145=AXIS2_PLACEMENT_3D('',#246,#184,#185);
#146=AXIS2_PLACEMENT_3D('',#247,#186,#187);
#147=AXIS2_PLACEMENT_3D('',#248,#188,#189);
#148=DIRECTION('axis',(0.,0.,1.));
#149=DIRECTION('refdir',(1.,0.,0.));
#150=DIRECTION('center_axis',(0.,0.,1.));
#151=DIRECTION('ref_axis',(-1.,0.,0.));
#152=DIRECTION('center_axis',(0.,0.,1.));
#153=DIRECTION('ref_axis',(-1.,0.,0.));
#154=DIRECTION('center_axis',(0.,0.,1.));
#155=DIRECTION('ref_axis',(-1.,0.,0.));
#156=DIRECTION('center_axis',(-1.22464679914735E-16,1.,0.));
#157=DIRECTION('ref_axis',(1.,1.22464679914735E-16,0.));
#158=DIRECTION('center_axis',(0.,0.,1.));
#159=DIRECTION('ref_axis',(1.,0.,0.));
#160=DIRECTION('center_axis',(0.,0.,1.));
#161=DIRECTION('ref_axis',(1.,0.,0.));
#162=DIRECTION('center_axis',(0.,0.,-1.));
#163=DIRECTION('ref_axis',(1.,0.,0.));
#164=DIRECTION('center_axis',(0.,0.,-1.));
#165=DIRECTION('ref_axis',(1.,0.,0.));
#166=DIRECTION('',(0.,0.,1.));
#167=DIRECTION('center_axis',(0.,0.,-1.));
#168=DIRECTION('ref_axis',(1.,0.,0.));
#169=DIRECTION('center_axis',(0.,0.,-1.));
#170=DIRECTION('ref_axis',(-1.,5.66553889764798E-16,0.));
#171=DIRECTION('center_axis',(0.,0.,1.));
#172=DIRECTION('ref_axis',(-1.,5.66553889764798E-16,0.));
#173=DIRECTION('center_axis',(0.,0.,1.));
#174=DIRECTION('ref_axis',(-1.,5.66553889764798E-16,0.));
#175=DIRECTION('center_axis',(-4.44089209850063E-16,-1.,0.));
#176=DIRECTION('ref_axis',(1.,-4.44089209850063E-16,0.));
#177=DIRECTION('center_axis',(0.,0.,-1.));
#178=DIRECTION('ref_axis',(-1.,0.,0.));
#179=DIRECTION('center_axis',(0.,0.,-1.));
#180=DIRECTION('ref_axis',(-1.,0.,0.));
#181=DIRECTION('center_axis',(0.,0.,1.));
#182=DIRECTION('ref_axis',(1.,0.,0.));
#183=DIRECTION('',(0.,0.,-1.));
#184=DIRECTION('center_axis',(1.22464679914735E-16,-1.,0.));
#185=DIRECTION('ref_axis',(-1.,-1.22464679914735E-16,0.));
#186=DIRECTION('center_axis',(0.,0.,-1.));
#187=DIRECTION('ref_axis',(1.,0.,0.));
#188=DIRECTION('center_axis',(0.,0.,1.));
#189=DIRECTION('ref_axis',(-1.,0.,0.));
#190=CARTESIAN_POINT('',(0.,0.,0.));
#191=CARTESIAN_POINT('Origin',(0.,0.,-4.49305018890286));
#192=CARTESIAN_POINT('',(3.,3.67394039744206E-16,-4.49305018890286));
#193=CARTESIAN_POINT('',(-3.,3.67394039744206E-16,-4.49305018890286));
#194=CARTESIAN_POINT('Origin',(0.,0.,-4.49305018890286));
#195=CARTESIAN_POINT('Origin',(0.,0.,-4.49305018890286));
#196=CARTESIAN_POINT('',(7.25,8.87868929381831E-16,0.));
#197=CARTESIAN_POINT('Origin',(7.5,9.18485099360515E-16,-4.49305018890286));
#198=CARTESIAN_POINT('',(-7.25,-8.87868929381831E-16,0.));
#199=CARTESIAN_POINT('Origin',(0.,0.,0.));
#200=CARTESIAN_POINT('Origin',(0.,0.,0.));
#201=CARTESIAN_POINT('Origin',(0.,0.,0.));
#202=CARTESIAN_POINT('',(-3.,3.67394039744206E-16,-14.));
#203=CARTESIAN_POINT('Origin',(0.,0.,-14.));
#204=CARTESIAN_POINT('',(-3.,3.67394039744206E-16,0.));
#205=CARTESIAN_POINT('Origin',(0.,0.,-14.));
#206=CARTESIAN_POINT('Origin',(0.,0.,2.52844893937029));
#207=CARTESIAN_POINT('',(7.25,-3.21964677141296E-15,2.52844893937029));
#208=CARTESIAN_POINT('',(-7.25,-8.87868929381831E-16,2.52844893937029));
#209=CARTESIAN_POINT('Origin',(0.,0.,2.52844893937029));
#210=CARTESIAN_POINT('Origin',(0.,0.,2.52844893937029));
#211=CARTESIAN_POINT('',(6.91625160816967,8.46996539404272E-16,3.));
#212=CARTESIAN_POINT('Origin',(6.75,-2.99760216648793E-15,2.52844893937029));
#213=CARTESIAN_POINT('',(-6.91625160816967,-8.46996539404272E-16,3.));
#214=CARTESIAN_POINT('Origin',(0.,0.,3.));
#215=CARTESIAN_POINT('Origin',(0.,0.,3.));
#216=CARTESIAN_POINT('Origin',(0.,0.,0.));
#217=CARTESIAN_POINT('',(-7.25,-8.87868929381831E-16,0.));
#218=CARTESIAN_POINT('Ctrl Pts',(-4.41625160816967,0.,2.5));
#219=CARTESIAN_POINT('Ctrl Pts',(-4.41625160816967,-4.41625160816967,2.5));
#220=CARTESIAN_POINT('Ctrl Pts',(0.,-4.41625160816967,2.5));
#221=CARTESIAN_POINT('Ctrl Pts',(4.41625160816967,-4.41625160816967,2.5));
#222=CARTESIAN_POINT('Ctrl Pts',(4.41625160816967,0.,2.5));
#223=CARTESIAN_POINT('Ctrl Pts',(4.41625160816967,4.41625160816967,2.5));
#224=CARTESIAN_POINT('Ctrl Pts',(0.,4.41625160816967,2.5));
#225=CARTESIAN_POINT('Ctrl Pts',(-4.41625160816967,4.41625160816967,2.5));
#226=CARTESIAN_POINT('Ctrl Pts',(-4.41625160816967,0.,2.5));
#227=CARTESIAN_POINT('Ctrl Pts',(-5.71625160816967,0.,2.5));
#228=CARTESIAN_POINT('Ctrl Pts',(-5.71625160816967,-5.71625160816967,2.5));
#229=CARTESIAN_POINT('Ctrl Pts',(0.,-5.71625160816967,2.5));
#230=CARTESIAN_POINT('Ctrl Pts',(5.71625160816967,-5.71625160816967,2.5));
#231=CARTESIAN_POINT('Ctrl Pts',(5.71625160816967,0.,2.5));
#232=CARTESIAN_POINT('Ctrl Pts',(5.71625160816967,5.71625160816967,2.5));
#233=CARTESIAN_POINT('Ctrl Pts',(0.,5.71625160816967,2.5));
#234=CARTESIAN_POINT('Ctrl Pts',(-5.71625160816967,5.71625160816967,2.5));
#235=CARTESIAN_POINT('Ctrl Pts',(-5.71625160816967,0.,2.5));
#236=CARTESIAN_POINT('Ctrl Pts',(-6.91625160816967,0.,3.));
#237=CARTESIAN_POINT('Ctrl Pts',(-6.91625160816967,-6.91625160816967,3.));
#238=CARTESIAN_POINT('Ctrl Pts',(0.,-6.91625160816967,3.));
#239=CARTESIAN_POINT('Ctrl Pts',(6.91625160816967,-6.91625160816967,3.));
#240=CARTESIAN_POINT('Ctrl Pts',(6.91625160816967,0.,3.));
#241=CARTESIAN_POINT('Ctrl Pts',(6.91625160816967,6.91625160816967,3.));
#242=CARTESIAN_POINT('Ctrl Pts',(0.,6.91625160816967,3.));
#243=CARTESIAN_POINT('Ctrl Pts',(-6.91625160816967,6.91625160816967,3.));
#244=CARTESIAN_POINT('Ctrl Pts',(-6.91625160816967,0.,3.));
#245=CARTESIAN_POINT('',(-4.41625160816967,5.40834839617433E-16,2.5));
#246=CARTESIAN_POINT('Origin',(-4.41625160816967,-5.40834839617433E-16,
9.));
#247=CARTESIAN_POINT('Origin',(0.,0.,2.5));
#248=CARTESIAN_POINT('Origin',(0.,0.,2.5));
#249=UNCERTAINTY_MEASURE_WITH_UNIT(LENGTH_MEASURE(0.01),#253,
'DISTANCE_ACCURACY_VALUE',
'Maximum model space distance between geometric entities at asserted c
onnectivities');
#250=UNCERTAINTY_MEASURE_WITH_UNIT(LENGTH_MEASURE(0.01),#253,
'DISTANCE_ACCURACY_VALUE',
'Maximum model space distance between geometric entities at asserted c
onnectivities');
#251=(
GEOMETRIC_REPRESENTATION_CONTEXT(3)
GLOBAL_UNCERTAINTY_ASSIGNED_CONTEXT((#249))
GLOBAL_UNIT_ASSIGNED_CONTEXT((#253,#255,#256))
REPRESENTATION_CONTEXT('','3D')
);
#252=(
GEOMETRIC_REPRESENTATION_CONTEXT(3)
GLOBAL_UNCERTAINTY_ASSIGNED_CONTEXT((#250))
GLOBAL_UNIT_ASSIGNED_CONTEXT((#253,#255,#256))
REPRESENTATION_CONTEXT('','3D')
);
#253=(
LENGTH_UNIT()
NAMED_UNIT(*)
SI_UNIT(.MILLI.,.METRE.)
);
#254=(
LENGTH_UNIT()
NAMED_UNIT(*)
SI_UNIT($,.METRE.)
);
#255=(
NAMED_UNIT(*)
PLANE_ANGLE_UNIT()
SI_UNIT($,.RADIAN.)
);
#256=(
NAMED_UNIT(*)
SI_UNIT($,.STERADIAN.)
SOLID_ANGLE_UNIT()
);
#257=SHAPE_DEFINITION_REPRESENTATION(#258,#259);
#258=PRODUCT_DEFINITION_SHAPE('',$,#261);
#259=SHAPE_REPRESENTATION('',(#128),#251);
#260=PRODUCT_DEFINITION_CONTEXT('part definition',#265,'design');
#261=PRODUCT_DEFINITION('Power button','Power button v2',#262,#260);
#262=PRODUCT_DEFINITION_FORMATION('',$,#267);
#263=PRODUCT_RELATED_PRODUCT_CATEGORY('Power button v2',
'Power button v2',(#267));
#264=APPLICATION_PROTOCOL_DEFINITION('international standard',
'automotive_design',2009,#265);
#265=APPLICATION_CONTEXT(
'Core Data for Automotive Mechanical Design Process');
#266=PRODUCT_CONTEXT('part definition',#265,'mechanical');
#267=PRODUCT('Power button','Power button v2',$,(#266));
#268=PRESENTATION_STYLE_ASSIGNMENT((#270));
#269=PRESENTATION_STYLE_ASSIGNMENT((#271));
#270=SURFACE_STYLE_USAGE(.BOTH.,#272);
#271=SURFACE_STYLE_USAGE(.BOTH.,#273);
#272=SURFACE_SIDE_STYLE('',(#274));
#273=SURFACE_SIDE_STYLE('',(#275));
#274=SURFACE_STYLE_FILL_AREA(#276);
#275=SURFACE_STYLE_FILL_AREA(#277);
#276=FILL_AREA_STYLE('Plastique - Brillant (noir)',(#278));
#277=FILL_AREA_STYLE('Plastique - Mat (gris)',(#279));
#278=FILL_AREA_STYLE_COLOUR('Plastique - Brillant (noir)',#280);
#279=FILL_AREA_STYLE_COLOUR('Plastique - Mat (gris)',#281);
#280=COLOUR_RGB('Plastique - Brillant (noir)',0.0980392156862745,0.0980392156862745,
0.0980392156862745);
#281=COLOUR_RGB('Plastique - Mat (gris)',0.701960784313725,0.701960784313725,
0.701960784313725);
ENDSEC;
END-ISO-10303-21;
