  0
SECTION
  2
HEADER
  9
$ACADVER
  1
AC1024
  9
$ACADMAINTVER
 70
     6
  9
$DWGCODEPAGE
  3
ANSI_1252
  9
$INSBASE
 10
0.0
 20
0.0
 30
0.0
  9
$EXTMIN
 10
1.000000000000000E+20
 20
1.000000000000000E+20
 30
1.000000000000000E+20
  9
$EXTMAX
 10
-1.000000000000000E+20
 20
-1.000000000000000E+20
 30
-1.000000000000000E+20
  9
$LIMMIN
 10
0.0
 20
0.0
  9
$LIMMAX
 10
12.0
 20
9.0
  9
$ORTHOMODE
 70
     0
  9
$REGENMODE
 70
     1
  9
$FILLMODE
 70
     1
  9
$QTEXTMODE
 70
     0
  9
$MIRRTEXT
 70
     1
  9
$LTSCALE
 40
1.0
  9
$ATTMODE
 70
     1
  9
$TEXTSIZE
 40
0.2
  9
$TRACEWID
 40
0.05
  9
$TEXTSTYLE
  7
Standard
  9
$CLAYER
  8
0
  9
$CELTYPE
  6
ByLayer
  9
$CECOLOR
 62
   256
  9
$CELTSCALE
 40
1.0
  9
$DISPSILH
 70
     0
  9
$DIMSCALE
 40
1.0
  9
$DIMASZ
 40
0.18
  9
$DIMEXO
 40
0.0625
  9
$DIMDLI
 40
0.38
  9
$DIMRND
 40
0.0
  9
$DIMDLE
 40
0.0
  9
$DIMEXE
 40
0.18
  9
$DIMTP
 40
0.0
  9
$DIMTM
 40
0.0
  9
$DIMTXT
 40
0.18
  9
$DIMCEN
 40
0.09
  9
$DIMTSZ
 40
0.0
  9
$DIMTOL
 70
     0
  9
$DIMLIM
 70
     0
  9
$DIMTIH
 70
     1
  9
$DIMTOH
 70
     1
  9
$DIMSE1
 70
     0
  9
$DIMSE2
 70
     0
  9
$DIMTAD
 70
     0
  9
$DIMZIN
 70
     0
  9
$DIMBLK
  1

  9
$DIMASO
 70
     1
  9
$DIMSHO
 70
     1
  9
$DIMPOST
  1

  9
$DIMAPOST
  1

  9
$DIMALT
 70
     0
  9
$DIMALTD
 70
     2
  9
$DIMALTF
 40
25.4
  9
$DIMLFAC
 40
1.0
  9
$DIMTOFL
 70
     0
  9
$DIMTVP
 40
0.0
  9
$DIMTIX
 70
     0
  9
$DIMSOXD
 70
     0
  9
$DIMSAH
 70
     0
  9
$DIMBLK1
  1

  9
$DIMBLK2
  1

  9
$DIMSTYLE
  2
Standard
  9
$DIMCLRD
 70
     0
  9
$DIMCLRE
 70
     0
  9
$DIMCLRT
 70
     0
  9
$DIMTFAC
 40
1.0
  9
$DIMGAP
 40
0.09
  9
$DIMJUST
 70
     0
  9
$DIMSD1
 70
     0
  9
$DIMSD2
 70
     0
  9
$DIMTOLJ
 70
     1
  9
$DIMTZIN
 70
     0
  9
$DIMALTZ
 70
     0
  9
$DIMALTTZ
 70
     0
  9
$DIMUPT
 70
     0
  9
$DIMDEC
 70
     4
  9
$DIMTDEC
 70
     4
  9
$DIMALTU
 70
     2
  9
$DIMALTTD
 70
     2
  9
$DIMTXSTY
  7
Standard
  9
$DIMAUNIT
 70
     0
  9
$DIMADEC
 70
     0
  9
$DIMALTRND
 40
0.0
  9
$DIMAZIN
 70
     0
  9
$DIMDSEP
 70
    46
  9
$DIMATFIT
 70
     3
  9
$DIMFRAC
 70
     0
  9
$DIMLDRBLK
  1

  9
$DIMLUNIT
 70
     2
  9
$DIMLWD
 70
    -2
  9
$DIMLWE
 70
    -2
  9
$DIMTMOVE
 70
     0
  9
$DIMFXL
 40
1.0
  9
$DIMFXLON
 70
     0
  9
$DIMJOGANG
 40
0.7853981633974483
  9
$DIMTFILL
 70
     0
  9
$DIMTFILLCLR
 70
     0
  9
$DIMARCSYM
 70
     0
  9
$DIMLTYPE
  6

  9
$DIMLTEX1
  6

  9
$DIMLTEX2
  6

  9
$DIMTXTDIRECTION
 70
     0
  9
$LUNITS
 70
     2
  9
$LUPREC
 70
     4
  9
$SKETCHINC
 40
0.1
  9
$FILLETRAD
 40
0.5
  9
$AUNITS
 70
     0
  9
$AUPREC
 70
     0
  9
$MENU
  1
.
  9
$ELEVATION
 40
0.0
  9
$PELEVATION
 40
0.0
  9
$THICKNESS
 40
0.0
  9
$LIMCHECK
 70
     0
  9
$CHAMFERA
 40
0.5
  9
$CHAMFERB
 40
0.5
  9
$CHAMFERC
 40
1.0
  9
$CHAMFERD
 40
0.0
  9
$SKPOLY
 70
     0
  9
$TDCREATE
 40
2460394.857816898
  9
$TDUCREATE
 40
2460394.816150231
  9
$TDUPDATE
 40
2460394.857816956
  9
$TDUUPDATE
 40
2460394.816150289
  9
$TDINDWG
 40
0.0000000116
  9
$TDUSRTIMER
 40
0.0000000116
  9
$USRTIMER
 70
     1
  9
$ANGBASE
 50
0.0
  9
$ANGDIR
 70
     0
  9
$PDMODE
 70
     0
  9
$PDSIZE
 40
0.0
  9
$PLINEWID
 40
0.0
  9
$SPLFRAME
 70
     0
  9
$SPLINETYPE
 70
     6
  9
$SPLINESEGS
 70
     8
  9
$HANDSEED
  5
3EB
  9
$SURFTAB1
 70
     6
  9
$SURFTAB2
 70
     6
  9
$SURFTYPE
 70
     6
  9
$SURFU
 70
     6
  9
$SURFV
 70
     6
  9
$UCSBASE
  2

  9
$UCSNAME
  2

  9
$UCSORG
 10
0.0
 20
0.0
 30
0.0
  9
$UCSXDIR
 10
1.0
 20
0.0
 30
0.0
  9
$UCSYDIR
 10
0.0
 20
1.0
 30
0.0
  9
$UCSORTHOREF
  2

  9
$UCSORTHOVIEW
 70
     0
  9
$UCSORGTOP
 10
0.0
 20
0.0
 30
0.0
  9
$UCSORGBOTTOM
 10
0.0
 20
0.0
 30
0.0
  9
$UCSORGLEFT
 10
0.0
 20
0.0
 30
0.0
  9
$UCSORGRIGHT
 10
0.0
 20
0.0
 30
0.0
  9
$UCSORGFRONT
 10
0.0
 20
0.0
 30
0.0
  9
$UCSORGBACK
 10
0.0
 20
0.0
 30
0.0
  9
$PUCSBASE
  2

  9
$PUCSNAME
  2

  9
$PUCSORG
 10
0.0
 20
0.0
 30
0.0
  9
$PUCSXDIR
 10
1.0
 20
0.0
 30
0.0
  9
$PUCSYDIR
 10
0.0
 20
1.0
 30
0.0
  9
$PUCSORTHOREF
  2

  9
$PUCSORTHOVIEW
 70
     0
  9
$PUCSORGTOP
 10
0.0
 20
0.0
 30
0.0
  9
$PUCSORGBOTTOM
 10
0.0
 20
0.0
 30
0.0
  9
$PUCSORGLEFT
 10
0.0
 20
0.0
 30
0.0
  9
$PUCSORGRIGHT
 10
0.0
 20
0.0
 30
0.0
  9
$PUCSORGFRONT
 10
0.0
 20
0.0
 30
0.0
  9
$PUCSORGBACK
 10
0.0
 20
0.0
 30
0.0
  9
$USERI1
 70
     0
  9
$USERI2
 70
     0
  9
$USERI3
 70
     0
  9
$USERI4
 70
     0
  9
$USERI5
 70
     0
  9
$USERR1
 40
0.0
  9
$USERR2
 40
0.0
  9
$USERR3
 40
0.0
  9
$USERR4
 40
0.0
  9
$USERR5
 40
0.0
  9
$WORLDVIEW
 70
     1
  9
$SHADEDGE
 70
     3
  9
$SHADEDIF
 70
    70
  9
$TILEMODE
 70
     1
  9
$MAXACTVP
 70
    64
  9
$PINSBASE
 10
0.0
 20
0.0
 30
0.0
  9
$PLIMCHECK
 70
     0
  9
$PEXTMIN
 10
1.000000000000000E+20
 20
1.000000000000000E+20
 30
1.000000000000000E+20
  9
$PEXTMAX
 10
-1.000000000000000E+20
 20
-1.000000000000000E+20
 30
-1.000000000000000E+20
  9
$PLIMMIN
 10
0.0
 20
0.0
  9
$PLIMMAX
 10
12.0
 20
9.0
  9
$UNITMODE
 70
     0
  9
$VISRETAIN
 70
     1
  9
$PLINEGEN
 70
     0
  9
$PSLTSCALE
 70
     1
  9
$TREEDEPTH
 70
  3020
  9
$CMLSTYLE
  2
Standard
  9
$CMLJUST
 70
     0
  9
$CMLSCALE
 40
1.0
  9
$PROXYGRAPHICS
 70
     1
  9
$MEASUREMENT
 70
     0
  9
$CELWEIGHT
370
    -1
  9
$ENDCAPS
280
     0
  9
$JOINSTYLE
280
     0
  9
$LWDISPLAY
290
     1
  9
$INSUNITS
 70
     4
  9
$HYPERLINKBASE
  1

  9
$STYLESHEET
  1

  9
$XEDIT
290
     1
  9
$CEPSNTYPE
380
     0
  9
$PSTYLEMODE
290
     1
  9
$FINGERPRINTGUID
  2
{DFE0D1D0-F12B-4896-837C-2F6EEAC1093D}
  9
$VERSIONGUID
  2
{FAEB1C32-E019-11D5-929B-00C0DF256EC4}
  9
$EXTNAMES
290
     1
  9
$PSVPSCALE
 40
0.0
  9
$OLESTARTUP
290
     0
  9
$SORTENTS
280
   127
  9
$INDEXCTL
280
     0
  9
$HIDETEXT
280
     1
  9
$XCLIPFRAME
280
     2
  9
$HALOGAP
280
     0
  9
$OBSCOLOR
 70
   257
  9
$OBSLTYPE
280
     0
  9
$INTERSECTIONDISPLAY
280
     0
  9
$INTERSECTIONCOLOR
 70
   257
  9
$DIMASSOC
280
     2
  9
$PROJECTNAME
  1

  9
$CAMERADISPLAY
290
     0
  9
$LENSLENGTH
 40
50.0
  9
$CAMERAHEIGHT
 40
0.0
  9
$STEPSPERSEC
 40
2.0
  9
$STEPSIZE
 40
6.0
  9
$3DDWFPREC
 40
2.0
  9
$PSOLWIDTH
 40
0.25
  9
$PSOLHEIGHT
 40
4.0
  9
$LOFTANG1
 40
1.570796326794897
  9
$LOFTANG2
 40
1.570796326794897
  9
$LOFTMAG1
 40
0.0
  9
$LOFTMAG2
 40
0.0
  9
$LOFTPARAM
 70
     7
  9
$LOFTNORMALS
280
     1
  9
$LATITUDE
 40
37.795
  9
$LONGITUDE
 40
-122.394
  9
$NORTHDIRECTION
 40
0.0
  9
$TIMEZONE
 70
 -8000
  9
$LIGHTGLYPHDISPLAY
280
     1
  9
$TILEMODELIGHTSYNCH
280
     1
  9
$CMATERIAL
347
3C
  9
$SOLIDHIST
280
     1
  9
$SHOWHIST
280
     1
  9
$DWFFRAME
280
     2
  9
$DGNFRAME
280
     2
  9
$REALWORLDSCALE
290
     1
  9
$INTERFERECOLOR
 62
   256
  9
$CSHADOW
280
     0
  9
$SHADOWPLANELOCATION
 40
0.0
  0
ENDSEC
  0
SECTION
  2
CLASSES
  0
CLASS
  1
ACDBDICTIONARYWDFLT
  2
AcDbDictionaryWithDefault
  3
ObjectDBX Classes
 90
        0
 91
        4
280
     0
281
     0
  0
CLASS
  1
VISUALSTYLE
  2
AcDbVisualStyle
  3
ObjectDBX Classes
 90
     4095
 91
        4
280
     0
281
     0
  0
CLASS
  1
MATERIAL
  2
AcDbMaterial
  3
ObjectDBX Classes
 90
     1153
 91
        4
280
     0
281
     0
  0
CLASS
  1
SUN
  2
AcDbSun
  3
SCENEOE
 90
     1024
 91
        4
280
     0
281
     0
  0
ENDSEC
  0
SECTION
  2
TABLES
  0
TABLE
  2
VPORT
  5
8
330
0
100
AcDbSymbolTable
 70
     1
  0
VPORT
  5
29
330
8
100
AcDbSymbolTableRecord
100
AcDbViewportTableRecord
  2
*Active
 70
     0
 10
0.0
 20
0.0
 11
1.0
 21
1.0
 12
0.0
 22
0.0
 13
0.0
 23
0.0
 14
0.5
 24
0.5
 15
0.5
 25
0.5
 16
0.0
 26
0.0
 36
1.0
 17
117.2813186520016
 27
158.8274724877605
 37
0.0
 40
370.1296702371289
 41
1.798086800586728
 42
50.0
 43
0.0
 44
0.0
 50
0.0
 51
0.0
 71
     0
 72
   100
 73
     1
 74
     3
 75
     0
 76
     0
 77
     0
 78
     0
281
     0
 65
     1
110
0.0
120
0.0
130
0.0
111
1.0
121
0.0
131
0.0
112
0.0
122
1.0
132
0.0
 79
     0
146
0.0
 60
     3
 61
     5
292
     1
282
     1
141
0.0
142
0.0
 63
   250
361
3F
  0
ENDTAB
  0
TABLE
  2
LTYPE
  5
5
330
0
100
AcDbSymbolTable
 70
     1
  0
LTYPE
  5
14
330
5
100
AcDbSymbolTableRecord
100
AcDbLinetypeTableRecord
  2
ByBlock
 70
     0
  3

 72
    65
 73
     0
 40
0.0
  0
LTYPE
  5
15
330
5
100
AcDbSymbolTableRecord
100
AcDbLinetypeTableRecord
  2
ByLayer
 70
     0
  3

 72
    65
 73
     0
 40
0.0
  0
LTYPE
  5
16
330
5
100
AcDbSymbolTableRecord
100
AcDbLinetypeTableRecord
  2
Continuous
 70
     0
  3
Solid line
 72
    65
 73
     0
 40
0.0
  0
ENDTAB
  0
TABLE
  2
LAYER
  5
2
330
0
100
AcDbSymbolTable
 70
     2
  0
LAYER
  5
10
330
2
100
AcDbSymbolTableRecord
100
AcDbLayerTableRecord
  2
0
 70
     0
 62
     7
  6
Continuous
370
    -3
390
F
347
3E
  0
LAYER
  5
40
330
2
100
AcDbSymbolTableRecord
100
AcDbLayerTableRecord
  2
Layer 1
 70
     0
 62
     7
  6
Continuous
370
    -3
390
F
347
3E
  0
ENDTAB
  0
TABLE
  2
STYLE
  5
3
330
0
100
AcDbSymbolTable
 70
     1
  0
STYLE
  5
11
330
3
100
AcDbSymbolTableRecord
100
AcDbTextStyleTableRecord
  2
Standard
 70
     0
 40
0.0
 41
1.0
 50
0.0
 71
     0
 42
0.2
  3
txt
  4

  0
ENDTAB
  0
TABLE
  2
VIEW
  5
6
330
0
100
AcDbSymbolTable
 70
     0
  0
ENDTAB
  0
TABLE
  2
UCS
  5
7
330
0
100
AcDbSymbolTable
 70
     0
  0
ENDTAB
  0
TABLE
  2
APPID
  5
9
330
0
100
AcDbSymbolTable
 70
     1
  0
APPID
  5
12
330
9
100
AcDbSymbolTableRecord
100
AcDbRegAppTableRecord
  2
ACAD
 70
     0
  0
ENDTAB
  0
TABLE
  2
DIMSTYLE
  5
A
330
0
100
AcDbSymbolTable
 70
     1
100
AcDbDimStyleTable
  0
DIMSTYLE
105
27
330
A
100
AcDbSymbolTableRecord
100
AcDbDimStyleTableRecord
  2
Standard
 70
     0
178
     0
340
11
  0
ENDTAB
  0
TABLE
  2
BLOCK_RECORD
  5
1
330
0
100
AcDbSymbolTable
 70
    27
  0
BLOCK_RECORD
  5
1F
330
1
100
AcDbSymbolTableRecord
100
AcDbBlockTableRecord
  2
*Model_Space
340
22
 70
     0
280
     1
281
     0
  0
BLOCK_RECORD
  5
1B
330
1
100
AcDbSymbolTableRecord
100
AcDbBlockTableRecord
  2
*Paper_Space
340
1E
 70
     0
280
     1
281
     0
  0
BLOCK_RECORD
  5
23
330
1
100
AcDbSymbolTableRecord
100
AcDbBlockTableRecord
  2
*Paper_Space0
340
26
 70
     0
280
     1
281
     0
  0
BLOCK_RECORD
  5
41
330
1
100
AcDbSymbolTableRecord
100
AcDbBlockTableRecord
  2
block 2
340
0
102
{BLKREFS
331
42
102
}
 70
     0
280
     1
281
     0
  0
BLOCK_RECORD
  5
86
330
1
100
AcDbSymbolTableRecord
100
AcDbBlockTableRecord
  2
block 3
340
0
102
{BLKREFS
331
87
102
}
 70
     0
280
     1
281
     0
  0
BLOCK_RECORD
  5
B5
330
1
100
AcDbSymbolTableRecord
100
AcDbBlockTableRecord
  2
block 4
340
0
102
{BLKREFS
331
B6
102
}
 70
     0
280
     1
281
     0
  0
BLOCK_RECORD
  5
FA
330
1
100
AcDbSymbolTableRecord
100
AcDbBlockTableRecord
  2
block 5
340
0
102
{BLKREFS
331
FB
102
}
 70
     0
280
     1
281
     0
  0
BLOCK_RECORD
  5
129
330
1
100
AcDbSymbolTableRecord
100
AcDbBlockTableRecord
  2
block 6
340
0
102
{BLKREFS
331
12A
102
}
 70
     0
280
     1
281
     0
  0
BLOCK_RECORD
  5
15E
330
1
100
AcDbSymbolTableRecord
100
AcDbBlockTableRecord
  2
block 7
340
0
102
{BLKREFS
331
15F
102
}
 70
     0
280
     1
281
     0
  0
BLOCK_RECORD
  5
169
330
1
100
AcDbSymbolTableRecord
100
AcDbBlockTableRecord
  2
block 8
340
0
102
{BLKREFS
331
16A
102
}
 70
     0
280
     1
281
     0
  0
BLOCK_RECORD
  5
174
330
1
100
AcDbSymbolTableRecord
100
AcDbBlockTableRecord
  2
block 9
340
0
102
{BLKREFS
331
175
102
}
 70
     0
280
     1
281
     0
  0
BLOCK_RECORD
  5
1A9
330
1
100
AcDbSymbolTableRecord
100
AcDbBlockTableRecord
  2
block 10
340
0
102
{BLKREFS
331
1AA
102
}
 70
     0
280
     1
281
     0
  0
BLOCK_RECORD
  5
1B4
330
1
100
AcDbSymbolTableRecord
100
AcDbBlockTableRecord
  2
block 11
340
0
102
{BLKREFS
331
1B5
102
}
 70
     0
280
     1
281
     0
  0
BLOCK_RECORD
  5
1EF
330
1
100
AcDbSymbolTableRecord
100
AcDbBlockTableRecord
  2
block 12
340
0
102
{BLKREFS
331
1F0
102
}
 70
     0
280
     1
281
     0
  0
BLOCK_RECORD
  5
22A
330
1
100
AcDbSymbolTableRecord
100
AcDbBlockTableRecord
  2
block 13
340
0
102
{BLKREFS
331
22B
102
}
 70
     0
280
     1
281
     0
  0
BLOCK_RECORD
  5
265
330
1
100
AcDbSymbolTableRecord
100
AcDbBlockTableRecord
  2
block 14
340
0
102
{BLKREFS
331
266
102
}
 70
     0
280
     1
281
     0
  0
BLOCK_RECORD
  5
2A0
330
1
100
AcDbSymbolTableRecord
100
AcDbBlockTableRecord
  2
block 15
340
0
102
{BLKREFS
331
2A1
102
}
 70
     0
280
     1
281
     0
  0
BLOCK_RECORD
  5
2DB
330
1
100
AcDbSymbolTableRecord
100
AcDbBlockTableRecord
  2
block 16
340
0
102
{BLKREFS
331
2DC
102
}
 70
     0
280
     1
281
     0
  0
BLOCK_RECORD
  5
337
330
1
100
AcDbSymbolTableRecord
100
AcDbBlockTableRecord
  2
block 17
340
0
102
{BLKREFS
331
338
102
}
 70
     0
280
     1
281
     0
  0
BLOCK_RECORD
  5
393
330
1
100
AcDbSymbolTableRecord
100
AcDbBlockTableRecord
  2
block 18
340
0
102
{BLKREFS
331
394
102
}
 70
     0
280
     1
281
     0
  0
BLOCK_RECORD
  5
39E
330
1
100
AcDbSymbolTableRecord
100
AcDbBlockTableRecord
  2
block 19
340
0
102
{BLKREFS
331
39F
102
}
 70
     0
280
     1
281
     0
  0
BLOCK_RECORD
  5
3A9
330
1
100
AcDbSymbolTableRecord
100
AcDbBlockTableRecord
  2
block 20
340
0
102
{BLKREFS
331
3AA
102
}
 70
     0
280
     1
281
     0
  0
BLOCK_RECORD
  5
3B1
330
1
100
AcDbSymbolTableRecord
100
AcDbBlockTableRecord
  2
block 21
340
0
102
{BLKREFS
331
3B2
102
}
 70
     0
280
     1
281
     0
  0
BLOCK_RECORD
  5
3B9
330
1
100
AcDbSymbolTableRecord
100
AcDbBlockTableRecord
  2
block 22
340
0
102
{BLKREFS
331
3BA
102
}
 70
     0
280
     1
281
     0
  0
BLOCK_RECORD
  5
3C1
330
1
100
AcDbSymbolTableRecord
100
AcDbBlockTableRecord
  2
block 23
340
0
102
{BLKREFS
331
3C2
102
}
 70
     0
280
     1
281
     0
  0
BLOCK_RECORD
  5
3C9
330
1
100
AcDbSymbolTableRecord
100
AcDbBlockTableRecord
  2
block 24
340
0
102
{BLKREFS
331
3CA
102
}
 70
     0
280
     1
281
     0
  0
BLOCK_RECORD
  5
3D1
330
1
100
AcDbSymbolTableRecord
100
AcDbBlockTableRecord
  2
block 25
340
0
102
{BLKREFS
331
3D2
102
}
 70
     0
280
     1
281
     0
  0
BLOCK_RECORD
  5
3D9
330
1
100
AcDbSymbolTableRecord
100
AcDbBlockTableRecord
  2
block 26
340
0
102
{BLKREFS
331
3DA
102
}
 70
     0
280
     1
281
     0
  0
BLOCK_RECORD
  5
3E1
330
1
100
AcDbSymbolTableRecord
100
AcDbBlockTableRecord
  2
block 27
340
0
102
{BLKREFS
331
3E2
102
}
 70
     0
280
     1
281
     0
  0
ENDTAB
  0
ENDSEC
  0
SECTION
  2
BLOCKS
  0
BLOCK
  5
20
330
1F
100
AcDbEntity
  8
0
100
AcDbBlockBegin
  2
*Model_Space
 70
     0
 10
0.0
 20
0.0
 30
0.0
  3
*Model_Space
  1

  0
ENDBLK
  5
21
330
1F
100
AcDbEntity
  8
0
100
AcDbBlockEnd
  0
BLOCK
  5
1C
330
1B
100
AcDbEntity
 67
     1
  8
0
100
AcDbBlockBegin
  2
*Paper_Space
 70
     0
 10
0.0
 20
0.0
 30
0.0
  3
*Paper_Space
  1

  0
ENDBLK
  5
1D
330
1B
100
AcDbEntity
 67
     1
  8
0
100
AcDbBlockEnd
  0
BLOCK
  5
24
330
23
100
AcDbEntity
  8
0
100
AcDbBlockBegin
  2
*Paper_Space0
 70
     0
 10
0.0
 20
0.0
 30
0.0
  3
*Paper_Space0
  1

  0
ENDBLK
  5
25
330
23
100
AcDbEntity
  8
0
100
AcDbBlockEnd
  0
BLOCK
  5
43
330
41
100
AcDbEntity
  8
0
100
AcDbBlockBegin
  2
block 2
 70
     0
 10
0.0
 20
0.0
 30
0.0
  3
block 2
  1

  0
POLYLINE
  5
45
330
41
100
AcDbEntity
  8
Layer 1
 62
     1
420
 16711680
370
     9
100
AcDb2dPolyline
 66
     1
 10
0.0
 20
0.0
 30
0.0
  0
VERTEX
  5
46
330
45
100
AcDbEntity
  8
Layer 1
 62
     1
420
 16711680
370
     9
100
AcDbVertex
100
AcDb2dVertex
 10
-168.8621786785729
 20
182.5893426679765
 30
0.0
  0
VERTEX
  5
47
330
45
100
AcDbEntity
  8
Layer 1
 62
     1
420
 16711680
370
     9
100
AcDbVertex
100
AcDb2dVertex
 10
-168.8621786785729
 20
159.1643389704967
 30
0.0
  0
VERTEX
  5
48
330
45
100
AcDbEntity
  8
Layer 1
 62
     1
420
 16711680
370
     9
100
AcDbVertex
100
AcDb2dVertex
 10
-165.8621785958765
 20
159.1643389704967
 30
0.0
  0
VERTEX
  5
49
330
45
100
AcDbEntity
  8
Layer 1
 62
     1
420
 16711680
370
     9
100
AcDbVertex
100
AcDb2dVertex
 10
-165.8621785958765
 20
144.5343489431903
 30
0.0
  0
VERTEX
  5
4A
330
45
100
AcDbEntity
  8
Layer 1
 62
     1
420
 16711680
370
     9
100
AcDbVertex
100
AcDb2dVertex
 10
-168.8621786785729
 20
144.5343489431903
 30
0.0
  0
VERTEX
  5
4B
330
45
100
AcDbEntity
  8
Layer 1
 62
     1
420
 16711680
370
     9
100
AcDbVertex
100
AcDb2dVertex
 10
-168.8621786785729
 20
129.9043436570944
 30
0.0
  0
VERTEX
  5
4C
330
45
100
AcDbEntity
  8
Layer 1
 62
     1
420
 16711680
370
     9
100
AcDbVertex
100
AcDb2dVertex
 10
-165.8621785958765
 20
129.9043436570944
 30
0.0
  0
VERTEX
  5
4D
330
45
100
AcDbEntity
  8
Layer 1
 62
     1
420
 16711680
370
     9
100
AcDbVertex
100
AcDb2dVertex
 10
-165.8621785958765
 20
115.2743383709985
 30
0.0
  0
VERTEX
  5
4E
330
45
100
AcDbEntity
  8
Layer 1
 62
     1
420
 16711680
370
     9
100
AcDbVertex
100
AcDb2dVertex
 10
-168.8621786785729
 20
115.2743383709985
 30
0.0
  0
VERTEX
  5
4F
330
45
100
AcDbEntity
  8
Layer 1
 62
     1
420
 16711680
370
     9
100
AcDbVertex
100
AcDb2dVertex
 10
-168.8621786785729
 20
100.6443330849026
 30
0.0
  0
VERTEX
  5
50
330
45
100
AcDbEntity
  8
Layer 1
 62
     1
420
 16711680
370
     9
100
AcDbVertex
100
AcDb2dVertex
 10
-165.8621785958765
 20
100.6443330849026
 30
0.0
  0
VERTEX
  5
51
330
45
100
AcDbEntity
  8
Layer 1
 62
     1
420
 16711680
370
     9
100
AcDbVertex
100
AcDb2dVertex
 10
-165.8621785958765
 20
86.01434305759614
 30
0.0
  0
VERTEX
  5
52
330
45
100
AcDbEntity
  8
Layer 1
 62
     1
420
 16711680
370
     9
100
AcDbVertex
100
AcDb2dVertex
 10
-168.8621786785729
 20
86.01434305759614
 30
0.0
  0
VERTEX
  5
53
330
45
100
AcDbEntity
  8
Layer 1
 62
     1
420
 16711680
370
     9
100
AcDbVertex
100
AcDb2dVertex
 10
-168.8621786785729
 20
71.38433777150021
 30
0.0
  0
VERTEX
  5
54
330
45
100
AcDbEntity
  8
Layer 1
 62
     1
420
 16711680
370
     9
100
AcDbVertex
100
AcDb2dVertex
 10
-168.8621786785729
 20
62.58933936011638
 30
0.0
  0
VERTEX
  5
55
330
45
100
AcDbEntity
  8
Layer 1
 62
     1
420
 16711680
370
     9
100
AcDbVertex
100
AcDb2dVertex
 10
-155.0671782220126
 20
62.58933936011638
 30
0.0
  0
VERTEX
  5
56
330
45
100
AcDbEntity
  8
Layer 1
 62
     1
420
 16711680
370
     9
100
AcDbVertex
100
AcDb2dVertex
 10
-155.0671782220126
 20
65.58933944281287
 30
0.0
  0
VERTEX
  5
57
330
45
100
AcDbEntity
  8
Layer 1
 62
     1
420
 16711680
370
     9
100
AcDbVertex
100
AcDb2dVertex
 10
-140.4371786579631
 20
65.58933944281287
 30
0.0
  0
VERTEX
  5
58
330
45
100
AcDbEntity
  8
Layer 1
 62
     1
420
 16711680
370
     9
100
AcDbVertex
100
AcDb2dVertex
 10
-140.4371786579631
 20
62.58933936011638
 30
0.0
  0
VERTEX
  5
59
330
45
100
AcDbEntity
  8
Layer 1
 62
     1
420
 16711680
370
     9
100
AcDbVertex
100
AcDb2dVertex
 10
-125.8071771865645
 20
62.58933936011638
 30
0.0
  0
VERTEX
  5
5A
330
45
100
AcDbEntity
  8
Layer 1
 62
     1
420
 16711680
370
     9
100
AcDbVertex
100
AcDb2dVertex
 10
-125.8071771865645
 20
65.58933944281287
 30
0.0
  0
VERTEX
  5
5B
330
45
100
AcDbEntity
  8
Layer 1
 62
     1
420
 16711680
370
     9
100
AcDbVertex
100
AcDb2dVertex
 10
-111.177175715166
 20
65.58933944281287
 30
0.0
  0
VERTEX
  5
5C
330
45
100
AcDbEntity
  8
Layer 1
 62
     1
420
 16711680
370
     9
100
AcDbVertex
100
AcDb2dVertex
 10
-111.177175715166
 20
62.58933936011638
 30
0.0
  0
VERTEX
  5
5D
330
45
100
AcDbEntity
  8
Layer 1
 62
     1
420
 16711680
370
     9
100
AcDbVertex
100
AcDb2dVertex
 10
-96.54717424376744
 20
62.58933936011638
 30
0.0
  0
VERTEX
  5
5E
330
45
100
AcDbEntity
  8
Layer 1
 62
     1
420
 16711680
370
     9
100
AcDbVertex
100
AcDb2dVertex
 10
-96.54717424376744
 20
65.58933944281287
 30
0.0
  0
VERTEX
  5
5F
330
45
100
AcDbEntity
  8
Layer 1
 62
     1
420
 16711680
370
     9
100
AcDbVertex
100
AcDb2dVertex
 10
-81.91717658706627
 20
65.58933944281287
 30
0.0
  0
VERTEX
  5
60
330
45
100
AcDbEntity
  8
Layer 1
 62
     1
420
 16711680
370
     9
100
AcDbVertex
100
AcDb2dVertex
 10
-81.91717658706627
 20
62.58933936011638
 30
0.0
  0
VERTEX
  5
61
330
45
100
AcDbEntity
  8
Layer 1
 62
     1
420
 16711680
370
     9
100
AcDbVertex
100
AcDb2dVertex
 10
-67.28717893036477
 20
62.58933936011638
 30
0.0
  0
VERTEX
  5
62
330
45
100
AcDbEntity
  8
Layer 1
 62
     1
420
 16711680
370
     9
100
AcDbVertex
100
AcDb2dVertex
 10
-67.28717893036477
 20
65.58933944281287
 30
0.0
  0
VERTEX
  5
63
330
45
100
AcDbEntity
  8
Layer 1
 62
     1
420
 16711680
370
     9
100
AcDbVertex
100
AcDb2dVertex
 10
-52.65717364426918
 20
65.58933944281287
 30
0.0
  0
VERTEX
  5
64
330
45
100
AcDbEntity
  8
Layer 1
 62
     1
420
 16711680
370
     9
100
AcDbVertex
100
AcDb2dVertex
 10
-52.65717364426918
 20
62.58933936011638
 30
0.0
  0
VERTEX
  5
65
330
45
100
AcDbEntity
  8
Layer 1
 62
     1
420
 16711680
370
     9
100
AcDbVertex
100
AcDb2dVertex
 10
-38.86217509505751
 20
62.58933936011638
 30
0.0
  0
VERTEX
  5
66
330
45
100
AcDbEntity
  8
Layer 1
 62
     1
420
 16711680
370
     9
100
AcDbVertex
100
AcDb2dVertex
 10
-38.86217509505751
 20
86.01434305759614
 30
0.0
  0
VERTEX
  5
67
330
45
100
AcDbEntity
  8
Layer 1
 62
     1
420
 16711680
370
     9
100
AcDbVertex
100
AcDb2dVertex
 10
-41.86217517775434
 20
86.01434305759614
 30
0.0
  0
VERTEX
  5
68
330
45
100
AcDbEntity
  8
Layer 1
 62
     1
420
 16711680
370
     9
100
AcDbVertex
100
AcDb2dVertex
 10
-41.86217517775434
 20
100.6443330849026
 30
0.0
  0
VERTEX
  5
69
330
45
100
AcDbEntity
  8
Layer 1
 62
     1
420
 16711680
370
     9
100
AcDbVertex
100
AcDb2dVertex
 10
-38.86217509505751
 20
100.6443330849026
 30
0.0
  0
VERTEX
  5
6A
330
45
100
AcDbEntity
  8
Layer 1
 62
     1
420
 16711680
370
     9
100
AcDbVertex
100
AcDb2dVertex
 10
-38.86217509505751
 20
115.2743383709985
 30
0.0
  0
VERTEX
  5
6B
330
45
100
AcDbEntity
  8
Layer 1
 62
     1
420
 16711680
370
     9
100
AcDbVertex
100
AcDb2dVertex
 10
-41.86217517775434
 20
115.2743383709985
 30
0.0
  0
VERTEX
  5
6C
330
45
100
AcDbEntity
  8
Layer 1
 62
     1
420
 16711680
370
     9
100
AcDbVertex
100
AcDb2dVertex
 10
-41.86217517775434
 20
129.9043436570944
 30
0.0
  0
VERTEX
  5
6D
330
45
100
AcDbEntity
  8
Layer 1
 62
     1
420
 16711680
370
     9
100
AcDbVertex
100
AcDb2dVertex
 10
-38.86217509505751
 20
129.9043436570944
 30
0.0
  0
VERTEX
  5
6E
330
45
100
AcDbEntity
  8
Layer 1
 62
     1
420
 16711680
370
     9
100
AcDbVertex
100
AcDb2dVertex
 10
-38.86217509505751
 20
144.5343489431903
 30
0.0
  0
VERTEX
  5
6F
330
45
100
AcDbEntity
  8
Layer 1
 62
     1
420
 16711680
370
     9
100
AcDbVertex
100
AcDb2dVertex
 10
-41.86217517775434
 20
144.5343489431903
 30
0.0
  0
VERTEX
  5
70
330
45
100
AcDbEntity
  8
Layer 1
 62
     1
420
 16711680
370
     9
100
AcDbVertex
100
AcDb2dVertex
 10
-41.86217517775434
 20
159.1643389704967
 30
0.0
  0
VERTEX
  5
71
330
45
100
AcDbEntity
  8
Layer 1
 62
     1
420
 16711680
370
     9
100
AcDbVertex
100
AcDb2dVertex
 10
-38.86217509505751
 20
159.1643389704967
 30
0.0
  0
VERTEX
  5
72
330
45
100
AcDbEntity
  8
Layer 1
 62
     1
420
 16711680
370
     9
100
AcDbVertex
100
AcDb2dVertex
 10
-38.86217509505751
 20
173.7943442565926
 30
0.0
  0
VERTEX
  5
73
330
45
100
AcDbEntity
  8
Layer 1
 62
     1
420
 16711680
370
     9
100
AcDbVertex
100
AcDb2dVertex
 10
-38.86217509505751
 20
182.5893426679765
 30
0.0
  0
VERTEX
  5
74
330
45
100
AcDbEntity
  8
Layer 1
 62
     1
420
 16711680
370
     9
100
AcDbVertex
100
AcDb2dVertex
 10
-52.65717364426918
 20
182.5893426679765
 30
0.0
  0
VERTEX
  5
75
330
45
100
AcDbEntity
  8
Layer 1
 62
     1
420
 16711680
370
     9
100
AcDbVertex
100
AcDb2dVertex
 10
-52.65717364426918
 20
179.5893425852803
 30
0.0
  0
VERTEX
  5
76
330
45
100
AcDbEntity
  8
Layer 1
 62
     1
420
 16711680
370
     9
100
AcDbVertex
100
AcDb2dVertex
 10
-67.28717893036477
 20
179.5893425852803
 30
0.0
  0
VERTEX
  5
77
330
45
100
AcDbEntity
  8
Layer 1
 62
     1
420
 16711680
370
     9
100
AcDbVertex
100
AcDb2dVertex
 10
-67.28717893036477
 20
182.5893426679765
 30
0.0
  0
VERTEX
  5
78
330
45
100
AcDbEntity
  8
Layer 1
 62
     1
420
 16711680
370
     9
100
AcDbVertex
100
AcDb2dVertex
 10
-81.91717658706627
 20
182.5893426679765
 30
0.0
  0
VERTEX
  5
79
330
45
100
AcDbEntity
  8
Layer 1
 62
     1
420
 16711680
370
     9
100
AcDbVertex
100
AcDb2dVertex
 10
-81.91717658706627
 20
179.5893425852803
 30
0.0
  0
VERTEX
  5
7A
330
45
100
AcDbEntity
  8
Layer 1
 62
     1
420
 16711680
370
     9
100
AcDbVertex
100
AcDb2dVertex
 10
-96.54717424376744
 20
179.5893425852803
 30
0.0
  0
VERTEX
  5
7B
330
45
100
AcDbEntity
  8
Layer 1
 62
     1
420
 16711680
370
     9
100
AcDbVertex
100
AcDb2dVertex
 10
-96.54717424376744
 20
182.5893426679765
 30
0.0
  0
VERTEX
  5
7C
330
45
100
AcDbEntity
  8
Layer 1
 62
     1
420
 16711680
370
     9
100
AcDbVertex
100
AcDb2dVertex
 10
-111.177175715166
 20
182.5893426679765
 30
0.0
  0
VERTEX
  5
7D
330
45
100
AcDbEntity
  8
Layer 1
 62
     1
420
 16711680
370
     9
100
AcDbVertex
100
AcDb2dVertex
 10
-111.177175715166
 20
179.5893425852803
 30
0.0
  0
VERTEX
  5
7E
330
45
100
AcDbEntity
  8
Layer 1
 62
     1
420
 16711680
370
     9
100
AcDbVertex
100
AcDb2dVertex
 10
-125.8071771865645
 20
179.5893425852803
 30
0.0
  0
VERTEX
  5
7F
330
45
100
AcDbEntity
  8
Layer 1
 62
     1
420
 16711680
370
     9
100
AcDbVertex
100
AcDb2dVertex
 10
-125.8071771865645
 20
182.5893426679765
 30
0.0
  0
VERTEX
  5
80
330
45
100
AcDbEntity
  8
Layer 1
 62
     1
420
 16711680
370
     9
100
AcDbVertex
100
AcDb2dVertex
 10
-140.4371786579631
 20
182.5893426679765
 30
0.0
  0
VERTEX
  5
81
330
45
100
AcDbEntity
  8
Layer 1
 62
     1
420
 16711680
370
     9
100
AcDbVertex
100
AcDb2dVertex
 10
-140.4371786579631
 20
179.5893425852803
 30
0.0
  0
VERTEX
  5
82
330
45
100
AcDbEntity
  8
Layer 1
 62
     1
420
 16711680
370
     9
100
AcDbVertex
100
AcDb2dVertex
 10
-155.0671782220126
 20
179.5893425852803
 30
0.0
  0
VERTEX
  5
83
330
45
100
AcDbEntity
  8
Layer 1
 62
     1
420
 16711680
370
     9
100
AcDbVertex
100
AcDb2dVertex
 10
-155.0671782220126
 20
182.5893426679765
 30
0.0
  0
VERTEX
  5
84
330
45
100
AcDbEntity
  8
Layer 1
 62
     1
420
 16711680
370
     9
100
AcDbVertex
100
AcDb2dVertex
 10
-168.8621786785729
 20
182.5893426679765
 30
0.0
  0
SEQEND
  5
85
330
45
100
AcDbEntity
  8
Layer 1
 62
     1
420
 16711680
370
     9
  0
ENDBLK
  5
44
330
41
100
AcDbEntity
  8
0
100
AcDbBlockEnd
  0
BLOCK
  5
88
330
86
100
AcDbEntity
  8
0
100
AcDbBlockBegin
  2
block 3
 70
     0
 10
0.0
 20
0.0
 30
0.0
  3
block 3
  1

  0
POLYLINE
  5
8A
330
86
100
AcDbEntity
  8
Layer 1
 62
     1
420
 16711680
370
     9
100
AcDb2dPolyline
 66
     1
 10
0.0
 20
0.0
 30
0.0
  0
VERTEX
  5
8B
330
8A
100
AcDbEntity
  8
Layer 1
 62
     1
420
 16711680
370
     9
100
AcDbVertex
100
AcDb2dVertex
 10
-32.8621749296645
 20
182.5893426679765
 30
0.0
  0
VERTEX
  5
8C
330
8A
100
AcDbEntity
  8
Layer 1
 62
     1
420
 16711680
370
     9
100
AcDbVertex
100
AcDb2dVertex
 10
-32.8621749296645
 20
159.1643389704967
 30
0.0
  0
VERTEX
  5
8D
330
8A
100
AcDbEntity
  8
Layer 1
 62
     1
420
 16711680
370
     9
100
AcDbVertex
100
AcDb2dVertex
 10
-35.86217501236133
 20
159.1643389704967
 30
0.0
  0
VERTEX
  5
8E
330
8A
100
AcDbEntity
  8
Layer 1
 62
     1
420
 16711680
370
     9
100
AcDbVertex
100
AcDb2dVertex
 10
-35.86217501236133
 20
144.5343489431903
 30
0.0
  0
VERTEX
  5
8F
330
8A
100
AcDbEntity
  8
Layer 1
 62
     1
420
 16711680
370
     9
100
AcDbVertex
100
AcDb2dVertex
 10
-32.8621749296645
 20
144.5343489431903
 30
0.0
  0
VERTEX
  5
90
330
8A
100
AcDbEntity
  8
Layer 1
 62
     1
420
 16711680
370
     9
100
AcDbVertex
100
AcDb2dVertex
 10
-32.8621749296645
 20
129.9043436570944
 30
0.0
  0
VERTEX
  5
91
330
8A
100
AcDbEntity
  8
Layer 1
 62
     1
420
 16711680
370
     9
100
AcDbVertex
100
AcDb2dVertex
 10
-35.86217501236133
 20
129.9043436570944
 30
0.0
  0
VERTEX
  5
92
330
8A
100
AcDbEntity
  8
Layer 1
 62
     1
420
 16711680
370
     9
100
AcDbVertex
100
AcDb2dVertex
 10
-35.86217501236133
 20
115.2743383709985
 30
0.0
  0
VERTEX
  5
93
330
8A
100
AcDbEntity
  8
Layer 1
 62
     1
420
 16711680
370
     9
100
AcDbVertex
100
AcDb2dVertex
 10
-32.8621749296645
 20
115.2743383709985
 30
0.0
  0
VERTEX
  5
94
330
8A
100
AcDbEntity
  8
Layer 1
 62
     1
420
 16711680
370
     9
100
AcDbVertex
100
AcDb2dVertex
 10
-32.8621749296645
 20
100.6443330849026
 30
0.0
  0
VERTEX
  5
95
330
8A
100
AcDbEntity
  8
Layer 1
 62
     1
420
 16711680
370
     9
100
AcDbVertex
100
AcDb2dVertex
 10
-35.86217501236133
 20
100.6443330849026
 30
0.0
  0
VERTEX
  5
96
330
8A
100
AcDbEntity
  8
Layer 1
 62
     1
420
 16711680
370
     9
100
AcDbVertex
100
AcDb2dVertex
 10
-35.86217501236133
 20
86.01434305759614
 30
0.0
  0
VERTEX
  5
97
330
8A
100
AcDbEntity
  8
Layer 1
 62
     1
420
 16711680
370
     9
100
AcDbVertex
100
AcDb2dVertex
 10
-32.8621749296645
 20
86.01434305759614
 30
0.0
  0
VERTEX
  5
98
330
8A
100
AcDbEntity
  8
Layer 1
 62
     1
420
 16711680
370
     9
100
AcDbVertex
100
AcDb2dVertex
 10
-32.8621749296645
 20
71.38433777150021
 30
0.0
  0
VERTEX
  5
99
330
8A
100
AcDbEntity
  8
Layer 1
 62
     1
420
 16711680
370
     9
100
AcDbVertex
100
AcDb2dVertex
 10
-32.8621749296645
 20
62.58933936011638
 30
0.0
  0
VERTEX
  5
9A
330
8A
100
AcDbEntity
  8
Layer 1
 62
     1
420
 16711680
370
     9
100
AcDbVertex
100
AcDb2dVertex
 10
-13.17717682844458
 20
62.58933936011638
 30
0.0
  0
VERTEX
  5
9B
330
8A
100
AcDbEntity
  8
Layer 1
 62
     1
420
 16711680
370
     9
100
AcDbVertex
100
AcDb2dVertex
 10
-13.17717682844426
 20
65.58933944281287
 30
0.0
  0
VERTEX
  5
9C
330
8A
100
AcDbEntity
  8
Layer 1
 62
     1
420
 16711680
370
     9
100
AcDbVertex
100
AcDb2dVertex
 10
1.452828457651655
 20
65.58933944281287
 30
0.0
  0
VERTEX
  5
9D
330
8A
100
AcDbEntity
  8
Layer 1
 62
     1
420
 16711680
370
     9
100
AcDbVertex
100
AcDb2dVertex
 10
1.452828457651655
 20
62.58933936011638
 30
0.0
  0
VERTEX
  5
9E
330
8A
100
AcDbEntity
  8
Layer 1
 62
     1
420
 16711680
370
     9
100
AcDbVertex
100
AcDb2dVertex
 10
16.08283374374725
 20
62.58933936011638
 30
0.0
  0
VERTEX
  5
9F
330
8A
100
AcDbEntity
  8
Layer 1
 62
     1
420
 16711680
370
     9
100
AcDbVertex
100
AcDb2dVertex
 10
21.13782655887222
 20
62.58933936011638
 30
0.0
  0
VERTEX
  5
A0
330
8A
100
AcDbEntity
  8
Layer 1
 62
     1
420
 16711680
370
     9
100
AcDbVertex
100
AcDb2dVertex
 10
21.13782655887222
 20
86.01434305759614
 30
0.0
  0
VERTEX
  5
A1
330
8A
100
AcDbEntity
  8
Layer 1
 62
     1
420
 16711680
370
     9
100
AcDbVertex
100
AcDb2dVertex
 10
24.13782664156873
 20
86.01434305759614
 30
0.0
  0
VERTEX
  5
A2
330
8A
100
AcDbEntity
  8
Layer 1
 62
     1
420
 16711680
370
     9
100
AcDbVertex
100
AcDb2dVertex
 10
24.13782664156873
 20
100.6443330849026
 30
0.0
  0
VERTEX
  5
A3
330
8A
100
AcDbEntity
  8
Layer 1
 62
     1
420
 16711680
370
     9
100
AcDbVertex
100
AcDb2dVertex
 10
21.13782655887222
 20
100.6443330849026
 30
0.0
  0
VERTEX
  5
A4
330
8A
100
AcDbEntity
  8
Layer 1
 62
     1
420
 16711680
370
     9
100
AcDbVertex
100
AcDb2dVertex
 10
21.13782655887222
 20
115.2743383709985
 30
0.0
  0
VERTEX
  5
A5
330
8A
100
AcDbEntity
  8
Layer 1
 62
     1
420
 16711680
370
     9
100
AcDbVertex
100
AcDb2dVertex
 10
24.13782664156873
 20
115.2743383709985
 30
0.0
  0
VERTEX
  5
A6
330
8A
100
AcDbEntity
  8
Layer 1
 62
     1
420
 16711680
370
     9
100
AcDbVertex
100
AcDb2dVertex
 10
24.13782664156873
 20
129.9043436570944
 30
0.0
  0
VERTEX
  5
A7
330
8A
100
AcDbEntity
  8
Layer 1
 62
     1
420
 16711680
370
     9
100
AcDbVertex
100
AcDb2dVertex
 10
21.13782655887222
 20
129.9043436570944
 30
0.0
  0
VERTEX
  5
A8
330
8A
100
AcDbEntity
  8
Layer 1
 62
     1
420
 16711680
370
     9
100
AcDbVertex
100
AcDb2dVertex
 10
21.13782655887222
 20
144.5343489431903
 30
0.0
  0
VERTEX
  5
A9
330
8A
100
AcDbEntity
  8
Layer 1
 62
     1
420
 16711680
370
     9
100
AcDbVertex
100
AcDb2dVertex
 10
24.13782664156873
 20
144.5343489431903
 30
0.0
  0
VERTEX
  5
AA
330
8A
100
AcDbEntity
  8
Layer 1
 62
     1
420
 16711680
370
     9
100
AcDbVertex
100
AcDb2dVertex
 10
24.13782664156873
 20
159.1643389704967
 30
0.0
  0
VERTEX
  5
AB
330
8A
100
AcDbEntity
  8
Layer 1
 62
     1
420
 16711680
370
     9
100
AcDbVertex
100
AcDb2dVertex
 10
21.13782655887222
 20
159.1643389704967
 30
0.0
  0
VERTEX
  5
AC
330
8A
100
AcDbEntity
  8
Layer 1
 62
     1
420
 16711680
370
     9
100
AcDbVertex
100
AcDb2dVertex
 10
21.13782655887222
 20
173.7943442565926
 30
0.0
  0
VERTEX
  5
AD
330
8A
100
AcDbEntity
  8
Layer 1
 62
     1
420
 16711680
370
     9
100
AcDbVertex
100
AcDb2dVertex
 10
21.13782655887222
 20
182.5893426679765
 30
0.0
  0
VERTEX
  5
AE
330
8A
100
AcDbEntity
  8
Layer 1
 62
     1
420
 16711680
370
     9
100
AcDbVertex
100
AcDb2dVertex
 10
1.452828457651655
 20
182.5893426679765
 30
0.0
  0
VERTEX
  5
AF
330
8A
100
AcDbEntity
  8
Layer 1
 62
     1
420
 16711680
370
     9
100
AcDbVertex
100
AcDb2dVertex
 10
1.452828457651655
 20
179.5893425852803
 30
0.0
  0
VERTEX
  5
B0
330
8A
100
AcDbEntity
  8
Layer 1
 62
     1
420
 16711680
370
     9
100
AcDbVertex
100
AcDb2dVertex
 10
-13.17717682844458
 20
179.5893425852803
 30
0.0
  0
VERTEX
  5
B1
330
8A
100
AcDbEntity
  8
Layer 1
 62
     1
420
 16711680
370
     9
100
AcDbVertex
100
AcDb2dVertex
 10
-13.17717682844426
 20
182.5893426679765
 30
0.0
  0
VERTEX
  5
B2
330
8A
100
AcDbEntity
  8
Layer 1
 62
     1
420
 16711680
370
     9
100
AcDbVertex
100
AcDb2dVertex
 10
-27.80718211453985
 20
182.5893426679765
 30
0.0
  0
VERTEX
  5
B3
330
8A
100
AcDbEntity
  8
Layer 1
 62
     1
420
 16711680
370
     9
100
AcDbVertex
100
AcDb2dVertex
 10
-32.8621749296645
 20
182.5893426679765
 30
0.0
  0
SEQEND
  5
B4
330
8A
100
AcDbEntity
  8
Layer 1
 62
     1
420
 16711680
370
     9
  0
ENDBLK
  5
89
330
86
100
AcDbEntity
  8
0
100
AcDbBlockEnd
  0
BLOCK
  5
B7
330
B5
100
AcDbEntity
  8
0
100
AcDbBlockBegin
  2
block 4
 70
     0
 10
0.0
 20
0.0
 30
0.0
  3
block 4
  1

  0
POLYLINE
  5
B9
330
B5
100
AcDbEntity
  8
Layer 1
 62
     1
420
 16711680
370
     9
100
AcDb2dPolyline
 66
     1
 10
0.0
 20
0.0
 30
0.0
  0
VERTEX
  5
BA
330
B9
100
AcDbEntity
  8
Layer 1
 62
     1
420
 16711680
370
     9
100
AcDbVertex
100
AcDb2dVertex
 10
-168.8621786785729
 20
305.5893460585331
 30
0.0
  0
VERTEX
  5
BB
330
B9
100
AcDbEntity
  8
Layer 1
 62
     1
420
 16711680
370
     9
100
AcDbVertex
100
AcDb2dVertex
 10
-168.8621786785729
 20
282.1643461757507
 30
0.0
  0
VERTEX
  5
BC
330
B9
100
AcDbEntity
  8
Layer 1
 62
     1
420
 16711680
370
     9
100
AcDbVertex
100
AcDb2dVertex
 10
-165.8621785958765
 20
282.1643461757507
 30
0.0
  0
VERTEX
  5
BD
330
B9
100
AcDbEntity
  8
Layer 1
 62
     1
420
 16711680
370
     9
100
AcDbVertex
100
AcDb2dVertex
 10
-165.8621785958765
 20
267.5343447043525
 30
0.0
  0
VERTEX
  5
BE
330
B9
100
AcDbEntity
  8
Layer 1
 62
     1
420
 16711680
370
     9
100
AcDbVertex
100
AcDb2dVertex
 10
-168.8621786785729
 20
267.5343447043525
 30
0.0
  0
VERTEX
  5
BF
330
B9
100
AcDbEntity
  8
Layer 1
 62
     1
420
 16711680
370
     9
100
AcDbVertex
100
AcDb2dVertex
 10
-168.8621786785729
 20
252.9043432329536
 30
0.0
  0
VERTEX
  5
C0
330
B9
100
AcDbEntity
  8
Layer 1
 62
     1
420
 16711680
370
     9
100
AcDbVertex
100
AcDb2dVertex
 10
-165.8621785958765
 20
252.9043432329536
 30
0.0
  0
VERTEX
  5
C1
330
B9
100
AcDbEntity
  8
Layer 1
 62
     1
420
 16711680
370
     9
100
AcDbVertex
100
AcDb2dVertex
 10
-165.8621785958765
 20
238.2743417615551
 30
0.0
  0
VERTEX
  5
C2
330
B9
100
AcDbEntity
  8
Layer 1
 62
     1
420
 16711680
370
     9
100
AcDbVertex
100
AcDb2dVertex
 10
-168.8621786785729
 20
238.2743417615551
 30
0.0
  0
VERTEX
  5
C3
330
B9
100
AcDbEntity
  8
Layer 1
 62
     1
420
 16711680
370
     9
100
AcDbVertex
100
AcDb2dVertex
 10
-168.8621786785729
 20
223.6443441048539
 30
0.0
  0
VERTEX
  5
C4
330
B9
100
AcDbEntity
  8
Layer 1
 62
     1
420
 16711680
370
     9
100
AcDbVertex
100
AcDb2dVertex
 10
-165.8621785958765
 20
223.6443441048539
 30
0.0
  0
VERTEX
  5
C5
330
B9
100
AcDbEntity
  8
Layer 1
 62
     1
420
 16711680
370
     9
100
AcDbVertex
100
AcDb2dVertex
 10
-165.8621785958765
 20
209.0143464481527
 30
0.0
  0
VERTEX
  5
C6
330
B9
100
AcDbEntity
  8
Layer 1
 62
     1
420
 16711680
370
     9
100
AcDbVertex
100
AcDb2dVertex
 10
-168.8621786785729
 20
209.0143464481527
 30
0.0
  0
VERTEX
  5
C7
330
B9
100
AcDbEntity
  8
Layer 1
 62
     1
420
 16711680
370
     9
100
AcDbVertex
100
AcDb2dVertex
 10
-168.8621786785729
 20
194.3843411620568
 30
0.0
  0
VERTEX
  5
C8
330
B9
100
AcDbEntity
  8
Layer 1
 62
     1
420
 16711680
370
     9
100
AcDbVertex
100
AcDb2dVertex
 10
-168.8621786785729
 20
185.589342750673
 30
0.0
  0
VERTEX
  5
C9
330
B9
100
AcDbEntity
  8
Layer 1
 62
     1
420
 16711680
370
     9
100
AcDbVertex
100
AcDb2dVertex
 10
-155.0671782220126
 20
185.589342750673
 30
0.0
  0
VERTEX
  5
CA
330
B9
100
AcDbEntity
  8
Layer 1
 62
     1
420
 16711680
370
     9
100
AcDbVertex
100
AcDb2dVertex
 10
-155.0671782220126
 20
188.5893428333695
 30
0.0
  0
VERTEX
  5
CB
330
B9
100
AcDbEntity
  8
Layer 1
 62
     1
420
 16711680
370
     9
100
AcDbVertex
100
AcDb2dVertex
 10
-140.4371786579631
 20
188.5893428333695
 30
0.0
  0
VERTEX
  5
CC
330
B9
100
AcDbEntity
  8
Layer 1
 62
     1
420
 16711680
370
     9
100
AcDbVertex
100
AcDb2dVertex
 10
-140.4371786579631
 20
185.589342750673
 30
0.0
  0
VERTEX
  5
CD
330
B9
100
AcDbEntity
  8
Layer 1
 62
     1
420
 16711680
370
     9
100
AcDbVertex
100
AcDb2dVertex
 10
-125.8071771865645
 20
185.589342750673
 30
0.0
  0
VERTEX
  5
CE
330
B9
100
AcDbEntity
  8
Layer 1
 62
     1
420
 16711680
370
     9
100
AcDbVertex
100
AcDb2dVertex
 10
-125.8071771865645
 20
188.5893428333695
 30
0.0
  0
VERTEX
  5
CF
330
B9
100
AcDbEntity
  8
Layer 1
 62
     1
420
 16711680
370
     9
100
AcDbVertex
100
AcDb2dVertex
 10
-111.177175715166
 20
188.5893428333695
 30
0.0
  0
VERTEX
  5
D0
330
B9
100
AcDbEntity
  8
Layer 1
 62
     1
420
 16711680
370
     9
100
AcDbVertex
100
AcDb2dVertex
 10
-111.177175715166
 20
185.589342750673
 30
0.0
  0
VERTEX
  5
D1
330
B9
100
AcDbEntity
  8
Layer 1
 62
     1
420
 16711680
370
     9
100
AcDbVertex
100
AcDb2dVertex
 10
-96.54717424376744
 20
185.589342750673
 30
0.0
  0
VERTEX
  5
D2
330
B9
100
AcDbEntity
  8
Layer 1
 62
     1
420
 16711680
370
     9
100
AcDbVertex
100
AcDb2dVertex
 10
-96.54717424376744
 20
188.5893428333695
 30
0.0
  0
VERTEX
  5
D3
330
B9
100
AcDbEntity
  8
Layer 1
 62
     1
420
 16711680
370
     9
100
AcDbVertex
100
AcDb2dVertex
 10
-81.91717658706627
 20
188.5893428333695
 30
0.0
  0
VERTEX
  5
D4
330
B9
100
AcDbEntity
  8
Layer 1
 62
     1
420
 16711680
370
     9
100
AcDbVertex
100
AcDb2dVertex
 10
-81.91717658706627
 20
185.589342750673
 30
0.0
  0
VERTEX
  5
D5
330
B9
100
AcDbEntity
  8
Layer 1
 62
     1
420
 16711680
370
     9
100
AcDbVertex
100
AcDb2dVertex
 10
-67.28717893036477
 20
185.589342750673
 30
0.0
  0
VERTEX
  5
D6
330
B9
100
AcDbEntity
  8
Layer 1
 62
     1
420
 16711680
370
     9
100
AcDbVertex
100
AcDb2dVertex
 10
-67.28717893036477
 20
188.5893428333695
 30
0.0
  0
VERTEX
  5
D7
330
B9
100
AcDbEntity
  8
Layer 1
 62
     1
420
 16711680
370
     9
100
AcDbVertex
100
AcDb2dVertex
 10
-52.65717364426918
 20
188.5893428333695
 30
0.0
  0
VERTEX
  5
D8
330
B9
100
AcDbEntity
  8
Layer 1
 62
     1
420
 16711680
370
     9
100
AcDbVertex
100
AcDb2dVertex
 10
-52.65717364426918
 20
185.589342750673
 30
0.0
  0
VERTEX
  5
D9
330
B9
100
AcDbEntity
  8
Layer 1
 62
     1
420
 16711680
370
     9
100
AcDbVertex
100
AcDb2dVertex
 10
-38.86217509505751
 20
185.589342750673
 30
0.0
  0
VERTEX
  5
DA
330
B9
100
AcDbEntity
  8
Layer 1
 62
     1
420
 16711680
370
     9
100
AcDbVertex
100
AcDb2dVertex
 10
-38.86217509505751
 20
209.0143464481527
 30
0.0
  0
VERTEX
  5
DB
330
B9
100
AcDbEntity
  8
Layer 1
 62
     1
420
 16711680
370
     9
100
AcDbVertex
100
AcDb2dVertex
 10
-41.86217517775434
 20
209.0143464481527
 30
0.0
  0
VERTEX
  5
DC
330
B9
100
AcDbEntity
  8
Layer 1
 62
     1
420
 16711680
370
     9
100
AcDbVertex
100
AcDb2dVertex
 10
-41.86217517775434
 20
223.6443441048539
 30
0.0
  0
VERTEX
  5
DD
330
B9
100
AcDbEntity
  8
Layer 1
 62
     1
420
 16711680
370
     9
100
AcDbVertex
100
AcDb2dVertex
 10
-38.86217509505751
 20
223.6443441048539
 30
0.0
  0
VERTEX
  5
DE
330
B9
100
AcDbEntity
  8
Layer 1
 62
     1
420
 16711680
370
     9
100
AcDbVertex
100
AcDb2dVertex
 10
-38.86217509505751
 20
238.2743417615551
 30
0.0
  0
VERTEX
  5
DF
330
B9
100
AcDbEntity
  8
Layer 1
 62
     1
420
 16711680
370
     9
100
AcDbVertex
100
AcDb2dVertex
 10
-41.86217517775434
 20
238.2743417615551
 30
0.0
  0
VERTEX
  5
E0
330
B9
100
AcDbEntity
  8
Layer 1
 62
     1
420
 16711680
370
     9
100
AcDbVertex
100
AcDb2dVertex
 10
-41.86217517775434
 20
252.9043432329536
 30
0.0
  0
VERTEX
  5
E1
330
B9
100
AcDbEntity
  8
Layer 1
 62
     1
420
 16711680
370
     9
100
AcDbVertex
100
AcDb2dVertex
 10
-38.86217509505751
 20
252.9043432329536
 30
0.0
  0
VERTEX
  5
E2
330
B9
100
AcDbEntity
  8
Layer 1
 62
     1
420
 16711680
370
     9
100
AcDbVertex
100
AcDb2dVertex
 10
-38.86217509505751
 20
267.5343447043522
 30
0.0
  0
VERTEX
  5
E3
330
B9
100
AcDbEntity
  8
Layer 1
 62
     1
420
 16711680
370
     9
100
AcDbVertex
100
AcDb2dVertex
 10
-41.86217517775434
 20
267.5343447043525
 30
0.0
  0
VERTEX
  5
E4
330
B9
100
AcDbEntity
  8
Layer 1
 62
     1
420
 16711680
370
     9
100
AcDbVertex
100
AcDb2dVertex
 10
-41.86217517775434
 20
282.1643461757507
 30
0.0
  0
VERTEX
  5
E5
330
B9
100
AcDbEntity
  8
Layer 1
 62
     1
420
 16711680
370
     9
100
AcDbVertex
100
AcDb2dVertex
 10
-38.86217509505751
 20
282.1643461757507
 30
0.0
  0
VERTEX
  5
E6
330
B9
100
AcDbEntity
  8
Layer 1
 62
     1
420
 16711680
370
     9
100
AcDbVertex
100
AcDb2dVertex
 10
-38.86217509505751
 20
296.7943457398009
 30
0.0
  0
VERTEX
  5
E7
330
B9
100
AcDbEntity
  8
Layer 1
 62
     1
420
 16711680
370
     9
100
AcDbVertex
100
AcDb2dVertex
 10
-38.86217509505751
 20
305.5893460585331
 30
0.0
  0
VERTEX
  5
E8
330
B9
100
AcDbEntity
  8
Layer 1
 62
     1
420
 16711680
370
     9
100
AcDbVertex
100
AcDb2dVertex
 10
-52.65717364426918
 20
305.5893460585331
 30
0.0
  0
VERTEX
  5
E9
330
B9
100
AcDbEntity
  8
Layer 1
 62
     1
420
 16711680
370
     9
100
AcDbVertex
100
AcDb2dVertex
 10
-52.65717364426918
 20
302.5893459758366
 30
0.0
  0
VERTEX
  5
EA
330
B9
100
AcDbEntity
  8
Layer 1
 62
     1
420
 16711680
370
     9
100
AcDbVertex
100
AcDb2dVertex
 10
-67.28717893036477
 20
302.5893459758366
 30
0.0
  0
VERTEX
  5
EB
330
B9
100
AcDbEntity
  8
Layer 1
 62
     1
420
 16711680
370
     9
100
AcDbVertex
100
AcDb2dVertex
 10
-67.28717893036477
 20
305.5893460585331
 30
0.0
  0
VERTEX
  5
EC
330
B9
100
AcDbEntity
  8
Layer 1
 62
     1
420
 16711680
370
     9
100
AcDbVertex
100
AcDb2dVertex
 10
-81.91717658706627
 20
305.5893460585331
 30
0.0
  0
VERTEX
  5
ED
330
B9
100
AcDbEntity
  8
Layer 1
 62
     1
420
 16711680
370
     9
100
AcDbVertex
100
AcDb2dVertex
 10
-81.91717658706627
 20
302.5893459758366
 30
0.0
  0
VERTEX
  5
EE
330
B9
100
AcDbEntity
  8
Layer 1
 62
     1
420
 16711680
370
     9
100
AcDbVertex
100
AcDb2dVertex
 10
-96.54717424376744
 20
302.5893459758366
 30
0.0
  0
VERTEX
  5
EF
330
B9
100
AcDbEntity
  8
Layer 1
 62
     1
420
 16711680
370
     9
100
AcDbVertex
100
AcDb2dVertex
 10
-96.54717424376744
 20
305.5893460585331
 30
0.0
  0
VERTEX
  5
F0
330
B9
100
AcDbEntity
  8
Layer 1
 62
     1
420
 16711680
370
     9
100
AcDbVertex
100
AcDb2dVertex
 10
-111.177175715166
 20
305.5893460585331
 30
0.0
  0
VERTEX
  5
F1
330
B9
100
AcDbEntity
  8
Layer 1
 62
     1
420
 16711680
370
     9
100
AcDbVertex
100
AcDb2dVertex
 10
-111.177175715166
 20
302.5893459758366
 30
0.0
  0
VERTEX
  5
F2
330
B9
100
AcDbEntity
  8
Layer 1
 62
     1
420
 16711680
370
     9
100
AcDbVertex
100
AcDb2dVertex
 10
-125.8071771865645
 20
302.5893459758366
 30
0.0
  0
VERTEX
  5
F3
330
B9
100
AcDbEntity
  8
Layer 1
 62
     1
420
 16711680
370
     9
100
AcDbVertex
100
AcDb2dVertex
 10
-125.8071771865645
 20
305.5893460585331
 30
0.0
  0
VERTEX
  5
F4
330
B9
100
AcDbEntity
  8
Layer 1
 62
     1
420
 16711680
370
     9
100
AcDbVertex
100
AcDb2dVertex
 10
-140.4371786579631
 20
305.5893460585331
 30
0.0
  0
VERTEX
  5
F5
330
B9
100
AcDbEntity
  8
Layer 1
 62
     1
420
 16711680
370
     9
100
AcDbVertex
100
AcDb2dVertex
 10
-140.4371786579631
 20
302.5893459758366
 30
0.0
  0
VERTEX
  5
F6
330
B9
100
AcDbEntity
  8
Layer 1
 62
     1
420
 16711680
370
     9
100
AcDbVertex
100
AcDb2dVertex
 10
-155.0671782220126
 20
302.5893459758366
 30
0.0
  0
VERTEX
  5
F7
330
B9
100
AcDbEntity
  8
Layer 1
 62
     1
420
 16711680
370
     9
100
AcDbVertex
100
AcDb2dVertex
 10
-155.0671782220126
 20
305.5893460585331
 30
0.0
  0
VERTEX
  5
F8
330
B9
100
AcDbEntity
  8
Layer 1
 62
     1
420
 16711680
370
     9
100
AcDbVertex
100
AcDb2dVertex
 10
-168.8621786785729
 20
305.5893460585331
 30
0.0
  0
SEQEND
  5
F9
330
B9
100
AcDbEntity
  8
Layer 1
 62
     1
420
 16711680
370
     9
  0
ENDBLK
  5
B8
330
B5
100
AcDbEntity
  8
0
100
AcDbBlockEnd
  0
BLOCK
  5
FC
330
FA
100
AcDbEntity
  8
0
100
AcDbBlockBegin
  2
block 5
 70
     0
 10
0.0
 20
0.0
 30
0.0
  3
block 5
  1

  0
POLYLINE
  5
FE
330
FA
100
AcDbEntity
  8
Layer 1
 62
     1
420
 16711680
370
     9
100
AcDb2dPolyline
 66
     1
 10
0.0
 20
0.0
 30
0.0
  0
VERTEX
  5
FF
330
FE
100
AcDbEntity
  8
Layer 1
 62
     1
420
 16711680
370
     9
100
AcDbVertex
100
AcDb2dVertex
 10
-32.8621749296645
 20
305.5893460585331
 30
0.0
  0
VERTEX
  5
100
330
FE
100
AcDbEntity
  8
Layer 1
 62
     1
420
 16711680
370
     9
100
AcDbVertex
100
AcDb2dVertex
 10
-32.8621749296645
 20
282.1643461757507
 30
0.0
  0
VERTEX
  5
101
330
FE
100
AcDbEntity
  8
Layer 1
 62
     1
420
 16711680
370
     9
100
AcDbVertex
100
AcDb2dVertex
 10
-35.86217501236133
 20
282.1643461757507
 30
0.0
  0
VERTEX
  5
102
330
FE
100
AcDbEntity
  8
Layer 1
 62
     1
420
 16711680
370
     9
100
AcDbVertex
100
AcDb2dVertex
 10
-35.86217501236133
 20
267.5343447043525
 30
0.0
  0
VERTEX
  5
103
330
FE
100
AcDbEntity
  8
Layer 1
 62
     1
420
 16711680
370
     9
100
AcDbVertex
100
AcDb2dVertex
 10
-32.8621749296645
 20
267.5343447043525
 30
0.0
  0
VERTEX
  5
104
330
FE
100
AcDbEntity
  8
Layer 1
 62
     1
420
 16711680
370
     9
100
AcDbVertex
100
AcDb2dVertex
 10
-32.8621749296645
 20
252.9043432329536
 30
0.0
  0
VERTEX
  5
105
330
FE
100
AcDbEntity
  8
Layer 1
 62
     1
420
 16711680
370
     9
100
AcDbVertex
100
AcDb2dVertex
 10
-35.86217501236133
 20
252.9043432329536
 30
0.0
  0
VERTEX
  5
106
330
FE
100
AcDbEntity
  8
Layer 1
 62
     1
420
 16711680
370
     9
100
AcDbVertex
100
AcDb2dVertex
 10
-35.86217501236133
 20
238.2743417615551
 30
0.0
  0
VERTEX
  5
107
330
FE
100
AcDbEntity
  8
Layer 1
 62
     1
420
 16711680
370
     9
100
AcDbVertex
100
AcDb2dVertex
 10
-32.8621749296645
 20
238.2743417615551
 30
0.0
  0
VERTEX
  5
108
330
FE
100
AcDbEntity
  8
Layer 1
 62
     1
420
 16711680
370
     9
100
AcDbVertex
100
AcDb2dVertex
 10
-32.8621749296645
 20
223.6443441048539
 30
0.0
  0
VERTEX
  5
109
330
FE
100
AcDbEntity
  8
Layer 1
 62
     1
420
 16711680
370
     9
100
AcDbVertex
100
AcDb2dVertex
 10
-35.86217501236133
 20
223.6443441048539
 30
0.0
  0
VERTEX
  5
10A
330
FE
100
AcDbEntity
  8
Layer 1
 62
     1
420
 16711680
370
     9
100
AcDbVertex
100
AcDb2dVertex
 10
-35.86217501236133
 20
209.0143464481527
 30
0.0
  0
VERTEX
  5
10B
330
FE
100
AcDbEntity
  8
Layer 1
 62
     1
420
 16711680
370
     9
100
AcDbVertex
100
AcDb2dVertex
 10
-32.8621749296645
 20
209.0143464481527
 30
0.0
  0
VERTEX
  5
10C
330
FE
100
AcDbEntity
  8
Layer 1
 62
     1
420
 16711680
370
     9
100
AcDbVertex
100
AcDb2dVertex
 10
-32.8621749296645
 20
194.3843411620568
 30
0.0
  0
VERTEX
  5
10D
330
FE
100
AcDbEntity
  8
Layer 1
 62
     1
420
 16711680
370
     9
100
AcDbVertex
100
AcDb2dVertex
 10
-32.8621749296645
 20
185.589342750673
 30
0.0
  0
VERTEX
  5
10E
330
FE
100
AcDbEntity
  8
Layer 1
 62
     1
420
 16711680
370
     9
100
AcDbVertex
100
AcDb2dVertex
 10
-13.17717682844458
 20
185.589342750673
 30
0.0
  0
VERTEX
  5
10F
330
FE
100
AcDbEntity
  8
Layer 1
 62
     1
420
 16711680
370
     9
100
AcDbVertex
100
AcDb2dVertex
 10
-13.17717682844426
 20
188.5893428333695
 30
0.0
  0
VERTEX
  5
110
330
FE
100
AcDbEntity
  8
Layer 1
 62
     1
420
 16711680
370
     9
100
AcDbVertex
100
AcDb2dVertex
 10
1.452828457651655
 20
188.5893428333695
 30
0.0
  0
VERTEX
  5
111
330
FE
100
AcDbEntity
  8
Layer 1
 62
     1
420
 16711680
370
     9
100
AcDbVertex
100
AcDb2dVertex
 10
1.452828457651655
 20
185.589342750673
 30
0.0
  0
VERTEX
  5
112
330
FE
100
AcDbEntity
  8
Layer 1
 62
     1
420
 16711680
370
     9
100
AcDbVertex
100
AcDb2dVertex
 10
16.08283374374725
 20
185.589342750673
 30
0.0
  0
VERTEX
  5
113
330
FE
100
AcDbEntity
  8
Layer 1
 62
     1
420
 16711680
370
     9
100
AcDbVertex
100
AcDb2dVertex
 10
21.13782655887222
 20
185.589342750673
 30
0.0
  0
VERTEX
  5
114
330
FE
100
AcDbEntity
  8
Layer 1
 62
     1
420
 16711680
370
     9
100
AcDbVertex
100
AcDb2dVertex
 10
21.13782655887222
 20
209.0143464481527
 30
0.0
  0
VERTEX
  5
115
330
FE
100
AcDbEntity
  8
Layer 1
 62
     1
420
 16711680
370
     9
100
AcDbVertex
100
AcDb2dVertex
 10
24.13782664156873
 20
209.0143464481527
 30
0.0
  0
VERTEX
  5
116
330
FE
100
AcDbEntity
  8
Layer 1
 62
     1
420
 16711680
370
     9
100
AcDbVertex
100
AcDb2dVertex
 10
24.13782664156873
 20
223.6443441048539
 30
0.0
  0
VERTEX
  5
117
330
FE
100
AcDbEntity
  8
Layer 1
 62
     1
420
 16711680
370
     9
100
AcDbVertex
100
AcDb2dVertex
 10
21.13782655887222
 20
223.6443441048539
 30
0.0
  0
VERTEX
  5
118
330
FE
100
AcDbEntity
  8
Layer 1
 62
     1
420
 16711680
370
     9
100
AcDbVertex
100
AcDb2dVertex
 10
21.13782655887222
 20
238.2743417615551
 30
0.0
  0
VERTEX
  5
119
330
FE
100
AcDbEntity
  8
Layer 1
 62
     1
420
 16711680
370
     9
100
AcDbVertex
100
AcDb2dVertex
 10
24.13782664156873
 20
238.2743417615551
 30
0.0
  0
VERTEX
  5
11A
330
FE
100
AcDbEntity
  8
Layer 1
 62
     1
420
 16711680
370
     9
100
AcDbVertex
100
AcDb2dVertex
 10
24.13782664156873
 20
252.9043432329536
 30
0.0
  0
VERTEX
  5
11B
330
FE
100
AcDbEntity
  8
Layer 1
 62
     1
420
 16711680
370
     9
100
AcDbVertex
100
AcDb2dVertex
 10
21.13782655887222
 20
252.9043432329536
 30
0.0
  0
VERTEX
  5
11C
330
FE
100
AcDbEntity
  8
Layer 1
 62
     1
420
 16711680
370
     9
100
AcDbVertex
100
AcDb2dVertex
 10
21.13782655887222
 20
267.5343447043522
 30
0.0
  0
VERTEX
  5
11D
330
FE
100
AcDbEntity
  8
Layer 1
 62
     1
420
 16711680
370
     9
100
AcDbVertex
100
AcDb2dVertex
 10
24.13782664156873
 20
267.5343447043525
 30
0.0
  0
VERTEX
  5
11E
330
FE
100
AcDbEntity
  8
Layer 1
 62
     1
420
 16711680
370
     9
100
AcDbVertex
100
AcDb2dVertex
 10
24.13782664156873
 20
282.1643461757507
 30
0.0
  0
VERTEX
  5
11F
330
FE
100
AcDbEntity
  8
Layer 1
 62
     1
420
 16711680
370
     9
100
AcDbVertex
100
AcDb2dVertex
 10
21.13782655887222
 20
282.1643461757507
 30
0.0
  0
VERTEX
  5
120
330
FE
100
AcDbEntity
  8
Layer 1
 62
     1
420
 16711680
370
     9
100
AcDbVertex
100
AcDb2dVertex
 10
21.13782655887222
 20
296.7943457398009
 30
0.0
  0
VERTEX
  5
121
330
FE
100
AcDbEntity
  8
Layer 1
 62
     1
420
 16711680
370
     9
100
AcDbVertex
100
AcDb2dVertex
 10
21.13782655887222
 20
305.5893460585331
 30
0.0
  0
VERTEX
  5
122
330
FE
100
AcDbEntity
  8
Layer 1
 62
     1
420
 16711680
370
     9
100
AcDbVertex
100
AcDb2dVertex
 10
1.452828457651655
 20
305.5893460585331
 30
0.0
  0
VERTEX
  5
123
330
FE
100
AcDbEntity
  8
Layer 1
 62
     1
420
 16711680
370
     9
100
AcDbVertex
100
AcDb2dVertex
 10
1.452828457651655
 20
302.5893459758366
 30
0.0
  0
VERTEX
  5
124
330
FE
100
AcDbEntity
  8
Layer 1
 62
     1
420
 16711680
370
     9
100
AcDbVertex
100
AcDb2dVertex
 10
-13.17717682844458
 20
302.5893459758366
 30
0.0
  0
VERTEX
  5
125
330
FE
100
AcDbEntity
  8
Layer 1
 62
     1
420
 16711680
370
     9
100
AcDbVertex
100
AcDb2dVertex
 10
-13.17717682844426
 20
305.5893460585331
 30
0.0
  0
VERTEX
  5
126
330
FE
100
AcDbEntity
  8
Layer 1
 62
     1
420
 16711680
370
     9
100
AcDbVertex
100
AcDb2dVertex
 10
-27.80718211453985
 20
305.5893460585331
 30
0.0
  0
VERTEX
  5
127
330
FE
100
AcDbEntity
  8
Layer 1
 62
     1
420
 16711680
370
     9
100
AcDbVertex
100
AcDb2dVertex
 10
-32.8621749296645
 20
305.5893460585331
 30
0.0
  0
SEQEND
  5
128
330
FE
100
AcDbEntity
  8
Layer 1
 62
     1
420
 16711680
370
     9
  0
ENDBLK
  5
FD
330
FA
100
AcDbEntity
  8
0
100
AcDbBlockEnd
  0
BLOCK
  5
12B
330
129
100
AcDbEntity
  8
0
100
AcDbBlockBegin
  2
block 6
 70
     0
 10
0.0
 20
0.0
 30
0.0
  3
block 6
  1

  0
POLYLINE
  5
12D
330
129
100
AcDbEntity
  8
Layer 1
 62
     1
420
 16711680
370
     9
100
AcDb2dPolyline
 66
     1
 10
0.0
 20
0.0
 30
0.0
  0
VERTEX
  5
12E
330
12D
100
AcDbEntity
  8
Layer 1
 62
     1
420
 16711680
370
     9
100
AcDbVertex
100
AcDb2dVertex
 10
30.13782680696173
 20
182.5893426679765
 30
0.0
  0
VERTEX
  5
12F
330
12D
100
AcDbEntity
  8
Layer 1
 62
     1
420
 16711680
370
     9
100
AcDbVertex
100
AcDb2dVertex
 10
30.13782680696173
 20
162.9043445667559
 30
0.0
  0
VERTEX
  5
130
330
12D
100
AcDbEntity
  8
Layer 1
 62
     1
420
 16711680
370
     9
100
AcDbVertex
100
AcDb2dVertex
 10
27.13782672426523
 20
162.9043445667559
 30
0.0
  0
VERTEX
  5
131
330
12D
100
AcDbEntity
  8
Layer 1
 62
     1
420
 16711680
370
     9
100
AcDbVertex
100
AcDb2dVertex
 10
27.13782672426523
 20
148.27433928066
 30
0.0
  0
VERTEX
  5
132
330
12D
100
AcDbEntity
  8
Layer 1
 62
     1
420
 16711680
370
     9
100
AcDbVertex
100
AcDb2dVertex
 10
30.13782680696173
 20
148.27433928066
 30
0.0
  0
VERTEX
  5
133
330
12D
100
AcDbEntity
  8
Layer 1
 62
     1
420
 16711680
370
     9
100
AcDbVertex
100
AcDb2dVertex
 10
30.13782680696173
 20
133.6443339945641
 30
0.0
  0
VERTEX
  5
134
330
12D
100
AcDbEntity
  8
Layer 1
 62
     1
420
 16711680
370
     9
100
AcDbVertex
100
AcDb2dVertex
 10
30.13782680696173
 20
128.5893411794394
 30
0.0
  0
VERTEX
  5
135
330
12D
100
AcDbEntity
  8
Layer 1
 62
     1
420
 16711680
370
     9
100
AcDbVertex
100
AcDb2dVertex
 10
40.93282527347625
 20
128.5893411794394
 30
0.0
  0
VERTEX
  5
136
330
12D
100
AcDbEntity
  8
Layer 1
 62
     1
420
 16711680
370
     9
100
AcDbVertex
100
AcDb2dVertex
 10
40.93282527347625
 20
125.5893410967429
 30
0.0
  0
VERTEX
  5
137
330
12D
100
AcDbEntity
  8
Layer 1
 62
     1
420
 16711680
370
     9
100
AcDbVertex
100
AcDb2dVertex
 10
55.56283055957217
 20
125.5893410967429
 30
0.0
  0
VERTEX
  5
138
330
12D
100
AcDbEntity
  8
Layer 1
 62
     1
420
 16711680
370
     9
100
AcDbVertex
100
AcDb2dVertex
 10
55.56283055957217
 20
128.5893411794394
 30
0.0
  0
VERTEX
  5
139
330
12D
100
AcDbEntity
  8
Layer 1
 62
     1
420
 16711680
370
     9
100
AcDbVertex
100
AcDb2dVertex
 10
70.19282058687892
 20
128.5893411794394
 30
0.0
  0
VERTEX
  5
13A
330
12D
100
AcDbEntity
  8
Layer 1
 62
     1
420
 16711680
370
     9
100
AcDbVertex
100
AcDb2dVertex
 10
70.19282058687892
 20
125.5893410967429
 30
0.0
  0
VERTEX
  5
13B
330
12D
100
AcDbEntity
  8
Layer 1
 62
     1
420
 16711680
370
     9
100
AcDbVertex
100
AcDb2dVertex
 10
84.82282587297483
 20
125.5893410967429
 30
0.0
  0
VERTEX
  5
13C
330
12D
100
AcDbEntity
  8
Layer 1
 62
     1
420
 16711680
370
     9
100
AcDbVertex
100
AcDb2dVertex
 10
84.82282587297483
 20
128.5893411794394
 30
0.0
  0
VERTEX
  5
13D
330
12D
100
AcDbEntity
  8
Layer 1
 62
     1
420
 16711680
370
     9
100
AcDbVertex
100
AcDb2dVertex
 10
99.45283115907074
 20
128.5893411794394
 30
0.0
  0
VERTEX
  5
13E
330
12D
100
AcDbEntity
  8
Layer 1
 62
     1
420
 16711680
370
     9
100
AcDbVertex
100
AcDb2dVertex
 10
99.45283115907074
 20
125.5893410967429
 30
0.0
  0
VERTEX
  5
13F
330
12D
100
AcDbEntity
  8
Layer 1
 62
     1
420
 16711680
370
     9
100
AcDbVertex
100
AcDb2dVertex
 10
114.0828364451667
 20
125.5893410967429
 30
0.0
  0
VERTEX
  5
140
330
12D
100
AcDbEntity
  8
Layer 1
 62
     1
420
 16711680
370
     9
100
AcDbVertex
100
AcDb2dVertex
 10
114.0828364451667
 20
128.5893411794394
 30
0.0
  0
VERTEX
  5
141
330
12D
100
AcDbEntity
  8
Layer 1
 62
     1
420
 16711680
370
     9
100
AcDbVertex
100
AcDb2dVertex
 10
128.7128417312626
 20
128.5893411794394
 30
0.0
  0
VERTEX
  5
142
330
12D
100
AcDbEntity
  8
Layer 1
 62
     1
420
 16711680
370
     9
100
AcDbVertex
100
AcDb2dVertex
 10
128.7128417312626
 20
125.5893410967429
 30
0.0
  0
VERTEX
  5
143
330
12D
100
AcDbEntity
  8
Layer 1
 62
     1
420
 16711680
370
     9
100
AcDbVertex
100
AcDb2dVertex
 10
143.3428164997795
 20
125.5893410967429
 30
0.0
  0
VERTEX
  5
144
330
12D
100
AcDbEntity
  8
Layer 1
 62
     1
420
 16711680
370
     9
100
AcDbVertex
100
AcDb2dVertex
 10
143.3428164997795
 20
128.5893411794394
 30
0.0
  0
VERTEX
  5
145
330
12D
100
AcDbEntity
  8
Layer 1
 62
     1
420
 16711680
370
     9
100
AcDbVertex
100
AcDb2dVertex
 10
154.1378302250839
 20
128.5893411794394
 30
0.0
  0
VERTEX
  5
146
330
12D
100
AcDbEntity
  8
Layer 1
 62
     1
420
 16711680
370
     9
100
AcDbVertex
100
AcDb2dVertex
 10
154.1378302250839
 20
148.27433928066
 30
0.0
  0
VERTEX
  5
147
330
12D
100
AcDbEntity
  8
Layer 1
 62
     1
420
 16711680
370
     9
100
AcDbVertex
100
AcDb2dVertex
 10
157.1378303077803
 20
148.27433928066
 30
0.0
  0
VERTEX
  5
148
330
12D
100
AcDbEntity
  8
Layer 1
 62
     1
420
 16711680
370
     9
100
AcDbVertex
100
AcDb2dVertex
 10
157.1378303077803
 20
162.9043445667559
 30
0.0
  0
VERTEX
  5
149
330
12D
100
AcDbEntity
  8
Layer 1
 62
     1
420
 16711680
370
     9
100
AcDbVertex
100
AcDb2dVertex
 10
154.1378302250839
 20
162.9043445667559
 30
0.0
  0
VERTEX
  5
14A
330
12D
100
AcDbEntity
  8
Layer 1
 62
     1
420
 16711680
370
     9
100
AcDbVertex
100
AcDb2dVertex
 10
154.1378302250839
 20
177.5343498528518
 30
0.0
  0
VERTEX
  5
14B
330
12D
100
AcDbEntity
  8
Layer 1
 62
     1
420
 16711680
370
     9
100
AcDbVertex
100
AcDb2dVertex
 10
154.1378302250839
 20
182.5893426679765
 30
0.0
  0
VERTEX
  5
14C
330
12D
100
AcDbEntity
  8
Layer 1
 62
     1
420
 16711680
370
     9
100
AcDbVertex
100
AcDb2dVertex
 10
143.3428164997795
 20
182.5893426679765
 30
0.0
  0
VERTEX
  5
14D
330
12D
100
AcDbEntity
  8
Layer 1
 62
     1
420
 16711680
370
     9
100
AcDbVertex
100
AcDb2dVertex
 10
143.3428164997795
 20
185.589342750673
 30
0.0
  0
VERTEX
  5
14E
330
12D
100
AcDbEntity
  8
Layer 1
 62
     1
420
 16711680
370
     9
100
AcDbVertex
100
AcDb2dVertex
 10
128.7128417312626
 20
185.589342750673
 30
0.0
  0
VERTEX
  5
14F
330
12D
100
AcDbEntity
  8
Layer 1
 62
     1
420
 16711680
370
     9
100
AcDbVertex
100
AcDb2dVertex
 10
128.7128417312626
 20
182.5893426679765
 30
0.0
  0
VERTEX
  5
150
330
12D
100
AcDbEntity
  8
Layer 1
 62
     1
420
 16711680
370
     9
100
AcDbVertex
100
AcDb2dVertex
 10
114.0828364451667
 20
182.5893426679765
 30
0.0
  0
VERTEX
  5
151
330
12D
100
AcDbEntity
  8
Layer 1
 62
     1
420
 16711680
370
     9
100
AcDbVertex
100
AcDb2dVertex
 10
114.0828364451667
 20
185.589342750673
 30
0.0
  0
VERTEX
  5
152
330
12D
100
AcDbEntity
  8
Layer 1
 62
     1
420
 16711680
370
     9
100
AcDbVertex
100
AcDb2dVertex
 10
99.45283115907074
 20
185.589342750673
 30
0.0
  0
VERTEX
  5
153
330
12D
100
AcDbEntity
  8
Layer 1
 62
     1
420
 16711680
370
     9
100
AcDbVertex
100
AcDb2dVertex
 10
99.45283115907074
 20
182.5893426679765
 30
0.0
  0
VERTEX
  5
154
330
12D
100
AcDbEntity
  8
Layer 1
 62
     1
420
 16711680
370
     9
100
AcDbVertex
100
AcDb2dVertex
 10
84.82282587297483
 20
182.5893426679765
 30
0.0
  0
VERTEX
  5
155
330
12D
100
AcDbEntity
  8
Layer 1
 62
     1
420
 16711680
370
     9
100
AcDbVertex
100
AcDb2dVertex
 10
84.82282587297483
 20
185.589342750673
 30
0.0
  0
VERTEX
  5
156
330
12D
100
AcDbEntity
  8
Layer 1
 62
     1
420
 16711680
370
     9
100
AcDbVertex
100
AcDb2dVertex
 10
70.19282058687892
 20
185.589342750673
 30
0.0
  0
VERTEX
  5
157
330
12D
100
AcDbEntity
  8
Layer 1
 62
     1
420
 16711680
370
     9
100
AcDbVertex
100
AcDb2dVertex
 10
70.19282058687892
 20
182.5893426679765
 30
0.0
  0
VERTEX
  5
158
330
12D
100
AcDbEntity
  8
Layer 1
 62
     1
420
 16711680
370
     9
100
AcDbVertex
100
AcDb2dVertex
 10
55.56283055957217
 20
182.5893426679765
 30
0.0
  0
VERTEX
  5
159
330
12D
100
AcDbEntity
  8
Layer 1
 62
     1
420
 16711680
370
     9
100
AcDbVertex
100
AcDb2dVertex
 10
55.56283055957217
 20
185.589342750673
 30
0.0
  0
VERTEX
  5
15A
330
12D
100
AcDbEntity
  8
Layer 1
 62
     1
420
 16711680
370
     9
100
AcDbVertex
100
AcDb2dVertex
 10
40.93282527347625
 20
185.589342750673
 30
0.0
  0
VERTEX
  5
15B
330
12D
100
AcDbEntity
  8
Layer 1
 62
     1
420
 16711680
370
     9
100
AcDbVertex
100
AcDb2dVertex
 10
40.93282527347625
 20
182.5893426679765
 30
0.0
  0
VERTEX
  5
15C
330
12D
100
AcDbEntity
  8
Layer 1
 62
     1
420
 16711680
370
     9
100
AcDbVertex
100
AcDb2dVertex
 10
30.13782680696173
 20
182.5893426679765
 30
0.0
  0
SEQEND
  5
15D
330
12D
100
AcDbEntity
  8
Layer 1
 62
     1
420
 16711680
370
     9
  0
ENDBLK
  5
12C
330
129
100
AcDbEntity
  8
0
100
AcDbBlockEnd
  0
BLOCK
  5
160
330
15E
100
AcDbEntity
  8
0
100
AcDbBlockBegin
  2
block 7
 70
     0
 10
0.0
 20
0.0
 30
0.0
  3
block 7
  1

  0
POLYLINE
  5
162
330
15E
100
AcDbEntity
  8
Layer 1
 62
     1
420
 16711680
370
     9
100
AcDb2dPolyline
 66
     1
 10
0.0
 20
0.0
 30
0.0
  0
VERTEX
  5
163
330
162
100
AcDbEntity
  8
Layer 1
 62
     1
420
 16711680
370
     9
100
AcDbVertex
100
AcDb2dVertex
 10
-77.37692491291415
 20
108.9592281074226
 30
0.0
  0
VERTEX
  5
164
330
162
100
AcDbEntity
  8
Layer 1
 62
     1
420
 16711680
370
     9
100
AcDbVertex
100
AcDb2dVertex
 10
-130.3474288607166
 20
108.9592281074226
 30
0.0
  0
VERTEX
  5
165
330
162
100
AcDbEntity
  8
Layer 1
 62
     1
420
 16711680
370
     9
100
AcDbVertex
100
AcDb2dVertex
 10
-130.3474288607166
 20
136.2194539206702
 30
0.0
  0
VERTEX
  5
166
330
162
100
AcDbEntity
  8
Layer 1
 62
     1
420
 16711680
370
     9
100
AcDbVertex
100
AcDb2dVertex
 10
-77.37692491291415
 20
136.2194539206702
 30
0.0
  0
VERTEX
  5
167
330
162
100
AcDbEntity
  8
Layer 1
 62
     1
420
 16711680
370
     9
100
AcDbVertex
100
AcDb2dVertex
 10
-77.37692491291415
 20
108.9592281074226
 30
0.0
  0
SEQEND
  5
168
330
162
100
AcDbEntity
  8
Layer 1
 62
     1
420
 16711680
370
     9
  0
ENDBLK
  5
161
330
15E
100
AcDbEntity
  8
0
100
AcDbBlockEnd
  0
BLOCK
  5
16B
330
169
100
AcDbEntity
  8
0
100
AcDbBlockBegin
  2
block 8
 70
     0
 10
0.0
 20
0.0
 30
0.0
  3
block 8
  1

  0
POLYLINE
  5
16D
330
169
100
AcDbEntity
  8
Layer 1
 62
     1
420
 16711680
370
     9
100
AcDb2dPolyline
 66
     1
 10
0.0
 20
0.0
 30
0.0
  0
VERTEX
  5
16E
330
16D
100
AcDbEntity
  8
Layer 1
 62
     1
420
 16711680
370
     9
100
AcDbVertex
100
AcDb2dVertex
 10
118.623080489924
 20
141.9592290170842
 30
0.0
  0
VERTEX
  5
16F
330
16D
100
AcDbEntity
  8
Layer 1
 62
     1
420
 16711680
370
     9
100
AcDbVertex
100
AcDb2dVertex
 10
65.65257654212155
 20
141.9592290170842
 30
0.0
  0
VERTEX
  5
170
330
16D
100
AcDbEntity
  8
Layer 1
 62
     1
420
 16711680
370
     9
100
AcDbVertex
100
AcDb2dVertex
 10
65.65257654212155
 20
169.2194548303318
 30
0.0
  0
VERTEX
  5
171
330
16D
100
AcDbEntity
  8
Layer 1
 62
     1
420
 16711680
370
     9
100
AcDbVertex
100
AcDb2dVertex
 10
118.623080489924
 20
169.2194548303318
 30
0.0
  0
VERTEX
  5
172
330
16D
100
AcDbEntity
  8
Layer 1
 62
     1
420
 16711680
370
     9
100
AcDbVertex
100
AcDb2dVertex
 10
118.623080489924
 20
141.9592290170842
 30
0.0
  0
SEQEND
  5
173
330
16D
100
AcDbEntity
  8
Layer 1
 62
     1
420
 16711680
370
     9
  0
ENDBLK
  5
16C
330
169
100
AcDbEntity
  8
0
100
AcDbBlockEnd
  0
BLOCK
  5
176
330
174
100
AcDbEntity
  8
0
100
AcDbBlockBegin
  2
block 9
 70
     0
 10
0.0
 20
0.0
 30
0.0
  3
block 9
  1

  0
POLYLINE
  5
178
330
174
100
AcDbEntity
  8
Layer 1
 62
     1
420
 16711680
370
     9
100
AcDb2dPolyline
 66
     1
 10
0.0
 20
0.0
 30
0.0
  0
VERTEX
  5
179
330
178
100
AcDbEntity
  8
Layer 1
 62
     1
420
 16711680
370
     9
100
AcDbVertex
100
AcDb2dVertex
 10
30.13782680696173
 20
119.6941045884617
 30
0.0
  0
VERTEX
  5
17A
330
178
100
AcDbEntity
  8
Layer 1
 62
     1
420
 16711680
370
     9
100
AcDbVertex
100
AcDb2dVertex
 10
30.13782680696173
 20
100.0091064872412
 30
0.0
  0
VERTEX
  5
17B
330
178
100
AcDbEntity
  8
Layer 1
 62
     1
420
 16711680
370
     9
100
AcDbVertex
100
AcDb2dVertex
 10
27.13782672426523
 20
100.0091064872412
 30
0.0
  0
VERTEX
  5
17C
330
178
100
AcDbEntity
  8
Layer 1
 62
     1
420
 16711680
370
     9
100
AcDbVertex
100
AcDb2dVertex
 10
27.13782672426523
 20
85.37910120114526
 30
0.0
  0
VERTEX
  5
17D
330
178
100
AcDbEntity
  8
Layer 1
 62
     1
420
 16711680
370
     9
100
AcDbVertex
100
AcDb2dVertex
 10
30.13782680696173
 20
85.37910120114526
 30
0.0
  0
VERTEX
  5
17E
330
178
100
AcDbEntity
  8
Layer 1
 62
     1
420
 16711680
370
     9
100
AcDbVertex
100
AcDb2dVertex
 10
30.13782680696173
 20
70.74909591504934
 30
0.0
  0
VERTEX
  5
17F
330
178
100
AcDbEntity
  8
Layer 1
 62
     1
420
 16711680
370
     9
100
AcDbVertex
100
AcDb2dVertex
 10
30.13782680696173
 20
65.69410309992469
 30
0.0
  0
VERTEX
  5
180
330
178
100
AcDbEntity
  8
Layer 1
 62
     1
420
 16711680
370
     9
100
AcDbVertex
100
AcDb2dVertex
 10
40.93282527347625
 20
65.69410309992469
 30
0.0
  0
VERTEX
  5
181
330
178
100
AcDbEntity
  8
Layer 1
 62
     1
420
 16711680
370
     9
100
AcDbVertex
100
AcDb2dVertex
 10
40.93282527347625
 20
62.69410301722819
 30
0.0
  0
VERTEX
  5
182
330
178
100
AcDbEntity
  8
Layer 1
 62
     1
420
 16711680
370
     9
100
AcDbVertex
100
AcDb2dVertex
 10
55.56283055957217
 20
62.69410301722819
 30
0.0
  0
VERTEX
  5
183
330
178
100
AcDbEntity
  8
Layer 1
 62
     1
420
 16711680
370
     9
100
AcDbVertex
100
AcDb2dVertex
 10
55.56283055957217
 20
65.69410309992469
 30
0.0
  0
VERTEX
  5
184
330
178
100
AcDbEntity
  8
Layer 1
 62
     1
420
 16711680
370
     9
100
AcDbVertex
100
AcDb2dVertex
 10
70.19282058687892
 20
65.69410309992469
 30
0.0
  0
VERTEX
  5
185
330
178
100
AcDbEntity
  8
Layer 1
 62
     1
420
 16711680
370
     9
100
AcDbVertex
100
AcDb2dVertex
 10
70.19282058687892
 20
62.69410301722819
 30
0.0
  0
VERTEX
  5
186
330
178
100
AcDbEntity
  8
Layer 1
 62
     1
420
 16711680
370
     9
100
AcDbVertex
100
AcDb2dVertex
 10
84.82282587297483
 20
62.69410301722819
 30
0.0
  0
VERTEX
  5
187
330
178
100
AcDbEntity
  8
Layer 1
 62
     1
420
 16711680
370
     9
100
AcDbVertex
100
AcDb2dVertex
 10
84.82282587297483
 20
65.69410309992469
 30
0.0
  0
VERTEX
  5
188
330
178
100
AcDbEntity
  8
Layer 1
 62
     1
420
 16711680
370
     9
100
AcDbVertex
100
AcDb2dVertex
 10
99.45283115907074
 20
65.69410309992469
 30
0.0
  0
VERTEX
  5
189
330
178
100
AcDbEntity
  8
Layer 1
 62
     1
420
 16711680
370
     9
100
AcDbVertex
100
AcDb2dVertex
 10
99.45283115907074
 20
62.69410301722819
 30
0.0
  0
VERTEX
  5
18A
330
178
100
AcDbEntity
  8
Layer 1
 62
     1
420
 16711680
370
     9
100
AcDbVertex
100
AcDb2dVertex
 10
114.0828364451667
 20
62.69410301722819
 30
0.0
  0
VERTEX
  5
18B
330
178
100
AcDbEntity
  8
Layer 1
 62
     1
420
 16711680
370
     9
100
AcDbVertex
100
AcDb2dVertex
 10
114.0828364451667
 20
65.69410309992469
 30
0.0
  0
VERTEX
  5
18C
330
178
100
AcDbEntity
  8
Layer 1
 62
     1
420
 16711680
370
     9
100
AcDbVertex
100
AcDb2dVertex
 10
128.7128417312626
 20
65.69410309992469
 30
0.0
  0
VERTEX
  5
18D
330
178
100
AcDbEntity
  8
Layer 1
 62
     1
420
 16711680
370
     9
100
AcDbVertex
100
AcDb2dVertex
 10
128.7128417312626
 20
62.69410301722819
 30
0.0
  0
VERTEX
  5
18E
330
178
100
AcDbEntity
  8
Layer 1
 62
     1
420
 16711680
370
     9
100
AcDbVertex
100
AcDb2dVertex
 10
143.3428164997795
 20
62.69410301722819
 30
0.0
  0
VERTEX
  5
18F
330
178
100
AcDbEntity
  8
Layer 1
 62
     1
420
 16711680
370
     9
100
AcDbVertex
100
AcDb2dVertex
 10
143.3428164997795
 20
65.69410309992469
 30
0.0
  0
VERTEX
  5
190
330
178
100
AcDbEntity
  8
Layer 1
 62
     1
420
 16711680
370
     9
100
AcDbVertex
100
AcDb2dVertex
 10
154.1378302250839
 20
65.69410309992469
 30
0.0
  0
VERTEX
  5
191
330
178
100
AcDbEntity
  8
Layer 1
 62
     1
420
 16711680
370
     9
100
AcDbVertex
100
AcDb2dVertex
 10
154.1378302250839
 20
85.37910120114526
 30
0.0
  0
VERTEX
  5
192
330
178
100
AcDbEntity
  8
Layer 1
 62
     1
420
 16711680
370
     9
100
AcDbVertex
100
AcDb2dVertex
 10
157.1378303077803
 20
85.37910120114526
 30
0.0
  0
VERTEX
  5
193
330
178
100
AcDbEntity
  8
Layer 1
 62
     1
420
 16711680
370
     9
100
AcDbVertex
100
AcDb2dVertex
 10
157.1378303077803
 20
100.0091064872412
 30
0.0
  0
VERTEX
  5
194
330
178
100
AcDbEntity
  8
Layer 1
 62
     1
420
 16711680
370
     9
100
AcDbVertex
100
AcDb2dVertex
 10
154.1378302250839
 20
100.0091064872412
 30
0.0
  0
VERTEX
  5
195
330
178
100
AcDbEntity
  8
Layer 1
 62
     1
420
 16711680
370
     9
100
AcDbVertex
100
AcDb2dVertex
 10
154.1378302250839
 20
114.6391117733371
 30
0.0
  0
VERTEX
  5
196
330
178
100
AcDbEntity
  8
Layer 1
 62
     1
420
 16711680
370
     9
100
AcDbVertex
100
AcDb2dVertex
 10
154.1378302250839
 20
119.6941045884617
 30
0.0
  0
VERTEX
  5
197
330
178
100
AcDbEntity
  8
Layer 1
 62
     1
420
 16711680
370
     9
100
AcDbVertex
100
AcDb2dVertex
 10
143.3428164997795
 20
119.6941045884617
 30
0.0
  0
VERTEX
  5
198
330
178
100
AcDbEntity
  8
Layer 1
 62
     1
420
 16711680
370
     9
100
AcDbVertex
100
AcDb2dVertex
 10
143.3428164997795
 20
122.6941046711582
 30
0.0
  0
VERTEX
  5
199
330
178
100
AcDbEntity
  8
Layer 1
 62
     1
420
 16711680
370
     9
100
AcDbVertex
100
AcDb2dVertex
 10
128.7128417312626
 20
122.6941046711582
 30
0.0
  0
VERTEX
  5
19A
330
178
100
AcDbEntity
  8
Layer 1
 62
     1
420
 16711680
370
     9
100
AcDbVertex
100
AcDb2dVertex
 10
128.7128417312626
 20
119.6941045884617
 30
0.0
  0
VERTEX
  5
19B
330
178
100
AcDbEntity
  8
Layer 1
 62
     1
420
 16711680
370
     9
100
AcDbVertex
100
AcDb2dVertex
 10
114.0828364451667
 20
119.6941045884617
 30
0.0
  0
VERTEX
  5
19C
330
178
100
AcDbEntity
  8
Layer 1
 62
     1
420
 16711680
370
     9
100
AcDbVertex
100
AcDb2dVertex
 10
114.0828364451667
 20
122.6941046711582
 30
0.0
  0
VERTEX
  5
19D
330
178
100
AcDbEntity
  8
Layer 1
 62
     1
420
 16711680
370
     9
100
AcDbVertex
100
AcDb2dVertex
 10
99.45283115907074
 20
122.6941046711582
 30
0.0
  0
VERTEX
  5
19E
330
178
100
AcDbEntity
  8
Layer 1
 62
     1
420
 16711680
370
     9
100
AcDbVertex
100
AcDb2dVertex
 10
99.45283115907074
 20
119.6941045884617
 30
0.0
  0
VERTEX
  5
19F
330
178
100
AcDbEntity
  8
Layer 1
 62
     1
420
 16711680
370
     9
100
AcDbVertex
100
AcDb2dVertex
 10
84.82282587297483
 20
119.6941045884617
 30
0.0
  0
VERTEX
  5
1A0
330
178
100
AcDbEntity
  8
Layer 1
 62
     1
420
 16711680
370
     9
100
AcDbVertex
100
AcDb2dVertex
 10
84.82282587297483
 20
122.6941046711582
 30
0.0
  0
VERTEX
  5
1A1
330
178
100
AcDbEntity
  8
Layer 1
 62
     1
420
 16711680
370
     9
100
AcDbVertex
100
AcDb2dVertex
 10
70.19282058687892
 20
122.6941046711582
 30
0.0
  0
VERTEX
  5
1A2
330
178
100
AcDbEntity
  8
Layer 1
 62
     1
420
 16711680
370
     9
100
AcDbVertex
100
AcDb2dVertex
 10
70.19282058687892
 20
119.6941045884617
 30
0.0
  0
VERTEX
  5
1A3
330
178
100
AcDbEntity
  8
Layer 1
 62
     1
420
 16711680
370
     9
100
AcDbVertex
100
AcDb2dVertex
 10
55.56283055957217
 20
119.6941045884617
 30
0.0
  0
VERTEX
  5
1A4
330
178
100
AcDbEntity
  8
Layer 1
 62
     1
420
 16711680
370
     9
100
AcDbVertex
100
AcDb2dVertex
 10
55.56283055957217
 20
122.6941046711582
 30
0.0
  0
VERTEX
  5
1A5
330
178
100
AcDbEntity
  8
Layer 1
 62
     1
420
 16711680
370
     9
100
AcDbVertex
100
AcDb2dVertex
 10
40.93282527347625
 20
122.6941046711582
 30
0.0
  0
VERTEX
  5
1A6
330
178
100
AcDbEntity
  8
Layer 1
 62
     1
420
 16711680
370
     9
100
AcDbVertex
100
AcDb2dVertex
 10
40.93282527347625
 20
119.6941045884617
 30
0.0
  0
VERTEX
  5
1A7
330
178
100
AcDbEntity
  8
Layer 1
 62
     1
420
 16711680
370
     9
100
AcDbVertex
100
AcDb2dVertex
 10
30.13782680696173
 20
119.6941045884617
 30
0.0
  0
SEQEND
  5
1A8
330
178
100
AcDbEntity
  8
Layer 1
 62
     1
420
 16711680
370
     9
  0
ENDBLK
  5
177
330
174
100
AcDbEntity
  8
0
100
AcDbBlockEnd
  0
BLOCK
  5
1AB
330
1A9
100
AcDbEntity
  8
0
100
AcDbBlockBegin
  2
block 10
 70
     0
 10
0.0
 20
0.0
 30
0.0
  3
block 10
  1

  0
POLYLINE
  5
1AD
330
1A9
100
AcDbEntity
  8
Layer 1
 62
     1
420
 16711680
370
     9
100
AcDb2dPolyline
 66
     1
 10
0.0
 20
0.0
 30
0.0
  0
VERTEX
  5
1AE
330
1AD
100
AcDbEntity
  8
Layer 1
 62
     1
420
 16711680
370
     9
100
AcDbVertex
100
AcDb2dVertex
 10
118.623080489924
 20
79.06399093756943
 30
0.0
  0
VERTEX
  5
1AF
330
1AD
100
AcDbEntity
  8
Layer 1
 62
     1
420
 16711680
370
     9
100
AcDbVertex
100
AcDb2dVertex
 10
65.65257654212155
 20
79.06399093756943
 30
0.0
  0
VERTEX
  5
1B0
330
1AD
100
AcDbEntity
  8
Layer 1
 62
     1
420
 16711680
370
     9
100
AcDbVertex
100
AcDb2dVertex
 10
65.65257654212155
 20
106.324216750817
 30
0.0
  0
VERTEX
  5
1B1
330
1AD
100
AcDbEntity
  8
Layer 1
 62
     1
420
 16711680
370
     9
100
AcDbVertex
100
AcDb2dVertex
 10
118.623080489924
 20
106.324216750817
 30
0.0
  0
VERTEX
  5
1B2
330
1AD
100
AcDbEntity
  8
Layer 1
 62
     1
420
 16711680
370
     9
100
AcDbVertex
100
AcDb2dVertex
 10
118.623080489924
 20
79.06399093756943
 30
0.0
  0
SEQEND
  5
1B3
330
1AD
100
AcDbEntity
  8
Layer 1
 62
     1
420
 16711680
370
     9
  0
ENDBLK
  5
1AC
330
1A9
100
AcDbEntity
  8
0
100
AcDbBlockEnd
  0
BLOCK
  5
1B6
330
1B4
100
AcDbEntity
  8
0
100
AcDbBlockBegin
  2
block 11
 70
     0
 10
0.0
 20
0.0
 30
0.0
  3
block 11
  1

  0
POLYLINE
  5
1B8
330
1B4
100
AcDbEntity
  8
Layer 1
 62
     1
420
 16711680
370
     9
100
AcDb2dPolyline
 66
     1
 10
0.0
 20
0.0
 30
0.0
  0
VERTEX
  5
1B9
330
1B8
100
AcDbEntity
  8
Layer 1
 62
     1
420
 16711680
370
     9
100
AcDbVertex
100
AcDb2dVertex
 10
204.6895036661398
 20
183.2228358245625
 30
0.0
  0
VERTEX
  5
1BA
330
1B8
100
AcDbEntity
  8
Layer 1
 62
     1
420
 16711680
370
     9
100
AcDbVertex
100
AcDb2dVertex
 10
204.6895036661398
 20
180.222835741866
 30
0.0
  0
VERTEX
  5
1BB
330
1B8
100
AcDbEntity
  8
Layer 1
 62
     1
420
 16711680
370
     9
100
AcDbVertex
100
AcDb2dVertex
 10
200.560503365401
 20
180.222835741866
 30
0.0
  0
VERTEX
  5
1BC
330
1B8
100
AcDbEntity
  8
Layer 1
 62
     1
420
 16711680
370
     9
100
AcDbVertex
100
AcDb2dVertex
 10
200.560503365401
 20
174.2228432058677
 30
0.0
  0
VERTEX
  5
1BD
330
1B8
100
AcDbEntity
  8
Layer 1
 62
     1
420
 16711680
370
     9
100
AcDbVertex
100
AcDb2dVertex
 10
204.6895036661398
 20
174.2228432058677
 30
0.0
  0
VERTEX
  5
1BE
330
1B8
100
AcDbEntity
  8
Layer 1
 62
     1
420
 16711680
370
     9
100
AcDbVertex
100
AcDb2dVertex
 10
204.6895036661398
 20
168.2228430404747
 30
0.0
  0
VERTEX
  5
1BF
330
1B8
100
AcDbEntity
  8
Layer 1
 62
     1
420
 16711680
370
     9
100
AcDbVertex
100
AcDb2dVertex
 10
200.560503365401
 20
168.2228430404747
 30
0.0
  0
VERTEX
  5
1C0
330
1B8
100
AcDbEntity
  8
Layer 1
 62
     1
420
 16711680
370
     9
100
AcDbVertex
100
AcDb2dVertex
 10
200.560503365401
 20
162.2228428750817
 30
0.0
  0
VERTEX
  5
1C1
330
1B8
100
AcDbEntity
  8
Layer 1
 62
     1
420
 16711680
370
     9
100
AcDbVertex
100
AcDb2dVertex
 10
204.6895036661398
 20
162.2228428750817
 30
0.0
  0
VERTEX
  5
1C2
330
1B8
100
AcDbEntity
  8
Layer 1
 62
     1
420
 16711680
370
     9
100
AcDbVertex
100
AcDb2dVertex
 10
204.6895036661398
 20
159.2228427923856
 30
0.0
  0
VERTEX
  5
1C3
330
1B8
100
AcDbEntity
  8
Layer 1
 62
     1
420
 16711680
370
     9
100
AcDbVertex
100
AcDb2dVertex
 10
207.7145033680554
 20
159.2228427923856
 30
0.0
  0
VERTEX
  5
1C4
330
1B8
100
AcDbEntity
  8
Layer 1
 62
     1
420
 16711680
370
     9
100
AcDbVertex
100
AcDb2dVertex
 10
207.7145033680554
 20
156.2228427096887
 30
0.0
  0
VERTEX
  5
1C5
330
1B8
100
AcDbEntity
  8
Layer 1
 62
     1
420
 16711680
370
     9
100
AcDbVertex
100
AcDb2dVertex
 10
213.714504010286
 20
156.2228427096887
 30
0.0
  0
VERTEX
  5
1C6
330
1B8
100
AcDbEntity
  8
Layer 1
 62
     1
420
 16711680
370
     9
100
AcDbVertex
100
AcDb2dVertex
 10
213.714504010286
 20
159.2228427923856
 30
0.0
  0
VERTEX
  5
1C7
330
1B8
100
AcDbEntity
  8
Layer 1
 62
     1
420
 16711680
370
     9
100
AcDbVertex
100
AcDb2dVertex
 10
219.7145032220038
 20
159.2228427923856
 30
0.0
  0
VERTEX
  5
1C8
330
1B8
100
AcDbEntity
  8
Layer 1
 62
     1
420
 16711680
370
     9
100
AcDbVertex
100
AcDb2dVertex
 10
219.7145032220038
 20
156.2228427096887
 30
0.0
  0
VERTEX
  5
1C9
330
1B8
100
AcDbEntity
  8
Layer 1
 62
     1
420
 16711680
370
     9
100
AcDbVertex
100
AcDb2dVertex
 10
225.7145033873968
 20
156.2228427096887
 30
0.0
  0
VERTEX
  5
1CA
330
1B8
100
AcDbEntity
  8
Layer 1
 62
     1
420
 16711680
370
     9
100
AcDbVertex
100
AcDb2dVertex
 10
225.7145033873968
 20
159.2228427923856
 30
0.0
  0
VERTEX
  5
1CB
330
1B8
100
AcDbEntity
  8
Layer 1
 62
     1
420
 16711680
370
     9
100
AcDbVertex
100
AcDb2dVertex
 10
231.7145035527898
 20
159.2228427923856
 30
0.0
  0
VERTEX
  5
1CC
330
1B8
100
AcDbEntity
  8
Layer 1
 62
     1
420
 16711680
370
     9
100
AcDbVertex
100
AcDb2dVertex
 10
231.7145035527898
 20
156.2228427096887
 30
0.0
  0
VERTEX
  5
1CD
330
1B8
100
AcDbEntity
  8
Layer 1
 62
     1
420
 16711680
370
     9
100
AcDbVertex
100
AcDb2dVertex
 10
237.7145037181828
 20
156.2228427096887
 30
0.0
  0
VERTEX
  5
1CE
330
1B8
100
AcDbEntity
  8
Layer 1
 62
     1
420
 16711680
370
     9
100
AcDbVertex
100
AcDb2dVertex
 10
237.7145037181828
 20
159.2228427923856
 30
0.0
  0
VERTEX
  5
1CF
330
1B8
100
AcDbEntity
  8
Layer 1
 62
     1
420
 16711680
370
     9
100
AcDbVertex
100
AcDb2dVertex
 10
243.7145038835758
 20
159.2228427923856
 30
0.0
  0
VERTEX
  5
1D0
330
1B8
100
AcDbEntity
  8
Layer 1
 62
     1
420
 16711680
370
     9
100
AcDbVertex
100
AcDb2dVertex
 10
243.7145038835758
 20
156.2228427096887
 30
0.0
  0
VERTEX
  5
1D1
330
1B8
100
AcDbEntity
  8
Layer 1
 62
     1
420
 16711680
370
     9
100
AcDbVertex
100
AcDb2dVertex
 10
249.7145040489688
 20
156.2228427096887
 30
0.0
  0
VERTEX
  5
1D2
330
1B8
100
AcDbEntity
  8
Layer 1
 62
     1
420
 16711680
370
     9
100
AcDbVertex
100
AcDb2dVertex
 10
249.7145040489688
 20
159.2228427923856
 30
0.0
  0
VERTEX
  5
1D3
330
1B8
100
AcDbEntity
  8
Layer 1
 62
     1
420
 16711680
370
     9
100
AcDbVertex
100
AcDb2dVertex
 10
256.8695030254968
 20
159.2228427923856
 30
0.0
  0
VERTEX
  5
1D4
330
1B8
100
AcDbEntity
  8
Layer 1
 62
     1
420
 16711680
370
     9
100
AcDbVertex
100
AcDb2dVertex
 10
256.8695030254968
 20
162.2228428750817
 30
0.0
  0
VERTEX
  5
1D5
330
1B8
100
AcDbEntity
  8
Layer 1
 62
     1
420
 16711680
370
     9
100
AcDbVertex
100
AcDb2dVertex
 10
252.7405051089446
 20
162.2228428750817
 30
0.0
  0
VERTEX
  5
1D6
330
1B8
100
AcDbEntity
  8
Layer 1
 62
     1
420
 16711680
370
     9
100
AcDbVertex
100
AcDb2dVertex
 10
252.7405051089446
 20
168.2228430404747
 30
0.0
  0
VERTEX
  5
1D7
330
1B8
100
AcDbEntity
  8
Layer 1
 62
     1
420
 16711680
370
     9
100
AcDbVertex
100
AcDb2dVertex
 10
256.8695030254968
 20
168.2228430404747
 30
0.0
  0
VERTEX
  5
1D8
330
1B8
100
AcDbEntity
  8
Layer 1
 62
     1
420
 16711680
370
     9
100
AcDbVertex
100
AcDb2dVertex
 10
256.8695030254968
 20
174.2228432058677
 30
0.0
  0
VERTEX
  5
1D9
330
1B8
100
AcDbEntity
  8
Layer 1
 62
     1
420
 16711680
370
     9
100
AcDbVertex
100
AcDb2dVertex
 10
252.7405051089446
 20
174.2228432058677
 30
0.0
  0
VERTEX
  5
1DA
330
1B8
100
AcDbEntity
  8
Layer 1
 62
     1
420
 16711680
370
     9
100
AcDbVertex
100
AcDb2dVertex
 10
252.7405051089446
 20
180.222835741866
 30
0.0
  0
VERTEX
  5
1DB
330
1B8
100
AcDbEntity
  8
Layer 1
 62
     1
420
 16711680
370
     9
100
AcDbVertex
100
AcDb2dVertex
 10
256.8695030254968
 20
180.222835741866
 30
0.0
  0
VERTEX
  5
1DC
330
1B8
100
AcDbEntity
  8
Layer 1
 62
     1
420
 16711680
370
     9
100
AcDbVertex
100
AcDb2dVertex
 10
256.8695030254968
 20
183.2228358245625
 30
0.0
  0
VERTEX
  5
1DD
330
1B8
100
AcDbEntity
  8
Layer 1
 62
     1
420
 16711680
370
     9
100
AcDbVertex
100
AcDb2dVertex
 10
249.7145040489688
 20
183.2228358245625
 30
0.0
  0
VERTEX
  5
1DE
330
1B8
100
AcDbEntity
  8
Layer 1
 62
     1
420
 16711680
370
     9
100
AcDbVertex
100
AcDb2dVertex
 10
249.7145040489688
 20
186.222835907259
 30
0.0
  0
VERTEX
  5
1DF
330
1B8
100
AcDbEntity
  8
Layer 1
 62
     1
420
 16711680
370
     9
100
AcDbVertex
100
AcDb2dVertex
 10
243.7145038835758
 20
186.222835907259
 30
0.0
  0
VERTEX
  5
1E0
330
1B8
100
AcDbEntity
  8
Layer 1
 62
     1
420
 16711680
370
     9
100
AcDbVertex
100
AcDb2dVertex
 10
243.7145038835758
 20
183.2228358245625
 30
0.0
  0
VERTEX
  5
1E1
330
1B8
100
AcDbEntity
  8
Layer 1
 62
     1
420
 16711680
370
     9
100
AcDbVertex
100
AcDb2dVertex
 10
237.7145037181828
 20
183.2228358245625
 30
0.0
  0
VERTEX
  5
1E2
330
1B8
100
AcDbEntity
  8
Layer 1
 62
     1
420
 16711680
370
     9
100
AcDbVertex
100
AcDb2dVertex
 10
237.7145037181828
 20
186.222835907259
 30
0.0
  0
VERTEX
  5
1E3
330
1B8
100
AcDbEntity
  8
Layer 1
 62
     1
420
 16711680
370
     9
100
AcDbVertex
100
AcDb2dVertex
 10
231.7145035527898
 20
186.222835907259
 30
0.0
  0
VERTEX
  5
1E4
330
1B8
100
AcDbEntity
  8
Layer 1
 62
     1
420
 16711680
370
     9
100
AcDbVertex
100
AcDb2dVertex
 10
231.7145035527898
 20
183.2228358245625
 30
0.0
  0
VERTEX
  5
1E5
330
1B8
100
AcDbEntity
  8
Layer 1
 62
     1
420
 16711680
370
     9
100
AcDbVertex
100
AcDb2dVertex
 10
225.7145033873968
 20
183.2228358245625
 30
0.0
  0
VERTEX
  5
1E6
330
1B8
100
AcDbEntity
  8
Layer 1
 62
     1
420
 16711680
370
     9
100
AcDbVertex
100
AcDb2dVertex
 10
225.7145033873968
 20
186.222835907259
 30
0.0
  0
VERTEX
  5
1E7
330
1B8
100
AcDbEntity
  8
Layer 1
 62
     1
420
 16711680
370
     9
100
AcDbVertex
100
AcDb2dVertex
 10
219.7145032220038
 20
186.222835907259
 30
0.0
  0
VERTEX
  5
1E8
330
1B8
100
AcDbEntity
  8
Layer 1
 62
     1
420
 16711680
370
     9
100
AcDbVertex
100
AcDb2dVertex
 10
219.7145032220038
 20
183.2228358245625
 30
0.0
  0
VERTEX
  5
1E9
330
1B8
100
AcDbEntity
  8
Layer 1
 62
     1
420
 16711680
370
     9
100
AcDbVertex
100
AcDb2dVertex
 10
213.714504010286
 20
183.2228358245625
 30
0.0
  0
VERTEX
  5
1EA
330
1B8
100
AcDbEntity
  8
Layer 1
 62
     1
420
 16711680
370
     9
100
AcDbVertex
100
AcDb2dVertex
 10
213.714504010286
 20
186.222835907259
 30
0.0
  0
VERTEX
  5
1EB
330
1B8
100
AcDbEntity
  8
Layer 1
 62
     1
420
 16711680
370
     9
100
AcDbVertex
100
AcDb2dVertex
 10
207.7145033680554
 20
186.222835907259
 30
0.0
  0
VERTEX
  5
1EC
330
1B8
100
AcDbEntity
  8
Layer 1
 62
     1
420
 16711680
370
     9
100
AcDbVertex
100
AcDb2dVertex
 10
207.7145033680554
 20
183.2228358245625
 30
0.0
  0
VERTEX
  5
1ED
330
1B8
100
AcDbEntity
  8
Layer 1
 62
     1
420
 16711680
370
     9
100
AcDbVertex
100
AcDb2dVertex
 10
204.6895036661398
 20
183.2228358245625
 30
0.0
  0
SEQEND
  5
1EE
330
1B8
100
AcDbEntity
  8
Layer 1
 62
     1
420
 16711680
370
     9
  0
ENDBLK
  5
1B7
330
1B4
100
AcDbEntity
  8
0
100
AcDbBlockEnd
  0
BLOCK
  5
1F1
330
1EF
100
AcDbEntity
  8
0
100
AcDbBlockBegin
  2
block 12
 70
     0
 10
0.0
 20
0.0
 30
0.0
  3
block 12
  1

  0
POLYLINE
  5
1F3
330
1EF
100
AcDbEntity
  8
Layer 1
 62
     1
420
 16711680
370
     9
100
AcDb2dPolyline
 66
     1
 10
0.0
 20
0.0
 30
0.0
  0
VERTEX
  5
1F4
330
1F3
100
AcDbEntity
  8
Layer 1
 62
     1
420
 16711680
370
     9
100
AcDbVertex
100
AcDb2dVertex
 10
263.9985048394436
 20
183.2228358245625
 30
0.0
  0
VERTEX
  5
1F5
330
1F3
100
AcDbEntity
  8
Layer 1
 62
     1
420
 16711680
370
     9
100
AcDbVertex
100
AcDb2dVertex
 10
263.9985048394436
 20
180.222835741866
 30
0.0
  0
VERTEX
  5
1F6
330
1F3
100
AcDbEntity
  8
Layer 1
 62
     1
420
 16711680
370
     9
100
AcDbVertex
100
AcDb2dVertex
 10
259.8695031081934
 20
180.222835741866
 30
0.0
  0
VERTEX
  5
1F7
330
1F3
100
AcDbEntity
  8
Layer 1
 62
     1
420
 16711680
370
     9
100
AcDbVertex
100
AcDb2dVertex
 10
259.8695031081934
 20
174.2228432058677
 30
0.0
  0
VERTEX
  5
1F8
330
1F3
100
AcDbEntity
  8
Layer 1
 62
     1
420
 16711680
370
     9
100
AcDbVertex
100
AcDb2dVertex
 10
263.9985048394436
 20
174.2228432058677
 30
0.0
  0
VERTEX
  5
1F9
330
1F3
100
AcDbEntity
  8
Layer 1
 62
     1
420
 16711680
370
     9
100
AcDbVertex
100
AcDb2dVertex
 10
263.9985048394436
 20
168.2228430404747
 30
0.0
  0
VERTEX
  5
1FA
330
1F3
100
AcDbEntity
  8
Layer 1
 62
     1
420
 16711680
370
     9
100
AcDbVertex
100
AcDb2dVertex
 10
259.8695031081934
 20
168.2228430404747
 30
0.0
  0
VERTEX
  5
1FB
330
1F3
100
AcDbEntity
  8
Layer 1
 62
     1
420
 16711680
370
     9
100
AcDbVertex
100
AcDb2dVertex
 10
259.8695031081934
 20
162.2228428750817
 30
0.0
  0
VERTEX
  5
1FC
330
1F3
100
AcDbEntity
  8
Layer 1
 62
     1
420
 16711680
370
     9
100
AcDbVertex
100
AcDb2dVertex
 10
263.9985048394436
 20
162.2228428750817
 30
0.0
  0
VERTEX
  5
1FD
330
1F3
100
AcDbEntity
  8
Layer 1
 62
     1
420
 16711680
370
     9
100
AcDbVertex
100
AcDb2dVertex
 10
263.9985048394436
 20
159.2228427923856
 30
0.0
  0
VERTEX
  5
1FE
330
1F3
100
AcDbEntity
  8
Layer 1
 62
     1
420
 16711680
370
     9
100
AcDbVertex
100
AcDb2dVertex
 10
267.0235026340102
 20
159.2228427923856
 30
0.0
  0
VERTEX
  5
1FF
330
1F3
100
AcDbEntity
  8
Layer 1
 62
     1
420
 16711680
370
     9
100
AcDbVertex
100
AcDb2dVertex
 10
267.0235026340102
 20
156.2228427096887
 30
0.0
  0
VERTEX
  5
200
330
1F3
100
AcDbEntity
  8
Layer 1
 62
     1
420
 16711680
370
     9
100
AcDbVertex
100
AcDb2dVertex
 10
273.0235027994032
 20
156.2228427096887
 30
0.0
  0
VERTEX
  5
201
330
1F3
100
AcDbEntity
  8
Layer 1
 62
     1
420
 16711680
370
     9
100
AcDbVertex
100
AcDb2dVertex
 10
273.0235027994032
 20
159.2228427923856
 30
0.0
  0
VERTEX
  5
202
330
1F3
100
AcDbEntity
  8
Layer 1
 62
     1
420
 16711680
370
     9
100
AcDbVertex
100
AcDb2dVertex
 10
279.0235029647963
 20
159.2228427923856
 30
0.0
  0
VERTEX
  5
203
330
1F3
100
AcDbEntity
  8
Layer 1
 62
     1
420
 16711680
370
     9
100
AcDbVertex
100
AcDb2dVertex
 10
279.0235029647963
 20
156.2228427096887
 30
0.0
  0
VERTEX
  5
204
330
1F3
100
AcDbEntity
  8
Layer 1
 62
     1
420
 16711680
370
     9
100
AcDbVertex
100
AcDb2dVertex
 10
285.0235031301892
 20
156.2228427096887
 30
0.0
  0
VERTEX
  5
205
330
1F3
100
AcDbEntity
  8
Layer 1
 62
     1
420
 16711680
370
     9
100
AcDbVertex
100
AcDb2dVertex
 10
285.0235031301892
 20
159.2228427923856
 30
0.0
  0
VERTEX
  5
206
330
1F3
100
AcDbEntity
  8
Layer 1
 62
     1
420
 16711680
370
     9
100
AcDbVertex
100
AcDb2dVertex
 10
291.0235032955823
 20
159.2228427923856
 30
0.0
  0
VERTEX
  5
207
330
1F3
100
AcDbEntity
  8
Layer 1
 62
     1
420
 16711680
370
     9
100
AcDbVertex
100
AcDb2dVertex
 10
291.0235032955823
 20
156.2228427096887
 30
0.0
  0
VERTEX
  5
208
330
1F3
100
AcDbEntity
  8
Layer 1
 62
     1
420
 16711680
370
     9
100
AcDbVertex
100
AcDb2dVertex
 10
297.0235034609752
 20
156.2228427096887
 30
0.0
  0
VERTEX
  5
209
330
1F3
100
AcDbEntity
  8
Layer 1
 62
     1
420
 16711680
370
     9
100
AcDbVertex
100
AcDb2dVertex
 10
297.0235034609752
 20
159.2228427923856
 30
0.0
  0
VERTEX
  5
20A
330
1F3
100
AcDbEntity
  8
Layer 1
 62
     1
420
 16711680
370
     9
100
AcDbVertex
100
AcDb2dVertex
 10
303.0235036263683
 20
159.2228427923856
 30
0.0
  0
VERTEX
  5
20B
330
1F3
100
AcDbEntity
  8
Layer 1
 62
     1
420
 16711680
370
     9
100
AcDbVertex
100
AcDb2dVertex
 10
303.0235036263683
 20
156.2228427096887
 30
0.0
  0
VERTEX
  5
20C
330
1F3
100
AcDbEntity
  8
Layer 1
 62
     1
420
 16711680
370
     9
100
AcDbVertex
100
AcDb2dVertex
 10
309.0235037917612
 20
156.2228427096887
 30
0.0
  0
VERTEX
  5
20D
330
1F3
100
AcDbEntity
  8
Layer 1
 62
     1
420
 16711680
370
     9
100
AcDbVertex
100
AcDb2dVertex
 10
309.0235037917612
 20
159.2228427923856
 30
0.0
  0
VERTEX
  5
20E
330
1F3
100
AcDbEntity
  8
Layer 1
 62
     1
420
 16711680
370
     9
100
AcDbVertex
100
AcDb2dVertex
 10
316.1785027682893
 20
159.2228427923856
 30
0.0
  0
VERTEX
  5
20F
330
1F3
100
AcDbEntity
  8
Layer 1
 62
     1
420
 16711680
370
     9
100
AcDbVertex
100
AcDb2dVertex
 10
316.1785027682893
 20
162.2228428750817
 30
0.0
  0
VERTEX
  5
210
330
1F3
100
AcDbEntity
  8
Layer 1
 62
     1
420
 16711680
370
     9
100
AcDbVertex
100
AcDb2dVertex
 10
312.0485054010259
 20
162.2228428750817
 30
0.0
  0
VERTEX
  5
211
330
1F3
100
AcDbEntity
  8
Layer 1
 62
     1
420
 16711680
370
     9
100
AcDbVertex
100
AcDb2dVertex
 10
312.0485054010259
 20
168.2228430404747
 30
0.0
  0
VERTEX
  5
212
330
1F3
100
AcDbEntity
  8
Layer 1
 62
     1
420
 16711680
370
     9
100
AcDbVertex
100
AcDb2dVertex
 10
316.1785027682893
 20
168.2228430404747
 30
0.0
  0
VERTEX
  5
213
330
1F3
100
AcDbEntity
  8
Layer 1
 62
     1
420
 16711680
370
     9
100
AcDbVertex
100
AcDb2dVertex
 10
316.1785027682893
 20
174.2228432058677
 30
0.0
  0
VERTEX
  5
214
330
1F3
100
AcDbEntity
  8
Layer 1
 62
     1
420
 16711680
370
     9
100
AcDbVertex
100
AcDb2dVertex
 10
312.0485054010259
 20
174.2228432058677
 30
0.0
  0
VERTEX
  5
215
330
1F3
100
AcDbEntity
  8
Layer 1
 62
     1
420
 16711680
370
     9
100
AcDbVertex
100
AcDb2dVertex
 10
312.0485054010259
 20
180.222835741866
 30
0.0
  0
VERTEX
  5
216
330
1F3
100
AcDbEntity
  8
Layer 1
 62
     1
420
 16711680
370
     9
100
AcDbVertex
100
AcDb2dVertex
 10
316.1785027682893
 20
180.222835741866
 30
0.0
  0
VERTEX
  5
217
330
1F3
100
AcDbEntity
  8
Layer 1
 62
     1
420
 16711680
370
     9
100
AcDbVertex
100
AcDb2dVertex
 10
316.1785027682893
 20
183.2228358245625
 30
0.0
  0
VERTEX
  5
218
330
1F3
100
AcDbEntity
  8
Layer 1
 62
     1
420
 16711680
370
     9
100
AcDbVertex
100
AcDb2dVertex
 10
309.0235037917612
 20
183.2228358245625
 30
0.0
  0
VERTEX
  5
219
330
1F3
100
AcDbEntity
  8
Layer 1
 62
     1
420
 16711680
370
     9
100
AcDbVertex
100
AcDb2dVertex
 10
309.0235037917612
 20
186.222835907259
 30
0.0
  0
VERTEX
  5
21A
330
1F3
100
AcDbEntity
  8
Layer 1
 62
     1
420
 16711680
370
     9
100
AcDbVertex
100
AcDb2dVertex
 10
303.0235036263683
 20
186.222835907259
 30
0.0
  0
VERTEX
  5
21B
330
1F3
100
AcDbEntity
  8
Layer 1
 62
     1
420
 16711680
370
     9
100
AcDbVertex
100
AcDb2dVertex
 10
303.0235036263683
 20
183.2228358245625
 30
0.0
  0
VERTEX
  5
21C
330
1F3
100
AcDbEntity
  8
Layer 1
 62
     1
420
 16711680
370
     9
100
AcDbVertex
100
AcDb2dVertex
 10
297.0235034609752
 20
183.2228358245625
 30
0.0
  0
VERTEX
  5
21D
330
1F3
100
AcDbEntity
  8
Layer 1
 62
     1
420
 16711680
370
     9
100
AcDbVertex
100
AcDb2dVertex
 10
297.0235034609752
 20
186.222835907259
 30
0.0
  0
VERTEX
  5
21E
330
1F3
100
AcDbEntity
  8
Layer 1
 62
     1
420
 16711680
370
     9
100
AcDbVertex
100
AcDb2dVertex
 10
291.0235032955823
 20
186.222835907259
 30
0.0
  0
VERTEX
  5
21F
330
1F3
100
AcDbEntity
  8
Layer 1
 62
     1
420
 16711680
370
     9
100
AcDbVertex
100
AcDb2dVertex
 10
291.0235032955823
 20
183.2228358245625
 30
0.0
  0
VERTEX
  5
220
330
1F3
100
AcDbEntity
  8
Layer 1
 62
     1
420
 16711680
370
     9
100
AcDbVertex
100
AcDb2dVertex
 10
285.0235031301892
 20
183.2228358245625
 30
0.0
  0
VERTEX
  5
221
330
1F3
100
AcDbEntity
  8
Layer 1
 62
     1
420
 16711680
370
     9
100
AcDbVertex
100
AcDb2dVertex
 10
285.0235031301892
 20
186.222835907259
 30
0.0
  0
VERTEX
  5
222
330
1F3
100
AcDbEntity
  8
Layer 1
 62
     1
420
 16711680
370
     9
100
AcDbVertex
100
AcDb2dVertex
 10
279.0235029647963
 20
186.222835907259
 30
0.0
  0
VERTEX
  5
223
330
1F3
100
AcDbEntity
  8
Layer 1
 62
     1
420
 16711680
370
     9
100
AcDbVertex
100
AcDb2dVertex
 10
279.0235029647963
 20
183.2228358245625
 30
0.0
  0
VERTEX
  5
224
330
1F3
100
AcDbEntity
  8
Layer 1
 62
     1
420
 16711680
370
     9
100
AcDbVertex
100
AcDb2dVertex
 10
273.0235027994032
 20
183.2228358245625
 30
0.0
  0
VERTEX
  5
225
330
1F3
100
AcDbEntity
  8
Layer 1
 62
     1
420
 16711680
370
     9
100
AcDbVertex
100
AcDb2dVertex
 10
273.0235027994032
 20
186.222835907259
 30
0.0
  0
VERTEX
  5
226
330
1F3
100
AcDbEntity
  8
Layer 1
 62
     1
420
 16711680
370
     9
100
AcDbVertex
100
AcDb2dVertex
 10
267.0235026340102
 20
186.222835907259
 30
0.0
  0
VERTEX
  5
227
330
1F3
100
AcDbEntity
  8
Layer 1
 62
     1
420
 16711680
370
     9
100
AcDbVertex
100
AcDb2dVertex
 10
267.0235026340102
 20
183.2228358245625
 30
0.0
  0
VERTEX
  5
228
330
1F3
100
AcDbEntity
  8
Layer 1
 62
     1
420
 16711680
370
     9
100
AcDbVertex
100
AcDb2dVertex
 10
263.9985048394436
 20
183.2228358245625
 30
0.0
  0
SEQEND
  5
229
330
1F3
100
AcDbEntity
  8
Layer 1
 62
     1
420
 16711680
370
     9
  0
ENDBLK
  5
1F2
330
1EF
100
AcDbEntity
  8
0
100
AcDbBlockEnd
  0
BLOCK
  5
22C
330
22A
100
AcDbEntity
  8
0
100
AcDbBlockBegin
  2
block 13
 70
     0
 10
0.0
 20
0.0
 30
0.0
  3
block 13
  1

  0
POLYLINE
  5
22E
330
22A
100
AcDbEntity
  8
Layer 1
 62
     1
420
 16711680
370
     9
100
AcDb2dPolyline
 66
     1
 10
0.0
 20
0.0
 30
0.0
  0
VERTEX
  5
22F
330
22E
100
AcDbEntity
  8
Layer 1
 62
     1
420
 16711680
370
     9
100
AcDbVertex
100
AcDb2dVertex
 10
204.6895036661398
 20
216.2228367342247
 30
0.0
  0
VERTEX
  5
230
330
22E
100
AcDbEntity
  8
Layer 1
 62
     1
420
 16711680
370
     9
100
AcDbVertex
100
AcDb2dVertex
 10
204.6895036661398
 20
213.2228366515282
 30
0.0
  0
VERTEX
  5
231
330
22E
100
AcDbEntity
  8
Layer 1
 62
     1
420
 16711680
370
     9
100
AcDbVertex
100
AcDb2dVertex
 10
200.560503365401
 20
213.2228366515282
 30
0.0
  0
VERTEX
  5
232
330
22E
100
AcDbEntity
  8
Layer 1
 62
     1
420
 16711680
370
     9
100
AcDbVertex
100
AcDb2dVertex
 10
200.560503365401
 20
207.2228364861352
 30
0.0
  0
VERTEX
  5
233
330
22E
100
AcDbEntity
  8
Layer 1
 62
     1
420
 16711680
370
     9
100
AcDbVertex
100
AcDb2dVertex
 10
204.6895036661398
 20
207.2228364861352
 30
0.0
  0
VERTEX
  5
234
330
22E
100
AcDbEntity
  8
Layer 1
 62
     1
420
 16711680
370
     9
100
AcDbVertex
100
AcDb2dVertex
 10
204.6895036661398
 20
201.2228363207415
 30
0.0
  0
VERTEX
  5
235
330
22E
100
AcDbEntity
  8
Layer 1
 62
     1
420
 16711680
370
     9
100
AcDbVertex
100
AcDb2dVertex
 10
200.560503365401
 20
201.2228363207415
 30
0.0
  0
VERTEX
  5
236
330
22E
100
AcDbEntity
  8
Layer 1
 62
     1
420
 16711680
370
     9
100
AcDbVertex
100
AcDb2dVertex
 10
200.560503365401
 20
195.2228361553485
 30
0.0
  0
VERTEX
  5
237
330
22E
100
AcDbEntity
  8
Layer 1
 62
     1
420
 16711680
370
     9
100
AcDbVertex
100
AcDb2dVertex
 10
204.6895036661398
 20
195.2228361553485
 30
0.0
  0
VERTEX
  5
238
330
22E
100
AcDbEntity
  8
Layer 1
 62
     1
420
 16711680
370
     9
100
AcDbVertex
100
AcDb2dVertex
 10
204.6895036661398
 20
192.222836072652
 30
0.0
  0
VERTEX
  5
239
330
22E
100
AcDbEntity
  8
Layer 1
 62
     1
420
 16711680
370
     9
100
AcDbVertex
100
AcDb2dVertex
 10
207.7145033680554
 20
192.222836072652
 30
0.0
  0
VERTEX
  5
23A
330
22E
100
AcDbEntity
  8
Layer 1
 62
     1
420
 16711680
370
     9
100
AcDbVertex
100
AcDb2dVertex
 10
207.7145033680554
 20
189.2228359899555
 30
0.0
  0
VERTEX
  5
23B
330
22E
100
AcDbEntity
  8
Layer 1
 62
     1
420
 16711680
370
     9
100
AcDbVertex
100
AcDb2dVertex
 10
213.714504010286
 20
189.2228359899555
 30
0.0
  0
VERTEX
  5
23C
330
22E
100
AcDbEntity
  8
Layer 1
 62
     1
420
 16711680
370
     9
100
AcDbVertex
100
AcDb2dVertex
 10
213.714504010286
 20
192.222836072652
 30
0.0
  0
VERTEX
  5
23D
330
22E
100
AcDbEntity
  8
Layer 1
 62
     1
420
 16711680
370
     9
100
AcDbVertex
100
AcDb2dVertex
 10
219.7145032220038
 20
192.222836072652
 30
0.0
  0
VERTEX
  5
23E
330
22E
100
AcDbEntity
  8
Layer 1
 62
     1
420
 16711680
370
     9
100
AcDbVertex
100
AcDb2dVertex
 10
219.7145032220038
 20
189.2228359899555
 30
0.0
  0
VERTEX
  5
23F
330
22E
100
AcDbEntity
  8
Layer 1
 62
     1
420
 16711680
370
     9
100
AcDbVertex
100
AcDb2dVertex
 10
225.7145033873968
 20
189.2228359899555
 30
0.0
  0
VERTEX
  5
240
330
22E
100
AcDbEntity
  8
Layer 1
 62
     1
420
 16711680
370
     9
100
AcDbVertex
100
AcDb2dVertex
 10
225.7145033873968
 20
192.222836072652
 30
0.0
  0
VERTEX
  5
241
330
22E
100
AcDbEntity
  8
Layer 1
 62
     1
420
 16711680
370
     9
100
AcDbVertex
100
AcDb2dVertex
 10
231.7145035527898
 20
192.222836072652
 30
0.0
  0
VERTEX
  5
242
330
22E
100
AcDbEntity
  8
Layer 1
 62
     1
420
 16711680
370
     9
100
AcDbVertex
100
AcDb2dVertex
 10
231.7145035527898
 20
189.2228359899555
 30
0.0
  0
VERTEX
  5
243
330
22E
100
AcDbEntity
  8
Layer 1
 62
     1
420
 16711680
370
     9
100
AcDbVertex
100
AcDb2dVertex
 10
237.7145037181828
 20
189.2228359899555
 30
0.0
  0
VERTEX
  5
244
330
22E
100
AcDbEntity
  8
Layer 1
 62
     1
420
 16711680
370
     9
100
AcDbVertex
100
AcDb2dVertex
 10
237.7145037181828
 20
192.222836072652
 30
0.0
  0
VERTEX
  5
245
330
22E
100
AcDbEntity
  8
Layer 1
 62
     1
420
 16711680
370
     9
100
AcDbVertex
100
AcDb2dVertex
 10
243.7145038835758
 20
192.222836072652
 30
0.0
  0
VERTEX
  5
246
330
22E
100
AcDbEntity
  8
Layer 1
 62
     1
420
 16711680
370
     9
100
AcDbVertex
100
AcDb2dVertex
 10
243.7145038835758
 20
189.2228359899555
 30
0.0
  0
VERTEX
  5
247
330
22E
100
AcDbEntity
  8
Layer 1
 62
     1
420
 16711680
370
     9
100
AcDbVertex
100
AcDb2dVertex
 10
249.7145040489688
 20
189.2228359899555
 30
0.0
  0
VERTEX
  5
248
330
22E
100
AcDbEntity
  8
Layer 1
 62
     1
420
 16711680
370
     9
100
AcDbVertex
100
AcDb2dVertex
 10
249.7145040489688
 20
192.222836072652
 30
0.0
  0
VERTEX
  5
249
330
22E
100
AcDbEntity
  8
Layer 1
 62
     1
420
 16711680
370
     9
100
AcDbVertex
100
AcDb2dVertex
 10
256.8695030254968
 20
192.222836072652
 30
0.0
  0
VERTEX
  5
24A
330
22E
100
AcDbEntity
  8
Layer 1
 62
     1
420
 16711680
370
     9
100
AcDbVertex
100
AcDb2dVertex
 10
256.8695030254968
 20
195.2228361553485
 30
0.0
  0
VERTEX
  5
24B
330
22E
100
AcDbEntity
  8
Layer 1
 62
     1
420
 16711680
370
     9
100
AcDbVertex
100
AcDb2dVertex
 10
252.7405051089446
 20
195.2228361553485
 30
0.0
  0
VERTEX
  5
24C
330
22E
100
AcDbEntity
  8
Layer 1
 62
     1
420
 16711680
370
     9
100
AcDbVertex
100
AcDb2dVertex
 10
252.7405051089446
 20
201.2228363207415
 30
0.0
  0
VERTEX
  5
24D
330
22E
100
AcDbEntity
  8
Layer 1
 62
     1
420
 16711680
370
     9
100
AcDbVertex
100
AcDb2dVertex
 10
256.8695030254968
 20
201.2228363207415
 30
0.0
  0
VERTEX
  5
24E
330
22E
100
AcDbEntity
  8
Layer 1
 62
     1
420
 16711680
370
     9
100
AcDbVertex
100
AcDb2dVertex
 10
256.8695030254968
 20
207.2228364861352
 30
0.0
  0
VERTEX
  5
24F
330
22E
100
AcDbEntity
  8
Layer 1
 62
     1
420
 16711680
370
     9
100
AcDbVertex
100
AcDb2dVertex
 10
252.7405051089446
 20
207.2228364861352
 30
0.0
  0
VERTEX
  5
250
330
22E
100
AcDbEntity
  8
Layer 1
 62
     1
420
 16711680
370
     9
100
AcDbVertex
100
AcDb2dVertex
 10
252.7405051089446
 20
213.2228366515282
 30
0.0
  0
VERTEX
  5
251
330
22E
100
AcDbEntity
  8
Layer 1
 62
     1
420
 16711680
370
     9
100
AcDbVertex
100
AcDb2dVertex
 10
256.8695030254968
 20
213.2228366515282
 30
0.0
  0
VERTEX
  5
252
330
22E
100
AcDbEntity
  8
Layer 1
 62
     1
420
 16711680
370
     9
100
AcDbVertex
100
AcDb2dVertex
 10
256.8695030254968
 20
216.2228367342247
 30
0.0
  0
VERTEX
  5
253
330
22E
100
AcDbEntity
  8
Layer 1
 62
     1
420
 16711680
370
     9
100
AcDbVertex
100
AcDb2dVertex
 10
249.7145040489688
 20
216.2228367342247
 30
0.0
  0
VERTEX
  5
254
330
22E
100
AcDbEntity
  8
Layer 1
 62
     1
420
 16711680
370
     9
100
AcDbVertex
100
AcDb2dVertex
 10
249.7145040489688
 20
219.2228368169212
 30
0.0
  0
VERTEX
  5
255
330
22E
100
AcDbEntity
  8
Layer 1
 62
     1
420
 16711680
370
     9
100
AcDbVertex
100
AcDb2dVertex
 10
243.7145038835758
 20
219.2228368169212
 30
0.0
  0
VERTEX
  5
256
330
22E
100
AcDbEntity
  8
Layer 1
 62
     1
420
 16711680
370
     9
100
AcDbVertex
100
AcDb2dVertex
 10
243.7145038835758
 20
216.2228367342247
 30
0.0
  0
VERTEX
  5
257
330
22E
100
AcDbEntity
  8
Layer 1
 62
     1
420
 16711680
370
     9
100
AcDbVertex
100
AcDb2dVertex
 10
237.7145037181828
 20
216.2228367342247
 30
0.0
  0
VERTEX
  5
258
330
22E
100
AcDbEntity
  8
Layer 1
 62
     1
420
 16711680
370
     9
100
AcDbVertex
100
AcDb2dVertex
 10
237.7145037181828
 20
219.2228368169212
 30
0.0
  0
VERTEX
  5
259
330
22E
100
AcDbEntity
  8
Layer 1
 62
     1
420
 16711680
370
     9
100
AcDbVertex
100
AcDb2dVertex
 10
231.7145035527898
 20
219.2228368169212
 30
0.0
  0
VERTEX
  5
25A
330
22E
100
AcDbEntity
  8
Layer 1
 62
     1
420
 16711680
370
     9
100
AcDbVertex
100
AcDb2dVertex
 10
231.7145035527898
 20
216.2228367342247
 30
0.0
  0
VERTEX
  5
25B
330
22E
100
AcDbEntity
  8
Layer 1
 62
     1
420
 16711680
370
     9
100
AcDbVertex
100
AcDb2dVertex
 10
225.7145033873968
 20
216.2228367342247
 30
0.0
  0
VERTEX
  5
25C
330
22E
100
AcDbEntity
  8
Layer 1
 62
     1
420
 16711680
370
     9
100
AcDbVertex
100
AcDb2dVertex
 10
225.7145033873968
 20
219.2228368169212
 30
0.0
  0
VERTEX
  5
25D
330
22E
100
AcDbEntity
  8
Layer 1
 62
     1
420
 16711680
370
     9
100
AcDbVertex
100
AcDb2dVertex
 10
219.7145032220038
 20
219.2228368169212
 30
0.0
  0
VERTEX
  5
25E
330
22E
100
AcDbEntity
  8
Layer 1
 62
     1
420
 16711680
370
     9
100
AcDbVertex
100
AcDb2dVertex
 10
219.7145032220038
 20
216.2228367342247
 30
0.0
  0
VERTEX
  5
25F
330
22E
100
AcDbEntity
  8
Layer 1
 62
     1
420
 16711680
370
     9
100
AcDbVertex
100
AcDb2dVertex
 10
213.714504010286
 20
216.2228367342247
 30
0.0
  0
VERTEX
  5
260
330
22E
100
AcDbEntity
  8
Layer 1
 62
     1
420
 16711680
370
     9
100
AcDbVertex
100
AcDb2dVertex
 10
213.714504010286
 20
219.2228368169212
 30
0.0
  0
VERTEX
  5
261
330
22E
100
AcDbEntity
  8
Layer 1
 62
     1
420
 16711680
370
     9
100
AcDbVertex
100
AcDb2dVertex
 10
207.7145033680554
 20
219.2228368169212
 30
0.0
  0
VERTEX
  5
262
330
22E
100
AcDbEntity
  8
Layer 1
 62
     1
420
 16711680
370
     9
100
AcDbVertex
100
AcDb2dVertex
 10
207.7145033680554
 20
216.2228367342247
 30
0.0
  0
VERTEX
  5
263
330
22E
100
AcDbEntity
  8
Layer 1
 62
     1
420
 16711680
370
     9
100
AcDbVertex
100
AcDb2dVertex
 10
204.6895036661398
 20
216.2228367342247
 30
0.0
  0
SEQEND
  5
264
330
22E
100
AcDbEntity
  8
Layer 1
 62
     1
420
 16711680
370
     9
  0
ENDBLK
  5
22D
330
22A
100
AcDbEntity
  8
0
100
AcDbBlockEnd
  0
BLOCK
  5
267
330
265
100
AcDbEntity
  8
0
100
AcDbBlockBegin
  2
block 14
 70
     0
 10
0.0
 20
0.0
 30
0.0
  3
block 14
  1

  0
POLYLINE
  5
269
330
265
100
AcDbEntity
  8
Layer 1
 62
     1
420
 16711680
370
     9
100
AcDb2dPolyline
 66
     1
 10
0.0
 20
0.0
 30
0.0
  0
VERTEX
  5
26A
330
269
100
AcDbEntity
  8
Layer 1
 62
     1
420
 16711680
370
     9
100
AcDbVertex
100
AcDb2dVertex
 10
263.9985048394436
 20
216.2228367342247
 30
0.0
  0
VERTEX
  5
26B
330
269
100
AcDbEntity
  8
Layer 1
 62
     1
420
 16711680
370
     9
100
AcDbVertex
100
AcDb2dVertex
 10
263.9985048394436
 20
213.2228366515282
 30
0.0
  0
VERTEX
  5
26C
330
269
100
AcDbEntity
  8
Layer 1
 62
     1
420
 16711680
370
     9
100
AcDbVertex
100
AcDb2dVertex
 10
259.8695031081934
 20
213.2228366515282
 30
0.0
  0
VERTEX
  5
26D
330
269
100
AcDbEntity
  8
Layer 1
 62
     1
420
 16711680
370
     9
100
AcDbVertex
100
AcDb2dVertex
 10
259.8695031081934
 20
207.2228364861352
 30
0.0
  0
VERTEX
  5
26E
330
269
100
AcDbEntity
  8
Layer 1
 62
     1
420
 16711680
370
     9
100
AcDbVertex
100
AcDb2dVertex
 10
263.9985048394436
 20
207.2228364861352
 30
0.0
  0
VERTEX
  5
26F
330
269
100
AcDbEntity
  8
Layer 1
 62
     1
420
 16711680
370
     9
100
AcDbVertex
100
AcDb2dVertex
 10
263.9985048394436
 20
201.2228363207415
 30
0.0
  0
VERTEX
  5
270
330
269
100
AcDbEntity
  8
Layer 1
 62
     1
420
 16711680
370
     9
100
AcDbVertex
100
AcDb2dVertex
 10
259.8695031081934
 20
201.2228363207415
 30
0.0
  0
VERTEX
  5
271
330
269
100
AcDbEntity
  8
Layer 1
 62
     1
420
 16711680
370
     9
100
AcDbVertex
100
AcDb2dVertex
 10
259.8695031081934
 20
195.2228361553485
 30
0.0
  0
VERTEX
  5
272
330
269
100
AcDbEntity
  8
Layer 1
 62
     1
420
 16711680
370
     9
100
AcDbVertex
100
AcDb2dVertex
 10
263.9985048394436
 20
195.2228361553485
 30
0.0
  0
VERTEX
  5
273
330
269
100
AcDbEntity
  8
Layer 1
 62
     1
420
 16711680
370
     9
100
AcDbVertex
100
AcDb2dVertex
 10
263.9985048394436
 20
192.222836072652
 30
0.0
  0
VERTEX
  5
274
330
269
100
AcDbEntity
  8
Layer 1
 62
     1
420
 16711680
370
     9
100
AcDbVertex
100
AcDb2dVertex
 10
267.0235026340102
 20
192.222836072652
 30
0.0
  0
VERTEX
  5
275
330
269
100
AcDbEntity
  8
Layer 1
 62
     1
420
 16711680
370
     9
100
AcDbVertex
100
AcDb2dVertex
 10
267.0235026340102
 20
189.2228359899555
 30
0.0
  0
VERTEX
  5
276
330
269
100
AcDbEntity
  8
Layer 1
 62
     1
420
 16711680
370
     9
100
AcDbVertex
100
AcDb2dVertex
 10
273.0235027994032
 20
189.2228359899555
 30
0.0
  0
VERTEX
  5
277
330
269
100
AcDbEntity
  8
Layer 1
 62
     1
420
 16711680
370
     9
100
AcDbVertex
100
AcDb2dVertex
 10
273.0235027994032
 20
192.222836072652
 30
0.0
  0
VERTEX
  5
278
330
269
100
AcDbEntity
  8
Layer 1
 62
     1
420
 16711680
370
     9
100
AcDbVertex
100
AcDb2dVertex
 10
279.0235029647963
 20
192.222836072652
 30
0.0
  0
VERTEX
  5
279
330
269
100
AcDbEntity
  8
Layer 1
 62
     1
420
 16711680
370
     9
100
AcDbVertex
100
AcDb2dVertex
 10
279.0235029647963
 20
189.2228359899555
 30
0.0
  0
VERTEX
  5
27A
330
269
100
AcDbEntity
  8
Layer 1
 62
     1
420
 16711680
370
     9
100
AcDbVertex
100
AcDb2dVertex
 10
285.0235031301892
 20
189.2228359899555
 30
0.0
  0
VERTEX
  5
27B
330
269
100
AcDbEntity
  8
Layer 1
 62
     1
420
 16711680
370
     9
100
AcDbVertex
100
AcDb2dVertex
 10
285.0235031301892
 20
192.222836072652
 30
0.0
  0
VERTEX
  5
27C
330
269
100
AcDbEntity
  8
Layer 1
 62
     1
420
 16711680
370
     9
100
AcDbVertex
100
AcDb2dVertex
 10
291.0235032955823
 20
192.222836072652
 30
0.0
  0
VERTEX
  5
27D
330
269
100
AcDbEntity
  8
Layer 1
 62
     1
420
 16711680
370
     9
100
AcDbVertex
100
AcDb2dVertex
 10
291.0235032955823
 20
189.2228359899555
 30
0.0
  0
VERTEX
  5
27E
330
269
100
AcDbEntity
  8
Layer 1
 62
     1
420
 16711680
370
     9
100
AcDbVertex
100
AcDb2dVertex
 10
297.0235034609752
 20
189.2228359899555
 30
0.0
  0
VERTEX
  5
27F
330
269
100
AcDbEntity
  8
Layer 1
 62
     1
420
 16711680
370
     9
100
AcDbVertex
100
AcDb2dVertex
 10
297.0235034609752
 20
192.222836072652
 30
0.0
  0
VERTEX
  5
280
330
269
100
AcDbEntity
  8
Layer 1
 62
     1
420
 16711680
370
     9
100
AcDbVertex
100
AcDb2dVertex
 10
303.0235036263683
 20
192.222836072652
 30
0.0
  0
VERTEX
  5
281
330
269
100
AcDbEntity
  8
Layer 1
 62
     1
420
 16711680
370
     9
100
AcDbVertex
100
AcDb2dVertex
 10
303.0235036263683
 20
189.2228359899555
 30
0.0
  0
VERTEX
  5
282
330
269
100
AcDbEntity
  8
Layer 1
 62
     1
420
 16711680
370
     9
100
AcDbVertex
100
AcDb2dVertex
 10
309.0235037917612
 20
189.2228359899555
 30
0.0
  0
VERTEX
  5
283
330
269
100
AcDbEntity
  8
Layer 1
 62
     1
420
 16711680
370
     9
100
AcDbVertex
100
AcDb2dVertex
 10
309.0235037917612
 20
192.222836072652
 30
0.0
  0
VERTEX
  5
284
330
269
100
AcDbEntity
  8
Layer 1
 62
     1
420
 16711680
370
     9
100
AcDbVertex
100
AcDb2dVertex
 10
316.1785027682893
 20
192.222836072652
 30
0.0
  0
VERTEX
  5
285
330
269
100
AcDbEntity
  8
Layer 1
 62
     1
420
 16711680
370
     9
100
AcDbVertex
100
AcDb2dVertex
 10
316.1785027682893
 20
195.2228361553485
 30
0.0
  0
VERTEX
  5
286
330
269
100
AcDbEntity
  8
Layer 1
 62
     1
420
 16711680
370
     9
100
AcDbVertex
100
AcDb2dVertex
 10
312.0485054010259
 20
195.2228361553485
 30
0.0
  0
VERTEX
  5
287
330
269
100
AcDbEntity
  8
Layer 1
 62
     1
420
 16711680
370
     9
100
AcDbVertex
100
AcDb2dVertex
 10
312.0485054010259
 20
201.2228363207415
 30
0.0
  0
VERTEX
  5
288
330
269
100
AcDbEntity
  8
Layer 1
 62
     1
420
 16711680
370
     9
100
AcDbVertex
100
AcDb2dVertex
 10
316.1785027682893
 20
201.2228363207415
 30
0.0
  0
VERTEX
  5
289
330
269
100
AcDbEntity
  8
Layer 1
 62
     1
420
 16711680
370
     9
100
AcDbVertex
100
AcDb2dVertex
 10
316.1785027682893
 20
207.2228364861352
 30
0.0
  0
VERTEX
  5
28A
330
269
100
AcDbEntity
  8
Layer 1
 62
     1
420
 16711680
370
     9
100
AcDbVertex
100
AcDb2dVertex
 10
312.0485054010259
 20
207.2228364861352
 30
0.0
  0
VERTEX
  5
28B
330
269
100
AcDbEntity
  8
Layer 1
 62
     1
420
 16711680
370
     9
100
AcDbVertex
100
AcDb2dVertex
 10
312.0485054010259
 20
213.2228366515282
 30
0.0
  0
VERTEX
  5
28C
330
269
100
AcDbEntity
  8
Layer 1
 62
     1
420
 16711680
370
     9
100
AcDbVertex
100
AcDb2dVertex
 10
316.1785027682893
 20
213.2228366515282
 30
0.0
  0
VERTEX
  5
28D
330
269
100
AcDbEntity
  8
Layer 1
 62
     1
420
 16711680
370
     9
100
AcDbVertex
100
AcDb2dVertex
 10
316.1785027682893
 20
216.2228367342247
 30
0.0
  0
VERTEX
  5
28E
330
269
100
AcDbEntity
  8
Layer 1
 62
     1
420
 16711680
370
     9
100
AcDbVertex
100
AcDb2dVertex
 10
309.0235037917612
 20
216.2228367342247
 30
0.0
  0
VERTEX
  5
28F
330
269
100
AcDbEntity
  8
Layer 1
 62
     1
420
 16711680
370
     9
100
AcDbVertex
100
AcDb2dVertex
 10
309.0235037917612
 20
219.2228368169212
 30
0.0
  0
VERTEX
  5
290
330
269
100
AcDbEntity
  8
Layer 1
 62
     1
420
 16711680
370
     9
100
AcDbVertex
100
AcDb2dVertex
 10
303.0235036263683
 20
219.2228368169212
 30
0.0
  0
VERTEX
  5
291
330
269
100
AcDbEntity
  8
Layer 1
 62
     1
420
 16711680
370
     9
100
AcDbVertex
100
AcDb2dVertex
 10
303.0235036263683
 20
216.2228367342247
 30
0.0
  0
VERTEX
  5
292
330
269
100
AcDbEntity
  8
Layer 1
 62
     1
420
 16711680
370
     9
100
AcDbVertex
100
AcDb2dVertex
 10
297.0235034609752
 20
216.2228367342247
 30
0.0
  0
VERTEX
  5
293
330
269
100
AcDbEntity
  8
Layer 1
 62
     1
420
 16711680
370
     9
100
AcDbVertex
100
AcDb2dVertex
 10
297.0235034609752
 20
219.2228368169212
 30
0.0
  0
VERTEX
  5
294
330
269
100
AcDbEntity
  8
Layer 1
 62
     1
420
 16711680
370
     9
100
AcDbVertex
100
AcDb2dVertex
 10
291.0235032955823
 20
219.2228368169212
 30
0.0
  0
VERTEX
  5
295
330
269
100
AcDbEntity
  8
Layer 1
 62
     1
420
 16711680
370
     9
100
AcDbVertex
100
AcDb2dVertex
 10
291.0235032955823
 20
216.2228367342247
 30
0.0
  0
VERTEX
  5
296
330
269
100
AcDbEntity
  8
Layer 1
 62
     1
420
 16711680
370
     9
100
AcDbVertex
100
AcDb2dVertex
 10
285.0235031301892
 20
216.2228367342247
 30
0.0
  0
VERTEX
  5
297
330
269
100
AcDbEntity
  8
Layer 1
 62
     1
420
 16711680
370
     9
100
AcDbVertex
100
AcDb2dVertex
 10
285.0235031301892
 20
219.2228368169212
 30
0.0
  0
VERTEX
  5
298
330
269
100
AcDbEntity
  8
Layer 1
 62
     1
420
 16711680
370
     9
100
AcDbVertex
100
AcDb2dVertex
 10
279.0235029647963
 20
219.2228368169212
 30
0.0
  0
VERTEX
  5
299
330
269
100
AcDbEntity
  8
Layer 1
 62
     1
420
 16711680
370
     9
100
AcDbVertex
100
AcDb2dVertex
 10
279.0235029647963
 20
216.2228367342247
 30
0.0
  0
VERTEX
  5
29A
330
269
100
AcDbEntity
  8
Layer 1
 62
     1
420
 16711680
370
     9
100
AcDbVertex
100
AcDb2dVertex
 10
273.0235027994032
 20
216.2228367342247
 30
0.0
  0
VERTEX
  5
29B
330
269
100
AcDbEntity
  8
Layer 1
 62
     1
420
 16711680
370
     9
100
AcDbVertex
100
AcDb2dVertex
 10
273.0235027994032
 20
219.2228368169212
 30
0.0
  0
VERTEX
  5
29C
330
269
100
AcDbEntity
  8
Layer 1
 62
     1
420
 16711680
370
     9
100
AcDbVertex
100
AcDb2dVertex
 10
267.0235026340102
 20
219.2228368169212
 30
0.0
  0
VERTEX
  5
29D
330
269
100
AcDbEntity
  8
Layer 1
 62
     1
420
 16711680
370
     9
100
AcDbVertex
100
AcDb2dVertex
 10
267.0235026340102
 20
216.2228367342247
 30
0.0
  0
VERTEX
  5
29E
330
269
100
AcDbEntity
  8
Layer 1
 62
     1
420
 16711680
370
     9
100
AcDbVertex
100
AcDb2dVertex
 10
263.9985048394436
 20
216.2228367342247
 30
0.0
  0
SEQEND
  5
29F
330
269
100
AcDbEntity
  8
Layer 1
 62
     1
420
 16711680
370
     9
  0
ENDBLK
  5
268
330
265
100
AcDbEntity
  8
0
100
AcDbBlockEnd
  0
BLOCK
  5
2A2
330
2A0
100
AcDbEntity
  8
0
100
AcDbBlockBegin
  2
block 15
 70
     0
 10
0.0
 20
0.0
 30
0.0
  3
block 15
  1

  0
POLYLINE
  5
2A4
330
2A0
100
AcDbEntity
  8
Layer 1
 62
     1
420
 16711680
370
     9
100
AcDb2dPolyline
 66
     1
 10
0.0
 20
0.0
 30
0.0
  0
VERTEX
  5
2A5
330
2A4
100
AcDbEntity
  8
Layer 1
 62
     1
420
 16711680
370
     9
100
AcDbVertex
100
AcDb2dVertex
 10
323.3075083969327
 20
183.2228358245625
 30
0.0
  0
VERTEX
  5
2A6
330
2A4
100
AcDbEntity
  8
Layer 1
 62
     1
420
 16711680
370
     9
100
AcDbVertex
100
AcDb2dVertex
 10
323.3075083969327
 20
180.222835741866
 30
0.0
  0
VERTEX
  5
2A7
330
2A4
100
AcDbEntity
  8
Layer 1
 62
     1
420
 16711680
370
     9
100
AcDbVertex
100
AcDb2dVertex
 10
319.1785028509858
 20
180.222835741866
 30
0.0
  0
VERTEX
  5
2A8
330
2A4
100
AcDbEntity
  8
Layer 1
 62
     1
420
 16711680
370
     9
100
AcDbVertex
100
AcDb2dVertex
 10
319.1785028509858
 20
174.2228432058677
 30
0.0
  0
VERTEX
  5
2A9
330
2A4
100
AcDbEntity
  8
Layer 1
 62
     1
420
 16711680
370
     9
100
AcDbVertex
100
AcDb2dVertex
 10
323.3075083969327
 20
174.2228432058677
 30
0.0
  0
VERTEX
  5
2AA
330
2A4
100
AcDbEntity
  8
Layer 1
 62
     1
420
 16711680
370
     9
100
AcDbVertex
100
AcDb2dVertex
 10
323.3075083969327
 20
168.2228430404747
 30
0.0
  0
VERTEX
  5
2AB
330
2A4
100
AcDbEntity
  8
Layer 1
 62
     1
420
 16711680
370
     9
100
AcDbVertex
100
AcDb2dVertex
 10
319.1785028509858
 20
168.2228430404747
 30
0.0
  0
VERTEX
  5
2AC
330
2A4
100
AcDbEntity
  8
Layer 1
 62
     1
420
 16711680
370
     9
100
AcDbVertex
100
AcDb2dVertex
 10
319.1785028509858
 20
162.2228428750817
 30
0.0
  0
VERTEX
  5
2AD
330
2A4
100
AcDbEntity
  8
Layer 1
 62
     1
420
 16711680
370
     9
100
AcDbVertex
100
AcDb2dVertex
 10
323.3075083969327
 20
162.2228428750817
 30
0.0
  0
VERTEX
  5
2AE
330
2A4
100
AcDbEntity
  8
Layer 1
 62
     1
420
 16711680
370
     9
100
AcDbVertex
100
AcDb2dVertex
 10
323.3075083969327
 20
159.2228427923856
 30
0.0
  0
VERTEX
  5
2AF
330
2A4
100
AcDbEntity
  8
Layer 1
 62
     1
420
 16711680
370
     9
100
AcDbVertex
100
AcDb2dVertex
 10
326.3325100061974
 20
159.2228427923856
 30
0.0
  0
VERTEX
  5
2B0
330
2A4
100
AcDbEntity
  8
Layer 1
 62
     1
420
 16711680
370
     9
100
AcDbVertex
100
AcDb2dVertex
 10
326.3325100061974
 20
156.2228427096887
 30
0.0
  0
VERTEX
  5
2B1
330
2A4
100
AcDbEntity
  8
Layer 1
 62
     1
420
 16711680
370
     9
100
AcDbVertex
100
AcDb2dVertex
 10
332.3325101715903
 20
156.2228427096887
 30
0.0
  0
VERTEX
  5
2B2
330
2A4
100
AcDbEntity
  8
Layer 1
 62
     1
420
 16711680
370
     9
100
AcDbVertex
100
AcDb2dVertex
 10
332.3325101715903
 20
159.2228427923856
 30
0.0
  0
VERTEX
  5
2B3
330
2A4
100
AcDbEntity
  8
Layer 1
 62
     1
420
 16711680
370
     9
100
AcDbVertex
100
AcDb2dVertex
 10
338.3325103369834
 20
159.2228427923856
 30
0.0
  0
VERTEX
  5
2B4
330
2A4
100
AcDbEntity
  8
Layer 1
 62
     1
420
 16711680
370
     9
100
AcDbVertex
100
AcDb2dVertex
 10
338.3325103369834
 20
156.2228427096887
 30
0.0
  0
VERTEX
  5
2B5
330
2A4
100
AcDbEntity
  8
Layer 1
 62
     1
420
 16711680
370
     9
100
AcDbVertex
100
AcDb2dVertex
 10
344.3325105023764
 20
156.2228427096887
 30
0.0
  0
VERTEX
  5
2B6
330
2A4
100
AcDbEntity
  8
Layer 1
 62
     1
420
 16711680
370
     9
100
AcDbVertex
100
AcDb2dVertex
 10
344.3325105023764
 20
159.2228427923856
 30
0.0
  0
VERTEX
  5
2B7
330
2A4
100
AcDbEntity
  8
Layer 1
 62
     1
420
 16711680
370
     9
100
AcDbVertex
100
AcDb2dVertex
 10
350.3325106677694
 20
159.2228427923856
 30
0.0
  0
VERTEX
  5
2B8
330
2A4
100
AcDbEntity
  8
Layer 1
 62
     1
420
 16711680
370
     9
100
AcDbVertex
100
AcDb2dVertex
 10
350.3325106677694
 20
156.2228427096887
 30
0.0
  0
VERTEX
  5
2B9
330
2A4
100
AcDbEntity
  8
Layer 1
 62
     1
420
 16711680
370
     9
100
AcDbVertex
100
AcDb2dVertex
 10
356.3325108331617
 20
156.2228427096887
 30
0.0
  0
VERTEX
  5
2BA
330
2A4
100
AcDbEntity
  8
Layer 1
 62
     1
420
 16711680
370
     9
100
AcDbVertex
100
AcDb2dVertex
 10
356.3325108331617
 20
159.2228427923856
 30
0.0
  0
VERTEX
  5
2BB
330
2A4
100
AcDbEntity
  8
Layer 1
 62
     1
420
 16711680
370
     9
100
AcDbVertex
100
AcDb2dVertex
 10
362.3325109985548
 20
159.2228427923856
 30
0.0
  0
VERTEX
  5
2BC
330
2A4
100
AcDbEntity
  8
Layer 1
 62
     1
420
 16711680
370
     9
100
AcDbVertex
100
AcDb2dVertex
 10
362.3325109985548
 20
156.2228427096887
 30
0.0
  0
VERTEX
  5
2BD
330
2A4
100
AcDbEntity
  8
Layer 1
 62
     1
420
 16711680
370
     9
100
AcDbVertex
100
AcDb2dVertex
 10
368.3325111639471
 20
156.2228427096887
 30
0.0
  0
VERTEX
  5
2BE
330
2A4
100
AcDbEntity
  8
Layer 1
 62
     1
420
 16711680
370
     9
100
AcDbVertex
100
AcDb2dVertex
 10
368.3325111639471
 20
159.2228427923856
 30
0.0
  0
VERTEX
  5
2BF
330
2A4
100
AcDbEntity
  8
Layer 1
 62
     1
420
 16711680
370
     9
100
AcDbVertex
100
AcDb2dVertex
 10
375.4865030603699
 20
159.2228427923856
 30
0.0
  0
VERTEX
  5
2C0
330
2A4
100
AcDbEntity
  8
Layer 1
 62
     1
420
 16711680
370
     9
100
AcDbVertex
100
AcDb2dVertex
 10
375.4865030603699
 20
162.2228428750817
 30
0.0
  0
VERTEX
  5
2C1
330
2A4
100
AcDbEntity
  8
Layer 1
 62
     1
420
 16711680
370
     9
100
AcDbVertex
100
AcDb2dVertex
 10
371.3575051438195
 20
162.2228428750817
 30
0.0
  0
VERTEX
  5
2C2
330
2A4
100
AcDbEntity
  8
Layer 1
 62
     1
420
 16711680
370
     9
100
AcDbVertex
100
AcDb2dVertex
 10
371.3575051438195
 20
168.2228430404747
 30
0.0
  0
VERTEX
  5
2C3
330
2A4
100
AcDbEntity
  8
Layer 1
 62
     1
420
 16711680
370
     9
100
AcDbVertex
100
AcDb2dVertex
 10
375.4865030603699
 20
168.2228430404747
 30
0.0
  0
VERTEX
  5
2C4
330
2A4
100
AcDbEntity
  8
Layer 1
 62
     1
420
 16711680
370
     9
100
AcDbVertex
100
AcDb2dVertex
 10
375.4865030603699
 20
174.2228432058677
 30
0.0
  0
VERTEX
  5
2C5
330
2A4
100
AcDbEntity
  8
Layer 1
 62
     1
420
 16711680
370
     9
100
AcDbVertex
100
AcDb2dVertex
 10
371.3575051438195
 20
174.2228432058677
 30
0.0
  0
VERTEX
  5
2C6
330
2A4
100
AcDbEntity
  8
Layer 1
 62
     1
420
 16711680
370
     9
100
AcDbVertex
100
AcDb2dVertex
 10
371.3575051438195
 20
180.222835741866
 30
0.0
  0
VERTEX
  5
2C7
330
2A4
100
AcDbEntity
  8
Layer 1
 62
     1
420
 16711680
370
     9
100
AcDbVertex
100
AcDb2dVertex
 10
375.4865030603699
 20
180.222835741866
 30
0.0
  0
VERTEX
  5
2C8
330
2A4
100
AcDbEntity
  8
Layer 1
 62
     1
420
 16711680
370
     9
100
AcDbVertex
100
AcDb2dVertex
 10
375.4865030603699
 20
183.2228358245625
 30
0.0
  0
VERTEX
  5
2C9
330
2A4
100
AcDbEntity
  8
Layer 1
 62
     1
420
 16711680
370
     9
100
AcDbVertex
100
AcDb2dVertex
 10
368.3325111639471
 20
183.2228358245625
 30
0.0
  0
VERTEX
  5
2CA
330
2A4
100
AcDbEntity
  8
Layer 1
 62
     1
420
 16711680
370
     9
100
AcDbVertex
100
AcDb2dVertex
 10
368.3325111639471
 20
186.222835907259
 30
0.0
  0
VERTEX
  5
2CB
330
2A4
100
AcDbEntity
  8
Layer 1
 62
     1
420
 16711680
370
     9
100
AcDbVertex
100
AcDb2dVertex
 10
362.3325109985548
 20
186.222835907259
 30
0.0
  0
VERTEX
  5
2CC
330
2A4
100
AcDbEntity
  8
Layer 1
 62
     1
420
 16711680
370
     9
100
AcDbVertex
100
AcDb2dVertex
 10
362.3325109985548
 20
183.2228358245625
 30
0.0
  0
VERTEX
  5
2CD
330
2A4
100
AcDbEntity
  8
Layer 1
 62
     1
420
 16711680
370
     9
100
AcDbVertex
100
AcDb2dVertex
 10
356.3325108331617
 20
183.2228358245625
 30
0.0
  0
VERTEX
  5
2CE
330
2A4
100
AcDbEntity
  8
Layer 1
 62
     1
420
 16711680
370
     9
100
AcDbVertex
100
AcDb2dVertex
 10
356.3325108331617
 20
186.222835907259
 30
0.0
  0
VERTEX
  5
2CF
330
2A4
100
AcDbEntity
  8
Layer 1
 62
     1
420
 16711680
370
     9
100
AcDbVertex
100
AcDb2dVertex
 10
350.3325106677694
 20
186.222835907259
 30
0.0
  0
VERTEX
  5
2D0
330
2A4
100
AcDbEntity
  8
Layer 1
 62
     1
420
 16711680
370
     9
100
AcDbVertex
100
AcDb2dVertex
 10
350.3325106677694
 20
183.2228358245625
 30
0.0
  0
VERTEX
  5
2D1
330
2A4
100
AcDbEntity
  8
Layer 1
 62
     1
420
 16711680
370
     9
100
AcDbVertex
100
AcDb2dVertex
 10
344.3325105023764
 20
183.2228358245625
 30
0.0
  0
VERTEX
  5
2D2
330
2A4
100
AcDbEntity
  8
Layer 1
 62
     1
420
 16711680
370
     9
100
AcDbVertex
100
AcDb2dVertex
 10
344.3325105023764
 20
186.222835907259
 30
0.0
  0
VERTEX
  5
2D3
330
2A4
100
AcDbEntity
  8
Layer 1
 62
     1
420
 16711680
370
     9
100
AcDbVertex
100
AcDb2dVertex
 10
338.3325103369834
 20
186.222835907259
 30
0.0
  0
VERTEX
  5
2D4
330
2A4
100
AcDbEntity
  8
Layer 1
 62
     1
420
 16711680
370
     9
100
AcDbVertex
100
AcDb2dVertex
 10
338.3325103369834
 20
183.2228358245625
 30
0.0
  0
VERTEX
  5
2D5
330
2A4
100
AcDbEntity
  8
Layer 1
 62
     1
420
 16711680
370
     9
100
AcDbVertex
100
AcDb2dVertex
 10
332.3325101715903
 20
183.2228358245625
 30
0.0
  0
VERTEX
  5
2D6
330
2A4
100
AcDbEntity
  8
Layer 1
 62
     1
420
 16711680
370
     9
100
AcDbVertex
100
AcDb2dVertex
 10
332.3325101715903
 20
186.222835907259
 30
0.0
  0
VERTEX
  5
2D7
330
2A4
100
AcDbEntity
  8
Layer 1
 62
     1
420
 16711680
370
     9
100
AcDbVertex
100
AcDb2dVertex
 10
326.3325100061974
 20
186.222835907259
 30
0.0
  0
VERTEX
  5
2D8
330
2A4
100
AcDbEntity
  8
Layer 1
 62
     1
420
 16711680
370
     9
100
AcDbVertex
100
AcDb2dVertex
 10
326.3325100061974
 20
183.2228358245625
 30
0.0
  0
VERTEX
  5
2D9
330
2A4
100
AcDbEntity
  8
Layer 1
 62
     1
420
 16711680
370
     9
100
AcDbVertex
100
AcDb2dVertex
 10
323.3075083969327
 20
183.2228358245625
 30
0.0
  0
SEQEND
  5
2DA
330
2A4
100
AcDbEntity
  8
Layer 1
 62
     1
420
 16711680
370
     9
  0
ENDBLK
  5
2A3
330
2A0
100
AcDbEntity
  8
0
100
AcDbBlockEnd
  0
BLOCK
  5
2DD
330
2DB
100
AcDbEntity
  8
0
100
AcDbBlockBegin
  2
block 16
 70
     0
 10
0.0
 20
0.0
 30
0.0
  3
block 16
  1

  0
POLYLINE
  5
2DF
330
2DB
100
AcDbEntity
  8
Layer 1
 62
     1
420
 16711680
370
     9
100
AcDb2dPolyline
 66
     1
 10
0.0
 20
0.0
 30
0.0
  0
VERTEX
  5
2E0
330
2DF
100
AcDbEntity
  8
Layer 1
 62
     1
420
 16711680
370
     9
100
AcDbVertex
100
AcDb2dVertex
 10
244.5385052185464
 20
305.8728407313508
 30
0.0
  0
VERTEX
  5
2E1
330
2DF
100
AcDbEntity
  8
Layer 1
 62
     1
420
 16711680
370
     9
100
AcDbVertex
100
AcDb2dVertex
 10
249.5375059056627
 20
302.2408406617505
 30
0.0
  0
VERTEX
  5
2E2
330
2DF
100
AcDbEntity
  8
Layer 1
 62
     1
420
 16711680
370
     9
100
AcDbVertex
100
AcDb2dVertex
 10
247.7745053687835
 20
299.8138405490723
 30
0.0
  0
VERTEX
  5
2E3
330
2DF
100
AcDbEntity
  8
Layer 1
 62
     1
420
 16711680
370
     9
100
AcDbVertex
100
AcDb2dVertex
 10
252.6285055941385
 20
296.2868400246034
 30
0.0
  0
VERTEX
  5
2E4
330
2DF
100
AcDbEntity
  8
Layer 1
 62
     1
420
 16711680
370
     9
100
AcDbVertex
100
AcDb2dVertex
 10
254.3915061310178
 20
298.7138406141178
 30
0.0
  0
VERTEX
  5
2E5
330
2DF
100
AcDbEntity
  8
Layer 1
 62
     1
420
 16711680
370
     9
100
AcDbVertex
100
AcDb2dVertex
 10
259.2455063563741
 20
295.1868405664857
 30
0.0
  0
VERTEX
  5
2E6
330
2DF
100
AcDbEntity
  8
Layer 1
 62
     1
420
 16711680
370
     9
100
AcDbVertex
100
AcDb2dVertex
 10
257.4825058194949
 20
292.7598404538076
 30
0.0
  0
VERTEX
  5
2E7
330
2DF
100
AcDbEntity
  8
Layer 1
 62
     1
420
 16711680
370
     9
100
AcDbVertex
100
AcDb2dVertex
 10
262.3365060448499
 20
289.2338403337236
 30
0.0
  0
VERTEX
  5
2E8
330
2DF
100
AcDbEntity
  8
Layer 1
 62
     1
420
 16711680
370
     9
100
AcDbVertex
100
AcDb2dVertex
 10
264.0995065817291
 20
291.6608404464011
 30
0.0
  0
VERTEX
  5
2E9
330
2DF
100
AcDbEntity
  8
Layer 1
 62
     1
420
 16711680
370
     9
100
AcDbVertex
100
AcDb2dVertex
 10
268.9535029923874
 20
288.1338399219321
 30
0.0
  0
VERTEX
  5
2EA
330
2DF
100
AcDbEntity
  8
Layer 1
 62
     1
420
 16711680
370
     9
100
AcDbVertex
100
AcDb2dVertex
 10
267.1905024555082
 20
285.7068398092533
 30
0.0
  0
VERTEX
  5
2EB
330
2DF
100
AcDbEntity
  8
Layer 1
 62
     1
420
 16711680
370
     9
100
AcDbVertex
100
AcDb2dVertex
 10
272.0445064955612
 20
282.1798392847844
 30
0.0
  0
VERTEX
  5
2EC
330
2DF
100
AcDbEntity
  8
Layer 1
 62
     1
420
 16711680
370
     9
100
AcDbVertex
100
AcDb2dVertex
 10
273.8075070324405
 20
284.6068393974625
 30
0.0
  0
VERTEX
  5
2ED
330
2DF
100
AcDbEntity
  8
Layer 1
 62
     1
420
 16711680
370
     9
100
AcDbVertex
100
AcDb2dVertex
 10
278.6625028938099
 20
281.0798407803412
 30
0.0
  0
VERTEX
  5
2EE
330
2DF
100
AcDbEntity
  8
Layer 1
 62
     1
420
 16711680
370
     9
100
AcDbVertex
100
AcDb2dVertex
 10
276.8985029062196
 20
278.652840667663
 30
0.0
  0
VERTEX
  5
2EF
330
2DF
100
AcDbEntity
  8
Layer 1
 62
     1
420
 16711680
370
     9
100
AcDbVertex
100
AcDb2dVertex
 10
281.7525069462726
 20
275.1268395939046
 30
0.0
  0
VERTEX
  5
2F0
330
2DF
100
AcDbEntity
  8
Layer 1
 62
     1
420
 16711680
370
     9
100
AcDbVertex
100
AcDb2dVertex
 10
283.516506933863
 20
277.5538397065827
 30
0.0
  0
VERTEX
  5
2F1
330
2DF
100
AcDbEntity
  8
Layer 1
 62
     1
420
 16711680
370
     9
100
AcDbVertex
100
AcDb2dVertex
 10
288.5155076209793
 20
273.9208401862713
 30
0.0
  0
VERTEX
  5
2F2
330
2DF
100
AcDbEntity
  8
Layer 1
 62
     1
420
 16711680
370
     9
100
AcDbVertex
100
AcDb2dVertex
 10
286.6065033569309
 20
268.0438411229017
 30
0.0
  0
VERTEX
  5
2F3
330
2DF
100
AcDbEntity
  8
Layer 1
 62
     1
420
 16711680
370
     9
100
AcDbVertex
100
AcDb2dVertex
 10
283.7525070014036
 20
268.9708392868826
 30
0.0
  0
VERTEX
  5
2F4
330
2DF
100
AcDbEntity
  8
Layer 1
 62
     1
420
 16711680
370
     9
100
AcDbVertex
100
AcDb2dVertex
 10
281.8985030440471
 20
263.2648378478555
 30
0.0
  0
VERTEX
  5
2F5
330
2DF
100
AcDbEntity
  8
Layer 1
 62
     1
420
 16711680
370
     9
100
AcDbVertex
100
AcDb2dVertex
 10
284.7515075782579
 20
262.3378396838746
 30
0.0
  0
VERTEX
  5
2F6
330
2DF
100
AcDbEntity
  8
Layer 1
 62
     1
420
 16711680
370
     9
100
AcDbVertex
100
AcDb2dVertex
 10
282.8975036209014
 20
256.6318382448475
 30
0.0
  0
VERTEX
  5
2F7
330
2DF
100
AcDbEntity
  8
Layer 1
 62
     1
420
 16711680
370
     9
100
AcDbVertex
100
AcDb2dVertex
 10
280.0445067160853
 20
257.5588402235258
 30
0.0
  0
VERTEX
  5
2F8
330
2DF
100
AcDbEntity
  8
Layer 1
 62
     1
420
 16711680
370
     9
100
AcDbVertex
100
AcDb2dVertex
 10
278.1905027587287
 20
251.8518393337876
 30
0.0
  0
VERTEX
  5
2F9
330
2DF
100
AcDbEntity
  8
Layer 1
 62
     1
420
 16711680
370
     9
100
AcDbVertex
100
AcDb2dVertex
 10
281.0435072929396
 20
250.924837355109
 30
0.0
  0
VERTEX
  5
2FA
330
2DF
100
AcDbEntity
  8
Layer 1
 62
     1
420
 16711680
370
     9
100
AcDbVertex
100
AcDb2dVertex
 10
279.189503335583
 20
245.2188397307796
 30
0.0
  0
VERTEX
  5
2FB
330
2DF
100
AcDbEntity
  8
Layer 1
 62
     1
420
 16711680
370
     9
100
AcDbVertex
100
AcDb2dVertex
 10
276.3365064307669
 20
246.1458378947605
 30
0.0
  0
VERTEX
  5
2FC
330
2DF
100
AcDbEntity
  8
Layer 1
 62
     1
420
 16711680
370
     9
100
AcDbVertex
100
AcDb2dVertex
 10
274.4825024734104
 20
240.4398402704308
 30
0.0
  0
VERTEX
  5
2FD
330
2DF
100
AcDbEntity
  8
Layer 1
 62
     1
420
 16711680
370
     9
100
AcDbVertex
100
AcDb2dVertex
 10
277.3355070076212
 20
239.5128382917522
 30
0.0
  0
VERTEX
  5
2FE
330
2DF
100
AcDbEntity
  8
Layer 1
 62
     1
420
 16711680
370
     9
100
AcDbVertex
100
AcDb2dVertex
 10
275.4815030502647
 20
233.805837402014
 30
0.0
  0
VERTEX
  5
2FF
330
2DF
100
AcDbEntity
  8
Layer 1
 62
     1
420
 16711680
370
     9
100
AcDbVertex
100
AcDb2dVertex
 10
272.6285061454486
 20
234.7328393806926
 30
0.0
  0
VERTEX
  5
300
330
2DF
100
AcDbEntity
  8
Layer 1
 62
     1
420
 16711680
370
     9
100
AcDbVertex
100
AcDb2dVertex
 10
270.774502188092
 20
229.0268379416656
 30
0.0
  0
VERTEX
  5
301
330
2DF
100
AcDbEntity
  8
Layer 1
 62
     1
420
 16711680
370
     9
100
AcDbVertex
100
AcDb2dVertex
 10
273.6275067223029
 20
228.0998359629873
 30
0.0
  0
VERTEX
  5
302
330
2DF
100
AcDbEntity
  8
Layer 1
 62
     1
420
 16711680
370
     9
100
AcDbVertex
100
AcDb2dVertex
 10
271.7175030075433
 20
222.2228368996177
 30
0.0
  0
VERTEX
  5
303
330
2DF
100
AcDbEntity
  8
Layer 1
 62
     1
420
 16711680
370
     9
100
AcDbVertex
100
AcDb2dVertex
 10
265.5385019827239
 20
222.2228368996177
 30
0.0
  0
VERTEX
  5
304
330
2DF
100
AcDbEntity
  8
Layer 1
 62
     1
420
 16711680
370
     9
100
AcDbVertex
100
AcDb2dVertex
 10
265.5385019827239
 20
225.2228369823142
 30
0.0
  0
VERTEX
  5
305
330
2DF
100
AcDbEntity
  8
Layer 1
 62
     1
420
 16711680
370
     9
100
AcDbVertex
100
AcDb2dVertex
 10
259.5385056320289
 20
225.2228369823142
 30
0.0
  0
VERTEX
  5
306
330
2DF
100
AcDbEntity
  8
Layer 1
 62
     1
420
 16711680
370
     9
100
AcDbVertex
100
AcDb2dVertex
 10
259.5385056320289
 20
222.2228368996177
 30
0.0
  0
VERTEX
  5
307
330
2DF
100
AcDbEntity
  8
Layer 1
 62
     1
420
 16711680
370
     9
100
AcDbVertex
100
AcDb2dVertex
 10
253.5385054666359
 20
222.2228368996177
 30
0.0
  0
VERTEX
  5
308
330
2DF
100
AcDbEntity
  8
Layer 1
 62
     1
420
 16711680
370
     9
100
AcDbVertex
100
AcDb2dVertex
 10
253.5385054666359
 20
225.2228369823142
 30
0.0
  0
VERTEX
  5
309
330
2DF
100
AcDbEntity
  8
Layer 1
 62
     1
420
 16711680
370
     9
100
AcDbVertex
100
AcDb2dVertex
 10
247.5385053012429
 20
225.2228369823142
 30
0.0
  0
VERTEX
  5
30A
330
2DF
100
AcDbEntity
  8
Layer 1
 62
     1
420
 16711680
370
     9
100
AcDbVertex
100
AcDb2dVertex
 10
247.5385053012429
 20
222.2228368996177
 30
0.0
  0
VERTEX
  5
30B
330
2DF
100
AcDbEntity
  8
Layer 1
 62
     1
420
 16711680
370
     9
100
AcDbVertex
100
AcDb2dVertex
 10
241.5385051358499
 20
222.2228368996177
 30
0.0
  0
VERTEX
  5
30C
330
2DF
100
AcDbEntity
  8
Layer 1
 62
     1
420
 16711680
370
     9
100
AcDbVertex
100
AcDb2dVertex
 10
241.5385051358499
 20
225.2228369823142
 30
0.0
  0
VERTEX
  5
30D
330
2DF
100
AcDbEntity
  8
Layer 1
 62
     1
420
 16711680
370
     9
100
AcDbVertex
100
AcDb2dVertex
 10
235.5385049704569
 20
225.2228369823142
 30
0.0
  0
VERTEX
  5
30E
330
2DF
100
AcDbEntity
  8
Layer 1
 62
     1
420
 16711680
370
     9
100
AcDbVertex
100
AcDb2dVertex
 10
235.5385049704569
 20
222.2228368996177
 30
0.0
  0
VERTEX
  5
30F
330
2DF
100
AcDbEntity
  8
Layer 1
 62
     1
420
 16711680
370
     9
100
AcDbVertex
100
AcDb2dVertex
 10
229.5385048050639
 20
222.2228368996177
 30
0.0
  0
VERTEX
  5
310
330
2DF
100
AcDbEntity
  8
Layer 1
 62
     1
420
 16711680
370
     9
100
AcDbVertex
100
AcDb2dVertex
 10
229.5385048050639
 20
225.2228369823142
 30
0.0
  0
VERTEX
  5
311
330
2DF
100
AcDbEntity
  8
Layer 1
 62
     1
420
 16711680
370
     9
100
AcDbVertex
100
AcDb2dVertex
 10
223.5385046396708
 20
225.2228369823142
 30
0.0
  0
VERTEX
  5
312
330
2DF
100
AcDbEntity
  8
Layer 1
 62
     1
420
 16711680
370
     9
100
AcDbVertex
100
AcDb2dVertex
 10
223.5385046396708
 20
222.2228368996177
 30
0.0
  0
VERTEX
  5
313
330
2DF
100
AcDbEntity
  8
Layer 1
 62
     1
420
 16711680
370
     9
100
AcDbVertex
100
AcDb2dVertex
 10
217.3585041641403
 20
222.2228368996177
 30
0.0
  0
VERTEX
  5
314
330
2DF
100
AcDbEntity
  8
Layer 1
 62
     1
420
 16711680
370
     9
100
AcDbVertex
100
AcDb2dVertex
 10
215.4485033104035
 20
228.0998359629873
 30
0.0
  0
VERTEX
  5
315
330
2DF
100
AcDbEntity
  8
Layer 1
 62
     1
420
 16711680
370
     9
100
AcDbVertex
100
AcDb2dVertex
 10
218.3015030762426
 20
229.0268379416656
 30
0.0
  0
VERTEX
  5
316
330
2DF
100
AcDbEntity
  8
Layer 1
 62
     1
420
 16711680
370
     9
100
AcDbVertex
100
AcDb2dVertex
 10
216.4475038872579
 20
234.7328393806926
 30
0.0
  0
VERTEX
  5
317
330
2DF
100
AcDbEntity
  8
Layer 1
 62
     1
420
 16711680
370
     9
100
AcDbVertex
100
AcDb2dVertex
 10
213.5945041214189
 20
233.805837402014
 30
0.0
  0
VERTEX
  5
318
330
2DF
100
AcDbEntity
  8
Layer 1
 62
     1
420
 16711680
370
     9
100
AcDbVertex
100
AcDb2dVertex
 10
211.7405039787591
 20
239.5128382917522
 30
0.0
  0
VERTEX
  5
319
330
2DF
100
AcDbEntity
  8
Layer 1
 62
     1
420
 16711680
370
     9
100
AcDbVertex
100
AcDb2dVertex
 10
214.5935037445981
 20
240.4398402704308
 30
0.0
  0
VERTEX
  5
31A
330
2DF
100
AcDbEntity
  8
Layer 1
 62
     1
420
 16711680
370
     9
100
AcDbVertex
100
AcDb2dVertex
 10
212.7395036019396
 20
246.1458378947602
 30
0.0
  0
VERTEX
  5
31B
330
2DF
100
AcDbEntity
  8
Layer 1
 62
     1
420
 16711680
370
     9
100
AcDbVertex
100
AcDb2dVertex
 10
209.8865038361005
 20
245.2188397307796
 30
0.0
  0
VERTEX
  5
31C
330
2DF
100
AcDbEntity
  8
Layer 1
 62
     1
420
 16711680
370
     9
100
AcDbVertex
100
AcDb2dVertex
 10
208.0325036934407
 20
250.9248373551093
 30
0.0
  0
VERTEX
  5
31D
330
2DF
100
AcDbEntity
  8
Layer 1
 62
     1
420
 16711680
370
     9
100
AcDbVertex
100
AcDb2dVertex
 10
210.8855034592797
 20
251.8518393337876
 30
0.0
  0
VERTEX
  5
31E
330
2DF
100
AcDbEntity
  8
Layer 1
 62
     1
420
 16711680
370
     9
100
AcDbVertex
100
AcDb2dVertex
 10
209.0315033166212
 20
257.5588402235258
 30
0.0
  0
VERTEX
  5
31F
330
2DF
100
AcDbEntity
  8
Layer 1
 62
     1
420
 16711680
370
     9
100
AcDbVertex
100
AcDb2dVertex
 10
206.1785035507822
 20
256.6318382448475
 30
0.0
  0
VERTEX
  5
320
330
2DF
100
AcDbEntity
  8
Layer 1
 62
     1
420
 16711680
370
     9
100
AcDbVertex
100
AcDb2dVertex
 10
204.3245034081224
 20
262.3378396838746
 30
0.0
  0
VERTEX
  5
321
330
2DF
100
AcDbEntity
  8
Layer 1
 62
     1
420
 16711680
370
     9
100
AcDbVertex
100
AcDb2dVertex
 10
207.177503650799
 20
263.2648378478555
 30
0.0
  0
VERTEX
  5
322
330
2DF
100
AcDbEntity
  8
Layer 1
 62
     1
420
 16711680
370
     9
100
AcDbVertex
100
AcDb2dVertex
 10
205.3235035081398
 20
268.9708392868826
 30
0.0
  0
VERTEX
  5
323
330
2DF
100
AcDbEntity
  8
Layer 1
 62
     1
420
 16711680
370
     9
100
AcDbVertex
100
AcDb2dVertex
 10
202.4705033846729
 20
268.0438411229017
 30
0.0
  0
VERTEX
  5
324
330
2DF
100
AcDbEntity
  8
Layer 1
 62
     1
420
 16711680
370
     9
100
AcDbVertex
100
AcDb2dVertex
 10
200.560503365401
 20
273.9208401862713
 30
0.0
  0
VERTEX
  5
325
330
2DF
100
AcDbEntity
  8
Layer 1
 62
     1
420
 16711680
370
     9
100
AcDbVertex
100
AcDb2dVertex
 10
205.5595035756804
 20
277.5538397065827
 30
0.0
  0
VERTEX
  5
326
330
2DF
100
AcDbEntity
  8
Layer 1
 62
     1
420
 16711680
370
     9
100
AcDbVertex
100
AcDb2dVertex
 10
207.3235035632708
 20
275.1268395939046
 30
0.0
  0
VERTEX
  5
327
330
2DF
100
AcDbEntity
  8
Layer 1
 62
     1
420
 16711680
370
     9
100
AcDbVertex
100
AcDb2dVertex
 10
212.1775033117889
 20
278.652840667663
 30
0.0
  0
VERTEX
  5
328
330
2DF
100
AcDbEntity
  8
Layer 1
 62
     1
420
 16711680
370
     9
100
AcDbVertex
100
AcDb2dVertex
 10
210.4145037285848
 20
281.0798407803412
 30
0.0
  0
VERTEX
  5
329
330
2DF
100
AcDbEntity
  8
Layer 1
 62
     1
420
 16711680
370
     9
100
AcDbVertex
100
AcDb2dVertex
 10
215.2685039539398
 20
284.6068393974625
 30
0.0
  0
VERTEX
  5
32A
330
2DF
100
AcDbEntity
  8
Layer 1
 62
     1
420
 16711680
370
     9
100
AcDbVertex
100
AcDb2dVertex
 10
217.0315044908191
 20
282.1798392847844
 30
0.0
  0
VERTEX
  5
32B
330
2DF
100
AcDbEntity
  8
Layer 1
 62
     1
420
 16711680
370
     9
100
AcDbVertex
100
AcDb2dVertex
 10
221.8855047161754
 20
285.7068398092533
 30
0.0
  0
VERTEX
  5
32C
330
2DF
100
AcDbEntity
  8
Layer 1
 62
     1
420
 16711680
370
     9
100
AcDbVertex
100
AcDb2dVertex
 10
220.1225041792962
 20
288.1338399219321
 30
0.0
  0
VERTEX
  5
32D
330
2DF
100
AcDbEntity
  8
Layer 1
 62
     1
420
 16711680
370
     9
100
AcDbVertex
100
AcDb2dVertex
 10
224.9765044046512
 20
291.6608404464011
 30
0.0
  0
VERTEX
  5
32E
330
2DF
100
AcDbEntity
  8
Layer 1
 62
     1
420
 16711680
370
     9
100
AcDbVertex
100
AcDb2dVertex
 10
226.7395049415304
 20
289.2338403337236
 30
0.0
  0
VERTEX
  5
32F
330
2DF
100
AcDbEntity
  8
Layer 1
 62
     1
420
 16711680
370
     9
100
AcDbVertex
100
AcDb2dVertex
 10
231.5935051668868
 20
292.7598404538076
 30
0.0
  0
VERTEX
  5
330
330
2DF
100
AcDbEntity
  8
Layer 1
 62
     1
420
 16711680
370
     9
100
AcDbVertex
100
AcDb2dVertex
 10
229.8305046300075
 20
295.1868405664857
 30
0.0
  0
VERTEX
  5
331
330
2DF
100
AcDbEntity
  8
Layer 1
 62
     1
420
 16711680
370
     9
100
AcDbVertex
100
AcDb2dVertex
 10
234.6845048553625
 20
298.7138406141178
 30
0.0
  0
VERTEX
  5
332
330
2DF
100
AcDbEntity
  8
Layer 1
 62
     1
420
 16711680
370
     9
100
AcDbVertex
100
AcDb2dVertex
 10
236.4475053922418
 20
296.2868400246034
 30
0.0
  0
VERTEX
  5
333
330
2DF
100
AcDbEntity
  8
Layer 1
 62
     1
420
 16711680
370
     9
100
AcDbVertex
100
AcDb2dVertex
 10
241.3015056175981
 20
299.8138405490723
 30
0.0
  0
VERTEX
  5
334
330
2DF
100
AcDbEntity
  8
Layer 1
 62
     1
420
 16711680
370
     9
100
AcDbVertex
100
AcDb2dVertex
 10
239.5385050807189
 20
302.2408406617505
 30
0.0
  0
VERTEX
  5
335
330
2DF
100
AcDbEntity
  8
Layer 1
 62
     1
420
 16711680
370
     9
100
AcDbVertex
100
AcDb2dVertex
 10
244.5385052185464
 20
305.8728407313508
 30
0.0
  0
SEQEND
  5
336
330
2DF
100
AcDbEntity
  8
Layer 1
 62
     1
420
 16711680
370
     9
  0
ENDBLK
  5
2DE
330
2DB
100
AcDbEntity
  8
0
100
AcDbBlockEnd
  0
BLOCK
  5
339
330
337
100
AcDbEntity
  8
0
100
AcDbBlockBegin
  2
block 17
 70
     0
 10
0.0
 20
0.0
 30
0.0
  3
block 17
  1

  0
POLYLINE
  5
33B
330
337
100
AcDbEntity
  8
Layer 1
 62
     1
420
 16711680
370
     9
100
AcDb2dPolyline
 66
     1
 10
0.0
 20
0.0
 30
0.0
  0
VERTEX
  5
33C
330
33B
100
AcDbEntity
  8
Layer 1
 62
     1
420
 16711680
370
     9
100
AcDbVertex
100
AcDb2dVertex
 10
335.4935057421232
 20
305.8728407313508
 30
0.0
  0
VERTEX
  5
33D
330
33B
100
AcDbEntity
  8
Layer 1
 62
     1
420
 16711680
370
     9
100
AcDbVertex
100
AcDb2dVertex
 10
340.4925140586344
 20
302.2408406617505
 30
0.0
  0
VERTEX
  5
33E
330
33B
100
AcDbEntity
  8
Layer 1
 62
     1
420
 16711680
370
     9
100
AcDbVertex
100
AcDb2dVertex
 10
338.7295135217551
 20
299.8138405490723
 30
0.0
  0
VERTEX
  5
33F
330
33B
100
AcDbEntity
  8
Layer 1
 62
     1
420
 16711680
370
     9
100
AcDbVertex
100
AcDb2dVertex
 10
343.5835023030186
 20
296.2868400246034
 30
0.0
  0
VERTEX
  5
340
330
33B
100
AcDbEntity
  8
Layer 1
 62
     1
420
 16711680
370
     9
100
AcDbVertex
100
AcDb2dVertex
 10
345.3465028398979
 20
298.7138406141178
 30
0.0
  0
VERTEX
  5
341
330
33B
100
AcDbEntity
  8
Layer 1
 62
     1
420
 16711680
370
     9
100
AcDbVertex
100
AcDb2dVertex
 10
350.2005068799509
 20
295.1868405664857
 30
0.0
  0
VERTEX
  5
342
330
33B
100
AcDbEntity
  8
Layer 1
 62
     1
420
 16711680
370
     9
100
AcDbVertex
100
AcDb2dVertex
 10
348.4375063430717
 20
292.7598404538076
 30
0.0
  0
VERTEX
  5
343
330
33B
100
AcDbEntity
  8
Layer 1
 62
     1
420
 16711680
370
     9
100
AcDbVertex
100
AcDb2dVertex
 10
353.2915103831228
 20
289.2338403337236
 30
0.0
  0
VERTEX
  5
344
330
33B
100
AcDbEntity
  8
Layer 1
 62
     1
420
 16711680
370
     9
100
AcDbVertex
100
AcDb2dVertex
 10
355.0545109200053
 20
291.6608404464011
 30
0.0
  0
VERTEX
  5
345
330
33B
100
AcDbEntity
  8
Layer 1
 62
     1
420
 16711680
370
     9
100
AcDbVertex
100
AcDb2dVertex
 10
359.9095067813747
 20
288.1338399219321
 30
0.0
  0
VERTEX
  5
346
330
33B
100
AcDbEntity
  8
Layer 1
 62
     1
420
 16711680
370
     9
100
AcDbVertex
100
AcDb2dVertex
 10
358.1455144231765
 20
285.7068398092533
 30
0.0
  0
VERTEX
  5
347
330
33B
100
AcDbEntity
  8
Layer 1
 62
     1
420
 16711680
370
     9
100
AcDbVertex
100
AcDb2dVertex
 10
362.9995032044407
 20
282.1798392847844
 30
0.0
  0
VERTEX
  5
348
330
33B
100
AcDbEntity
  8
Layer 1
 62
     1
420
 16711680
370
     9
100
AcDbVertex
100
AcDb2dVertex
 10
364.7635108214246
 20
284.6068393974625
 30
0.0
  0
VERTEX
  5
349
330
33B
100
AcDbEntity
  8
Layer 1
 62
     1
420
 16711680
370
     9
100
AcDbVertex
100
AcDb2dVertex
 10
369.6175148614782
 20
281.0798407803412
 30
0.0
  0
VERTEX
  5
34A
330
33B
100
AcDbEntity
  8
Layer 1
 62
     1
420
 16711680
370
     9
100
AcDbVertex
100
AcDb2dVertex
 10
367.8535072444944
 20
278.652840667663
 30
0.0
  0
VERTEX
  5
34B
330
33B
100
AcDbEntity
  8
Layer 1
 62
     1
420
 16711680
370
     9
100
AcDbVertex
100
AcDb2dVertex
 10
372.7075112845481
 20
275.1268395939046
 30
0.0
  0
VERTEX
  5
34C
330
33B
100
AcDbEntity
  8
Layer 1
 62
     1
420
 16711680
370
     9
100
AcDbVertex
100
AcDb2dVertex
 10
374.4715036427424
 20
277.5538397065827
 30
0.0
  0
VERTEX
  5
34D
330
33B
100
AcDbEntity
  8
Layer 1
 62
     1
420
 16711680
370
     9
100
AcDbVertex
100
AcDb2dVertex
 10
379.4705119592529
 20
273.9208401862713
 30
0.0
  0
VERTEX
  5
34E
330
33B
100
AcDbEntity
  8
Layer 1
 62
     1
420
 16711680
370
     9
100
AcDbVertex
100
AcDb2dVertex
 10
377.5615153246011
 20
268.0438411229017
 30
0.0
  0
VERTEX
  5
34F
330
33B
100
AcDbEntity
  8
Layer 1
 62
     1
420
 16711680
370
     9
100
AcDbVertex
100
AcDb2dVertex
 10
374.7075113396804
 20
268.9708392868826
 30
0.0
  0
VERTEX
  5
350
330
33B
100
AcDbEntity
  8
Layer 1
 62
     1
420
 16711680
370
     9
100
AcDbVertex
100
AcDb2dVertex
 10
372.8535073823213
 20
263.2648378478555
 30
0.0
  0
VERTEX
  5
351
330
33B
100
AcDbEntity
  8
Layer 1
 62
     1
420
 16711680
370
     9
100
AcDbVertex
100
AcDb2dVertex
 10
375.7075113672427
 20
262.3378396838746
 30
0.0
  0
VERTEX
  5
352
330
33B
100
AcDbEntity
  8
Layer 1
 62
     1
420
 16711680
370
     9
100
AcDbVertex
100
AcDb2dVertex
 10
373.852515588571
 20
256.6318382448475
 30
0.0
  0
VERTEX
  5
353
330
33B
100
AcDbEntity
  8
Layer 1
 62
     1
420
 16711680
370
     9
100
AcDbVertex
100
AcDb2dVertex
 10
370.999503424966
 20
257.5588402235258
 30
0.0
  0
VERTEX
  5
354
330
33B
100
AcDbEntity
  8
Layer 1
 62
     1
420
 16711680
370
     9
100
AcDbVertex
100
AcDb2dVertex
 10
369.1455147263996
 20
251.8518393337876
 30
0.0
  0
VERTEX
  5
355
330
33B
100
AcDbEntity
  8
Layer 1
 62
     1
420
 16711680
370
     9
100
AcDbVertex
100
AcDb2dVertex
 10
371.9985116312158
 20
250.924837355109
 30
0.0
  0
VERTEX
  5
356
330
33B
100
AcDbEntity
  8
Layer 1
 62
     1
420
 16711680
370
     9
100
AcDbVertex
100
AcDb2dVertex
 10
370.1445076738567
 20
245.2188397307796
 30
0.0
  0
VERTEX
  5
357
330
33B
100
AcDbEntity
  8
Layer 1
 62
     1
420
 16711680
370
     9
100
AcDbVertex
100
AcDb2dVertex
 10
367.2915107690411
 20
246.1458378947605
 30
0.0
  0
VERTEX
  5
358
330
33B
100
AcDbEntity
  8
Layer 1
 62
     1
420
 16711680
370
     9
100
AcDbVertex
100
AcDb2dVertex
 10
365.4375068116859
 20
240.4398402704308
 30
0.0
  0
VERTEX
  5
359
330
33B
100
AcDbEntity
  8
Layer 1
 62
     1
420
 16711680
370
     9
100
AcDbVertex
100
AcDb2dVertex
 10
368.2905037165014
 20
239.5128382917522
 30
0.0
  0
VERTEX
  5
35A
330
33B
100
AcDbEntity
  8
Layer 1
 62
     1
420
 16711680
370
     9
100
AcDbVertex
100
AcDb2dVertex
 10
366.4365150179349
 20
233.805837402014
 30
0.0
  0
VERTEX
  5
35B
330
33B
100
AcDbEntity
  8
Layer 1
 62
     1
420
 16711680
370
     9
100
AcDbVertex
100
AcDb2dVertex
 10
363.5835028543306
 20
234.7328393806926
 30
0.0
  0
VERTEX
  5
35C
330
33B
100
AcDbEntity
  8
Layer 1
 62
     1
420
 16711680
370
     9
100
AcDbVertex
100
AcDb2dVertex
 10
361.7295141557603
 20
229.0268379416656
 30
0.0
  0
VERTEX
  5
35D
330
33B
100
AcDbEntity
  8
Layer 1
 62
     1
420
 16711680
370
     9
100
AcDbVertex
100
AcDb2dVertex
 10
364.5825110605765
 20
228.0998359629873
 30
0.0
  0
VERTEX
  5
35E
330
33B
100
AcDbEntity
  8
Layer 1
 62
     1
420
 16711680
370
     9
100
AcDbVertex
100
AcDb2dVertex
 10
362.6725073458195
 20
222.2228368996177
 30
0.0
  0
VERTEX
  5
35F
330
33B
100
AcDbEntity
  8
Layer 1
 62
     1
420
 16711680
370
     9
100
AcDbVertex
100
AcDb2dVertex
 10
356.493506321
 20
222.2228368996177
 30
0.0
  0
VERTEX
  5
360
330
33B
100
AcDbEntity
  8
Layer 1
 62
     1
420
 16711680
370
     9
100
AcDbVertex
100
AcDb2dVertex
 10
356.493506321
 20
225.2228369823142
 30
0.0
  0
VERTEX
  5
361
330
33B
100
AcDbEntity
  8
Layer 1
 62
     1
420
 16711680
370
     9
100
AcDbVertex
100
AcDb2dVertex
 10
350.4935061556058
 20
225.2228369823142
 30
0.0
  0
VERTEX
  5
362
330
33B
100
AcDbEntity
  8
Layer 1
 62
     1
420
 16711680
370
     9
100
AcDbVertex
100
AcDb2dVertex
 10
350.4935061556058
 20
222.2228368996177
 30
0.0
  0
VERTEX
  5
363
330
33B
100
AcDbEntity
  8
Layer 1
 62
     1
420
 16711680
370
     9
100
AcDbVertex
100
AcDb2dVertex
 10
344.4935059902127
 20
222.2228368996177
 30
0.0
  0
VERTEX
  5
364
330
33B
100
AcDbEntity
  8
Layer 1
 62
     1
420
 16711680
370
     9
100
AcDbVertex
100
AcDb2dVertex
 10
344.4935059902127
 20
225.2228369823142
 30
0.0
  0
VERTEX
  5
365
330
33B
100
AcDbEntity
  8
Layer 1
 62
     1
420
 16711680
370
     9
100
AcDbVertex
100
AcDb2dVertex
 10
338.4935058248197
 20
225.2228369823142
 30
0.0
  0
VERTEX
  5
366
330
33B
100
AcDbEntity
  8
Layer 1
 62
     1
420
 16711680
370
     9
100
AcDbVertex
100
AcDb2dVertex
 10
338.4935058248197
 20
222.2228368996177
 30
0.0
  0
VERTEX
  5
367
330
33B
100
AcDbEntity
  8
Layer 1
 62
     1
420
 16711680
370
     9
100
AcDbVertex
100
AcDb2dVertex
 10
332.4935056594267
 20
222.2228368996177
 30
0.0
  0
VERTEX
  5
368
330
33B
100
AcDbEntity
  8
Layer 1
 62
     1
420
 16711680
370
     9
100
AcDbVertex
100
AcDb2dVertex
 10
332.4935056594267
 20
225.2228369823142
 30
0.0
  0
VERTEX
  5
369
330
33B
100
AcDbEntity
  8
Layer 1
 62
     1
420
 16711680
370
     9
100
AcDbVertex
100
AcDb2dVertex
 10
326.4935054940337
 20
225.2228369823142
 30
0.0
  0
VERTEX
  5
36A
330
33B
100
AcDbEntity
  8
Layer 1
 62
     1
420
 16711680
370
     9
100
AcDbVertex
100
AcDb2dVertex
 10
326.4935054940337
 20
222.2228368996177
 30
0.0
  0
VERTEX
  5
36B
330
33B
100
AcDbEntity
  8
Layer 1
 62
     1
420
 16711680
370
     9
100
AcDbVertex
100
AcDb2dVertex
 10
320.4935053286407
 20
222.2228368996177
 30
0.0
  0
VERTEX
  5
36C
330
33B
100
AcDbEntity
  8
Layer 1
 62
     1
420
 16711680
370
     9
100
AcDbVertex
100
AcDb2dVertex
 10
320.4935053286407
 20
225.2228369823142
 30
0.0
  0
VERTEX
  5
36D
330
33B
100
AcDbEntity
  8
Layer 1
 62
     1
420
 16711680
370
     9
100
AcDbVertex
100
AcDb2dVertex
 10
314.4935051632477
 20
225.2228369823142
 30
0.0
  0
VERTEX
  5
36E
330
33B
100
AcDbEntity
  8
Layer 1
 62
     1
420
 16711680
370
     9
100
AcDbVertex
100
AcDb2dVertex
 10
314.4935051632477
 20
222.2228368996177
 30
0.0
  0
VERTEX
  5
36F
330
33B
100
AcDbEntity
  8
Layer 1
 62
     1
420
 16711680
370
     9
100
AcDbVertex
100
AcDb2dVertex
 10
308.3135046877171
 20
222.2228368996177
 30
0.0
  0
VERTEX
  5
370
330
33B
100
AcDbEntity
  8
Layer 1
 62
     1
420
 16711680
370
     9
100
AcDbVertex
100
AcDb2dVertex
 10
306.4035086023523
 20
228.0998359629873
 30
0.0
  0
VERTEX
  5
371
330
33B
100
AcDbEntity
  8
Layer 1
 62
     1
420
 16711680
370
     9
100
AcDbVertex
100
AcDb2dVertex
 10
309.2575049578796
 20
229.0268379416656
 30
0.0
  0
VERTEX
  5
372
330
33B
100
AcDbEntity
  8
Layer 1
 62
     1
420
 16711680
370
     9
100
AcDbVertex
100
AcDb2dVertex
 10
307.4035086299178
 20
234.7328393806926
 30
0.0
  0
VERTEX
  5
373
330
33B
100
AcDbEntity
  8
Layer 1
 62
     1
420
 16711680
370
     9
100
AcDbVertex
100
AcDb2dVertex
 10
304.5495046449957
 20
233.805837402014
 30
0.0
  0
VERTEX
  5
374
330
33B
100
AcDbEntity
  8
Layer 1
 62
     1
420
 16711680
370
     9
100
AcDbVertex
100
AcDb2dVertex
 10
302.695508317034
 20
239.5128382917522
 30
0.0
  0
VERTEX
  5
375
330
33B
100
AcDbEntity
  8
Layer 1
 62
     1
420
 16711680
370
     9
100
AcDbVertex
100
AcDb2dVertex
 10
305.5485052218501
 20
240.4398402704308
 30
0.0
  0
VERTEX
  5
376
330
33B
100
AcDbEntity
  8
Layer 1
 62
     1
420
 16711680
370
     9
100
AcDbVertex
100
AcDb2dVertex
 10
303.6945088938883
 20
246.1458378947602
 30
0.0
  0
VERTEX
  5
377
330
33B
100
AcDbEntity
  8
Layer 1
 62
     1
420
 16711680
370
     9
100
AcDbVertex
100
AcDb2dVertex
 10
300.8415043596774
 20
245.2188397307796
 30
0.0
  0
VERTEX
  5
378
330
33B
100
AcDbEntity
  8
Layer 1
 62
     1
420
 16711680
370
     9
100
AcDbVertex
100
AcDb2dVertex
 10
298.9875080317156
 20
250.9248373551093
 30
0.0
  0
VERTEX
  5
379
330
33B
100
AcDbEntity
  8
Layer 1
 62
     1
420
 16711680
370
     9
100
AcDbVertex
100
AcDb2dVertex
 10
301.8405049365317
 20
251.8518393337876
 30
0.0
  0
VERTEX
  5
37A
330
33B
100
AcDbEntity
  8
Layer 1
 62
     1
420
 16711680
370
     9
100
AcDbVertex
100
AcDb2dVertex
 10
299.9865086085699
 20
257.5588402235258
 30
0.0
  0
VERTEX
  5
37B
330
33B
100
AcDbEntity
  8
Layer 1
 62
     1
420
 16711680
370
     9
100
AcDbVertex
100
AcDb2dVertex
 10
297.1335040743591
 20
256.6318382448475
 30
0.0
  0
VERTEX
  5
37C
330
33B
100
AcDbEntity
  8
Layer 1
 62
     1
420
 16711680
370
     9
100
AcDbVertex
100
AcDb2dVertex
 10
295.2795077463972
 20
262.3378396838746
 30
0.0
  0
VERTEX
  5
37D
330
33B
100
AcDbEntity
  8
Layer 1
 62
     1
420
 16711680
370
     9
100
AcDbVertex
100
AcDb2dVertex
 10
298.1325046512134
 20
263.2648378478555
 30
0.0
  0
VERTEX
  5
37E
330
33B
100
AcDbEntity
  8
Layer 1
 62
     1
420
 16711680
370
     9
100
AcDbVertex
100
AcDb2dVertex
 10
296.2785083232516
 20
268.9708392868826
 30
0.0
  0
VERTEX
  5
37F
330
33B
100
AcDbEntity
  8
Layer 1
 62
     1
420
 16711680
370
     9
100
AcDbVertex
100
AcDb2dVertex
 10
293.4255037890407
 20
268.0438411229017
 30
0.0
  0
VERTEX
  5
380
330
33B
100
AcDbEntity
  8
Layer 1
 62
     1
420
 16711680
370
     9
100
AcDbVertex
100
AcDb2dVertex
 10
291.5155077036758
 20
273.9208401862713
 30
0.0
  0
VERTEX
  5
381
330
33B
100
AcDbEntity
  8
Layer 1
 62
     1
420
 16711680
370
     9
100
AcDbVertex
100
AcDb2dVertex
 10
296.5155078415033
 20
277.5538397065827
 30
0.0
  0
VERTEX
  5
382
330
33B
100
AcDbEntity
  8
Layer 1
 62
     1
420
 16711680
370
     9
100
AcDbVertex
100
AcDb2dVertex
 10
298.2785083783826
 20
275.1268395939046
 30
0.0
  0
VERTEX
  5
383
330
33B
100
AcDbEntity
  8
Layer 1
 62
     1
420
 16711680
370
     9
100
AcDbVertex
100
AcDb2dVertex
 10
303.1325047890409
 20
278.652840667663
 30
0.0
  0
VERTEX
  5
384
330
33B
100
AcDbEntity
  8
Layer 1
 62
     1
420
 16711680
370
     9
100
AcDbVertex
100
AcDb2dVertex
 10
301.3695042521617
 20
281.0798407803412
 30
0.0
  0
VERTEX
  5
385
330
33B
100
AcDbEntity
  8
Layer 1
 62
     1
420
 16711680
370
     9
100
AcDbVertex
100
AcDb2dVertex
 10
306.2235082922147
 20
284.6068393974625
 30
0.0
  0
VERTEX
  5
386
330
33B
100
AcDbEntity
  8
Layer 1
 62
     1
420
 16711680
370
     9
100
AcDbVertex
100
AcDb2dVertex
 10
307.986508829094
 20
282.1798392847844
 30
0.0
  0
VERTEX
  5
387
330
33B
100
AcDbEntity
  8
Layer 1
 62
     1
420
 16711680
370
     9
100
AcDbVertex
100
AcDb2dVertex
 10
312.8405052397522
 20
285.7068398092533
 30
0.0
  0
VERTEX
  5
388
330
33B
100
AcDbEntity
  8
Layer 1
 62
     1
420
 16711680
370
     9
100
AcDbVertex
100
AcDb2dVertex
 10
311.077504702873
 20
288.1338399219321
 30
0.0
  0
VERTEX
  5
389
330
33B
100
AcDbEntity
  8
Layer 1
 62
     1
420
 16711680
370
     9
100
AcDbVertex
100
AcDb2dVertex
 10
315.931508742926
 20
291.6608404464011
 30
0.0
  0
VERTEX
  5
38A
330
33B
100
AcDbEntity
  8
Layer 1
 62
     1
420
 16711680
370
     9
100
AcDbVertex
100
AcDb2dVertex
 10
317.6945092798053
 20
289.2338403337236
 30
0.0
  0
VERTEX
  5
38B
330
33B
100
AcDbEntity
  8
Layer 1
 62
     1
420
 16711680
370
     9
100
AcDbVertex
100
AcDb2dVertex
 10
322.5485056904636
 20
292.7598404538076
 30
0.0
  0
VERTEX
  5
38C
330
33B
100
AcDbEntity
  8
Layer 1
 62
     1
420
 16711680
370
     9
100
AcDbVertex
100
AcDb2dVertex
 10
320.7855051535844
 20
295.1868405664857
 30
0.0
  0
VERTEX
  5
38D
330
33B
100
AcDbEntity
  8
Layer 1
 62
     1
420
 16711680
370
     9
100
AcDbVertex
100
AcDb2dVertex
 10
325.6395091936374
 20
298.7138406141178
 30
0.0
  0
VERTEX
  5
38E
330
33B
100
AcDbEntity
  8
Layer 1
 62
     1
420
 16711680
370
     9
100
AcDbVertex
100
AcDb2dVertex
 10
327.4035091812278
 20
296.2868400246034
 30
0.0
  0
VERTEX
  5
38F
330
33B
100
AcDbEntity
  8
Layer 1
 62
     1
420
 16711680
370
     9
100
AcDbVertex
100
AcDb2dVertex
 10
332.2575132212809
 20
299.8138405490723
 30
0.0
  0
VERTEX
  5
390
330
33B
100
AcDbEntity
  8
Layer 1
 62
     1
420
 16711680
370
     9
100
AcDbVertex
100
AcDb2dVertex
 10
330.4935056042957
 20
302.2408406617505
 30
0.0
  0
VERTEX
  5
391
330
33B
100
AcDbEntity
  8
Layer 1
 62
     1
420
 16711680
370
     9
100
AcDbVertex
100
AcDb2dVertex
 10
335.4935057421232
 20
305.8728407313508
 30
0.0
  0
SEQEND
  5
392
330
33B
100
AcDbEntity
  8
Layer 1
 62
     1
420
 16711680
370
     9
  0
ENDBLK
  5
33A
330
337
100
AcDbEntity
  8
0
100
AcDbBlockEnd
  0
BLOCK
  5
395
330
393
100
AcDbEntity
  8
0
100
AcDbBlockBegin
  2
block 18
 70
     0
 10
0.0
 20
0.0
 30
0.0
  3
block 18
  1

  0
POLYLINE
  5
397
330
393
100
AcDbEntity
  8
Layer 1
 62
     1
420
 16711680
370
     9
100
AcDb2dPolyline
 66
     1
 10
0.0
 20
0.0
 30
0.0
  0
VERTEX
  5
398
330
397
100
AcDbEntity
  8
Layer 1
 62
     1
420
 16711680
370
     9
100
AcDbVertex
100
AcDb2dVertex
 10
239.9728786505097
 20
199.2102906171455
 30
0.0
  0
VERTEX
  5
399
330
397
100
AcDbEntity
  8
Layer 1
 62
     1
420
 16711680
370
     9
100
AcDbVertex
100
AcDb2dVertex
 10
217.4571277403881
 20
199.2102906171455
 30
0.0
  0
VERTEX
  5
39A
330
397
100
AcDbEntity
  8
Layer 1
 62
     1
420
 16711680
370
     9
100
AcDbVertex
100
AcDb2dVertex
 10
217.4571277403881
 20
209.2353821897309
 30
0.0
  0
VERTEX
  5
39B
330
397
100
AcDbEntity
  8
Layer 1
 62
     1
420
 16711680
370
     9
100
AcDbVertex
100
AcDb2dVertex
 10
239.9728786505097
 20
209.2353821897309
 30
0.0
  0
VERTEX
  5
39C
330
397
100
AcDbEntity
  8
Layer 1
 62
     1
420
 16711680
370
     9
100
AcDbVertex
100
AcDb2dVertex
 10
239.9728786505097
 20
199.2102906171455
 30
0.0
  0
SEQEND
  5
39D
330
397
100
AcDbEntity
  8
Layer 1
 62
     1
420
 16711680
370
     9
  0
ENDBLK
  5
396
330
393
100
AcDbEntity
  8
0
100
AcDbBlockEnd
  0
BLOCK
  5
3A0
330
39E
100
AcDbEntity
  8
0
100
AcDbBlockBegin
  2
block 19
 70
     0
 10
0.0
 20
0.0
 30
0.0
  3
block 19
  1

  0
POLYLINE
  5
3A2
330
39E
100
AcDbEntity
  8
Layer 1
 62
     1
420
 16711680
370
     9
100
AcDb2dPolyline
 66
     1
 10
0.0
 20
0.0
 30
0.0
  0
VERTEX
  5
3A3
330
3A2
100
AcDbEntity
  8
Layer 1
 62
     1
420
 16711680
370
     9
100
AcDbVertex
100
AcDb2dVertex
 10
255.795880948251
 20
255.869850781318
 30
0.0
  0
VERTEX
  5
3A4
330
3A2
100
AcDbEntity
  8
Layer 1
 62
     1
420
 16711680
370
     9
100
AcDbVertex
100
AcDb2dVertex
 10
233.2801300381294
 20
255.869850781318
 30
0.0
  0
VERTEX
  5
3A5
330
3A2
100
AcDbEntity
  8
Layer 1
 62
     1
420
 16711680
370
     9
100
AcDbVertex
100
AcDb2dVertex
 10
233.2801300381294
 20
269.0603846017771
 30
0.0
  0
VERTEX
  5
3A6
330
3A2
100
AcDbEntity
  8
Layer 1
 62
     1
420
 16711680
370
     9
100
AcDbVertex
100
AcDb2dVertex
 10
255.795880948251
 20
269.0603846017771
 30
0.0
  0
VERTEX
  5
3A7
330
3A2
100
AcDbEntity
  8
Layer 1
 62
     1
420
 16711680
370
     9
100
AcDbVertex
100
AcDb2dVertex
 10
255.795880948251
 20
255.869850781318
 30
0.0
  0
SEQEND
  5
3A8
330
3A2
100
AcDbEntity
  8
Layer 1
 62
     1
420
 16711680
370
     9
  0
ENDBLK
  5
3A1
330
39E
100
AcDbEntity
  8
0
100
AcDbBlockEnd
  0
BLOCK
  5
3AB
330
3A9
100
AcDbEntity
  8
0
100
AcDbBlockBegin
  2
block 20
 70
     0
 10
0.0
 20
0.0
 30
0.0
  3
block 20
  1

  0
POLYLINE
  5
3AD
330
3A9
100
AcDbEntity
  8
Layer 1
 62
     1
420
 16711680
370
     9
100
AcDb2dPolyline
 66
     1
 10
0.0
 20
0.0
 30
0.0
  0
VERTEX
  5
3AE
330
3AD
100
AcDbEntity
  8
Layer 1
 62
     1
420
 16711680
370
     9
100
AcDbVertex
100
AcDb2dVertex
 10
27.99120692887604
 20
-5.247731570985402
 30
0.0
  0
VERTEX
  5
3AF
330
3AD
100
AcDbEntity
  8
Layer 1
 62
     1
420
 16711680
370
     9
100
AcDbVertex
100
AcDb2dVertex
 10
27.99120692887604
 20
9.752268425265038
 30
0.0
  0
SEQEND
  5
3B0
330
3AD
100
AcDbEntity
  8
Layer 1
 62
     1
420
 16711680
370
     9
  0
ENDBLK
  5
3AC
330
3A9
100
AcDbEntity
  8
0
100
AcDbBlockEnd
  0
BLOCK
  5
3B3
330
3B1
100
AcDbEntity
  8
0
100
AcDbBlockBegin
  2
block 21
 70
     0
 10
0.0
 20
0.0
 30
0.0
  3
block 21
  1

  0
POLYLINE
  5
3B5
330
3B1
100
AcDbEntity
  8
Layer 1
 62
     1
420
 16711680
370
     9
100
AcDb2dPolyline
 66
     1
 10
0.0
 20
0.0
 30
0.0
  0
VERTEX
  5
3B6
330
3B5
100
AcDbEntity
  8
Layer 1
 62
     1
420
 16711680
370
     9
100
AcDbVertex
100
AcDb2dVertex
 10
27.9977744789707
 20
9.768971721964018
 30
0.0
  0
VERTEX
  5
3B7
330
3B5
100
AcDbEntity
  8
Layer 1
 62
     1
420
 16711680
370
     9
100
AcDbVertex
100
AcDb2dVertex
 10
202.6519179388624
 20
57.87299239513507
 30
0.0
  0
SEQEND
  5
3B8
330
3B5
100
AcDbEntity
  8
Layer 1
 62
     1
420
 16711680
370
     9
  0
ENDBLK
  5
3B4
330
3B1
100
AcDbEntity
  8
0
100
AcDbBlockEnd
  0
BLOCK
  5
3BB
330
3B9
100
AcDbEntity
  8
0
100
AcDbBlockBegin
  2
block 22
 70
     0
 10
0.0
 20
0.0
 30
0.0
  3
block 22
  1

  0
POLYLINE
  5
3BD
330
3B9
100
AcDbEntity
  8
Layer 1
 62
     1
420
 16711680
370
     9
100
AcDb2dPolyline
 66
     1
 10
0.0
 20
0.0
 30
0.0
  0
VERTEX
  5
3BE
330
3BD
100
AcDbEntity
  8
Layer 1
 62
     1
420
 16711680
370
     9
100
AcDbVertex
100
AcDb2dVertex
 10
202.6278369218468
 20
57.83358709456327
 30
0.0
  0
VERTEX
  5
3BF
330
3BD
100
AcDbEntity
  8
Layer 1
 62
     1
420
 16711680
370
     9
100
AcDbVertex
100
AcDb2dVertex
 10
202.6278369218468
 20
-6.478867101812499
 30
0.0
  0
SEQEND
  5
3C0
330
3BD
100
AcDbEntity
  8
Layer 1
 62
     1
420
 16711680
370
     9
  0
ENDBLK
  5
3BC
330
3B9
100
AcDbEntity
  8
0
100
AcDbBlockEnd
  0
BLOCK
  5
3C3
330
3C1
100
AcDbEntity
  8
0
100
AcDbBlockBegin
  2
block 23
 70
     0
 10
0.0
 20
0.0
 30
0.0
  3
block 23
  1

  0
POLYLINE
  5
3C5
330
3C1
100
AcDbEntity
  8
Layer 1
 62
     1
420
 16711680
370
     9
100
AcDb2dPolyline
 66
     1
 10
0.0
 20
0.0
 30
0.0
  0
VERTEX
  5
3C6
330
3C5
100
AcDbEntity
  8
Layer 1
 62
     1
420
 16711680
370
     9
100
AcDbVertex
100
AcDb2dVertex
 10
27.9977744789707
 20
-5.270727497767969
 30
0.0
  0
VERTEX
  5
3C7
330
3C5
100
AcDbEntity
  8
Layer 1
 62
     1
420
 16711680
370
     9
100
AcDbVertex
100
AcDb2dVertex
 10
202.6510969951007
 20
-6.527327985674536
 30
0.0
  0
SEQEND
  5
3C8
330
3C5
100
AcDbEntity
  8
Layer 1
 62
     1
420
 16711680
370
     9
  0
ENDBLK
  5
3C4
330
3C1
100
AcDbEntity
  8
0
100
AcDbBlockEnd
  0
BLOCK
  5
3CB
330
3C9
100
AcDbEntity
  8
0
100
AcDbBlockBegin
  2
block 24
 70
     0
 10
0.0
 20
0.0
 30
0.0
  3
block 24
  1

  0
POLYLINE
  5
3CD
330
3C9
100
AcDbEntity
  8
Layer 1
 62
     1
420
 16711680
370
     9
100
AcDb2dPolyline
 66
     1
 10
0.0
 20
0.0
 30
0.0
  0
VERTEX
  5
3CE
330
3CD
100
AcDbEntity
  8
Layer 1
 62
     1
420
 16711680
370
     9
100
AcDbVertex
100
AcDb2dVertex
 10
-161.2527490677693
 20
-7.201577724342897
 30
0.0
  0
VERTEX
  5
3CF
330
3CD
100
AcDbEntity
  8
Layer 1
 62
     1
420
 16711680
370
     9
100
AcDbVertex
100
AcDb2dVertex
 10
-161.2527490677693
 20
7.798422271907543
 30
0.0
  0
SEQEND
  5
3D0
330
3CD
100
AcDbEntity
  8
Layer 1
 62
     1
420
 16711680
370
     9
  0
ENDBLK
  5
3CC
330
3C9
100
AcDbEntity
  8
0
100
AcDbBlockEnd
  0
BLOCK
  5
3D3
330
3D1
100
AcDbEntity
  8
0
100
AcDbBlockBegin
  2
block 25
 70
     0
 10
0.0
 20
0.0
 30
0.0
  3
block 25
  1

  0
POLYLINE
  5
3D5
330
3D1
100
AcDbEntity
  8
Layer 1
 62
     1
420
 16711680
370
     9
100
AcDb2dPolyline
 66
     1
 10
0.0
 20
0.0
 30
0.0
  0
VERTEX
  5
3D6
330
3D5
100
AcDbEntity
  8
Layer 1
 62
     1
420
 16711680
370
     9
100
AcDbVertex
100
AcDb2dVertex
 10
-161.2461815176747
 20
7.815125568606523
 30
0.0
  0
VERTEX
  5
3D7
330
3D5
100
AcDbEntity
  8
Layer 1
 62
     1
420
 16711680
370
     9
100
AcDbVertex
100
AcDb2dVertex
 10
13.40796194221673
 20
55.91914624177758
 30
0.0
  0
SEQEND
  5
3D8
330
3D5
100
AcDbEntity
  8
Layer 1
 62
     1
420
 16711680
370
     9
  0
ENDBLK
  5
3D4
330
3D1
100
AcDbEntity
  8
0
100
AcDbBlockEnd
  0
BLOCK
  5
3DB
330
3D9
100
AcDbEntity
  8
0
100
AcDbBlockBegin
  2
block 26
 70
     0
 10
0.0
 20
0.0
 30
0.0
  3
block 26
  1

  0
POLYLINE
  5
3DD
330
3D9
100
AcDbEntity
  8
Layer 1
 62
     1
420
 16711680
370
     9
100
AcDb2dPolyline
 66
     1
 10
0.0
 20
0.0
 30
0.0
  0
VERTEX
  5
3DE
330
3DD
100
AcDbEntity
  8
Layer 1
 62
     1
420
 16711680
370
     9
100
AcDbVertex
100
AcDb2dVertex
 10
13.38388092520106
 20
55.87974094120577
 30
0.0
  0
VERTEX
  5
3DF
330
3DD
100
AcDbEntity
  8
Layer 1
 62
     1
420
 16711680
370
     9
100
AcDbVertex
100
AcDb2dVertex
 10
13.38388092520106
 20
-8.432713255169993
 30
0.0
  0
SEQEND
  5
3E0
330
3DD
100
AcDbEntity
  8
Layer 1
 62
     1
420
 16711680
370
     9
  0
ENDBLK
  5
3DC
330
3D9
100
AcDbEntity
  8
0
100
AcDbBlockEnd
  0
BLOCK
  5
3E3
330
3E1
100
AcDbEntity
  8
0
100
AcDbBlockBegin
  2
block 27
 70
     0
 10
0.0
 20
0.0
 30
0.0
  3
block 27
  1

  0
POLYLINE
  5
3E5
330
3E1
100
AcDbEntity
  8
Layer 1
 62
     1
420
 16711680
370
     9
100
AcDb2dPolyline
 66
     1
 10
0.0
 20
0.0
 30
0.0
  0
VERTEX
  5
3E6
330
3E5
100
AcDbEntity
  8
Layer 1
 62
     1
420
 16711680
370
     9
100
AcDbVertex
100
AcDb2dVertex
 10
-161.2461815176747
 20
-7.224573651125463
 30
0.0
  0
VERTEX
  5
3E7
330
3E5
100
AcDbEntity
  8
Layer 1
 62
     1
420
 16711680
370
     9
100
AcDbVertex
100
AcDb2dVertex
 10
13.4071409984553
 20
-8.481174139032031
 30
0.0
  0
SEQEND
  5
3E8
330
3E5
100
AcDbEntity
  8
Layer 1
 62
     1
420
 16711680
370
     9
  0
ENDBLK
  5
3E4
330
3E1
100
AcDbEntity
  8
0
100
AcDbBlockEnd
  0
ENDSEC
  0
SECTION
  2
ENTITIES
  0
INSERT
  5
42
330
1F
100
AcDbEntity
  8
Layer 1
100
AcDbBlockReference
  2
block 2
 10
0.0
 20
0.0
 30
0.0
  0
INSERT
  5
87
330
1F
100
AcDbEntity
  8
Layer 1
100
AcDbBlockReference
  2
block 3
 10
0.0
 20
0.0
 30
0.0
  0
INSERT
  5
B6
330
1F
100
AcDbEntity
  8
Layer 1
100
AcDbBlockReference
  2
block 4
 10
0.0
 20
0.0
 30
0.0
  0
INSERT
  5
FB
330
1F
100
AcDbEntity
  8
Layer 1
100
AcDbBlockReference
  2
block 5
 10
0.0
 20
0.0
 30
0.0
  0
INSERT
  5
12A
330
1F
100
AcDbEntity
  8
Layer 1
100
AcDbBlockReference
  2
block 6
 10
0.0
 20
0.0
 30
0.0
  0
INSERT
  5
15F
330
1F
100
AcDbEntity
  8
Layer 1
100
AcDbBlockReference
  2
block 7
 10
0.0
 20
0.0
 30
0.0
  0
INSERT
  5
16A
330
1F
100
AcDbEntity
  8
Layer 1
100
AcDbBlockReference
  2
block 8
 10
0.0
 20
0.0
 30
0.0
  0
INSERT
  5
175
330
1F
100
AcDbEntity
  8
Layer 1
100
AcDbBlockReference
  2
block 9
 10
0.0
 20
0.0
 30
0.0
  0
INSERT
  5
1AA
330
1F
100
AcDbEntity
  8
Layer 1
100
AcDbBlockReference
  2
block 10
 10
0.0
 20
0.0
 30
0.0
  0
INSERT
  5
1B5
330
1F
100
AcDbEntity
  8
Layer 1
100
AcDbBlockReference
  2
block 11
 10
0.0
 20
0.0
 30
0.0
  0
INSERT
  5
1F0
330
1F
100
AcDbEntity
  8
Layer 1
100
AcDbBlockReference
  2
block 12
 10
0.0
 20
0.0
 30
0.0
  0
INSERT
  5
22B
330
1F
100
AcDbEntity
  8
Layer 1
100
AcDbBlockReference
  2
block 13
 10
0.0
 20
0.0
 30
0.0
  0
INSERT
  5
266
330
1F
100
AcDbEntity
  8
Layer 1
100
AcDbBlockReference
  2
block 14
 10
0.0
 20
0.0
 30
0.0
  0
INSERT
  5
2A1
330
1F
100
AcDbEntity
  8
Layer 1
100
AcDbBlockReference
  2
block 15
 10
0.0
 20
0.0
 30
0.0
  0
INSERT
  5
2DC
330
1F
100
AcDbEntity
  8
Layer 1
100
AcDbBlockReference
  2
block 16
 10
0.0
 20
0.0
 30
0.0
  0
INSERT
  5
338
330
1F
100
AcDbEntity
  8
Layer 1
100
AcDbBlockReference
  2
block 17
 10
0.0
 20
0.0
 30
0.0
  0
INSERT
  5
394
330
1F
100
AcDbEntity
  8
Layer 1
100
AcDbBlockReference
  2
block 18
 10
0.0
 20
0.0
 30
0.0
  0
INSERT
  5
39F
330
1F
100
AcDbEntity
  8
Layer 1
100
AcDbBlockReference
  2
block 19
 10
0.0
 20
0.0
 30
0.0
  0
INSERT
  5
3AA
330
1F
100
AcDbEntity
  8
Layer 1
100
AcDbBlockReference
  2
block 20
 10
0.0
 20
0.0
 30
0.0
  0
INSERT
  5
3B2
330
1F
100
AcDbEntity
  8
Layer 1
100
AcDbBlockReference
  2
block 21
 10
0.0
 20
0.0
 30
0.0
  0
INSERT
  5
3BA
330
1F
100
AcDbEntity
  8
Layer 1
100
AcDbBlockReference
  2
block 22
 10
0.0
 20
0.0
 30
0.0
  0
INSERT
  5
3C2
330
1F
100
AcDbEntity
  8
Layer 1
100
AcDbBlockReference
  2
block 23
 10
0.0
 20
0.0
 30
0.0
  0
INSERT
  5
3CA
330
1F
100
AcDbEntity
  8
Layer 1
100
AcDbBlockReference
  2
block 24
 10
0.0
 20
0.0
 30
0.0
  0
INSERT
  5
3D2
330
1F
100
AcDbEntity
  8
Layer 1
100
AcDbBlockReference
  2
block 25
 10
0.0
 20
0.0
 30
0.0
  0
INSERT
  5
3DA
330
1F
100
AcDbEntity
  8
Layer 1
100
AcDbBlockReference
  2
block 26
 10
0.0
 20
0.0
 30
0.0
  0
INSERT
  5
3E2
330
1F
100
AcDbEntity
  8
Layer 1
100
AcDbBlockReference
  2
block 27
 10
0.0
 20
0.0
 30
0.0
  0
ENDSEC
  0
SECTION
  2
OBJECTS
  0
DICTIONARY
  5
C
330
0
100
AcDbDictionary
281
     1
  3
ACAD_GROUP
350
D
  3
ACAD_LAYOUT
350
1A
  3
ACAD_MATERIAL
350
3B
  3
ACAD_MLEADERSTYLE
350
3EA
  3
ACAD_MLINESTYLE
350
17
  3
ACAD_PLOTSETTINGS
350
19
  3
ACAD_PLOTSTYLENAME
350
E
  3
ACAD_TABLESTYLE
350
3E9
  3
ACAD_VISUALSTYLE
350
2A
  0
SUN
  5
3F
330
29
100
AcDbSun
 90
        1
290
     0
 63
     7
421
 16777215
 40
1.0
291
     1
 91
  2455826
 92
 54000000
292
     0
 70
     2
 71
   256
280
     1
  0
DICTIONARY
  5
D
102
{ACAD_REACTORS
330
C
102
}
330
C
100
AcDbDictionary
281
     1
  0
DICTIONARY
  5
1A
102
{ACAD_REACTORS
330
C
102
}
330
C
100
AcDbDictionary
281
     1
  3
Layout1
350
1E
  3
Layout2
350
26
  3
Model
350
22
  0
DICTIONARY
  5
3B
102
{ACAD_REACTORS
330
C
102
}
330
C
100
AcDbDictionary
281
     1
  3
ByBlock
350
3D
  3
ByLayer
350
3C
  3
Global
350
3E
  0
DICTIONARY
  5
3EA
102
{ACAD_REACTORS
330
C
102
}
330
C
100
AcDbDictionary
281
     1
  0
DICTIONARY
  5
17
102
{ACAD_REACTORS
330
C
102
}
330
C
100
AcDbDictionary
281
     1
  3
Standard
350
18
  0
DICTIONARY
  5
19
102
{ACAD_REACTORS
330
C
102
}
330
C
100
AcDbDictionary
281
     1
  0
ACDBDICTIONARYWDFLT
  5
E
102
{ACAD_REACTORS
330
C
102
}
330
C
100
AcDbDictionary
281
     1
  3
Normal
350
F
100
AcDbDictionaryWithDefault
340
F
  0
DICTIONARY
  5
3E9
102
{ACAD_REACTORS
330
C
102
}
330
C
100
AcDbDictionary
281
     1
  0
DICTIONARY
  5
2A
102
{ACAD_REACTORS
330
C
102
}
330
C
100
AcDbDictionary
281
     1
  3
2dWireframe
350
2F
  3
3D Hidden
350
31
  3
3dWireframe
350
30
  3
Basic
350
32
  3
Brighten
350
36
  3
ColorChange
350
3A
  3
Conceptual
350
34
  3
Dim
350
35
  3
Facepattern
350
39
  3
Flat
350
2B
  3
FlatWithEdges
350
2C
  3
Gouraud
350
2D
  3
GouraudWithEdges
350
2E
  3
Linepattern
350
38
  3
Realistic
350
33
  3
Thicken
350
37
  0
LAYOUT
  5
1E
102
{ACAD_REACTORS
330
1A
102
}
330
1A
100
AcDbPlotSettings
  1

  2
none_device
  4

  6

 40
0.0
 41
0.0
 42
0.0
 43
0.0
 44
0.0
 45
0.0
 46
0.0
 47
0.0
 48
0.0
 49
0.0
140
0.0
141
0.0
142
1.0
143
1.0
 70
   688
 72
     0
 73
     0
 74
     5
  7

 75
    16
 76
     0
 77
     2
 78
   300
147
1.0
148
0.0
149
0.0
100
AcDbLayout
  1
Layout1
 70
     1
 71
     1
 10
0.0
 20
0.0
 11
12.0
 21
9.0
 12
0.0
 22
0.0
 32
0.0
 14
1.000000000000000E+20
 24
1.000000000000000E+20
 34
1.000000000000000E+20
 15
-1.000000000000000E+20
 25
-1.000000000000000E+20
 35
-1.000000000000000E+20
146
0.0
 13
0.0
 23
0.0
 33
0.0
 16
1.0
 26
0.0
 36
0.0
 17
0.0
 27
1.0
 37
0.0
 76
     0
330
1B
  0
LAYOUT
  5
26
102
{ACAD_REACTORS
330
1A
102
}
330
1A
100
AcDbPlotSettings
  1

  2
none_device
  4

  6

 40
0.0
 41
0.0
 42
0.0
 43
0.0
 44
0.0
 45
0.0
 46
0.0
 47
0.0
 48
0.0
 49
0.0
140
0.0
141
0.0
142
1.0
143
1.0
 70
   688
 72
     0
 73
     0
 74
     5
  7

 75
    16
 76
     0
 77
     2
 78
   300
147
1.0
148
0.0
149
0.0
100
AcDbLayout
  1
Layout2
 70
     1
 71
     2
 10
0.0
 20
0.0
 11
0.0
 21
0.0
 12
0.0
 22
0.0
 32
0.0
 14
0.0
 24
0.0
 34
0.0
 15
0.0
 25
0.0
 35
0.0
146
0.0
 13
0.0
 23
0.0
 33
0.0
 16
1.0
 26
0.0
 36
0.0
 17
0.0
 27
1.0
 37
0.0
 76
     0
330
23
  0
LAYOUT
  5
22
102
{ACAD_REACTORS
330
1A
102
}
330
1A
100
AcDbPlotSettings
  1

  2
none_device
  4

  6

 40
0.0
 41
0.0
 42
0.0
 43
0.0
 44
0.0
 45
0.0
 46
0.0
 47
0.0
 48
0.0
 49
0.0
140
0.0
141
0.0
142
1.0
143
1.0
 70
  1712
 72
     0
 73
     0
 74
     0
  7

 75
     0
 76
     0
 77
     2
 78
   300
147
1.0
148
0.0
149
0.0
100
AcDbLayout
  1
Model
 70
     1
 71
     0
 10
0.0
 20
0.0
 11
12.0
 21
9.0
 12
0.0
 22
0.0
 32
0.0
 14
1.000000000000000E+20
 24
1.000000000000000E+20
 34
1.000000000000000E+20
 15
-1.000000000000000E+20
 25
-1.000000000000000E+20
 35
-1.000000000000000E+20
146
0.0
 13
0.0
 23
0.0
 33
0.0
 16
1.0
 26
0.0
 36
0.0
 17
0.0
 27
1.0
 37
0.0
 76
     0
330
1F
331
29
  0
MATERIAL
  5
3D
102
{ACAD_REACTORS
330
3B
102
}
330
3B
100
AcDbMaterial
  1
ByBlock
 72
     1
 94
      127
  0
MATERIAL
  5
3C
102
{ACAD_REACTORS
330
3B
102
}
330
3B
100
AcDbMaterial
  1
ByLayer
 72
     1
 94
      127
  0
MATERIAL
  5
3E
102
{ACAD_REACTORS
330
3B
102
}
330
3B
100
AcDbMaterial
  1
Global
 72
     1
 94
      127
  0
MLINESTYLE
  5
18
102
{ACAD_REACTORS
330
17
102
}
330
17
100
AcDbMlineStyle
  2
Standard
 70
     0
  3

 62
   256
 51
90.0
 52
90.0
 71
     2
 49
0.5
 62
   256
  6
BYLAYER
 49
-0.5
 62
   256
  6
BYLAYER
  0
ACDBPLACEHOLDER
  5
F
102
{ACAD_REACTORS
330
E
102
}
330
E
  0
VISUALSTYLE
  5
2F
102
{ACAD_REACTORS
330
2A
102
}
330
2A
100
AcDbVisualStyle
  2
2dWireframe
 70
     4
177
     2
291
     0
 71
     0
176
     1
 72
     2
176
     1
 73
     0
176
     1
 90
        0
176
     1
 40
-0.6
176
     1
 41
-30.0
176
     1
 62
     5
 63
     7
421
 16777215
176
     1
 74
     1
176
     1
 91
        4
176
     1
 64
     7
176
     1
 65
   257
176
     1
 75
     1
176
     1
175
     1
176
     1
 42
1.0
176
     1
 92
        0
176
     1
 66
   257
176
     1
 43
1.0
176
     1
 76
     1
176
     1
 77
     6
176
     1
 78
     2
176
     1
 67
     7
176
     1
 79
     5
176
     1
170
     0
176
     1
171
     0
176
     1
290
     0
176
     1
 93
        1
176
     1
 44
0.0
176
     1
173
     0
176
     1
  0
VISUALSTYLE
  5
31
102
{ACAD_REACTORS
330
2A
102
}
330
2A
100
AcDbVisualStyle
  2
3D Hidden
 70
     6
177
     2
291
     0
 71
     1
176
     1
 72
     2
176
     1
 73
     2
176
     1
 90
        0
176
     1
 40
-0.6
176
     1
 41
-30.0
176
     1
 62
     5
 63
     7
421
 16777215
176
     1
 74
     2
176
     1
 91
        2
176
     1
 64
     7
176
     1
 65
   257
176
     1
 75
     2
176
     1
175
     1
176
     1
 42
40.0
176
     1
 92
        0
176
     1
 66
   257
176
     1
 43
1.0
176
     1
 76
     1
176
     1
 77
     6
176
     1
 78
     2
176
     1
 67
     7
176
     1
 79
     3
176
     1
170
     0
176
     1
171
     0
176
     1
290
     0
176
     1
 93
        1
176
     1
 44
0.0
176
     1
173
     0
176
     1
  0
VISUALSTYLE
  5
30
102
{ACAD_REACTORS
330
2A
102
}
330
2A
100
AcDbVisualStyle
  2
3dWireframe
 70
     5
177
     2
291
     0
 71
     0
176
     1
 72
     2
176
     1
 73
     0
176
     1
 90
        0
176
     1
 40
-0.6
176
     1
 41
-30.0
176
     1
 62
     5
 63
     7
421
 16777215
176
     1
 74
     1
176
     1
 91
        4
176
     1
 64
     7
176
     1
 65
   257
176
     1
 75
     1
176
     1
175
     1
176
     1
 42
1.0
176
     1
 92
        0
176
     1
 66
   257
176
     1
 43
1.0
176
     1
 76
     1
176
     1
 77
     6
176
     1
 78
     2
176
     1
 67
     7
176
     1
 79
     5
176
     1
170
     0
176
     1
171
     0
176
     1
290
     0
176
     1
 93
        1
176
     1
 44
0.0
176
     1
173
     0
176
     1
  0
VISUALSTYLE
  5
32
102
{ACAD_REACTORS
330
2A
102
}
330
2A
100
AcDbVisualStyle
  2
Basic
 70
     7
177
     2
291
     1
 71
     1
176
     1
 72
     0
176
     1
 73
     1
176
     1
 90
        0
176
     1
 40
-0.6
176
     1
 41
-30.0
176
     1
 62
     5
 63
     7
421
 16777215
176
     1
 74
     0
176
     1
 91
        4
176
     1
 64
     7
176
     1
 65
   257
176
     1
 75
     1
176
     1
175
     1
176
     1
 42
1.0
176
     1
 92
        8
176
     1
 66
     7
176
     1
 43
1.0
176
     1
 76
     1
176
     1
 77
     6
176
     1
 78
     2
176
     1
 67
     7
176
     1
 79
     5
176
     1
170
     0
176
     1
171
     0
176
     1
290
     0
176
     1
 93
        1
176
     1
 44
0.0
176
     1
173
     0
176
     1
  0
VISUALSTYLE
  5
36
102
{ACAD_REACTORS
330
2A
102
}
330
2A
100
AcDbVisualStyle
  2
Brighten
 70
    12
177
     2
291
     1
 71
     2
176
     1
 72
     2
176
     1
 73
     0
176
     1
 90
        0
176
     1
 40
-0.6
176
     1
 41
-30.0
176
     1
 62
     5
 63
     7
421
 16777215
176
     1
 74
     1
176
     1
 91
        4
176
     1
 64
     7
176
     1
 65
   257
176
     1
 75
     1
176
     1
175
     1
176
     1
 42
1.0
176
     1
 92
        8
176
     1
 66
     7
176
     1
 43
1.0
176
     1
 76
     1
176
     1
 77
     6
176
     1
 78
     2
176
     1
 67
     7
176
     1
 79
     5
176
     1
170
     0
176
     1
171
     0
176
     1
290
     0
176
     1
 93
        1
176
     1
 44
50.0
176
     1
173
     0
176
     1
  0
VISUALSTYLE
  5
3A
102
{ACAD_REACTORS
330
2A
102
}
330
2A
100
AcDbVisualStyle
  2
ColorChange
 70
    16
177
     2
291
     1
 71
     2
176
     1
 72
     2
176
     1
 73
     3
176
     1
 90
        0
176
     1
 40
-0.6
176
     1
 41
-30.0
176
     1
 62
     5
 63
     8
421
  8421504
176
     1
 74
     1
176
     1
 91
        4
176
     1
 64
     7
176
     1
 65
   257
176
     1
 75
     1
176
     1
175
     1
176
     1
 42
1.0
176
     1
 92
        8
176
     1
 66
     8
424
  8421504
176
     1
 43
1.0
176
     1
 76
     1
176
     1
 77
     6
176
     1
 78
     2
176
     1
 67
     7
176
     1
 79
     5
176
     1
170
     0
176
     1
171
     0
176
     1
290
     0
176
     1
 93
        1
176
     1
 44
0.0
176
     1
173
     0
176
     1
  0
VISUALSTYLE
  5
34
102
{ACAD_REACTORS
330
2A
102
}
330
2A
100
AcDbVisualStyle
  2
Conceptual
 70
     9
177
     2
291
     0
 71
     3
176
     1
 72
     2
176
     1
 73
     0
176
     1
 90
        0
176
     1
 40
-0.6
176
     1
 41
-30.0
176
     1
 62
     5
 63
     7
421
 16777215
176
     1
 74
     2
176
     1
 91
        2
176
     1
 64
     7
176
     1
 65
   257
176
     1
 75
     1
176
     1
175
     1
176
     1
 42
40.0
176
     1
 92
        8
176
     1
 66
     7
176
     1
 43
1.0
176
     1
 76
     1
176
     1
 77
     6
176
     1
 78
     2
176
     1
 67
     7
176
     1
 79
     3
176
     1
170
     0
176
     1
171
     0
176
     1
290
     0
176
     1
 93
        1
176
     1
 44
0.0
176
     1
173
     0
176
     1
  0
VISUALSTYLE
  5
35
102
{ACAD_REACTORS
330
2A
102
}
330
2A
100
AcDbVisualStyle
  2
Dim
 70
    11
177
     2
291
     1
 71
     2
176
     1
 72
     2
176
     1
 73
     0
176
     1
 90
        0
176
     1
 40
-0.6
176
     1
 41
-30.0
176
     1
 62
     5
 63
     7
421
 16777215
176
     1
 74
     1
176
     1
 91
        4
176
     1
 64
     7
176
     1
 65
   257
176
     1
 75
     1
176
     1
175
     1
176
     1
 42
1.0
176
     1
 92
        8
176
     1
 66
     7
176
     1
 43
1.0
176
     1
 76
     1
176
     1
 77
     6
176
     1
 78
     2
176
     1
 67
     7
176
     1
 79
     5
176
     1
170
     0
176
     1
171
     0
176
     1
290
     0
176
     1
 93
        1
176
     1
 44
-50.0
176
     1
173
     0
176
     1
  0
VISUALSTYLE
  5
39
102
{ACAD_REACTORS
330
2A
102
}
330
2A
100
AcDbVisualStyle
  2
Facepattern
 70
    15
177
     2
291
     1
 71
     2
176
     1
 72
     2
176
     1
 73
     0
176
     1
 90
        0
176
     1
 40
-0.6
176
     1
 41
-30.0
176
     1
 62
     5
 63
     7
421
 16777215
176
     1
 74
     1
176
     1
 91
        4
176
     1
 64
     7
176
     1
 65
   257
176
     1
 75
     1
176
     1
175
     1
176
     1
 42
1.0
176
     1
 92
        8
176
     1
 66
     7
176
     1
 43
1.0
176
     1
 76
     1
176
     1
 77
     6
176
     1
 78
     2
176
     1
 67
     7
176
     1
 79
     5
176
     1
170
     0
176
     1
171
     0
176
     1
290
     0
176
     1
 93
        1
176
     1
 44
0.0
176
     1
173
     0
176
     1
  0
VISUALSTYLE
  5
2B
102
{ACAD_REACTORS
330
2A
102
}
330
2A
100
AcDbVisualStyle
  2
Flat
 70
     0
177
     2
291
     1
 71
     2
176
     1
 72
     1
176
     1
 73
     1
176
     1
 90
        2
176
     1
 40
-0.6
176
     1
 41
30.0
176
     1
 62
     5
 63
     7
421
 16777215
176
     1
 74
     0
176
     1
 91
        4
176
     1
 64
     7
176
     1
 65
   257
176
     1
 75
     1
176
     1
175
     1
176
     1
 42
1.0
176
     1
 92
        8
176
     1
 66
     7
176
     1
 43
1.0
176
     1
 76
     1
176
     1
 77
     6
176
     1
 78
     2
176
     1
 67
     7
176
     1
 79
     5
176
     1
170
     0
176
     1
171
     0
176
     1
290
     0
176
     1
 93
       13
176
     1
 44
0.0
176
     1
173
     0
176
     1
  0
VISUALSTYLE
  5
2C
102
{ACAD_REACTORS
330
2A
102
}
330
2A
100
AcDbVisualStyle
  2
FlatWithEdges
 70
     1
177
     2
291
     1
 71
     2
176
     1
 72
     1
176
     1
 73
     1
176
     1
 90
        2
176
     1
 40
-0.6
176
     1
 41
30.0
176
     1
 62
     5
 63
     7
421
 16777215
176
     1
 74
     1
176
     1
 91
        4
176
     1
 64
     7
176
     1
 65
   257
176
     1
 75
     1
176
     1
175
     1
176
     1
 42
1.0
176
     1
 92
        0
176
     1
 66
   257
176
     1
 43
1.0
176
     1
 76
     1
176
     1
 77
     6
176
     1
 78
     2
176
     1
 67
     7
176
     1
 79
     5
176
     1
170
     0
176
     1
171
     0
176
     1
290
     0
176
     1
 93
       13
176
     1
 44
0.0
176
     1
173
     0
176
     1
  0
VISUALSTYLE
  5
2D
102
{ACAD_REACTORS
330
2A
102
}
330
2A
100
AcDbVisualStyle
  2
Gouraud
 70
     2
177
     2
291
     1
 71
     2
176
     1
 72
     2
176
     1
 73
     1
176
     1
 90
        2
176
     1
 40
-0.6
176
     1
 41
30.0
176
     1
 62
     5
 63
     7
421
 16777215
176
     1
 74
     0
176
     1
 91
        4
176
     1
 64
     7
176
     1
 65
   257
176
     1
 75
     1
176
     1
175
     1
176
     1
 42
1.0
176
     1
 92
        0
176
     1
 66
     7
176
     1
 43
1.0
176
     1
 76
     1
176
     1
 77
     6
176
     1
 78
     2
176
     1
 67
     7
176
     1
 79
     5
176
     1
170
     0
176
     1
171
     0
176
     1
290
     0
176
     1
 93
       13
176
     1
 44
0.0
176
     1
173
     0
176
     1
  0
VISUALSTYLE
  5
2E
102
{ACAD_REACTORS
330
2A
102
}
330
2A
100
AcDbVisualStyle
  2
GouraudWithEdges
 70
     3
177
     2
291
     1
 71
     2
176
     1
 72
     2
176
     1
 73
     1
176
     1
 90
        2
176
     1
 40
-0.6
176
     1
 41
30.0
176
     1
 62
     5
 63
     7
421
 16777215
176
     1
 74
     1
176
     1
 91
        4
176
     1
 64
     7
176
     1
 65
   257
176
     1
 75
     1
176
     1
175
     1
176
     1
 42
1.0
176
     1
 92
        0
176
     1
 66
   257
176
     1
 43
1.0
176
     1
 76
     1
176
     1
 77
     6
176
     1
 78
     2
176
     1
 67
     7
176
     1
 79
     5
176
     1
170
     0
176
     1
171
     0
176
     1
290
     0
176
     1
 93
       13
176
     1
 44
0.0
176
     1
173
     0
176
     1
  0
VISUALSTYLE
  5
38
102
{ACAD_REACTORS
330
2A
102
}
330
2A
100
AcDbVisualStyle
  2
Linepattern
 70
    14
177
     2
291
     1
 71
     2
176
     1
 72
     2
176
     1
 73
     0
176
     1
 90
        0
176
     1
 40
-0.6
176
     1
 41
-30.0
176
     1
 62
     5
 63
     7
421
 16777215
176
     1
 74
     1
176
     1
 91
        4
176
     1
 64
     7
176
     1
 65
   257
176
     1
 75
     7
176
     1
175
     7
176
     1
 42
1.0
176
     1
 92
        8
176
     1
 66
     7
176
     1
 43
1.0
176
     1
 76
     1
176
     1
 77
     6
176
     1
 78
     2
176
     1
 67
     7
176
     1
 79
     5
176
     1
170
     0
176
     1
171
     0
176
     1
290
     0
176
     1
 93
        1
176
     1
 44
0.0
176
     1
173
     0
176
     1
  0
VISUALSTYLE
  5
33
102
{ACAD_REACTORS
330
2A
102
}
330
2A
100
AcDbVisualStyle
  2
Realistic
 70
     8
177
     2
291
     0
 71
     2
176
     1
 72
     2
176
     1
 73
     0
176
     1
 90
        0
176
     1
 40
-0.6
176
     1
 41
-30.0
176
     1
 62
     5
 63
     7
421
 16777215
176
     1
 74
     1
176
     1
 91
        0
176
     1
 64
     7
176
     1
 65
   257
176
     1
 75
     1
176
     1
175
     1
176
     1
 42
1.0
176
     1
 92
        8
176
     1
 66
     8
424
  7895160
176
     1
 43
1.0
176
     1
 76
     1
176
     1
 77
     6
176
     1
 78
     2
176
     1
 67
     7
176
     1
 79
     5
176
     1
170
     0
176
     1
171
     0
176
     1
290
     0
176
     1
 93
       13
176
     1
 44
0.0
176
     1
173
     0
176
     1
  0
VISUALSTYLE
  5
37
102
{ACAD_REACTORS
330
2A
102
}
330
2A
100
AcDbVisualStyle
  2
Thicken
 70
    13
177
     2
291
     1
 71
     2
176
     1
 72
     2
176
     1
 73
     0
176
     1
 90
        0
176
     1
 40
-0.6
176
     1
 41
-30.0
176
     1
 62
     5
 63
     7
421
 16777215
176
     1
 74
     1
176
     1
 91
        4
176
     1
 64
     7
176
     1
 65
   257
176
     1
 75
     1
176
     1
175
     1
176
     1
 42
1.0
176
     1
 92
       12
176
     1
 66
     7
176
     1
 43
1.0
176
     1
 76
     1
176
     1
 77
     6
176
     1
 78
     2
176
     1
 67
     7
176
     1
 79
     5
176
     1
170
     0
176
     1
171
     0
176
     1
290
     0
176
     1
 93
        1
176
     1
 44
0.0
176
     1
173
     0
176
     1
  0
ENDSEC
  0
EOF
