  0
SECTION
  2
HEADER
  9
$ACADVER
  1
AC1021
  9
$ACADMAINTVER
 70
    25
  9
$DWGCODEPAGE
  3
ANSI_1252
  9
$LASTSAVEDBY
  1
admin
  9
$INSBASE
 10
0.0
 20
0.0
 30
0.0
  9
$EXTMIN
 10
1.000000000000000E+20
 20
1.000000000000000E+20
 30
1.000000000000000E+20
  9
$EXTMAX
 10
-1.000000000000000E+20
 20
-1.000000000000000E+20
 30
-1.000000000000000E+20
  9
$LIMMIN
 10
0.0
 20
0.0
  9
$LIMMAX
 10
12.0
 20
9.0
  9
$ORTHOMODE
 70
     0
  9
$REGENMODE
 70
     1
  9
$FILLMODE
 70
     1
  9
$QTEXTMODE
 70
     0
  9
$MIRRTEXT
 70
     1
  9
$LTSCALE
 40
1.0
  9
$ATTMODE
 70
     1
  9
$TEXTSIZE
 40
0.2
  9
$TRACEWID
 40
0.05
  9
$TEXTSTYLE
  7
Standard
  9
$CLAYER
  8
0
  9
$CELTYPE
  6
ByLayer
  9
$CECOLOR
 62
   256
  9
$CELTSCALE
 40
1.0
  9
$DISPSILH
 70
     0
  9
$DIMSCALE
 40
1.0
  9
$DIMASZ
 40
0.18
  9
$DIMEXO
 40
0.0625
  9
$DIMDLI
 40
0.38
  9
$DIMRND
 40
0.0
  9
$DIMDLE
 40
0.0
  9
$DIMEXE
 40
0.18
  9
$DIMTP
 40
0.0
  9
$DIMTM
 40
0.0
  9
$DIMTXT
 40
0.18
  9
$DIMCEN
 40
0.09
  9
$DIMTSZ
 40
0.0
  9
$DIMTOL
 70
     0
  9
$DIMLIM
 70
     0
  9
$DIMTIH
 70
     1
  9
$DIMTOH
 70
     1
  9
$DIMSE1
 70
     0
  9
$DIMSE2
 70
     0
  9
$DIMTAD
 70
     0
  9
$DIMZIN
 70
     0
  9
$DIMBLK
  1

  9
$DIMASO
 70
     1
  9
$DIMSHO
 70
     1
  9
$DIMPOST
  1

  9
$DIMAPOST
  1

  9
$DIMALT
 70
     0
  9
$DIMALTD
 70
     2
  9
$DIMALTF
 40
25.4
  9
$DIMLFAC
 40
1.0
  9
$DIMTOFL
 70
     0
  9
$DIMTVP
 40
0.0
  9
$DIMTIX
 70
     0
  9
$DIMSOXD
 70
     0
  9
$DIMSAH
 70
     0
  9
$DIMBLK1
  1

  9
$DIMBLK2
  1

  9
$DIMSTYLE
  2
STANDARD_ACAD
  9
$DIMCLRD
 70
     0
  9
$DIMCLRE
 70
     0
  9
$DIMCLRT
 70
     0
  9
$DIMTFAC
 40
1.0
  9
$DIMGAP
 40
0.09
  9
$DIMJUST
 70
     0
  9
$DIMSD1
 70
     0
  9
$DIMSD2
 70
     0
  9
$DIMTOLJ
 70
     1
  9
$DIMTZIN
 70
     0
  9
$DIMALTZ
 70
     0
  9
$DIMALTTZ
 70
     0
  9
$DIMUPT
 70
     0
  9
$DIMDEC
 70
     4
  9
$DIMTDEC
 70
     4
  9
$DIMALTU
 70
     2
  9
$DIMALTTD
 70
     2
  9
$DIMTXSTY
  7
Standard
  9
$DIMAUNIT
 70
     0
  9
$DIMADEC
 70
     0
  9
$DIMALTRND
 40
0.0
  9
$DIMAZIN
 70
     0
  9
$DIMDSEP
 70
    46
  9
$DIMATFIT
 70
     3
  9
$DIMFRAC
 70
     0
  9
$DIMLDRBLK
  1

  9
$DIMLUNIT
 70
     2
  9
$DIMLWD
 70
    -2
  9
$DIMLWE
 70
    -2
  9
$DIMTMOVE
 70
     2
  9
$DIMFXL
 40
1.0
  9
$DIMFXLON
 70
     0
  9
$DIMJOGANG
 40
0.7853981633974483
  9
$DIMTFILL
 70
     0
  9
$DIMTFILLCLR
 70
     0
  9
$DIMARCSYM
 70
     0
  9
$DIMLTYPE
  6

  9
$DIMLTEX1
  6

  9
$DIMLTEX2
  6

  9
$LUNITS
 70
     2
  9
$LUPREC
 70
     2
  9
$SKETCHINC
 40
0.1
  9
$FILLETRAD
 40
0.0
  9
$AUNITS
 70
     0
  9
$AUPREC
 70
     0
  9
$MENU
  1
.
  9
$ELEVATION
 40
0.0
  9
$PELEVATION
 40
0.0
  9
$THICKNESS
 40
0.0
  9
$LIMCHECK
 70
     0
  9
$CHAMFERA
 40
0.0
  9
$CHAMFERB
 40
0.0
  9
$CHAMFERC
 40
0.0
  9
$CHAMFERD
 40
0.0
  9
$SKPOLY
 70
     0
  9
$TDCREATE
 40
2460970.581587141
  9
$TDUCREATE
 40
2460970.248253808
  9
$TDUPDATE
 40
2460970.581600903
  9
$TDUUPDATE
 40
2460970.24826757
  9
$TDINDWG
 40
0.0000000116
  9
$TDUSRTIMER
 40
0.0000000116
  9
$USRTIMER
 70
     1
  9
$ANGBASE
 50
0.0
  9
$ANGDIR
 70
     0
  9
$PDMODE
 70
     0
  9
$PDSIZE
 40
0.0
  9
$PLINEWID
 40
0.0
  9
$SPLFRAME
 70
     0
  9
$SPLINETYPE
 70
     6
  9
$SPLINESEGS
 70
     8
  9
$HANDSEED
  5
164
  9
$SURFTAB1
 70
     6
  9
$SURFTAB2
 70
     6
  9
$SURFTYPE
 70
     6
  9
$SURFU
 70
     6
  9
$SURFV
 70
     6
  9
$UCSBASE
  2

  9
$UCSNAME
  2

  9
$UCSORG
 10
0.0
 20
0.0
 30
0.0
  9
$UCSXDIR
 10
1.0
 20
0.0
 30
0.0
  9
$UCSYDIR
 10
0.0
 20
1.0
 30
0.0
  9
$UCSORTHOREF
  2

  9
$UCSORTHOVIEW
 70
     0
  9
$UCSORGTOP
 10
0.0
 20
0.0
 30
0.0
  9
$UCSORGBOTTOM
 10
0.0
 20
0.0
 30
0.0
  9
$UCSORGLEFT
 10
0.0
 20
0.0
 30
0.0
  9
$UCSORGRIGHT
 10
0.0
 20
0.0
 30
0.0
  9
$UCSORGFRONT
 10
0.0
 20
0.0
 30
0.0
  9
$UCSORGBACK
 10
0.0
 20
0.0
 30
0.0
  9
$PUCSBASE
  2

  9
$PUCSNAME
  2

  9
$PUCSORG
 10
0.0
 20
0.0
 30
0.0
  9
$PUCSXDIR
 10
1.0
 20
0.0
 30
0.0
  9
$PUCSYDIR
 10
0.0
 20
1.0
 30
0.0
  9
$PUCSORTHOREF
  2

  9
$PUCSORTHOVIEW
 70
     0
  9
$PUCSORGTOP
 10
0.0
 20
0.0
 30
0.0
  9
$PUCSORGBOTTOM
 10
0.0
 20
0.0
 30
0.0
  9
$PUCSORGLEFT
 10
0.0
 20
0.0
 30
0.0
  9
$PUCSORGRIGHT
 10
0.0
 20
0.0
 30
0.0
  9
$PUCSORGFRONT
 10
0.0
 20
0.0
 30
0.0
  9
$PUCSORGBACK
 10
0.0
 20
0.0
 30
0.0
  9
$USERI1
 70
     0
  9
$USERI2
 70
     0
  9
$USERI3
 70
     0
  9
$USERI4
 70
     0
  9
$USERI5
 70
     0
  9
$USERR1
 40
0.0
  9
$USERR2
 40
0.0
  9
$USERR3
 40
0.0
  9
$USERR4
 40
0.0
  9
$USERR5
 40
0.0
  9
$WORLDVIEW
 70
     1
  9
$SHADEDGE
 70
     3
  9
$SHADEDIF
 70
    70
  9
$TILEMODE
 70
     1
  9
$MAXACTVP
 70
    64
  9
$PINSBASE
 10
0.0
 20
0.0
 30
0.0
  9
$PLIMCHECK
 70
     0
  9
$PEXTMIN
 10
1.000000000000000E+20
 20
1.000000000000000E+20
 30
1.000000000000000E+20
  9
$PEXTMAX
 10
-1.000000000000000E+20
 20
-1.000000000000000E+20
 30
-1.000000000000000E+20
  9
$PLIMMIN
 10
0.0
 20
0.0
  9
$PLIMMAX
 10
12.0
 20
9.0
  9
$UNITMODE
 70
     0
  9
$VISRETAIN
 70
     1
  9
$PLINEGEN
 70
     0
  9
$PSLTSCALE
 70
     1
  9
$TREEDEPTH
 70
  3020
  9
$CMLSTYLE
  2
Standard
  9
$CMLJUST
 70
     0
  9
$CMLSCALE
 40
1.0
  9
$PROXYGRAPHICS
 70
     1
  9
$MEASUREMENT
 70
     1
  9
$CELWEIGHT
370
    -1
  9
$ENDCAPS
280
     0
  9
$JOINSTYLE
280
     0
  9
$LWDISPLAY
290
     0
  9
$INSUNITS
 70
     5
  9
$HYPERLINKBASE
  1

  9
$STYLESHEET
  1

  9
$XEDIT
290
     1
  9
$CEPSNTYPE
380
     0
  9
$PSTYLEMODE
290
     1
  9
$FINGERPRINTGUID
  2
{4fd79704-395a-4d97-9524-2f536fe3cd5a}
  9
$VERSIONGUID
  2
{FAEB1C32-E019-11D5-929B-00C0DF256EC4}
  9
$EXTNAMES
290
     1
  9
$PSVPSCALE
 40
0.0
  9
$OLESTARTUP
290
     0
  9
$SORTENTS
280
   127
  9
$INDEXCTL
280
     0
  9
$HIDETEXT
280
     1
  9
$XCLIPFRAME
290
     0
  9
$HALOGAP
280
     0
  9
$OBSCOLOR
 70
   257
  9
$OBSLTYPE
280
     0
  9
$INTERSECTIONDISPLAY
280
     0
  9
$INTERSECTIONCOLOR
 70
   257
  9
$DIMASSOC
280
     2
  9
$PROJECTNAME
  1

  9
$CAMERADISPLAY
290
     0
  9
$LENSLENGTH
 40
50.0
  9
$CAMERAHEIGHT
 40
0.0
  9
$STEPSPERSEC
 40
2.0
  9
$STEPSIZE
 40
6.0
  9
$3DDWFPREC
 40
2.0
  9
$PSOLWIDTH
 40
0.25
  9
$PSOLHEIGHT
 40
4.0
  9
$LOFTANG1
 40
1.570796326794897
  9
$LOFTANG2
 40
1.570796326794897
  9
$LOFTMAG1
 40
0.0
  9
$LOFTMAG2
 40
0.0
  9
$LOFTPARAM
 70
     7
  9
$LOFTNORMALS
280
     1
  9
$LATITUDE
 40
37.795
  9
$LONGITUDE
 40
-122.394
  9
$NORTHDIRECTION
 40
0.0
  9
$TIMEZONE
 70
 -8000
  9
$LIGHTGLYPHDISPLAY
280
     1
  9
$TILEMODELIGHTSYNCH
280
     1
  9
$CMATERIAL
347
44
  9
$SOLIDHIST
280
     0
  9
$SHOWHIST
280
     1
  9
$DWFFRAME
280
     2
  9
$DGNFRAME
280
     2
  9
$REALWORLDSCALE
290
     1
  9
$INTERFERECOLOR
 62
   256
  9
$CSHADOW
280
     0
  9
$SHADOWPLANELOCATION
 40
0.0
  0
ENDSEC
  0
SECTION
  2
CLASSES
  0
CLASS
  1
ACDBDICTIONARYWDFLT
  2
AcDbDictionaryWithDefault
  3
ObjectDBX Classes
 90
        0
 91
        3
280
     0
281
     0
  0
CLASS
  1
VISUALSTYLE
  2
AcDbVisualStyle
  3
ObjectDBX Classes
 90
     4095
 91
        3
280
     0
281
     0
  0
CLASS
  1
MATERIAL
  2
AcDbMaterial
  3
ObjectDBX Classes
 90
     1153
 91
        3
280
     0
281
     0
  0
CLASS
  1
SCALE
  2
AcDbScale
  3
ObjectDBX Classes
 90
     1153
 91
        3
280
     0
281
     0
  0
CLASS
  1
TABLESTYLE
  2
AcDbTableStyle
  3
ObjectDBX Classes
 90
     4095
 91
        3
280
     0
281
     0
  0
CLASS
  1
MLEADERSTYLE
  2
AcDbMLeaderStyle
  3
ACDB_MLEADERSTYLE_CLASS
 90
     4095
 91
        3
280
     0
281
     0
  0
CLASS
  1
SUN
  2
AcDbSun
  3
SCENEOE
 90
     1153
 91
        3
280
     0
281
     0
  0
CLASS
  1
DICTIONARYVAR
  2
AcDbDictionaryVar
  3
ObjectDBX Classes
 90
        0
 91
        3
280
     0
281
     0
  0
CLASS
  1
CELLSTYLEMAP
  2
AcDbCellStyleMap
  3
ObjectDBX Classes
 90
     1152
 91
        3
280
     0
281
     0
  0
ENDSEC
  0
SECTION
  2
TABLES
  0
TABLE
  2
VPORT
  5
8
330
0
100
AcDbSymbolTable
 70
     1
  0
VPORT
  5
29
330
8
100
AcDbSymbolTableRecord
100
AcDbViewportTableRecord
  2
*Active
 70
     0
 10
0.0
 20
0.0
 11
1.0
 21
1.0
 12
10.42990654205607
 22
4.5
 13
0.0
 23
0.0
 14
0.5
 24
0.5
 15
0.5
 25
0.5
 16
0.0
 26
0.0
 36
1.0
 17
0.0
 27
0.0
 37
0.0
 40
9.0
 41
1.972972972850329
 42
50.0
 43
0.0
 44
0.0
 50
0.0
 51
0.0
 71
     0
 72
   100
 73
     1
 74
     3
 75
     0
 76
     0
 77
     0
 78
     0
281
     0
 65
     1
110
0.0
120
0.0
130
0.0
111
1.0
121
0.0
131
0.0
112
0.0
122
1.0
132
0.0
 79
     0
146
0.0
348
2F
 60
     3
 61
     5
292
     1
282
     1
141
0.0
142
0.0
 63
   250
361
5D
  0
ENDTAB
  0
TABLE
  2
LTYPE
  5
5
330
0
100
AcDbSymbolTable
 70
     1
  0
LTYPE
  5
14
330
5
100
AcDbSymbolTableRecord
100
AcDbLinetypeTableRecord
  2
ByBlock
 70
     0
  3

 72
    65
 73
     0
 40
0.0
  0
LTYPE
  5
15
330
5
100
AcDbSymbolTableRecord
100
AcDbLinetypeTableRecord
  2
ByLayer
 70
     0
  3

 72
    65
 73
     0
 40
0.0
  0
LTYPE
  5
16
330
5
100
AcDbSymbolTableRecord
100
AcDbLinetypeTableRecord
  2
Continuous
 70
     0
  3
Solid line
 72
    65
 73
     0
 40
0.0
  0
ENDTAB
  0
TABLE
  2
LAYER
  5
2
330
0
100
AcDbSymbolTable
 70
     3
  0
LAYER
  5
10
330
2
100
AcDbSymbolTableRecord
100
AcDbLayerTableRecord
  2
0
 70
     0
 62
     7
  6
Continuous
370
    -3
390
F
347
46
  0
LAYER
  5
5F
330
2
100
AcDbSymbolTableRecord
100
AcDbLayerTableRecord
  2
图层 03
 70
     0
 62
     4
420
    65529
  6
Continuous
370
    -3
390
F
347
46
  0
LAYER
  5
120
330
2
100
AcDbSymbolTableRecord
100
AcDbLayerTableRecord
  2
图层01
 70
     0
 62
    12
420
 13107200
  6
Continuous
370
    -3
390
F
347
46
  0
ENDTAB
  0
TABLE
  2
STYLE
  5
3
330
0
100
AcDbSymbolTable
 70
     1
  0
STYLE
  5
11
330
3
100
AcDbSymbolTableRecord
100
AcDbTextStyleTableRecord
  2
Standard
 70
     0
 40
0.0
 41
1.0
 50
0.0
 71
     0
 42
0.2
  3
txt
  4

  0
ENDTAB
  0
TABLE
  2
VIEW
  5
6
330
0
100
AcDbSymbolTable
 70
     0
  0
ENDTAB
  0
TABLE
  2
UCS
  5
7
330
0
100
AcDbSymbolTable
 70
     0
  0
ENDTAB
  0
TABLE
  2
APPID
  5
9
330
0
100
AcDbSymbolTable
 70
     3
  0
APPID
  5
12
330
9
100
AcDbSymbolTableRecord
100
AcDbRegAppTableRecord
  2
ACAD
 70
     0
  0
APPID
  5
5E
330
9
100
AcDbSymbolTableRecord
100
AcDbRegAppTableRecord
  2
Rhino
 70
     0
  0
APPID
  5
15C
330
9
100
AcDbSymbolTableRecord
100
AcDbRegAppTableRecord
  2
ACAD_MLEADERVER
 70
     0
  0
ENDTAB
  0
TABLE
  2
DIMSTYLE
  5
A
330
0
100
AcDbSymbolTable
 70
     1
100
AcDbDimStyleTable
  0
DIMSTYLE
105
27
330
A
100
AcDbSymbolTableRecord
100
AcDbDimStyleTableRecord
  2
STANDARD_ACAD
 70
     0
178
     0
340
11
  0
ENDTAB
  0
TABLE
  2
BLOCK_RECORD
  5
1
330
0
100
AcDbSymbolTable
 70
     1
  0
BLOCK_RECORD
  5
1F
330
1
100
AcDbSymbolTableRecord
100
AcDbBlockTableRecord
  2
*Model_Space
340
22
 70
     0
280
     1
281
     0
  0
BLOCK_RECORD
  5
1B
330
1
100
AcDbSymbolTableRecord
100
AcDbBlockTableRecord
  2
*Paper_Space
340
1E
 70
     0
280
     1
281
     0
  0
BLOCK_RECORD
  5
23
330
1
100
AcDbSymbolTableRecord
100
AcDbBlockTableRecord
  2
*Paper_Space0
340
26
 70
     0
280
     1
281
     0
  0
ENDTAB
  0
ENDSEC
  0
SECTION
  2
BLOCKS
  0
BLOCK
  5
20
330
1F
100
AcDbEntity
  8
0
100
AcDbBlockBegin
  2
*Model_Space
 70
     0
 10
0.0
 20
0.0
 30
0.0
  3
*Model_Space
  1

  0
ENDBLK
  5
21
330
1F
100
AcDbEntity
  8
0
100
AcDbBlockEnd
  0
BLOCK
  5
1C
330
1B
100
AcDbEntity
 67
     1
  8
0
100
AcDbBlockBegin
  2
*Paper_Space
 70
     0
 10
0.0
 20
0.0
 30
0.0
  3
*Paper_Space
  1

  0
ENDBLK
  5
1D
330
1B
100
AcDbEntity
 67
     1
  8
0
100
AcDbBlockEnd
  0
BLOCK
  5
24
330
23
100
AcDbEntity
  8
0
100
AcDbBlockBegin
  2
*Paper_Space0
 70
     0
 10
0.0
 20
0.0
 30
0.0
  3
*Paper_Space0
  1

  0
ENDBLK
  5
25
330
23
100
AcDbEntity
  8
0
100
AcDbBlockEnd
  0
ENDSEC
  0
SECTION
  2
ENTITIES
  0
SPLINE
  5
60
330
1F
100
AcDbEntity
  8
图层 03
100
AcDbSpline
210
0.0
220
0.0
230
1.0
 70
     8
 71
     3
 72
     8
 73
     4
 74
     0
 42
0.0000000001
 43
0.0000000001
 40
974.612034535444
 40
974.612034535444
 40
974.612034535444
 40
974.612034535444
 40
993.5053903454304
 40
993.5053903454304
 40
993.5053903454304
 40
993.5053903454304
 10
4258.241682085106
 20
-325.082636808353
 30
-0.0000000000004832
 10
4259.650689884915
 20
-325.342438425919
 30
-0.0000000000004832
 10
4261.062562941266
 20
-325.5880052603053
 30
-0.0000000000004832
 10
4262.474583376872
 20
-325.8201838337495
 30
-0.0000000000004832
  0
SPLINE
  5
61
330
1F
100
AcDbEntity
  8
图层 03
100
AcDbSpline
210
0.0
220
0.0
230
1.0
 70
     8
 71
     3
 72
     8
 73
     4
 74
     0
 42
0.0000000001
 43
0.0000000001
 40
993.5053903454304
 40
993.5053903454304
 40
993.5053903454304
 40
993.5053903454304
 40
994.5733498552268
 40
994.5733498552268
 40
994.5733498552268
 40
994.5733498552268
 10
4262.474583376872
 20
-325.8201838337495
 30
-0.0000000000004832
 10
4262.553431077456
 20
-325.8402667094136
 30
-0.0000000000004832
 10
4262.632282156134
 20
-325.8603314564439
 30
-0.0000000000004832
 10
4262.711136570463
 20
-325.8803781686142
 30
-0.0000000000004832
  0
SPLINE
  5
62
330
1F
100
AcDbEntity
  8
图层 03
100
AcDbSpline
210
0.0
220
0.0
230
1.0
 70
     8
 71
     3
 72
     8
 73
     4
 74
     0
 42
0.0000000001
 43
0.0000000001
 40
994.5733498552268
 40
994.5733498552268
 40
994.5733498552268
 40
994.5733498552268
 40
1010.545125548676
 40
1010.545125548676
 40
1010.545125548676
 40
1010.545125548676
 10
4262.711136570463
 20
-325.8803781686142
 30
-0.0000000000004832
 10
4263.858762495409
 20
-326.310618138978
 30
-0.0000000000004832
 10
4265.006946230871
 20
-326.7390257760412
 30
-0.0000000000004832
 10
4266.155568280083
 20
-327.1659449769602
 30
-0.0000000000004832
  0
SPLINE
  5
63
330
1F
100
AcDbEntity
  8
图层 03
100
AcDbSpline
210
0.0
220
0.0
230
1.0
 70
     8
 71
     3
 72
     8
 73
     4
 74
     0
 42
0.0000000001
 43
0.0000000001
 40
1010.545125548676
 40
1010.545125548676
 40
1010.545125548676
 40
1010.545125548676
 40
1029.844858051247
 40
1029.844858051247
 40
1029.844858051247
 40
1029.844858051247
 10
4266.155568280083
 20
-327.1659449769602
 30
-0.0000000000004832
 10
4267.572590599414
 20
-327.5154831264193
 30
-0.0000000000004832
 10
4269.014883272926
 20
-327.8959209078048
 30
-0.0000000000004832
 10
4270.424703010554
 20
-328.2828532149722
 30
-0.0000000000004832
  0
SPLINE
  5
64
330
1F
100
AcDbEntity
  8
图层 03
100
AcDbSpline
210
0.0
220
0.0
230
1.0
 70
     8
 71
     3
 72
     8
 73
     4
 74
     0
 42
0.0000000001
 43
0.0000000001
 40
1029.844858051247
 40
1029.844858051247
 40
1029.844858051247
 40
1029.844858051247
 40
1060.594404283654
 40
1060.594404283654
 40
1060.594404283654
 40
1060.594404283654
 10
4270.424703010554
 20
-328.2828532149722
 30
-0.0000000000004832
 10
4272.695021663559
 20
-328.4378242989118
 30
-0.0000000000004832
 10
4275.082541525306
 20
-328.7373137850587
 30
-0.0000000000004832
 10
4277.343232594437
 20
-329.0756788560907
 30
-0.0000000000004832
  0
SPLINE
  5
65
330
1F
100
AcDbEntity
  8
图层 03
100
AcDbSpline
210
0.0
220
0.0
230
1.0
 70
     8
 71
     3
 72
     8
 73
     4
 74
     0
 42
0.0000000001
 43
0.0000000001
 40
1060.594404283654
 40
1060.594404283654
 40
1060.594404283654
 40
1060.594404283654
 40
1103.895127342275
 40
1103.895127342275
 40
1103.895127342275
 40
1103.895127342275
 10
4277.343232594437
 20
-329.0756788560907
 30
-0.0000000000004832
 10
4280.586816936705
 20
-329.209764893503
 30
-0.0000000000004832
 10
4283.860488727838
 20
-329.3763671272905
 30
-0.0000000000004832
 10
4287.10454324289
 20
-329.5839690983178
 30
-0.0000000000004832
  0
SPLINE
  5
66
330
1F
100
AcDbEntity
  8
图层 03
100
AcDbSpline
210
0.0
220
0.0
230
1.0
 70
     8
 71
     3
 72
     8
 73
     4
 74
     0
 42
0.0000000001
 43
0.0000000001
 40
1103.895127342275
 40
1103.895127342275
 40
1103.895127342275
 40
1103.895127342275
 40
1148.272793236248
 40
1148.272793236248
 40
1148.272793236248
 40
1148.272793236248
 10
4287.10454324289
 20
-329.5839690983178
 30
-0.0000000000004832
 10
4290.438452831286
 20
-329.6971978052928
 30
-0.0000000000004832
 10
4293.772719945181
 20
-329.8224205643846
 30
-0.0000000000004832
 10
4297.10710670056
 20
-329.9615735489572
 30
-0.0000000000004832
  0
SPLINE
  5
67
330
1F
100
AcDbEntity
  8
图层 03
100
AcDbSpline
210
0.0
220
0.0
230
1.0
 70
     8
 71
     3
 72
     8
 73
     4
 74
     0
 42
0.0000000001
 43
0.0000000001
 40
1148.272793236248
 40
1148.272793236248
 40
1148.272793236248
 40
1148.272793236248
 40
1188.926163151997
 40
1188.926163151997
 40
1188.926163151997
 40
1188.926163151997
 10
4297.10710670056
 20
-329.9615735489572
 30
-0.0000000000004832
 10
4300.149575561848
 20
-329.8552612168955
 30
-0.0000000000004832
 10
4303.192593635848
 20
-329.7549784893629
 30
-0.0000000000004832
 10
4306.236151188141
 20
-329.661474403174
 30
-0.0000000000004832
  0
SPLINE
  5
68
330
1F
100
AcDbEntity
  8
图层 03
100
AcDbSpline
210
0.0
220
0.0
230
1.0
 70
     8
 71
     3
 72
     8
 73
     4
 74
     0
 42
0.0000000001
 43
0.0000000001
 40
1188.926163151997
 40
1188.926163151997
 40
1188.926163151997
 40
1188.926163151997
 40
1221.130898154406
 40
1221.130898154406
 40
1221.130898154406
 40
1221.130898154406
 10
4306.236151188141
 20
-329.661474403174
 30
-0.0000000000004832
 10
4308.563149582127
 20
-329.1124769481979
 30
-0.0000000000004832
 10
4310.890909679364
 20
-328.5662535529539
 30
-0.0000000000004832
 10
4313.219490378458
 20
-328.0230984627892
 30
-0.0000000000004832
  0
SPLINE
  5
69
330
1F
100
AcDbEntity
  8
图层 03
100
AcDbSpline
210
0.0
220
0.0
230
1.0
 70
     8
 71
     3
 72
     8
 73
     4
 74
     0
 42
0.0000000001
 43
0.0000000001
 40
1221.130898154406
 40
1221.130898154406
 40
1221.130898154406
 40
1221.130898154406
 40
1244.390240064273
 40
1244.390240064273
 40
1244.390240064273
 40
1244.390240064273
 10
4313.219490378458
 20
-328.0230984627892
 30
-0.0000000000004832
 10
4314.500127553257
 20
-326.8711414042871
 30
-0.0000000000004832
 10
4315.779540739748
 20
-325.7177477438082
 30
-0.0000000000004832
 10
4317.057611704298
 20
-324.5627976321689
 30
-0.0000000000004832
  0
SPLINE
  5
6A
330
1F
100
AcDbEntity
  8
图层 03
100
AcDbSpline
210
0.0
220
0.0
230
1.0
 70
     8
 71
     3
 72
    11
 73
     7
 74
     0
 42
0.0000000001
 43
0.0000000001
 40
1244.390240064273
 40
1244.390240064273
 40
1244.390240064273
 40
1244.390240064273
 40
1247.433340500871
 40
1247.433340500871
 40
1247.433340500871
 40
1266.062250789998
 40
1266.062250789998
 40
1266.062250789998
 40
1266.062250789998
 10
4317.057611704298
 20
-324.5627976321689
 30
-0.0000000000004832
 10
4317.110974999392
 20
-324.336507489503
 30
-0.0000000000004832
 10
4317.164233482361
 20
-324.1101851358235
 30
-0.0000000000004832
 10
4317.217386284101
 20
-323.8838306307946
 30
-0.0000000000004832
 10
4317.550022872446
 20
-322.5004112419891
 30
-0.0000000000004832
 10
4317.876051133676
 20
-321.1148760666059
 30
-0.0000000000004832
 10
4318.19525423758
 20
-319.727374574646
 30
-0.0000000000004832
  0
SPLINE
  5
6B
330
1F
100
AcDbEntity
  8
图层 03
100
AcDbSpline
210
0.0
220
0.0
230
1.0
 70
     8
 71
     3
 72
     8
 73
     4
 74
     0
 42
0.0000000001
 43
0.0000000001
 40
1266.062250789998
 40
1266.062250789998
 40
1266.062250789998
 40
1266.062250789998
 40
1289.738947389701
 40
1289.738947389701
 40
1289.738947389701
 40
1289.738947389701
 10
4318.19525423758
 20
-319.727374574646
 30
-0.0000000000004832
 10
4317.946719160051
 20
-317.8949935488723
 30
-0.0000000000004832
 10
4317.688826055839
 20
-316.0633416766855
 30
-0.0000000000004832
 10
4317.421928944917
 20
-314.232690977775
 30
-0.0000000000004832
  0
SPLINE
  5
6C
330
1F
100
AcDbEntity
  8
图层 03
100
AcDbSpline
210
0.0
220
0.0
230
1.0
 70
     8
 71
     3
 72
     8
 73
     4
 74
     0
 42
0.0000000001
 43
0.0000000001
 40
1289.738947389701
 40
1289.738947389701
 40
1289.738947389701
 40
1289.738947389701
 40
1314.111747111216
 40
1314.111747111216
 40
1314.111747111216
 40
1314.111747111216
 10
4317.421928944917
 20
-314.232690977775
 30
-0.0000000000004832
 10
4316.802989852051
 20
-312.4177107671009
 30
-0.0000000000004832
 10
4316.173269471024
 20
-310.6059667321067
 30
-0.0000000000004832
 10
4315.533213482278
 20
-308.797774766048
 30
-0.0000000000004832
  0
SPLINE
  5
6D
330
1F
100
AcDbEntity
  8
图层 03
100
AcDbSpline
210
0.0
220
0.0
230
1.0
 70
     8
 71
     3
 72
     8
 73
     4
 74
     0
 42
0.0000000001
 43
0.0000000001
 40
1314.111747111216
 40
1314.111747111216
 40
1314.111747111216
 40
1314.111747111216
 40
1336.840559486885
 40
1336.840559486885
 40
1336.840559486885
 40
1336.840559486885
 10
4315.533213482278
 20
-308.797774766048
 30
-0.0000000000004832
 10
4314.739042462693
 20
-307.1908626771028
 30
-0.0000000000004832
 10
4313.934462500334
 20
-305.5888177181182
 30
-0.0000000000004832
 10
4313.119127913047
 20
-303.9923977386179
 30
-0.0000000000004832
  0
SPLINE
  5
6E
330
1F
100
AcDbEntity
  8
图层 03
100
AcDbSpline
210
0.0
220
0.0
230
1.0
 70
     8
 71
     3
 72
     8
 73
     4
 74
     0
 42
0.0000000001
 43
0.0000000001
 40
1336.840559486885
 40
1336.840559486885
 40
1336.840559486885
 40
1336.840559486885
 40
1358.573346711248
 40
1358.573346711248
 40
1358.573346711248
 40
1358.573346711248
 10
4313.119127913047
 20
-303.9923977386179
 30
-0.0000000000004832
 10
4312.100299682442
 20
-302.6154544243016
 30
-0.0000000000004832
 10
4311.077115720561
 20
-301.2417965000966
 30
-0.0000000000004832
 10
4310.049166088852
 20
-299.8719038857949
 30
-0.0000000000004832
  0
SPLINE
  5
6F
330
1F
100
AcDbEntity
  8
图层 03
100
AcDbSpline
210
0.0
220
0.0
230
1.0
 70
     8
 71
     3
 72
     8
 73
     4
 74
     0
 42
0.0000000001
 43
0.0000000001
 40
1358.573346711248
 40
1358.573346711248
 40
1358.573346711248
 40
1358.573346711248
 40
1381.123529462628
 40
1381.123529462628
 40
1381.123529462628
 40
1381.123529462628
 10
4310.049166088852
 20
-299.8719038857949
 30
-0.0000000000004832
 10
4308.719999997644
 20
-298.7090644509025
 30
-0.0000000000004832
 10
4307.392306037232
 20
-297.5443810121869
 30
-0.0000000000004832
 10
4306.066271501584
 20
-296.3776575849445
 30
-0.0000000000004832
  0
SPLINE
  5
70
330
1F
100
AcDbEntity
  8
图层 03
100
AcDbSpline
210
0.0
220
0.0
230
1.0
 70
     8
 71
     3
 72
     8
 73
     4
 74
     0
 42
0.0000000001
 43
0.0000000001
 40
1381.123529462628
 40
1381.123529462628
 40
1381.123529462628
 40
1381.123529462628
 40
1406.431688772832
 40
1406.431688772832
 40
1406.431688772832
 40
1406.431688772832
 10
4306.066271501584
 20
-296.3776575849445
 30
-0.0000000000004832
 10
4304.344585191112
 20
-295.4426114793906
 30
-0.0000000000004832
 10
4302.623678778564
 20
-294.5058885957696
 30
-0.0000000000004832
 10
4300.903675573179
 20
-293.5672549859285
 30
-0.0000000000004832
  0
SPLINE
  5
71
330
1F
100
AcDbEntity
  8
图层 03
100
AcDbSpline
210
0.0
220
0.0
230
1.0
 70
     8
 71
     3
 72
     8
 73
     4
 74
     0
 42
0.0000000001
 43
0.0000000001
 40
1406.431688772832
 40
1406.431688772832
 40
1406.431688772832
 40
1406.431688772832
 40
1436.263960115878
 40
1436.263960115878
 40
1436.263960115878
 40
1436.263960115878
 10
4300.903675573179
 20
-293.5672549859285
 30
-0.0000000000004832
 10
4298.725963309122
 20
-292.8897521699839
 30
-0.0000000000004832
 10
4296.547439554495
 20
-292.2155831557866
 30
-0.0000000000004832
 10
4294.367987571883
 20
-291.5453927047676
 30
-0.0000000000004832
  0
SPLINE
  5
72
330
1F
100
AcDbEntity
  8
图层 03
100
AcDbSpline
210
0.0
220
0.0
230
1.0
 70
     8
 71
     3
 72
     8
 73
     4
 74
     0
 42
0.0000000001
 43
0.0000000001
 40
1436.263960115878
 40
1436.263960115878
 40
1436.263960115878
 40
1436.263960115878
 40
1470.528478623727
 40
1470.528478623727
 40
1470.528478623727
 40
1470.528478623727
 10
4294.367987571883
 20
-291.5453927047676
 30
-0.0000000000004832
 10
4291.806724780347
 20
-291.1214707567344
 30
-0.0000000000004832
 10
4289.244590333084
 20
-290.7057128832175
 30
-0.0000000000004832
 10
4286.681611781573
 20
-290.2996306860443
 30
-0.0000000000004832
  0
SPLINE
  5
73
330
1F
100
AcDbEntity
  8
图层 03
100
AcDbSpline
210
0.0
220
0.0
230
1.0
 70
     8
 71
     3
 72
     8
 73
     4
 74
     0
 42
0.0000000001
 43
0.0000000001
 40
1470.528478623727
 40
1470.528478623727
 40
1470.528478623727
 40
1470.528478623727
 40
1500.420359716549
 40
1500.420359716549
 40
1500.420359716549
 40
1500.420359716549
 10
4286.681611781573
 20
-290.2996306860443
 30
-0.0000000000004832
 10
4284.43539550285
 20
-290.1474783665652
 30
-0.0000000000004832
 10
4282.18900883973
 20
-290.0058346470282
 30
-0.0000000000004832
 10
4279.942748349794
 20
-289.8757286931097
 30
-0.0000000000004832
  0
SPLINE
  5
74
330
1F
100
AcDbEntity
  8
图层 03
100
AcDbSpline
210
0.0
220
0.0
230
1.0
 70
     8
 71
     3
 72
     8
 73
     4
 74
     0
 42
0.0000000001
 43
0.0000000001
 40
1500.420359716549
 40
1500.420359716549
 40
1500.420359716549
 40
1500.420359716549
 40
1508.207967149299
 40
1508.207967149299
 40
1508.207967149299
 40
1508.207967149299
 10
4279.942748349794
 20
-289.8757286931097
 30
-0.0000000000004832
 10
4279.357781272509
 20
-289.8233693336953
 30
-0.0000000000004832
 10
4278.772800085712
 20
-289.771479766858
 30
-0.0000000000004832
 10
4278.187807085429
 20
-289.7200535209497
 30
-0.0000000000004832
  0
SPLINE
  5
75
330
1F
100
AcDbEntity
  8
图层 03
100
AcDbSpline
210
0.0
220
0.0
230
1.0
 70
     8
 71
     3
 72
     8
 73
     4
 74
     0
 42
0.0000000001
 43
0.0000000001
 40
1508.207967149299
 40
1508.207967149299
 40
1508.207967149299
 40
1508.207967149299
 40
1548.001850144125
 40
1548.001850144125
 40
1548.001850144125
 40
1548.001850144125
 10
4278.187807085429
 20
-289.7200535209497
 30
-0.0000000000004832
 10
4275.198543109907
 20
-289.6379345089789
 30
-0.0000000000004832
 10
4272.211055710252
 20
-289.5891008982237
 30
-0.0000000000004832
 10
4269.224389021276
 20
-289.5723394963031
 30
-0.0000000000004832
  0
SPLINE
  5
76
330
1F
100
AcDbEntity
  8
图层 03
100
AcDbSpline
210
0.0
220
0.0
230
1.0
 70
     8
 71
     3
 72
     8
 73
     4
 74
     0
 42
0.0000000001
 43
0.0000000001
 40
1548.001850144125
 40
1548.001850144125
 40
1548.001850144125
 40
1548.001850144125
 40
1587.751004724146
 40
1587.751004724146
 40
1587.751004724146
 40
1587.751004724146
 10
4269.224389021276
 20
-289.5723394963031
 30
-0.0000000000004832
 10
4266.255599245449
 20
-289.7404703235965
 30
-0.0000000000004832
 10
4263.294574397874
 20
-289.9681111861994
 30
-0.0000000000004832
 10
4260.341059931909
 20
-290.2567694710019
 30
-0.0000000000004832
  0
SPLINE
  5
77
330
1F
100
AcDbEntity
  8
图层 03
100
AcDbSpline
210
0.0
220
0.0
230
1.0
 70
     8
 71
     3
 72
     8
 73
     4
 74
     0
 42
0.0000000001
 43
0.0000000001
 40
1587.751004724146
 40
1587.751004724146
 40
1587.751004724146
 40
1587.751004724146
 40
1625.249937685498
 40
1625.249937685498
 40
1625.249937685498
 40
1625.249937685498
 10
4260.341059931909
 20
-290.2567694710019
 30
-0.0000000000004832
 10
4257.608030605121
 20
-290.8047069213193
 30
-0.0000000000004832
 10
4254.892260838994
 20
-291.4199761024349
 30
-0.0000000000004832
 10
4252.195669702779
 20
-292.105743614749
 30
-0.0000000000004832
  0
SPLINE
  5
78
330
1F
100
AcDbEntity
  8
图层 03
100
AcDbSpline
210
0.0
220
0.0
230
1.0
 70
     8
 71
     3
 72
     8
 73
     4
 74
     0
 42
0.0000000001
 43
0.0000000001
 40
1625.249937685498
 40
1625.249937685498
 40
1625.249937685498
 40
1625.249937685498
 40
1646.606808425797
 40
1646.606808425797
 40
1646.606808425797
 40
1646.606808425797
 10
4252.195669702779
 20
-292.105743614749
 30
-0.0000000000004832
 10
4250.742041935815
 20
-292.7220959694133
 30
-0.0000000000004832
 10
4249.296750896047
 20
-293.3568231398634
 30
-0.0000000000004832
 10
4247.860011627718
 20
-294.0102598592756
 30
-0.0000000000004832
  0
SPLINE
  5
79
330
1F
100
AcDbEntity
  8
图层 03
100
AcDbSpline
210
0.0
220
0.0
230
1.0
 70
     8
 71
     3
 72
     8
 73
     4
 74
     0
 42
0.0000000001
 43
0.0000000001
 40
1646.606808425797
 40
1646.606808425797
 40
1646.606808425797
 40
1646.606808425797
 40
1659.351400284554
 40
1659.351400284554
 40
1659.351400284554
 40
1659.351400284554
 10
4247.860011627718
 20
-294.0102598592756
 30
-0.0000000000004832
 10
4246.979529938168
 20
-294.347202758829
 30
-0.0000000000004832
 10
4246.100413047634
 20
-294.687571580214
 30
-0.0000000000004832
 10
4245.222737764041
 20
-295.0313519118379
 30
-0.0000000000004832
  0
SPLINE
  5
7A
330
1F
100
AcDbEntity
  8
图层 03
100
AcDbSpline
210
0.0
220
0.0
230
1.0
 70
     8
 71
     3
 72
     8
 73
     4
 74
     0
 42
0.0000000001
 43
0.0000000001
 40
1659.351400284554
 40
1659.351400284554
 40
1659.351400284554
 40
1659.351400284554
 40
1689.676248974256
 40
1689.676248974256
 40
1689.676248974256
 40
1689.676248974256
 10
4245.222737764041
 20
-295.0313519118379
 30
-0.0000000000004832
 10
4243.382170981323
 20
-296.3093230791501
 30
-0.0000000000004832
 10
4241.545659475559
 20
-297.5933256933982
 30
-0.0000000000004832
 10
4239.7134043921
 20
-298.8834296257439
 30
-0.0000000000004832
  0
SPLINE
  5
7B
330
1F
100
AcDbEntity
  8
图层 03
100
AcDbSpline
210
0.0
220
0.0
230
1.0
 70
     8
 71
     3
 72
     8
 73
     4
 74
     0
 42
0.0000000001
 43
0.0000000001
 40
1689.676248974256
 40
1689.676248974256
 40
1689.676248974256
 40
1689.676248974256
 40
1716.987490666964
 40
1716.987490666964
 40
1716.987490666964
 40
1716.987490666964
 10
4239.7134043921
 20
-298.8834296257439
 30
-0.0000000000004832
 10
4238.495286926414
 20
-300.5159788179119
 30
-0.0000000000004832
 10
4237.276097638253
 20
-302.1476512043773
 30
-0.0000000000004832
 10
4236.055830244293
 20
-303.7784349398125
 30
-0.0000000000004832
  0
SPLINE
  5
7C
330
1F
100
AcDbEntity
  8
图层 03
100
AcDbSpline
210
0.0
220
0.0
230
1.0
 70
     8
 71
     3
 72
     8
 73
     4
 74
     0
 42
0.0000000001
 43
0.0000000001
 40
1716.987490666964
 40
1716.987490666964
 40
1716.987490666964
 40
1716.987490666964
 40
1742.566026336209
 40
1742.566026336209
 40
1742.566026336209
 40
1742.566026336209
 10
4236.055830244293
 20
-303.7784349398125
 30
-0.0000000000004832
 10
4235.410553363479
 20
-305.6085628262877
 30
-0.0000000000004832
 10
4234.772194403467
 20
-307.4416908526518
 30
-0.0000000000004832
 10
4234.14066126422
 20
-309.2775984389418
 30
-0.0000000000004832
  0
SPLINE
  5
7D
330
1F
100
AcDbEntity
  8
图层 03
100
AcDbSpline
210
0.0
220
0.0
230
1.0
 70
     8
 71
     3
 72
     8
 73
     4
 74
     0
 42
0.0000000001
 43
0.0000000001
 40
1742.566026336209
 40
1742.566026336209
 40
1742.566026336209
 40
1742.566026336209
 40
1766.898120035947
 40
1766.898120035947
 40
1766.898120035947
 40
1766.898120035947
 10
4234.14066126422
 20
-309.2775984389418
 30
-0.0000000000004832
 10
4234.026267390496
 20
-311.1536179490855
 30
-0.0000000000004832
 10
4233.943513197072
 20
-313.0336717244741
 30
-0.0000000000004832
 10
4233.89064275476
 20
-314.9162103345654
 30
-0.0000000000004832
  0
SPLINE
  5
7E
330
1F
100
AcDbEntity
  8
图层 03
100
AcDbSpline
210
0.0
220
0.0
230
1.0
 70
     8
 71
     3
 72
     8
 73
     4
 74
     0
 42
0.0000000001
 43
0.0000000001
 40
1766.898120035947
 40
1766.898120035947
 40
1766.898120035947
 40
1766.898120035947
 40
1773.750102829438
 40
1773.750102829438
 40
1773.750102829438
 40
1773.750102829438
 10
4233.89064275476
 20
-314.9162103345654
 30
-0.0000000000004832
 10
4234.034925157333
 20
-315.4346088106753
 30
-0.0000000000004832
 10
4234.187758463087
 20
-315.9511016986219
 30
-0.0000000000004832
 10
4234.348348750713
 20
-316.4652400377511
 30
-0.0000000000004832
  0
SPLINE
  5
7F
330
1F
100
AcDbEntity
  8
图层 03
100
AcDbSpline
210
0.0
220
0.0
230
1.0
 70
     8
 71
     3
 72
     8
 73
     4
 74
     0
 42
0.0000000001
 43
0.0000000001
 40
1773.750102829438
 40
1773.750102829438
 40
1773.750102829438
 40
1773.750102829438
 40
1791.094718706195
 40
1791.094718706195
 40
1791.094718706195
 40
1791.094718706195
 10
4234.348348750713
 20
-316.4652400377511
 30
-0.0000000000004832
 10
4234.714888241577
 20
-317.7750008623763
 30
-0.0000000000004832
 10
4235.12746810643
 20
-319.0798541689556
 30
-0.0000000000004832
 10
4235.571613430704
 20
-320.3678024151827
 30
-0.0000000000004832
  0
SPLINE
  5
80
330
1F
100
AcDbEntity
  8
图层 03
100
AcDbSpline
210
0.0
220
0.0
230
1.0
 70
     8
 71
     3
 72
     8
 73
     4
 74
     0
 42
0.0000000001
 43
0.0000000001
 40
1791.094718706195
 40
1791.094718706195
 40
1791.094718706195
 40
1791.094718706195
 40
1802.665886195683
 40
1802.665886195683
 40
1802.665886195683
 40
1802.665886195683
 10
4235.571613430704
 20
-320.3678024151827
 30
-0.0000000000004832
 10
4236.370664716195
 20
-320.7687302853254
 30
-0.0000000000004832
 10
4237.169871520123
 20
-321.169294720239
 30
-0.0000000000004832
 10
4237.969313623233
 20
-321.5693042042383
 30
-0.0000000000004832
  0
SPLINE
  5
81
330
1F
100
AcDbEntity
  8
图层 03
100
AcDbSpline
210
0.0
220
0.0
230
1.0
 70
     8
 71
     3
 72
     8
 73
     4
 74
     0
 42
0.0000000001
 43
0.0000000001
 40
1802.665886195683
 40
1802.665886195683
 40
1802.665886195683
 40
1802.665886195683
 40
1815.759462206511
 40
1815.759462206511
 40
1815.759462206511
 40
1815.759462206511
 10
4237.969313623233
 20
-321.5693042042383
 30
-0.0000000000004832
 10
4238.746520606945
 20
-322.2096074635813
 30
-0.0000000000004832
 10
4239.569377858486
 20
-322.8743057834965
 30
-0.0000000000004832
 10
4240.36390034506
 20
-323.4908389478215
 30
-0.0000000000004832
  0
SPLINE
  5
82
330
1F
100
AcDbEntity
  8
图层 03
100
AcDbSpline
210
0.0
220
0.0
230
1.0
 70
     8
 71
     3
 72
     8
 73
     4
 74
     0
 42
0.0000000001
 43
0.0000000001
 40
1815.759462206511
 40
1815.759462206511
 40
1815.759462206511
 40
1815.759462206511
 40
1841.281110189057
 40
1841.281110189057
 40
1841.281110189057
 40
1841.281110189057
 10
4240.36390034506
 20
-323.4908389478215
 30
-0.0000000000004832
 10
4242.268532062746
 20
-323.8353180803749
 30
-0.0000000000004832
 10
4244.172572571282
 20
-324.1852642763217
 30
-0.0000000000004832
 10
4246.075561848907
 20
-324.54342144661
 30
-0.0000000000004832
  0
SPLINE
  5
83
330
1F
100
AcDbEntity
  8
图层 03
100
AcDbSpline
210
0.0
220
0.0
230
1.0
 70
     8
 71
     3
 72
    11
 73
     7
 74
     0
 42
0.0000000001
 43
0.0000000001
 40
1841.281110189057
 40
1841.281110189057
 40
1841.281110189057
 40
1841.281110189057
 40
1869.189511159783
 40
1869.189511159783
 40
1869.189511159783
 40
1895.252589629973
 40
1895.252589629973
 40
1895.252589629973
 40
1895.252589629973
 10
4246.075561848907
 20
-324.5434214466097
 30
-0.0000000000004832
 10
4248.172743725846
 20
-324.6500670986694
 30
-0.0000000000004832
 10
4250.26992623411
 20
-324.7466394928244
 30
-0.0000000000004832
 10
4252.366824129747
 20
-324.8327639077914
 30
-0.0000000000004832
 10
4254.324821915028
 20
-324.9360811986063
 30
-0.0000000000004832
 10
4256.284290037931
 20
-325.0187936818118
 30
-0.0000000000004832
 10
4258.241682085106
 20
-325.082636808353
 30
-0.0000000000004832
  0
SPLINE
  5
84
330
1F
100
AcDbEntity
  8
图层 03
100
AcDbSpline
210
0.0
220
0.0
230
1.0
 70
    11
 71
     3
 72
    29
 73
    25
 74
     0
 42
0.0000000001
 43
0.0000000001
 40
-15.70796326794897
 40
-15.70796326794897
 40
-15.70796326794897
 40
-15.70796326794897
 40
-14.72621556370216
 40
-13.74446785945534
 40
-12.76272015520853
 40
-12.27184630308513
 40
-11.78097245096172
 40
-11.29009859883832
 40
-10.79922474671491
 40
-9.817477042468102
 40
-8.835729338221292
 40
-8.344855486097888
 40
-7.853981633974483
 40
-7.363107781851078
 40
-6.872233929727672
 40
-5.890486225480862
 40
-4.908738521234051
 40
-4.417864669110646
 40
-3.926990816987241
 40
-3.436116964863836
 40
-2.945243112740431
 40
-1.963495408493621
 40
-0.9817477042468103
 40
0.0
 40
0.0
 40
0.0
 40
0.0
 10
4277.784423830311
 20
-310.3543468750736
 30
-0.0000000000004832
 10
4277.784423830306
 20
-310.7071244460127
 30
-0.0000000000004832
 10
4277.656190008831
 20
-311.4720974615921
 30
-0.0000000000004832
 10
4276.968782927627
 20
-312.5387582379662
 30
-0.0000000000004832
 10
4276.080749924507
 20
-313.1121871216146
 30
-0.0000000000004832
 10
4275.326328194189
 20
-313.3226437047065
 30
-0.0000000000004832
 10
4274.784420656599
 20
-313.3702017957273
 30
-0.0000000000004832
 10
4274.24253216128
 20
-313.3226303628264
 30
-0.0000000000004832
 10
4273.488034261873
 20
-313.1122627255985
 30
-0.0000000000004832
 10
4272.600325173698
 20
-312.5384457353839
 30
-0.0000000000004832
 10
4272.026507650788
 20
-311.6507361614172
 30
-0.0000000000004832
 10
4271.816141297816
 20
-310.8962393406409
 30
-0.0000000000004832
 10
4271.768565096558
 20
-310.3543468750738
 30
-0.0000000000004832
 10
4271.816141297816
 20
-309.8124544095065
 30
-0.0000000000004832
 10
4272.026507650788
 20
-309.0579575887293
 30
-0.0000000000004832
 10
4272.600325173698
 20
-308.1702480147637
 30
-0.0000000000004832
 10
4273.488034261873
 20
-307.5964310245486
 30
-0.0000000000004832
 10
4274.242532161281
 20
-307.3860633873202
 30
-0.0000000000004832
 10
4274.784420656599
 20
-307.3384919544203
 30
-0.0000000000004832
 10
4275.326328194189
 20
-307.3860500454405
 30
-0.0000000000004832
 10
4276.080749924507
 20
-307.596506628533
 30
-0.0000000000004832
 10
4276.968782927626
 20
-308.1699355121805
 30
-0.0000000000004832
 10
4277.656190008831
 20
-309.2365962885565
 30
-0.0000000000004832
 10
4277.784423830306
 20
-310.0015693041339
 30
-0.0000000000004832
 10
4277.784423830311
 20
-310.3543468750736
 30
-0.0000000000004832
  0
SPLINE
  5
85
330
1F
100
AcDbEntity
  8
图层 03
100
AcDbSpline
210
0.0
220
0.0
230
1.0
 70
     8
 71
     3
 72
     8
 73
     4
 74
     0
 42
0.0000000001
 43
0.0000000001
 40
1121.296898580061
 40
1121.296898580061
 40
1121.296898580061
 40
1121.296898580061
 40
1126.902286071498
 40
1126.902286071498
 40
1126.902286071498
 40
1126.902286071498
 10
4178.180755009256
 20
-301.0885911776955
 30
-0.0000000000004832
 10
4177.856144324243
 20
-301.3464417776861
 30
-0.0000000000004832
 10
4177.533387879146
 20
-301.6067607388327
 30
-0.0000000000004832
 10
4177.212273993627
 20
-301.8691015865423
 30
-0.0000000000004832
  0
SPLINE
  5
86
330
1F
100
AcDbEntity
  8
图层 03
100
AcDbSpline
210
0.0
220
0.0
230
1.0
 70
     8
 71
     3
 72
     8
 73
     4
 74
     0
 42
0.0000000001
 43
0.0000000001
 40
1126.902286071498
 40
1126.902286071498
 40
1126.902286071498
 40
1126.902286071498
 40
1164.257035883106
 40
1164.257035883106
 40
1164.257035883106
 40
1164.257035883106
 10
4177.212273993627
 20
-301.8691015865423
 30
-0.0000000000004832
 10
4175.561157877868
 20
-304.0275450159147
 30
-0.0000000000004832
 10
4173.827529438133
 20
-306.3781496520218
 30
-0.0000000000004832
 10
4172.229116863668
 20
-308.5796134267219
 30
-0.0000000000004832
  0
SPLINE
  5
87
330
1F
100
AcDbEntity
  8
图层 03
100
AcDbSpline
210
0.0
220
0.0
230
1.0
 70
     8
 71
     3
 72
     8
 73
     4
 74
     0
 42
0.0000000001
 43
0.0000000001
 40
1164.257035883106
 40
1164.257035883106
 40
1164.257035883106
 40
1164.257035883106
 40
1175.056110762833
 40
1175.056110762833
 40
1175.056110762833
 40
1175.056110762833
 10
4172.229116863668
 20
-308.5796134267219
 30
-0.0000000000004832
 10
4171.852415182548
 20
-309.2990637463461
 30
-0.0000000000004832
 10
4171.476084173596
 20
-310.0187366648227
 30
-0.0000000000004832
 10
4171.100067327478
 20
-310.7385970132752
 30
-0.0000000000004832
  0
SPLINE
  5
88
330
1F
100
AcDbEntity
  8
图层 03
100
AcDbSpline
210
0.0
220
0.0
230
1.0
 70
     8
 71
     3
 72
     8
 73
     4
 74
     0
 42
0.0000000001
 43
0.0000000001
 40
1175.056110762833
 40
1175.056110762833
 40
1175.056110762833
 40
1175.056110762833
 40
1211.382671742803
 40
1211.382671742803
 40
1211.382671742803
 40
1211.382671742803
 10
4171.100067327478
 20
-310.7385970132752
 30
-0.0000000000004832
 10
4169.615468842101
 20
-313.0148139248867
 30
-0.0000000000004832
 10
4168.1387506959
 20
-315.2968073141906
 30
-0.0000000000004832
 10
4166.667214654701
 20
-317.5824513464902
 30
-0.0000000000004832
  0
SPLINE
  5
89
330
1F
100
AcDbEntity
  8
图层 03
100
AcDbSpline
210
0.0
220
0.0
230
1.0
 70
     8
 71
     3
 72
     8
 73
     4
 74
     0
 42
0.0000000001
 43
0.0000000001
 40
1211.382671742803
 40
1211.382671742803
 40
1211.382671742803
 40
1211.382671742803
 40
1257.897473022958
 40
1257.897473022958
 40
1257.897473022958
 40
1257.897473022958
 10
4166.667214654701
 20
-317.5824513464902
 30
-0.0000000000004832
 10
4165.094272904289
 20
-320.7105684772678
 30
-0.0000000000004832
 10
4163.526043021181
 20
-323.84142337037
 30
-0.0000000000004832
 10
4161.961113566001
 20
-326.9741592830794
 30
-0.0000000000004832
  0
SPLINE
  5
8A
330
1F
100
AcDbEntity
  8
图层 03
100
AcDbSpline
210
0.0
220
0.0
230
1.0
 70
     8
 71
     3
 72
     8
 73
     4
 74
     0
 42
0.0000000001
 43
0.0000000001
 40
1257.897473022958
 40
1257.897473022958
 40
1257.897473022958
 40
1257.897473022958
 40
1265.144792514377
 40
1265.144792514377
 40
1265.144792514377
 40
1265.144792514377
 10
4161.961113566001
 20
-326.9741592830794
 30
-0.0000000000004832
 10
4161.777243256871
 20
-327.492259337258
 30
-0.0000000000004832
 10
4161.593549412358
 20
-328.0104351961662
 30
-0.0000000000004832
 10
4161.410027080989
 20
-328.5286843234544
 30
-0.0000000000004832
  0
SPLINE
  5
8B
330
1F
100
AcDbEntity
  8
图层 03
100
AcDbSpline
210
0.0
220
0.0
230
1.0
 70
     8
 71
     3
 72
     8
 73
     4
 74
     0
 42
0.0000000001
 43
0.0000000001
 40
1265.144792514377
 40
1265.144792514377
 40
1265.144792514377
 40
1265.144792514377
 40
1297.681938418578
 40
1297.681938418578
 40
1297.681938418578
 40
1297.681938418578
 10
4161.410027080989
 20
-328.5286843234544
 30
-0.0000000000004832
 10
4160.428688324873
 20
-330.781365777015
 30
-0.0000000000004832
 10
4159.486364347244
 20
-333.0541768842272
 30
-0.0000000000004832
 10
4158.580393300474
 20
-335.3438129533367
 30
-0.0000000000004832
  0
SPLINE
  5
8C
330
1F
100
AcDbEntity
  8
图层 03
100
AcDbSpline
210
0.0
220
0.0
230
1.0
 70
     8
 71
     3
 72
     8
 73
     4
 74
     0
 42
0.0000000001
 43
0.0000000001
 40
1297.681938418578
 40
1297.681938418578
 40
1297.681938418578
 40
1297.681938418578
 40
1329.639085598525
 40
1329.639085598525
 40
1329.639085598525
 40
1329.639085598525
 10
4158.580393300474
 20
-335.3438129533367
 30
-0.0000000000004832
 10
4158.061294142301
 20
-337.732604978583
 30
-0.0000000000004832
 10
4157.579916565141
 20
-340.1314708676728
 30
-0.0000000000004832
 10
4157.137037700502
 20
-342.5408332604638
 30
-0.0000000000004832
  0
SPLINE
  5
8D
330
1F
100
AcDbEntity
  8
图层 03
100
AcDbSpline
210
0.0
220
0.0
230
1.0
 70
     8
 71
     3
 72
     8
 73
     4
 74
     0
 42
0.0000000001
 43
0.0000000001
 40
1329.639085598525
 40
1329.639085598525
 40
1329.639085598525
 40
1329.639085598525
 40
1360.401586890973
 40
1360.401586890973
 40
1360.401586890973
 40
1360.401586890973
 10
4157.137037700502
 20
-342.5408332604638
 30
-0.0000000000004832
 10
4157.055143928152
 20
-344.9196409767721
 30
-0.0000000000004832
 10
4156.986360452502
 20
-347.2998338148409
 30
-0.0000000000004832
 10
4156.931565411071
 20
-349.6810032982942
 30
-0.0000000000004832
  0
SPLINE
  5
8E
330
1F
100
AcDbEntity
  8
图层 03
100
AcDbSpline
210
0.0
220
0.0
230
1.0
 70
     8
 71
     3
 72
     8
 73
     4
 74
     0
 42
0.0000000001
 43
0.0000000001
 40
1360.401586890973
 40
1360.401586890973
 40
1360.401586890973
 40
1360.401586890973
 40
1396.127993934677
 40
1396.127993934677
 40
1396.127993934677
 40
1396.127993934677
 10
4156.931565411071
 20
-349.6810032982942
 30
-0.0000000000004832
 10
4157.188213159131
 20
-352.4534351445848
 30
-0.0000000000004832
 10
4157.458088281537
 20
-355.2254594086432
 30
-0.0000000000004832
 10
4157.742666398792
 20
-357.9965601867648
 30
-0.0000000000004832
  0
SPLINE
  5
8F
330
1F
100
AcDbEntity
  8
图层 03
100
AcDbSpline
210
0.0
220
0.0
230
1.0
 70
     8
 71
     3
 72
     8
 73
     4
 74
     0
 42
0.0000000001
 43
0.0000000001
 40
1396.127993934677
 40
1396.127993934677
 40
1396.127993934677
 40
1396.127993934677
 40
1440.43781243456
 40
1440.43781243456
 40
1440.43781243456
 40
1440.43781243456
 10
4157.742666398792
 20
-357.9965601867648
 30
-0.0000000000004832
 10
4158.421419107736
 20
-361.3998705949684
 30
-0.0000000000004832
 10
4159.121294187601
 20
-364.8001643181784
 30
-0.0000000000004832
 10
4159.845294325054
 20
-368.1959548501525
 30
-0.0000000000004832
  0
SPLINE
  5
90
330
1F
100
AcDbEntity
  8
图层 03
100
AcDbSpline
210
0.0
220
0.0
230
1.0
 70
     8
 71
     3
 72
     8
 73
     4
 74
     0
 42
0.0000000001
 43
0.0000000001
 40
1440.43781243456
 40
1440.43781243456
 40
1440.43781243456
 40
1440.43781243456
 40
1489.092531282131
 40
1489.092531282131
 40
1489.092531282131
 40
1489.092531282131
 10
4159.845294325054
 20
-368.1959548501525
 30
-0.0000000000004832
 10
4161.104695605163
 20
-371.8116959737855
 30
-0.0000000000004832
 10
4162.364818956366
 20
-375.4272065978373
 30
-0.0000000000004832
 10
4163.62574234287
 20
-379.0424606143134
 30
-0.0000000000004832
  0
SPLINE
  5
91
330
1F
100
AcDbEntity
  8
图层 03
100
AcDbSpline
210
0.0
220
0.0
230
1.0
 70
     8
 71
     3
 72
     8
 73
     4
 74
     0
 42
0.0000000001
 43
0.0000000001
 40
1489.092531282131
 40
1489.092531282131
 40
1489.092531282131
 40
1489.092531282131
 40
1535.498481959208
 40
1535.498481959208
 40
1535.498481959208
 40
1535.498481959208
 10
4163.62574234287
 20
-379.0424606143134
 30
-0.0000000000004832
 10
4165.469896365752
 20
-382.20465065654
 30
-0.0000000000004832
 10
4167.283440393921
 20
-385.3851288543972
 30
-0.0000000000004832
 10
4169.064116930153
 20
-388.5834357648999
 30
-0.0000000000004832
  0
SPLINE
  5
92
330
1F
100
AcDbEntity
  8
图层 03
100
AcDbSpline
210
0.0
220
0.0
230
1.0
 70
     8
 71
     3
 72
     8
 73
     4
 74
     0
 42
0.0000000001
 43
0.0000000001
 40
1535.498481959208
 40
1535.498481959208
 40
1535.498481959208
 40
1535.498481959208
 40
1575.159250333166
 40
1575.159250333166
 40
1575.159250333166
 40
1575.159250333166
 10
4169.064116930153
 20
-388.5834357648999
 30
-0.0000000000004832
 10
4171.467149384461
 20
-390.5418175741527
 30
-0.0000000000004832
 10
4173.849448214511
 20
-392.5342170033214
 30
-0.0000000000004832
 10
4176.20162240072
 20
-394.5591617237947
 30
-0.0000000000004832
  0
SPLINE
  5
93
330
1F
100
AcDbEntity
  8
图层 03
100
AcDbSpline
210
0.0
220
0.0
230
1.0
 70
     8
 71
     3
 72
     8
 73
     4
 74
     0
 42
0.0000000001
 43
0.0000000001
 40
1575.159250333166
 40
1575.159250333166
 40
1575.159250333166
 40
1575.159250333166
 40
1614.252652903506
 40
1614.252652903506
 40
1614.252652903506
 40
1614.252652903506
 10
4176.20162240072
 20
-394.5591617237947
 30
-0.0000000000004832
 10
4179.125047245388
 20
-394.9207925343669
 30
-0.0000000000004832
 10
4182.072131656359
 20
-395.3170671958437
 30
-0.0000000000004832
 10
4184.990275822366
 20
-395.7515871678273
 30
-0.0000000000004832
  0
SPLINE
  5
94
330
1F
100
AcDbEntity
  8
图层 03
100
AcDbSpline
210
0.0
220
0.0
230
1.0
 70
     8
 71
     3
 72
     8
 73
     4
 74
     0
 42
0.0000000001
 43
0.0000000001
 40
1614.252652903506
 40
1614.252652903506
 40
1614.252652903506
 40
1614.252652903506
 40
1654.950041834238
 40
1654.950041834238
 40
1654.950041834238
 40
1654.950041834238
 10
4184.990275822366
 20
-395.7515871678273
 30
-0.0000000000004832
 10
4187.90445613301
 20
-395.0175984100194
 30
-0.0000000000004832
 10
4190.867610243158
 20
-394.2952879125635
 30
-0.0000000000004832
 10
4193.796919066928
 20
-393.6156187363296
 30
-0.0000000000004832
  0
SPLINE
  5
95
330
1F
100
AcDbEntity
  8
图层 03
100
AcDbSpline
210
0.0
220
0.0
230
1.0
 70
     8
 71
     3
 72
     8
 73
     4
 74
     0
 42
0.0000000001
 43
0.0000000001
 40
1654.950041834238
 40
1654.950041834238
 40
1654.950041834238
 40
1654.950041834238
 40
1656.702490728867
 40
1656.702490728867
 40
1656.702490728867
 40
1656.702490728867
 10
4193.796919066928
 20
-393.6156187363296
 30
-0.0000000000004832
 10
4193.925060508186
 20
-393.5918195205553
 30
-0.0000000000004832
 10
4194.053211168777
 20
-393.5680608811393
 30
-0.0000000000004832
 10
4194.181371056231
 20
-393.5443431781621
 30
-0.0000000000004832
  0
SPLINE
  5
96
330
1F
100
AcDbEntity
  8
图层 03
100
AcDbSpline
210
0.0
220
0.0
230
1.0
 70
     8
 71
     3
 72
     8
 73
     4
 74
     0
 42
0.0000000001
 43
0.0000000001
 40
1656.702490728867
 40
1656.702490728867
 40
1656.702490728867
 40
1656.702490728867
 40
1699.54741730678
 40
1699.54741730678
 40
1699.54741730678
 40
1699.54741730678
 10
4194.181371056231
 20
-393.5443431781621
 30
-0.0000000000004832
 10
4197.080485039332
 20
-392.2855666536544
 30
-0.0000000000004832
 10
4200.016892650361
 20
-391.0633978336016
 30
-0.0000000000004832
 10
4202.959607231727
 20
-389.9052232059512
 30
-0.0000000000004832
  0
SPLINE
  5
97
330
1F
100
AcDbEntity
  8
图层 03
100
AcDbSpline
210
0.0
220
0.0
230
1.0
 70
     8
 71
     3
 72
     8
 73
     4
 74
     0
 42
0.0000000001
 43
0.0000000001
 40
1699.54741730678
 40
1699.54741730678
 40
1699.54741730678
 40
1699.54741730678
 40
1744.661603035651
 40
1744.661603035651
 40
1744.661603035651
 40
1744.661603035651
 10
4202.959607231727
 20
-389.9052232059512
 30
-0.0000000000004832
 10
4205.805679692969
 20
-388.1627853092939
 30
-0.0000000000004832
 10
4208.759894625612
 20
-386.6422659790578
 30
-0.0000000000004832
 10
4211.841633579355
 20
-385.3527279025591
 30
-0.0000000000004832
  0
SPLINE
  5
98
330
1F
100
AcDbEntity
  8
图层 03
100
AcDbSpline
210
0.0
220
0.0
230
1.0
 70
     8
 71
     3
 72
     8
 73
     4
 74
     0
 42
0.0000000001
 43
0.0000000001
 40
1744.661603035651
 40
1744.661603035651
 40
1744.661603035651
 40
1744.661603035651
 40
1767.784791804658
 40
1767.784791804658
 40
1767.784791804658
 40
1767.784791804658
 10
4211.841633579355
 20
-385.3527279025591
 30
-0.0000000000004832
 10
4212.637674737099
 20
-383.8033437135085
 30
-0.0000000000004832
 10
4213.356305903917
 20
-382.2184614996443
 30
-0.0000000000004832
 10
4213.997747633113
 20
-380.5874424719215
 30
-0.0000000000004832
  0
SPLINE
  5
99
330
1F
100
AcDbEntity
  8
图层 03
100
AcDbSpline
210
0.0
220
0.0
230
1.0
 70
     8
 71
     3
 72
     8
 73
     4
 74
     0
 42
0.0000000001
 43
0.0000000001
 40
1767.784791804658
 40
1767.784791804658
 40
1767.784791804658
 40
1767.784791804658
 40
1807.576500049716
 40
1807.576500049716
 40
1807.576500049716
 40
1807.576500049716
 10
4213.997747633113
 20
-380.5874424719215
 30
-0.0000000000004832
 10
4215.528668116018
 20
-378.0507913663622
 30
-0.0000000000004832
 10
4216.917265504155
 20
-375.3728024572143
 30
-0.0000000000004832
 10
4217.77704969606
 20
-372.472772843473
 30
-0.0000000000004832
  0
SPLINE
  5
9A
330
1F
100
AcDbEntity
  8
图层 03
100
AcDbSpline
210
0.0
220
0.0
230
1.0
 70
     8
 71
     3
 72
     8
 73
     4
 74
     0
 42
0.0000000001
 43
0.0000000001
 40
1807.576500049716
 40
1807.576500049716
 40
1807.576500049716
 40
1807.576500049716
 40
1839.293480412711
 40
1839.293480412711
 40
1839.293480412711
 40
1839.293480412711
 10
4217.77704969606
 20
-372.472772843473
 30
-0.0000000000004832
 10
4218.339028682802
 20
-370.1216557945319
 30
-0.0000000000004832
 10
4218.858902215388
 20
-367.7410190018787
 30
-0.0000000000004832
 10
4219.343102693379
 20
-365.3673073501177
 30
-0.0000000000004832
  0
SPLINE
  5
9B
330
1F
100
AcDbEntity
  8
图层 03
100
AcDbSpline
210
0.0
220
0.0
230
1.0
 70
     8
 71
     3
 72
     8
 73
     4
 74
     0
 42
0.0000000001
 43
0.0000000001
 40
1839.293480412711
 40
1839.293480412711
 40
1839.293480412711
 40
1839.293480412711
 40
1865.03962798562
 40
1865.03962798562
 40
1865.03962798562
 40
1865.03962798562
 10
4219.343102693379
 20
-365.3673073501177
 30
-0.0000000000004832
 10
4219.545647979314
 20
-363.3939874192355
 30
-0.0000000000004832
 10
4219.753991484095
 20
-361.4216154535152
 30
-0.0000000000004832
 10
4219.96683975727
 20
-359.4500612069489
 30
-0.0000000000004832
  0
SPLINE
  5
9C
330
1F
100
AcDbEntity
  8
图层 03
100
AcDbSpline
210
0.0
220
0.0
230
1.0
 70
     8
 71
     3
 72
     8
 73
     4
 74
     0
 42
0.0000000001
 43
0.0000000001
 40
1865.03962798562
 40
1865.03962798562
 40
1865.03962798562
 40
1865.03962798562
 40
1888.684807238155
 40
1888.684807238155
 40
1888.684807238155
 40
1888.684807238155
 10
4219.96683975727
 20
-359.4500612069489
 30
-0.0000000000004832
 10
4219.918414051784
 20
-357.6145679090666
 30
-0.0000000000004832
 10
4219.872168636721
 20
-355.7791378222739
 30
-0.0000000000004832
 10
4219.827787827498
 20
-353.9437755030642
 30
-0.0000000000004832
  0
SPLINE
  5
9D
330
1F
100
AcDbEntity
  8
图层 03
100
AcDbSpline
210
0.0
220
0.0
230
1.0
 70
     8
 71
     3
 72
     8
 73
     4
 74
     0
 42
0.0000000001
 43
0.0000000001
 40
1888.684807238155
 40
1888.684807238155
 40
1888.684807238155
 40
1888.684807238155
 40
1911.831762366026
 40
1911.831762366026
 40
1911.831762366026
 40
1911.831762366026
 10
4219.827787827498
 20
-353.9437755030642
 30
-0.0000000000004832
 10
4219.555489093898
 20
-352.1551740373004
 30
-0.0000000000004832
 10
4219.283144528161
 20
-350.3665773658497
 30
-0.0000000000004832
 10
4219.010758100211
 20
-348.5779850803689
 30
-0.0000000000004832
  0
SPLINE
  5
9E
330
1F
100
AcDbEntity
  8
图层 03
100
AcDbSpline
210
0.0
220
0.0
230
1.0
 70
     8
 71
     3
 72
     8
 73
     4
 74
     0
 42
0.0000000001
 43
0.0000000001
 40
1911.831762366026
 40
1911.831762366026
 40
1911.831762366026
 40
1911.831762366026
 40
1934.678511240331
 40
1934.678511240331
 40
1934.678511240331
 40
1934.678511240331
 10
4219.010758100211
 20
-348.5779850803689
 30
-0.0000000000004832
 10
4218.519601471048
 20
-346.8516806566113
 30
-0.0000000000004832
 10
4218.031545936639
 20
-345.1245948373638
 30
-0.0000000000004832
 10
4217.546032962011
 20
-343.39689936893
 30
-0.0000000000004832
  0
SPLINE
  5
9F
330
1F
100
AcDbEntity
  8
图层 03
100
AcDbSpline
210
0.0
220
0.0
230
1.0
 70
     8
 71
     3
 72
     8
 73
     4
 74
     0
 42
0.0000000001
 43
0.0000000001
 40
1934.678511240331
 40
1934.678511240331
 40
1934.678511240331
 40
1934.678511240331
 40
1958.954790934661
 40
1958.954790934661
 40
1958.954790934661
 40
1958.954790934661
 10
4217.546032962011
 20
-343.39689936893
 30
-0.0000000000004832
 10
4216.815139186941
 20
-341.6530208129847
 30
-0.0000000000004832
 10
4216.087135312329
 20
-339.8368870984625
 30
-0.0000000000004832
 10
4215.399014147019
 20
-338.0767047333384
 30
-0.0000000000004832
  0
SPLINE
  5
A0
330
1F
100
AcDbEntity
  8
图层 03
100
AcDbSpline
210
0.0
220
0.0
230
1.0
 70
     8
 71
     3
 72
     8
 73
     4
 74
     0
 42
0.0000000001
 43
0.0000000001
 40
1958.954790934661
 40
1958.954790934661
 40
1958.954790934661
 40
1958.954790934661
 40
1993.275134748566
 40
1993.275134748566
 40
1993.275134748566
 40
1993.275134748566
 10
4215.399014147019
 20
-338.0767047333384
 30
-0.0000000000004832
 10
4214.255404120045
 20
-335.8276843018904
 30
-0.0000000000004832
 10
4212.983357998335
 20
-333.0290970481233
 30
-0.0000000000004832
 10
4211.962330174129
 20
-330.7222470649471
 30
-0.0000000000004832
  0
SPLINE
  5
A1
330
1F
100
AcDbEntity
  8
图层 03
100
AcDbSpline
210
0.0
220
0.0
230
1.0
 70
     8
 71
     3
 72
     8
 73
     4
 74
     0
 42
0.0000000001
 43
0.0000000001
 40
1993.275134748566
 40
1993.275134748566
 40
1993.275134748566
 40
1993.275134748566
 40
2035.313628775195
 40
2035.313628775195
 40
2035.313628775195
 40
2035.313628775195
 10
4211.962330174129
 20
-330.7222470649471
 30
-0.0000000000004832
 10
4210.968855999854
 20
-327.7060494121033
 30
-0.0000000000004832
 10
4209.772937380814
 20
-324.3398305921127
 30
-0.0000000000004832
 10
4208.5003707334
 20
-321.4225437515346
 30
-0.0000000000004832
  0
SPLINE
  5
A2
330
1F
100
AcDbEntity
  8
图层 03
100
AcDbSpline
210
0.0
220
0.0
230
1.0
 70
     8
 71
     3
 72
    14
 73
    10
 74
     0
 42
0.0000000001
 43
0.0000000001
 40
2035.313628775195
 40
2035.313628775195
 40
2035.313628775195
 40
2035.313628775195
 40
2066.280890694396
 40
2066.280890694396
 40
2066.280890694396
 40
2069.422399159696
 40
2069.422399159696
 40
2069.422399159696
 40
2097.646553775636
 40
2097.646553775636
 40
2097.646553775636
 40
2097.646553775636
 10
4208.5003707334
 20
-321.4225437515346
 30
-0.0000000000004832
 10
4207.711328239422
 20
-319.1833909606279
 30
-0.0000000000004832
 10
4206.793354482588
 20
-316.7903097754483
 30
-0.0000000000004832
 10
4205.79462787658
 20
-314.6298589735695
 30
-0.0000000000004832
 10
4205.693355046763
 20
-314.4038725913055
 30
-0.0000000000004832
 10
4205.591115004951
 20
-314.1782932198341
 30
-0.0000000000004832
 10
4205.487819689455
 20
-313.9531954308595
 30
-0.0000000000004832
 10
4204.567030952641
 20
-312.0033195042159
 30
-0.0000000000004832
 10
4203.500036583422
 20
-309.8956780668539
 30
-0.0000000000004832
 10
4202.387249243267
 20
-308.0451810949887
 30
-0.0000000000004832
  0
SPLINE
  5
A3
330
1F
100
AcDbEntity
  8
图层 03
100
AcDbSpline
210
0.0
220
0.0
230
1.0
 70
     8
 71
     3
 72
    11
 73
     7
 74
     0
 42
0.0000000001
 43
0.0000000001
 40
2097.646553775636
 40
2097.646553775636
 40
2097.646553775636
 40
2097.646553775636
 40
2110.613197306065
 40
2110.613197306065
 40
2110.613197306065
 40
2120.593275218605
 40
2120.593275218605
 40
2120.593275218605
 40
2120.593275218605
 10
4202.387249243267
 20
-308.0451810949887
 30
-0.0000000000004832
 10
4201.770201797442
 20
-307.2370643823592
 30
-0.0000000000004832
 10
4201.127518354688
 20
-306.4307098959648
 30
-0.0000000000004832
 10
4200.470492365942
 20
-305.6560761236931
 30
-0.0000000000004832
 10
4199.962968628381
 20
-305.0608026393004
 30
-0.0000000000004832
 10
4199.439729952335
 20
-304.4668414685668
 30
-0.0000000000004832
 10
4198.909856254371
 20
-303.8924631053001
 30
-0.0000000000004832
  0
SPLINE
  5
A4
330
1F
100
AcDbEntity
  8
图层 03
100
AcDbSpline
210
0.0
220
0.0
230
1.0
 70
     8
 71
     3
 72
     8
 73
     4
 74
     0
 42
0.0000000001
 43
0.0000000001
 40
2120.593275218605
 40
2120.593275218605
 40
2120.593275218605
 40
2120.593275218605
 40
2141.319496306013
 40
2141.319496306013
 40
2141.319496306013
 40
2141.319496306013
 10
4198.909856254371
 20
-303.8924631053001
 30
-0.0000000000004832
 10
4197.617138270009
 20
-302.9202898560136
 30
-0.0000000000004832
 10
4196.312831378316
 20
-301.9644895649394
 30
-0.0000000000004832
 10
4194.997073881618
 20
-301.0273835592989
 30
-0.0000000000004832
  0
SPLINE
  5
A5
330
1F
100
AcDbEntity
  8
图层 03
100
AcDbSpline
210
0.0
220
0.0
230
1.0
 70
     8
 71
     3
 72
     8
 73
     4
 74
     0
 42
0.0000000001
 43
0.0000000001
 40
2141.319496306013
 40
2141.319496306013
 40
2141.319496306013
 40
2141.319496306013
 40
2161.880552227156
 40
2161.880552227156
 40
2161.880552227156
 40
2161.880552227156
 10
4194.997073881618
 20
-301.0273835592989
 30
-0.0000000000004832
 10
4193.565823119445
 20
-300.3424348424168
 30
-0.0000000000004832
 10
4192.134803170336
 20
-299.6569132831132
 30
-0.0000000000004832
 10
4190.703992929055
 20
-298.9708747962998
 30
-0.0000000000004832
  0
SPLINE
  5
A6
330
1F
100
AcDbEntity
  8
图层 03
100
AcDbSpline
210
0.0
220
0.0
230
1.0
 70
     8
 71
     3
 72
     8
 73
     4
 74
     0
 42
0.0000000001
 43
0.0000000001
 40
2161.880552227156
 40
2161.880552227156
 40
2161.880552227156
 40
2161.880552227156
 40
2181.94616422203
 40
2181.94616422203
 40
2181.94616422203
 40
2181.94616422203
 10
4190.703992929055
 20
-298.9708747962998
 30
-0.0000000000004832
 10
4189.225067931846
 20
-298.579875262194
 30
-0.0000000000004832
 10
4187.742971249691
 20
-298.2069173657056
 30
-0.0000000000004832
 10
4186.257594465864
 20
-297.8511333854094
 30
-0.0000000000004832
  0
SPLINE
  5
A7
330
1F
100
AcDbEntity
  8
图层 03
100
AcDbSpline
210
0.0
220
0.0
230
1.0
 70
     8
 71
     3
 72
     8
 73
     4
 74
     0
 42
0.0000000001
 43
0.0000000001
 40
2181.94616422203
 40
2181.94616422203
 40
2181.94616422203
 40
2181.94616422203
 40
2187.684428863792
 40
2187.684428863792
 40
2187.684428863792
 40
2187.684428863792
 10
4186.257594465864
 20
-297.8511333854094
 30
-0.0000000000004832
 10
4185.828154560025
 20
-297.8649703318407
 30
-0.0000000000004832
 10
4185.399014059276
 20
-297.8856249724322
 30
-0.0000000000004832
 10
4184.970865052444
 20
-297.9124379622443
 30
-0.0000000000004832
  0
SPLINE
  5
A8
330
1F
100
AcDbEntity
  8
图层 03
100
AcDbSpline
210
0.0
220
0.0
230
1.0
 70
     8
 71
     3
 72
     8
 73
     4
 74
     0
 42
0.0000000001
 43
0.0000000001
 40
2187.684428863792
 40
2187.684428863792
 40
2187.684428863792
 40
2187.684428863792
 40
2202.226559820554
 40
2202.226559820554
 40
2202.226559820554
 40
2202.226559820554
 10
4184.970865052444
 20
-297.9124379622443
 30
-0.0000000000004832
 10
4183.896528442283
 20
-298.0247812782328
 30
-0.0000000000004832
 10
4182.818021586474
 20
-298.2011303078973
 30
-0.0000000000004832
 10
4181.76433693233
 20
-298.4164402775305
 30
-0.0000000000004832
  0
SPLINE
  5
A9
330
1F
100
AcDbEntity
  8
图层 03
100
AcDbSpline
210
0.0
220
0.0
230
1.0
 70
     8
 71
     3
 72
     8
 73
     4
 74
     0
 42
0.0000000001
 43
0.0000000001
 40
2202.226559820554
 40
2202.226559820554
 40
2202.226559820554
 40
2202.226559820554
 40
2222.397245449387
 40
2222.397245449387
 40
2222.397245449387
 40
2222.397245449387
 10
4181.76433693233
 20
-298.4164402775305
 30
-0.0000000000004832
 10
4180.549940681539
 20
-299.2246590876381
 30
-0.0000000000004832
 10
4179.314376945005
 20
-300.1687408599603
 30
-0.0000000000004832
 10
4178.180755009256
 20
-301.0885911776955
 30
-0.0000000000004832
  0
SPLINE
  5
AA
330
1F
100
AcDbEntity
  8
图层 03
100
AcDbSpline
210
0.0
220
0.0
230
1.0
 70
    11
 71
     3
 72
    29
 73
    25
 74
     0
 42
0.0000000001
 43
0.0000000001
 40
-15.70796326794897
 40
-15.70796326794897
 40
-15.70796326794897
 40
-15.70796326794897
 40
-14.72621556370216
 40
-13.74446785945534
 40
-12.76272015520853
 40
-12.27184630308513
 40
-11.78097245096172
 40
-11.29009859883832
 40
-10.79922474671491
 40
-9.817477042468102
 40
-8.835729338221292
 40
-8.344855486097888
 40
-7.853981633974483
 40
-7.363107781851078
 40
-6.872233929727672
 40
-5.890486225480862
 40
-4.908738521234051
 40
-4.417864669110646
 40
-3.926990816987241
 40
-3.436116964863836
 40
-2.945243112740431
 40
-1.963495408493621
 40
-0.9817477042468103
 40
0.0
 40
0.0
 40
0.0
 40
0.0
 10
4186.05006552645
 20
-366.6956959790856
 30
-0.0000000000004832
 10
4186.050065526444
 20
-367.0484735500247
 30
-0.0000000000004832
 10
4185.921831704969
 20
-367.8134465656042
 30
-0.0000000000004832
 10
4185.234424623766
 20
-368.880107341978
 30
-0.0000000000004832
 10
4184.346391620646
 20
-369.453536225627
 30
-0.0000000000004832
 10
4183.591969890328
 20
-369.6639928087183
 30
-0.0000000000004832
 10
4183.050062352737
 20
-369.7115508997394
 30
-0.0000000000004832
 10
4182.508173857419
 20
-369.6639794668386
 30
-0.0000000000004832
 10
4181.753675958011
 20
-369.4536118296112
 30
-0.0000000000004832
 10
4180.865966869837
 20
-368.8797948393953
 30
-0.0000000000004832
 10
4180.292149346926
 20
-367.9920852654293
 30
-0.0000000000004832
 10
4180.081782993955
 20
-367.2375884446532
 30
-0.0000000000004832
 10
4180.034206792697
 20
-366.6956959790858
 30
-0.0000000000004832
 10
4180.081782993954
 20
-366.1538035135184
 30
-0.0000000000004832
 10
4180.292149346927
 20
-365.3993066927413
 30
-0.0000000000004832
 10
4180.865966869836
 20
-364.5115971187761
 30
-0.0000000000004832
 10
4181.753675958011
 20
-363.9377801285598
 30
-0.0000000000004832
 10
4182.508173857419
 20
-363.7274124913323
 30
-0.0000000000004832
 10
4183.050062352737
 20
-363.6798410584322
 30
-0.0000000000004832
 10
4183.591969890327
 20
-363.7273991494526
 30
-0.0000000000004832
 10
4184.346391620647
 20
-363.9378557325451
 30
-0.0000000000004832
 10
4185.234424623765
 20
-364.5112846161924
 30
-0.0000000000004832
 10
4185.921831704969
 20
-365.5779453925684
 30
-0.0000000000004832
 10
4186.050065526444
 20
-366.342918408146
 30
-0.0000000000004832
 10
4186.05006552645
 20
-366.6956959790856
 30
-0.0000000000004832
  0
SPLINE
  5
AB
330
1F
100
AcDbEntity
  8
图层 03
100
AcDbSpline
210
0.0
220
0.0
230
1.0
 70
     8
 71
     3
 72
     8
 73
     4
 74
     0
 42
0.0000000001
 43
0.0000000001
 40
766.6984008263283
 40
766.6984008263283
 40
766.6984008263283
 40
766.6984008263283
 40
781.7948040538311
 40
781.7948040538311
 40
781.7948040538311
 40
781.7948040538311
 10
4272.299752435868
 20
-410.0667619268336
 30
-0.0000000000004832
 10
4273.307768576362
 20
-410.6513181792604
 30
-0.0000000000004832
 10
4274.338256672012
 20
-411.2267934533845
 30
-0.0000000000004832
 10
4275.359878123364
 20
-411.7833030331112
 30
-0.0000000000004832
  0
SPLINE
  5
AC
330
1F
100
AcDbEntity
  8
图层 03
100
AcDbSpline
210
0.0
220
0.0
230
1.0
 70
     8
 71
     3
 72
     8
 73
     4
 74
     0
 42
0.0000000001
 43
0.0000000001
 40
781.7948040538311
 40
781.7948040538311
 40
781.7948040538311
 40
781.7948040538311
 40
819.5654472023962
 40
819.5654472023962
 40
819.5654472023962
 40
819.5654472023962
 10
4275.359878123364
 20
-411.7833030331112
 30
-0.0000000000004832
 10
4277.94240984489
 20
-413.1511731337062
 30
-0.0000000000004832
 10
4280.507484132249
 20
-414.5547497793543
 30
-0.0000000000004832
 10
4283.055705907151
 20
-415.9953765679322
 30
-0.0000000000004832
  0
SPLINE
  5
AD
330
1F
100
AcDbEntity
  8
图层 03
100
AcDbSpline
210
0.0
220
0.0
230
1.0
 70
     8
 71
     3
 72
    11
 73
     7
 74
     0
 42
0.0000000001
 43
0.0000000001
 40
819.5654472023962
 40
819.5654472023962
 40
819.5654472023962
 40
819.5654472023962
 40
827.6248527604831
 40
827.6248527604831
 40
827.6248527604831
 40
849.474101189645
 40
849.474101189645
 40
849.474101189645
 40
849.474101189645
 10
4283.055705907151
 20
-415.9953765679322
 30
-0.0000000000004832
 10
4283.63434036835
 20
-416.2139686231309
 30
-0.0000000000004832
 10
4284.212039675547
 20
-416.4357313089871
 30
-0.0000000000004832
 10
4284.788661206176
 20
-416.6607491180271
 30
-0.0000000000004832
 10
4286.356712356887
 20
-417.2441080145735
 30
-0.0000000000004832
 10
4287.928604480545
 20
-417.8488242290916
 30
-0.0000000000004832
 10
4289.483872961922
 20
-418.4730304792233
 30
-0.0000000000004832
  0
SPLINE
  5
AE
330
1F
100
AcDbEntity
  8
图层 03
100
AcDbSpline
210
0.0
220
0.0
230
1.0
 70
     8
 71
     3
 72
     8
 73
     4
 74
     0
 42
0.0000000001
 43
0.0000000001
 40
849.474101189645
 40
849.474101189645
 40
849.474101189645
 40
849.474101189645
 40
876.5756081537536
 40
876.5756081537536
 40
876.5756081537536
 40
876.5756081537536
 10
4289.483872961922
 20
-418.4730304792233
 30
-0.0000000000004832
 10
4291.505266968837
 20
-418.7761076699963
 30
-0.0000000000004832
 10
4293.54586960677
 20
-419.1122769847502
 30
-0.0000000000004832
 10
4295.559903727558
 20
-419.4874202713346
 30
-0.0000000000004832
  0
SPLINE
  5
AF
330
1F
100
AcDbEntity
  8
图层 03
100
AcDbSpline
210
0.0
220
0.0
230
1.0
 70
     8
 71
     3
 72
     8
 73
     4
 74
     0
 42
0.0000000001
 43
0.0000000001
 40
876.5756081537536
 40
876.5756081537536
 40
876.5756081537536
 40
876.5756081537536
 40
904.1734889342388
 40
904.1734889342388
 40
904.1734889342388
 40
904.1734889342388
 10
4295.559903727558
 20
-419.4874202713346
 30
-0.0000000000004832
 10
4297.594288644543
 20
-419.1915696870403
 30
-0.0000000000004832
 10
4299.631189175935
 20
-418.9080593808926
 30
-0.0000000000004832
 10
4301.671016332328
 20
-418.6423858734142
 30
-0.0000000000004832
  0
SPLINE
  5
B0
330
1F
100
AcDbEntity
  8
图层 03
100
AcDbSpline
210
0.0
220
0.0
230
1.0
 70
     8
 71
     3
 72
     8
 73
     4
 74
     0
 42
0.0000000001
 43
0.0000000001
 40
904.1734889342388
 40
904.1734889342388
 40
904.1734889342388
 40
904.1734889342388
 40
935.4085525103824
 40
935.4085525103824
 40
935.4085525103824
 40
935.4085525103824
 10
4301.671016332328
 20
-418.6423858734142
 30
-0.0000000000004832
 10
4303.731349038723
 20
-417.6034202395758
 30
-0.0000000000004832
 10
4305.79139106343
 20
-416.563887217924
 30
-0.0000000000004832
 10
4307.85102668414
 20
-415.5235641543995
 30
-0.0000000000004832
  0
SPLINE
  5
B1
330
1F
100
AcDbEntity
  8
图层 03
100
AcDbSpline
210
0.0
220
0.0
230
1.0
 70
     8
 71
     3
 72
     8
 73
     4
 74
     0
 42
0.0000000001
 43
0.0000000001
 40
935.4085525103824
 40
935.4085525103824
 40
935.4085525103824
 40
935.4085525103824
 40
968.8199660526952
 40
968.8199660526952
 40
968.8199660526952
 40
968.8199660526952
 10
4307.85102668414
 20
-415.5235641543995
 30
-0.0000000000004832
 10
4309.74571680979
 20
-413.9352915436333
 30
-0.0000000000004832
 10
4311.641267135945
 20
-412.3480876341623
 30
-0.0000000000004832
 10
4313.538046425053
 20
-410.7624212367575
 30
-0.0000000000004832
  0
SPLINE
  5
B2
330
1F
100
AcDbEntity
  8
图层 03
100
AcDbSpline
210
0.0
220
0.0
230
1.0
 70
     8
 71
     3
 72
     8
 73
     4
 74
     0
 42
0.0000000001
 43
0.0000000001
 40
968.8199660526952
 40
968.8199660526952
 40
968.8199660526952
 40
968.8199660526952
 40
989.7738272901381
 40
989.7738272901381
 40
989.7738272901381
 40
989.7738272901381
 10
4313.538046425053
 20
-410.7624212367575
 30
-0.0000000000004832
 10
4314.54026680153
 20
-409.5683442905884
 30
-0.0000000000004832
 10
4315.540878291979
 20
-408.3727949254182
 30
-0.0000000000004832
 10
4316.539427253881
 20
-407.1753889710237
 30
-0.0000000000004832
  0
SPLINE
  5
B3
330
1F
100
AcDbEntity
  8
图层 03
100
AcDbSpline
210
0.0
220
0.0
230
1.0
 70
     8
 71
     3
 72
     8
 73
     4
 74
     0
 42
0.0000000001
 43
0.0000000001
 40
989.7738272901381
 40
989.7738272901381
 40
989.7738272901381
 40
989.7738272901381
 40
1001.130851470673
 40
1001.130851470673
 40
1001.130851470673
 40
1001.130851470673
 10
4316.539427253881
 20
-407.1753889710237
 30
-0.0000000000004832
 10
4317.057343294664
 20
-406.5059932467284
 30
-0.0000000000004832
 10
4317.575241340091
 20
-405.8365822857073
 30
-0.0000000000004832
 10
4318.093119428131
 20
-405.1671544320521
 30
-0.0000000000004832
  0
SPLINE
  5
B4
330
1F
100
AcDbEntity
  8
图层 03
100
AcDbSpline
210
0.0
220
0.0
230
1.0
 70
     8
 71
     3
 72
     8
 73
     4
 74
     0
 42
0.0000000001
 43
0.0000000001
 40
1001.130851470673
 40
1001.130851470673
 40
1001.130851470673
 40
1001.130851470673
 40
1030.921558056684
 40
1030.921558056684
 40
1030.921558056684
 40
1030.921558056684
 10
4318.093119428131
 20
-405.1671544320521
 30
-0.0000000000004832
 10
4319.135919902768
 20
-403.184660090727
 30
-0.0000000000004832
 10
4320.169399682221
 20
-401.1964298789132
 30
-0.0000000000004832
 10
4321.190737021922
 20
-399.2012212072331
 30
-0.0000000000004832
  0
SPLINE
  5
B5
330
1F
100
AcDbEntity
  8
图层 03
100
AcDbSpline
210
0.0
220
0.0
230
1.0
 70
     8
 71
     3
 72
     8
 73
     4
 74
     0
 42
0.0000000001
 43
0.0000000001
 40
1030.921558056684
 40
1030.921558056684
 40
1030.921558056684
 40
1030.921558056684
 40
1057.916245932086
 40
1057.916245932086
 40
1057.916245932086
 40
1057.916245932086
 10
4321.190737021922
 20
-399.2012212072331
 30
-0.0000000000004832
 10
4321.743896102096
 20
-397.2201350085123
 30
-0.0000000000004832
 10
4322.283516901352
 20
-395.2340941326338
 30
-0.0000000000004832
 10
4322.807420334559
 20
-393.2430621123534
 30
-0.0000000000004832
  0
SPLINE
  5
B6
330
1F
100
AcDbEntity
  8
图层 03
100
AcDbSpline
210
0.0
220
0.0
230
1.0
 70
     8
 71
     3
 72
     8
 73
     4
 74
     0
 42
0.0000000001
 43
0.0000000001
 40
1057.916245932086
 40
1057.916245932086
 40
1057.916245932086
 40
1057.916245932086
 40
1082.594197045213
 40
1082.594197045213
 40
1082.594197045213
 40
1082.594197045213
 10
4322.807420334559
 20
-393.2430621123534
 30
-0.0000000000004832
 10
4322.86368326857
 20
-391.3338645024788
 30
-0.0000000000004832
 10
4322.914324669498
 20
-389.4241296574864
 30
-0.0000000000004832
 10
4322.959050594964
 20
-387.5139422689909
 30
-0.0000000000004832
  0
SPLINE
  5
B7
330
1F
100
AcDbEntity
  8
图层 03
100
AcDbSpline
210
0.0
220
0.0
230
1.0
 70
     8
 71
     3
 72
     8
 73
     4
 74
     0
 42
0.0000000001
 43
0.0000000001
 40
1082.594197045213
 40
1082.594197045213
 40
1082.594197045213
 40
1082.594197045213
 40
1105.05360260695
 40
1105.05360260695
 40
1105.05360260695
 40
1105.05360260695
 10
4322.959050594964
 20
-387.5139422689909
 30
-0.0000000000004832
 10
4322.497831081268
 20
-385.8116804938637
 30
-0.0000000000004832
 10
4322.036699191072
 20
-384.10939818681
 30
-0.0000000000004832
 10
4321.575655617709
 20
-382.4070952173254
 30
-0.0000000000004832
  0
SPLINE
  5
B8
330
1F
100
AcDbEntity
  8
图层 03
100
AcDbSpline
210
0.0
220
0.0
230
1.0
 70
     8
 71
     3
 72
     8
 73
     4
 74
     0
 42
0.0000000001
 43
0.0000000001
 40
1105.05360260695
 40
1105.05360260695
 40
1105.05360260695
 40
1105.05360260695
 40
1126.46338372698
 40
1126.46338372698
 40
1126.46338372698
 40
1126.46338372698
 10
4321.575655617709
 20
-382.4070952173254
 30
-0.0000000000004832
 10
4320.534292401672
 20
-381.0804198958268
 30
-0.0000000000004832
 10
4319.486274254014
 20
-379.7590854699046
 30
-0.0000000000004832
 10
4318.432102405214
 20
-378.4430430775315
 30
-0.0000000000004832
  0
SPLINE
  5
B9
330
1F
100
AcDbEntity
  8
图层 03
100
AcDbSpline
210
0.0
220
0.0
230
1.0
 70
     8
 71
     3
 72
     8
 73
     4
 74
     0
 42
0.0000000001
 43
0.0000000001
 40
1126.46338372698
 40
1126.46338372698
 40
1126.46338372698
 40
1126.46338372698
 40
1150.986859196985
 40
1150.986859196985
 40
1150.986859196985
 40
1150.986859196985
 10
4318.432102405214
 20
-378.4430430775315
 30
-0.0000000000004832
 10
4316.714835422091
 20
-377.6573770834609
 30
-0.0000000000004832
 10
4314.984517737271
 20
-376.8896720005106
 30
-0.0000000000004832
 10
4313.253365222701
 20
-376.1415287491092
 30
-0.0000000000004832
  0
SPLINE
  5
BA
330
1F
100
AcDbEntity
  8
图层 03
100
AcDbSpline
210
0.0
220
0.0
230
1.0
 70
     8
 71
     3
 72
     8
 73
     4
 74
     0
 42
0.0000000001
 43
0.0000000001
 40
1150.986859196985
 40
1150.986859196985
 40
1150.986859196985
 40
1150.986859196985
 40
1181.888189416102
 40
1181.888189416102
 40
1181.888189416102
 40
1181.888189416102
 10
4313.253365222701
 20
-376.1415287491092
 30
-0.0000000000004832
 10
4310.93219495763
 20
-375.9355015594316
 30
-0.0000000000004832
 10
4308.61047482946
 20
-375.7446525339317
 30
-0.0000000000004832
 10
4306.288745848024
 20
-375.566043367461
 30
-0.0000000000004832
  0
SPLINE
  5
BB
330
1F
100
AcDbEntity
  8
图层 03
100
AcDbSpline
210
0.0
220
0.0
230
1.0
 70
     8
 71
     3
 72
     8
 73
     4
 74
     0
 42
0.0000000001
 43
0.0000000001
 40
1181.888189416102
 40
1181.888189416102
 40
1181.888189416102
 40
1181.888189416102
 40
1218.05027979061
 40
1218.05027979061
 40
1218.05027979061
 40
1218.05027979061
 10
4306.288745848024
 20
-375.566043367461
 30
-0.0000000000004832
 10
4303.613146345863
 20
-375.899053920818
 30
-0.0000000000004832
 10
4300.938009545031
 20
-376.2347995899537
 30
-0.0000000000004832
 10
4298.26327998626
 20
-376.5728757573885
 30
-0.0000000000004832
  0
SPLINE
  5
BC
330
1F
100
AcDbEntity
  8
图层 03
100
AcDbSpline
210
0.0
220
0.0
230
1.0
 70
     8
 71
     3
 72
    11
 73
     7
 74
     0
 42
0.0000000001
 43
0.0000000001
 40
1218.05027979061
 40
1218.05027979061
 40
1218.05027979061
 40
1218.05027979061
 40
1230.458121676454
 40
1230.458121676454
 40
1230.458121676454
 40
1255.664435418138
 40
1255.664435418138
 40
1255.664435418138
 40
1255.664435418138
 10
4298.26327998626
 20
-376.5728757573885
 30
-0.0000000000004832
 10
4297.379051516538
 20
-376.826113888915
 30
-0.0000000000004832
 10
4296.494744797015
 20
-377.0791064973207
 30
-0.0000000000004832
 10
4295.610361741796
 20
-377.3318583530197
 30
-0.0000000000004832
 10
4293.80803236067
 20
-377.827023488043
 30
-0.0000000000004832
 10
4292.005097517333
 20
-378.3202311413504
 30
-0.0000000000004832
 10
4290.20161801476
 20
-378.8116414797112
 30
-0.0000000000004832
  0
SPLINE
  5
BD
330
1F
100
AcDbEntity
  8
图层 03
100
AcDbSpline
210
0.0
220
0.0
230
1.0
 70
     8
 71
     3
 72
     8
 73
     4
 74
     0
 42
0.0000000001
 43
0.0000000001
 40
1255.664435418138
 40
1255.664435418138
 40
1255.664435418138
 40
1255.664435418138
 40
1290.000578608031
 40
1290.000578608031
 40
1290.000578608031
 40
1290.000578608031
 10
4290.20161801476
 20
-378.8116414797112
 30
-0.0000000000004832
 10
4287.894385575108
 20
-379.8677338736939
 30
-0.0000000000004832
 10
4285.587964292132
 20
-380.925550204438
 30
-0.0000000000004832
 10
4283.282350209422
 20
-381.9850646502478
 30
-0.0000000000004832
  0
SPLINE
  5
BE
330
1F
100
AcDbEntity
  8
图层 03
100
AcDbSpline
210
0.0
220
0.0
230
1.0
 70
     8
 71
     3
 72
     8
 73
     4
 74
     0
 42
0.0000000001
 43
0.0000000001
 40
1290.000578608031
 40
1290.000578608031
 40
1290.000578608031
 40
1290.000578608031
 40
1295.939410692695
 40
1295.939410692695
 40
1295.939410692695
 40
1295.939410692695
 10
4283.282350209422
 20
-381.9850646502478
 30
-0.0000000000004832
 10
4282.91751701913
 20
-382.2287940596034
 30
-0.0000000000004832
 10
4282.552582522182
 20
-382.4723693516321
 30
-0.0000000000004832
 10
4282.187547496381
 20
-382.7157909706386
 30
-0.0000000000004832
  0
SPLINE
  5
BF
330
1F
100
AcDbEntity
  8
图层 03
100
AcDbSpline
210
0.0
220
0.0
230
1.0
 70
     8
 71
     3
 72
     8
 73
     4
 74
     0
 42
0.0000000001
 43
0.0000000001
 40
1295.939410692695
 40
1295.939410692695
 40
1295.939410692695
 40
1295.939410692695
 40
1320.531749216163
 40
1320.531749216163
 40
1320.531749216163
 40
1320.531749216163
 10
4282.187547496381
 20
-382.7157909706384
 30
-0.0000000000004832
 10
4280.653308176785
 20
-383.6884408021525
 30
-0.0000000000004832
 10
4279.116652630662
 20
-384.6572666802265
 30
-0.0000000000004832
 10
4277.577592063068
 20
-385.6221730418622
 30
-0.0000000000004832
  0
SPLINE
  5
C0
330
1F
100
AcDbEntity
  8
图层 03
100
AcDbSpline
210
0.0
220
0.0
230
1.0
 70
     8
 71
     3
 72
    11
 73
     7
 74
     0
 42
0.0000000001
 43
0.0000000001
 40
1320.531749216163
 40
1320.531749216163
 40
1320.531749216163
 40
1320.531749216163
 40
1347.660737954006
 40
1347.660737954006
 40
1347.660737954006
 40
1372.341784097005
 40
1372.341784097005
 40
1372.341784097005
 40
1372.341784097005
 10
4277.577592063068
 20
-385.6221730418622
 30
-0.0000000000004832
 10
4275.996657153261
 20
-386.8573071164517
 30
-0.0000000000004832
 10
4274.389636207896
 20
-388.0567717486003
 30
-0.0000000000004832
 10
4272.757790845644
 20
-389.2216423274187
 30
-0.0000000000004832
 10
4271.263107243101
 20
-390.2664957764199
 30
-0.0000000000004832
 10
4269.727217598823
 20
-391.2493920308696
 30
-0.0000000000004832
 10
4268.157493957652
 20
-392.1758835946086
 30
-0.0000000000004832
  0
SPLINE
  5
C1
330
1F
100
AcDbEntity
  8
图层 03
100
AcDbSpline
210
0.0
220
0.0
230
1.0
 70
     8
 71
     3
 72
     8
 73
     4
 74
     0
 42
0.0000000001
 43
0.0000000001
 40
1372.341784097005
 40
1372.341784097005
 40
1372.341784097005
 40
1372.341784097005
 40
1388.220982755016
 40
1388.220982755016
 40
1388.220982755016
 40
1388.220982755016
 10
4268.157493957652
 20
-392.1758835946086
 30
-0.0000000000004832
 10
4267.005088608382
 20
-392.1964019110401
 30
-0.0000000000004832
 10
4265.749037308712
 20
-392.2795799771611
 30
-0.0000000000004832
 10
4264.628591555922
 20
-392.5196526992843
 30
-0.0000000000004832
  0
SPLINE
  5
C2
330
1F
100
AcDbEntity
  8
图层 03
100
AcDbSpline
210
0.0
220
0.0
230
1.0
 70
     8
 71
     3
 72
     8
 73
     4
 74
     0
 42
0.0000000001
 43
0.0000000001
 40
1388.220982755016
 40
1388.220982755016
 40
1388.220982755016
 40
1388.220982755016
 40
1397.114789187264
 40
1397.114789187264
 40
1397.114789187264
 40
1397.114789187264
 10
4264.628591555922
 20
-392.5196526992843
 30
-0.0000000000004832
 10
4264.147018625881
 20
-392.9603689688432
 30
-0.0000000000004832
 10
4263.677228249586
 20
-393.4398417699332
 30
-0.0000000000004832
 10
4263.26353888358
 20
-393.9498570418923
 30
-0.0000000000004832
  0
SPLINE
  5
C3
330
1F
100
AcDbEntity
  8
图层 03
100
AcDbSpline
210
0.0
220
0.0
230
1.0
 70
     8
 71
     3
 72
     8
 73
     4
 74
     0
 42
0.0000000001
 43
0.0000000001
 40
1397.114789187264
 40
1397.114789187264
 40
1397.114789187264
 40
1397.114789187264
 40
1407.635962751391
 40
1407.635962751391
 40
1407.635962751391
 40
1407.635962751391
 10
4263.26353888358
 20
-393.9498570418923
 30
-0.0000000000004832
 10
4262.487187171665
 20
-394.057596684676
 30
-0.0000000000004832
 10
4261.716749140305
 20
-394.1967481098525
 30
-0.0000000000004832
 10
4260.955715499964
 20
-394.3727381987463
 30
-0.0000000000004832
  0
SPLINE
  5
C4
330
1F
100
AcDbEntity
  8
图层 03
100
AcDbSpline
210
0.0
220
0.0
230
1.0
 70
     8
 71
     3
 72
     8
 73
     4
 74
     0
 42
0.0000000001
 43
0.0000000001
 40
1407.635962751391
 40
1407.635962751391
 40
1407.635962751391
 40
1407.635962751391
 40
1422.410351709969
 40
1422.410351709969
 40
1422.410351709969
 40
1422.410351709969
 10
4260.955715499964
 20
-394.3727381987463
 30
-0.0000000000004832
 10
4260.78930827771
 20
-395.495664708325
 30
-0.0000000000004832
 10
4260.593672163369
 20
-396.6114856601478
 30
-0.0000000000004832
 10
4260.369615742414
 20
-397.7203828886138
 30
-0.0000000000004832
  0
SPLINE
  5
C5
330
1F
100
AcDbEntity
  8
图层 03
100
AcDbSpline
210
0.0
220
0.0
230
1.0
 70
     8
 71
     3
 72
     8
 73
     4
 74
     0
 42
0.0000000001
 43
0.0000000001
 40
1422.410351709969
 40
1422.410351709969
 40
1422.410351709969
 40
1422.410351709969
 40
1450.782699487092
 40
1450.782699487092
 40
1450.782699487092
 40
1450.782699487092
 10
4260.369615742414
 20
-397.7203828886138
 30
-0.0000000000004832
 10
4261.479535570077
 20
-399.6615197211489
 30
-0.0000000000004832
 10
4262.760440082853
 20
-401.5027736516857
 30
-0.0000000000004832
 10
4264.150350799608
 20
-403.2479785313517
 30
-0.0000000000004832
  0
SPLINE
  5
C6
330
1F
100
AcDbEntity
  8
图层 03
100
AcDbSpline
210
0.0
220
0.0
230
1.0
 70
     8
 71
     3
 72
     8
 73
     4
 74
     0
 42
0.0000000001
 43
0.0000000001
 40
1450.782699487092
 40
1450.782699487092
 40
1450.782699487092
 40
1450.782699487092
 40
1458.862482785693
 40
1458.862482785693
 40
1458.862482785693
 40
1458.862482785693
 10
4264.150350799608
 20
-403.2479785313517
 30
-0.0000000000004832
 10
4264.648969943454
 20
-403.633893759732
 30
-0.0000000000004832
 10
4265.154060819016
 20
-404.0132276668071
 30
-0.0000000000004832
 10
4265.662141536506
 20
-404.3851729988096
 30
-0.0000000000004832
  0
SPLINE
  5
C7
330
1F
100
AcDbEntity
  8
图层 03
100
AcDbSpline
210
0.0
220
0.0
230
1.0
 70
     8
 71
     3
 72
     8
 73
     4
 74
     0
 42
0.0000000001
 43
0.0000000001
 40
1458.862482785693
 40
1458.862482785693
 40
1458.862482785693
 40
1458.862482785693
 40
1496.129642219174
 40
1496.129642219174
 40
1496.129642219174
 40
1496.129642219174
 10
4265.662141536506
 20
-404.3851729988096
 30
-0.0000000000004832
 10
4267.597627573206
 20
-406.3295848490725
 30
-0.0000000000004832
 10
4270.145167510178
 20
-408.4020599006506
 30
-0.0000000000004832
 10
4272.299752435868
 20
-410.0667619268336
 30
-0.0000000000004832
  0
SPLINE
  5
C8
330
1F
100
AcDbEntity
  8
图层 03
100
AcDbSpline
210
0.0
220
0.0
230
1.0
 70
    11
 71
     3
 72
    29
 73
    25
 74
     0
 42
0.0000000001
 43
0.0000000001
 40
-15.70796326794897
 40
-15.70796326794897
 40
-15.70796326794897
 40
-15.70796326794897
 40
-14.72621556370216
 40
-13.74446785945534
 40
-12.76272015520853
 40
-12.27184630308513
 40
-11.78097245096172
 40
-11.29009859883832
 40
-10.79922474671491
 40
-9.817477042468102
 40
-8.835729338221292
 40
-8.344855486097888
 40
-7.853981633974483
 40
-7.363107781851078
 40
-6.872233929727672
 40
-5.890486225480862
 40
-4.908738521234051
 40
-4.417864669110646
 40
-3.926990816987241
 40
-3.436116964863836
 40
-2.945243112740431
 40
-1.963495408493621
 40
-0.9817477042468103
 40
0.0
 40
0.0
 40
0.0
 40
0.0
 10
4301.641028941242
 20
-401.1498451317468
 30
-0.0000000000004832
 10
4301.641028941236
 20
-401.5026227026854
 30
-0.0000000000004832
 10
4301.512795119761
 20
-402.2675957182653
 30
-0.0000000000004832
 10
4300.825388038557
 20
-403.3342564946395
 30
-0.0000000000004832
 10
4299.937355035438
 20
-403.9076853782881
 30
-0.0000000000004832
 10
4299.182933305119
 20
-404.11814196138
 30
-0.0000000000004832
 10
4298.641025767529
 20
-404.1657000524006
 30
-0.0000000000004832
 10
4298.099137272211
 20
-404.1181286194998
 30
-0.0000000000004832
 10
4297.344639372803
 20
-403.9077609822727
 30
-0.0000000000004832
 10
4296.456930284628
 20
-403.3339439920563
 30
-0.0000000000004832
 10
4295.883112761718
 20
-402.4462344180911
 30
-0.0000000000004832
 10
4295.672746408746
 20
-401.6917375973143
 30
-0.0000000000004832
 10
4295.625170207489
 20
-401.149845131747
 30
-0.0000000000004832
 10
4295.672746408746
 20
-400.6079526661799
 30
-0.0000000000004832
 10
4295.883112761718
 20
-399.8534558454019
 30
-0.0000000000004832
 10
4296.456930284628
 20
-398.9657462714376
 30
-0.0000000000004832
 10
4297.344639372803
 20
-398.3919292812211
 30
-0.0000000000004832
 10
4298.099137272211
 20
-398.1815616439936
 30
-0.0000000000004832
 10
4298.641025767529
 20
-398.133990211094
 30
-0.0000000000004832
 10
4299.182933305119
 20
-398.1815483021138
 30
-0.0000000000004832
 10
4299.937355035438
 20
-398.3920048852063
 30
-0.0000000000004832
 10
4300.825388038557
 20
-398.9654337688542
 30
-0.0000000000004832
 10
4301.512795119761
 20
-400.0320945452295
 30
-0.0000000000004832
 10
4301.641028941236
 20
-400.7970675608072
 30
-0.0000000000004832
 10
4301.641028941242
 20
-401.1498451317468
 30
-0.0000000000004832
  0
SPLINE
  5
C9
330
1F
100
AcDbEntity
  8
图层 03
100
AcDbSpline
210
0.0
220
0.0
230
1.0
 70
     8
 71
     3
 72
     8
 73
     4
 74
     0
 42
0.0000000001
 43
0.0000000001
 40
2060.462220825965
 40
2060.462220825965
 40
2060.462220825965
 40
2060.462220825965
 40
2076.296658829759
 40
2076.296658829759
 40
2076.296658829759
 40
2076.296658829759
 10
4181.961128213403
 20
-438.3427076911742
 30
-0.0000000000004832
 10
4182.971412927003
 20
-437.7332414069813
 30
-0.0000000000004832
 10
4184.047689437004
 20
-437.3218876842278
 30
-0.0000000000004832
 10
4185.205080793439
 20
-437.0675675152821
 30
-0.0000000000004832
  0
SPLINE
  5
CA
330
1F
100
AcDbEntity
  8
图层 03
100
AcDbSpline
210
0.0
220
0.0
230
1.0
 70
     8
 71
     3
 72
     8
 73
     4
 74
     0
 42
0.0000000001
 43
0.0000000001
 40
2076.296658829759
 40
2076.296658829759
 40
2076.296658829759
 40
2076.296658829759
 40
2101.085427282208
 40
2101.085427282208
 40
2101.085427282208
 40
2101.085427282208
 10
4185.205080793439
 20
-437.0675675152821
 30
-0.0000000000004832
 10
4187.06078912713
 20
-437.0262195633621
 30
-0.0000000000004832
 10
4188.924435798815
 20
-437.0540324885633
 30
-0.0000000000004832
 10
4190.786137371792
 20
-437.1715167291649
 30
-0.0000000000004832
  0
SPLINE
  5
CB
330
1F
100
AcDbEntity
  8
图层 03
100
AcDbSpline
210
0.0
220
0.0
230
1.0
 70
     8
 71
     3
 72
     8
 73
     4
 74
     0
 42
0.0000000001
 43
0.0000000001
 40
2101.085427282208
 40
2101.085427282208
 40
2101.085427282208
 40
2101.085427282208
 40
2139.22075822931
 40
2139.22075822931
 40
2139.22075822931
 40
2139.22075822931
 10
4190.786137371792
 20
-437.1715167291649
 30
-0.0000000000004832
 10
4193.577667229656
 20
-436.6895836513045
 30
-0.0000000000004832
 10
4196.403804382818
 20
-436.3114961999484
 30
-0.0000000000004832
 10
4199.238971571764
 20
-436.0790600596748
 30
-0.0000000000004832
  0
SPLINE
  5
CC
330
1F
100
AcDbEntity
  8
图层 03
100
AcDbSpline
210
0.0
220
0.0
230
1.0
 70
     8
 71
     3
 72
     8
 73
     4
 74
     0
 42
0.0000000001
 43
0.0000000001
 40
2139.22075822931
 40
2139.22075822931
 40
2139.22075822931
 40
2139.22075822931
 40
2141.681390027657
 40
2141.681390027657
 40
2141.681390027657
 40
2141.681390027657
 10
4199.238971571764
 20
-436.0790600596748
 30
-0.0000000000004832
 10
4199.422638626166
 20
-436.0677750381619
 30
-0.0000000000004832
 10
4199.606345496155
 20
-436.056835666715
 30
-0.0000000000004832
 10
4199.790089154493
 20
-436.046247989676
 30
-0.0000000000004832
  0
SPLINE
  5
CD
330
1F
100
AcDbEntity
  8
图层 03
100
AcDbSpline
210
0.0
220
0.0
230
1.0
 70
     8
 71
     3
 72
     8
 73
     4
 74
     0
 42
0.0000000001
 43
0.0000000001
 40
2141.681390027657
 40
2141.681390027657
 40
2141.681390027657
 40
2141.681390027657
 40
2180.915965242485
 40
2180.915965242485
 40
2180.915965242485
 40
2180.915965242485
 10
4199.790089154493
 20
-436.046247989676
 30
-0.0000000000004832
 10
4202.645688931878
 20
-435.4908601096639
 30
-0.0000000000004832
 10
4205.534874556362
 20
-434.9771120423896
 30
-0.0000000000004832
 10
4208.413906497607
 20
-434.529348935494
 30
-0.0000000000004832
  0
SPLINE
  5
CE
330
1F
100
AcDbEntity
  8
图层 03
100
AcDbSpline
210
0.0
220
0.0
230
1.0
 70
     8
 71
     3
 72
     8
 73
     4
 74
     0
 42
0.0000000001
 43
0.0000000001
 40
2180.915965242485
 40
2180.915965242485
 40
2180.915965242485
 40
2180.915965242485
 40
2193.423987390136
 40
2193.423987390136
 40
2193.423987390136
 40
2193.423987390136
 10
4208.413906497607
 20
-434.529348935494
 30
-0.0000000000004832
 10
4209.310302916778
 20
-434.290336734396
 30
-0.0000000000004832
 10
4210.207508656156
 20
-434.0539721410391
 30
-0.0000000000004832
 10
4211.105568835639
 20
-433.8205771032181
 30
-0.0000000000004832
  0
SPLINE
  5
CF
330
1F
100
AcDbEntity
  8
图层 03
100
AcDbSpline
210
0.0
220
0.0
230
1.0
 70
     8
 71
     3
 72
     8
 73
     4
 74
     0
 42
0.0000000001
 43
0.0000000001
 40
2193.423987390136
 40
2193.423987390136
 40
2193.423987390136
 40
2193.423987390136
 40
2217.56338015897
 40
2217.56338015897
 40
2217.56338015897
 40
2217.56338015897
 10
4211.105568835639
 20
-433.8205771032181
 30
-0.0000000000004832
 10
4212.819827589064
 20
-433.309355669867
 30
-0.0000000000004832
 10
4214.534680282967
 20
-432.7999279773624
 30
-0.0000000000004832
 10
4216.250263087464
 20
-432.2927510966753
 30
-0.0000000000004832
  0
SPLINE
  5
D0
330
1F
100
AcDbEntity
  8
图层 03
100
AcDbSpline
210
0.0
220
0.0
230
1.0
 70
     8
 71
     3
 72
     8
 73
     4
 74
     0
 42
0.0000000001
 43
0.0000000001
 40
2217.56338015897
 40
2217.56338015897
 40
2217.56338015897
 40
2217.56338015897
 40
2240.499636985945
 40
2240.499636985945
 40
2240.499636985945
 40
2240.499636985945
 10
4216.250263087464
 20
-432.2927510966753
 30
-0.0000000000004832
 10
4217.811576511626
 20
-431.6314065961182
 30
-0.0000000000004832
 10
4219.36874765522
 20
-430.9603312170923
 30
-0.0000000000004832
 10
4220.919504666766
 20
-430.2756428331995
 30
-0.0000000000004832
  0
SPLINE
  5
D1
330
1F
100
AcDbEntity
  8
图层 03
100
AcDbSpline
210
0.0
220
0.0
230
1.0
 70
     8
 71
     3
 72
     8
 73
     4
 74
     0
 42
0.0000000001
 43
0.0000000001
 40
2240.499636985945
 40
2240.499636985945
 40
2240.499636985945
 40
2240.499636985945
 40
2249.287818912989
 40
2249.287818912989
 40
2249.287818912989
 40
2249.287818912989
 10
4220.919504666766
 20
-430.2756428331995
 30
-0.0000000000004832
 10
4221.480406532299
 20
-429.9490036319332
 30
-0.0000000000004832
 10
4222.039014377508
 20
-429.6183148499701
 30
-0.0000000000004832
 10
4222.594890571025
 20
-429.2832143842386
 30
-0.0000000000004832
  0
SPLINE
  5
D2
330
1F
100
AcDbEntity
  8
图层 03
100
AcDbSpline
210
0.0
220
0.0
230
1.0
 70
     8
 71
     3
 72
     8
 73
     4
 74
     0
 42
0.0000000001
 43
0.0000000001
 40
2249.287818912989
 40
2249.287818912989
 40
2249.287818912989
 40
2249.287818912989
 40
2274.502880109527
 40
2274.502880109527
 40
2274.502880109527
 40
2274.502880109527
 10
4222.594890571025
 20
-429.2832143842386
 30
-0.0000000000004832
 10
4224.005737851156
 20
-428.0822511389124
 30
-0.0000000000004832
 10
4225.401403849275
 20
-426.8019215562016
 30
-0.0000000000004832
 10
4226.6946277608
 20
-425.4675038901119
 30
-0.0000000000004832
  0
SPLINE
  5
D3
330
1F
100
AcDbEntity
  8
图层 03
100
AcDbSpline
210
0.0
220
0.0
230
1.0
 70
     8
 71
     3
 72
     8
 73
     4
 74
     0
 42
0.0000000001
 43
0.0000000001
 40
2274.502880109527
 40
2274.502880109527
 40
2274.502880109527
 40
2274.502880109527
 40
2276.722921585982
 40
2276.722921585982
 40
2276.722921585982
 40
2276.722921585982
 10
4226.6946277608
 20
-425.4675038901119
 30
-0.0000000000004832
 10
4226.767556073115
 20
-425.3169896953572
 30
-0.0000000000004832
 10
4226.839382448439
 20
-425.165840300343
 30
-0.0000000000004832
 10
4226.910036635532
 20
-425.0140816320236
 30
-0.0000000000004832
  0
SPLINE
  5
D4
330
1F
100
AcDbEntity
  8
图层 03
100
AcDbSpline
210
0.0
220
0.0
230
1.0
 70
     8
 71
     3
 72
     8
 73
     4
 74
     0
 42
0.0000000001
 43
0.0000000001
 40
2276.722921585982
 40
2276.722921585982
 40
2276.722921585982
 40
2276.722921585982
 40
2299.279507757255
 40
2299.279507757255
 40
2299.279507757255
 40
2299.279507757255
 10
4226.910036635532
 20
-425.0140816320236
 30
-0.0000000000004832
 10
4227.566846344862
 20
-423.4402112237257
 30
-0.0000000000004832
 10
4228.164279747926
 20
-421.8392585914462
 30
-0.0000000000004832
 10
4228.697778337793
 20
-420.2103229407592
 30
-0.0000000000004832
  0
SPLINE
  5
D5
330
1F
100
AcDbEntity
  8
图层 03
100
AcDbSpline
210
0.0
220
0.0
230
1.0
 70
     8
 71
     3
 72
     8
 73
     4
 74
     0
 42
0.0000000001
 43
0.0000000001
 40
2299.279507757255
 40
2299.279507757255
 40
2299.279507757255
 40
2299.279507757255
 40
2310.583619332503
 40
2310.583619332503
 40
2310.583619332503
 40
2310.583619332503
 10
4228.697778337793
 20
-420.2103229407592
 30
-0.0000000000004832
 10
4228.624089489744
 20
-419.332830629826
 30
-0.0000000000004832
 10
4228.547477636295
 20
-418.4554119751192
 30
-0.0000000000004832
 10
4228.467982493441
 20
-417.5781279200628
 30
-0.0000000000004832
  0
SPLINE
  5
D6
330
1F
100
AcDbEntity
  8
图层 03
100
AcDbSpline
210
0.0
220
0.0
230
1.0
 70
     8
 71
     3
 72
     8
 73
     4
 74
     0
 42
0.0000000001
 43
0.0000000001
 40
2310.583619332503
 40
2310.583619332503
 40
2310.583619332503
 40
2310.583619332503
 40
2325.703708994485
 40
2325.703708994485
 40
2325.703708994485
 40
2325.703708994485
 10
4228.467982493441
 20
-417.5781279200628
 30
-0.0000000000004832
 10
4228.573834751192
 20
-416.4171363226866
 30
-0.0000000000004832
 10
4228.674508210494
 20
-415.2553049006126
 30
-0.0000000000004832
 10
4228.770662754341
 20
-414.0928658568996
 30
-0.0000000000004832
  0
SPLINE
  5
D7
330
1F
100
AcDbEntity
  8
图层 03
100
AcDbSpline
210
0.0
220
0.0
230
1.0
 70
     8
 71
     3
 72
     8
 73
     4
 74
     0
 42
0.0000000001
 43
0.0000000001
 40
2325.703708994485
 40
2325.703708994485
 40
2325.703708994485
 40
2325.703708994485
 40
2352.283640085011
 40
2352.283640085011
 40
2352.283640085011
 40
2352.283640085011
 10
4228.770662754341
 20
-414.0928658568996
 30
-0.0000000000004832
 10
4227.925327418749
 20
-412.1715236647094
 30
-0.0000000000004832
 10
4227.166141433574
 20
-410.2290672378388
 30
-0.0000000000004832
 10
4226.481249692603
 20
-408.2486845114872
 30
-0.0000000000004832
  0
SPLINE
  5
D8
330
1F
100
AcDbEntity
  8
图层 03
100
AcDbSpline
210
0.0
220
0.0
230
1.0
 70
     8
 71
     3
 72
     8
 73
     4
 74
     0
 42
0.0000000001
 43
0.0000000001
 40
2352.283640085011
 40
2352.283640085011
 40
2352.283640085011
 40
2352.283640085011
 40
2352.554913322388
 40
2352.554913322388
 40
2352.554913322388
 40
2352.554913322388
 10
4226.481249692603
 20
-408.2486845114872
 30
-0.0000000000004832
 10
4226.480041505669
 20
-408.2276172294243
 30
-0.0000000000004832
 10
4226.478831175536
 20
-408.2065499520728
 30
-0.0000000000004832
 10
4226.477618711608
 20
-408.1854826808027
 30
-0.0000000000004832
  0
SPLINE
  5
D9
330
1F
100
AcDbEntity
  8
图层 03
100
AcDbSpline
210
0.0
220
0.0
230
1.0
 70
     8
 71
     3
 72
     8
 73
     4
 74
     0
 42
0.0000000001
 43
0.0000000001
 40
2352.554913322388
 40
2352.554913322388
 40
2352.554913322388
 40
2352.554913322388
 40
2376.127030986942
 40
2376.127030986942
 40
2376.127030986942
 40
2376.127030986942
 10
4226.477618711608
 20
-408.1854826808027
 30
-0.0000000000004832
 10
4224.973352678348
 20
-407.2749911217386
 30
-0.0000000000004832
 10
4223.300910403029
 20
-406.2269977114754
 30
-0.0000000000004832
 10
4221.858225766115
 20
-405.2081943741756
 30
-0.0000000000004832
  0
SPLINE
  5
DA
330
1F
100
AcDbEntity
  8
图层 03
100
AcDbSpline
210
0.0
220
0.0
230
1.0
 70
     8
 71
     3
 72
     8
 73
     4
 74
     0
 42
0.0000000001
 43
0.0000000001
 40
2376.127030986942
 40
2376.127030986942
 40
2376.127030986942
 40
2376.127030986942
 40
2378.494769258036
 40
2378.494769258036
 40
2378.494769258036
 40
2378.494769258036
 10
4221.858225766115
 20
-405.2081943741756
 30
-0.0000000000004832
 10
4221.749611205598
 20
-405.3471972902945
 30
-0.0000000000004832
 10
4221.643407411927
 20
-405.4882613213297
 30
-0.0000000000004832
 10
4221.539511928884
 20
-405.6311666089875
 30
-0.0000000000004832
  0
SPLINE
  5
DB
330
1F
100
AcDbEntity
  8
图层 03
100
AcDbSpline
210
0.0
220
0.0
230
1.0
 70
     8
 71
     3
 72
     8
 73
     4
 74
     0
 42
0.0000000001
 43
0.0000000001
 40
2378.494769258036
 40
2378.494769258036
 40
2378.494769258036
 40
2378.494769258036
 40
2411.587701522725
 40
2411.587701522725
 40
2411.587701522725
 40
2411.587701522725
 10
4221.539511928884
 20
-405.6311666089875
 30
-0.0000000000004832
 10
4219.397268158159
 20
-406.8420373154268
 30
-0.0000000000004832
 10
4217.512565237091
 20
-408.3548118729942
 30
-0.0000000000004832
 10
4215.823146594123
 20
-410.1588324104875
 30
-0.0000000000004832
  0
SPLINE
  5
DC
330
1F
100
AcDbEntity
  8
图层 03
100
AcDbSpline
210
0.0
220
0.0
230
1.0
 70
     8
 71
     3
 72
     8
 73
     4
 74
     0
 42
0.0000000001
 43
0.0000000001
 40
2411.587701522725
 40
2411.587701522725
 40
2411.587701522725
 40
2411.587701522725
 40
2414.540940372521
 40
2414.540940372521
 40
2414.540940372521
 40
2414.540940372521
 10
4215.823146594123
 20
-410.1588324104875
 30
-0.0000000000004832
 10
4215.612679849975
 20
-410.2190756119065
 30
-0.0000000000004832
 10
4215.402499156709
 20
-410.2802379038154
 30
-0.0000000000004832
 10
4215.192622589869
 20
-410.3423025264144
 30
-0.0000000000004832
  0
SPLINE
  5
DD
330
1F
100
AcDbEntity
  8
图层 03
100
AcDbSpline
210
0.0
220
0.0
230
1.0
 70
     8
 71
     3
 72
     8
 73
     4
 74
     0
 42
0.0000000001
 43
0.0000000001
 40
2414.540940372521
 40
2414.540940372521
 40
2414.540940372521
 40
2414.540940372521
 40
2444.036365630614
 40
2444.036365630614
 40
2444.036365630614
 40
2444.036365630614
 10
4215.192622589869
 20
-410.3423025264144
 30
-0.0000000000004832
 10
4213.533905425669
 20
-411.7612452929236
 30
-0.0000000000004832
 10
4211.841051177039
 20
-413.1385627975012
 30
-0.0000000000004832
 10
4210.118334553798
 20
-414.475738744962
 30
-0.0000000000004832
  0
SPLINE
  5
DE
330
1F
100
AcDbEntity
  8
图层 03
100
AcDbSpline
210
0.0
220
0.0
230
1.0
 70
     8
 71
     3
 72
     8
 73
     4
 74
     0
 42
0.0000000001
 43
0.0000000001
 40
2444.036365630614
 40
2444.036365630614
 40
2444.036365630614
 40
2444.036365630614
 40
2456.191312967649
 40
2456.191312967649
 40
2456.191312967649
 40
2456.191312967649
 10
4210.118334553798
 20
-414.475738744962
 30
-0.0000000000004832
 10
4209.26484483646
 20
-414.7612288479874
 30
-0.0000000000004832
 10
4208.410584691857
 20
-415.0446091063209
 30
-0.0000000000004832
 10
4207.55568548078
 20
-415.3261670895565
 30
-0.0000000000004832
  0
SPLINE
  5
DF
330
1F
100
AcDbEntity
  8
图层 03
100
AcDbSpline
210
0.0
220
0.0
230
1.0
 70
     8
 71
     3
 72
     8
 73
     4
 74
     0
 42
0.0000000001
 43
0.0000000001
 40
2456.191312967649
 40
2456.191312967649
 40
2456.191312967649
 40
2456.191312967649
 40
2482.064022467089
 40
2482.064022467089
 40
2482.064022467089
 40
2482.064022467089
 10
4207.55568548078
 20
-415.3261670895565
 30
-0.0000000000004832
 10
4205.962445337029
 20
-416.3798175926246
 30
-0.0000000000004832
 10
4204.35369026776
 20
-417.416342889699
 30
-0.0000000000004832
 10
4202.737608850855
 20
-418.4341070446233
 30
-0.0000000000004832
  0
SPLINE
  5
E0
330
1F
100
AcDbEntity
  8
图层 03
100
AcDbSpline
210
0.0
220
0.0
230
1.0
 70
     8
 71
     3
 72
     8
 73
     4
 74
     0
 42
0.0000000001
 43
0.0000000001
 40
2482.064022467089
 40
2482.064022467089
 40
2482.064022467089
 40
2482.064022467089
 40
2499.811868612581
 40
2499.811868612581
 40
2499.811868612581
 40
2499.811868612581
 10
4202.737608850855
 20
-418.4341070446233
 30
-0.0000000000004832
 10
4201.511003113988
 20
-418.8992564032658
 30
-0.0000000000004832
 10
4200.286390208603
 20
-419.378057990461
 30
-0.0000000000004832
 10
4199.069270208518
 20
-419.866241079938
 30
-0.0000000000004832
  0
SPLINE
  5
E1
330
1F
100
AcDbEntity
  8
图层 03
100
AcDbSpline
210
0.0
220
0.0
230
1.0
 70
     8
 71
     3
 72
     8
 73
     4
 74
     0
 42
0.0000000001
 43
0.0000000001
 40
2499.811868612581
 40
2499.811868612581
 40
2499.811868612581
 40
2499.811868612581
 40
2523.962996511074
 40
2523.962996511074
 40
2523.962996511074
 40
2523.962996511074
 10
4199.069270208518
 20
-419.866241079938
 30
-0.0000000000004832
 10
4197.583416946632
 20
-420.8527261122251
 30
-0.0000000000004832
 10
4196.118046556054
 20
-421.87383817157
 30
-0.0000000000004832
 10
4194.674819661466
 20
-422.9229769146348
 30
-0.0000000000004832
  0
SPLINE
  5
E2
330
1F
100
AcDbEntity
  8
图层 03
100
AcDbSpline
210
0.0
220
0.0
230
1.0
 70
     8
 71
     3
 72
     8
 73
     4
 74
     0
 42
0.0000000001
 43
0.0000000001
 40
2523.962996511074
 40
2523.962996511074
 40
2523.962996511074
 40
2523.962996511074
 40
2543.875722898472
 40
2543.875722898472
 40
2543.875722898472
 40
2543.875722898472
 10
4194.674819661466
 20
-422.9229769146348
 30
-0.0000000000004832
 10
4193.385872119217
 20
-423.6305787096134
 30
-0.0000000000004832
 10
4192.11621050096
 20
-424.374544279121
 30
-0.0000000000004832
 10
4190.866051961586
 20
-425.1486244956313
 30
-0.0000000000004832
  0
SPLINE
  5
E3
330
1F
100
AcDbEntity
  8
图层 03
100
AcDbSpline
210
0.0
220
0.0
230
1.0
 70
     8
 71
     3
 72
     8
 73
     4
 74
     0
 42
0.0000000001
 43
0.0000000001
 40
2543.875722898472
 40
2543.875722898472
 40
2543.875722898472
 40
2543.875722898472
 40
2564.027426490239
 40
2564.027426490239
 40
2564.027426490239
 40
2564.027426490239
 10
4190.866051961586
 20
-425.1486244956313
 30
-0.0000000000004832
 10
4189.785302930703
 20
-426.1777977522399
 30
-0.0000000000004832
 10
4188.724981943168
 20
-427.2342328943222
 30
-0.0000000000004832
 10
4187.686997094506
 20
-428.3091541659344
 30
-0.0000000000004832
  0
SPLINE
  5
E4
330
1F
100
AcDbEntity
  8
图层 03
100
AcDbSpline
210
0.0
220
0.0
230
1.0
 70
     8
 71
     3
 72
     8
 73
     4
 74
     0
 42
0.0000000001
 43
0.0000000001
 40
2564.027426490239
 40
2564.027426490239
 40
2564.027426490239
 40
2564.027426490239
 40
2587.539827769755
 40
2587.539827769755
 40
2587.539827769755
 40
2587.539827769755
 10
4187.686997094506
 20
-428.3091541659344
 30
-0.0000000000004832
 10
4186.312794985457
 20
-429.3741074395654
 30
-0.0000000000004832
 10
4184.946318563754
 20
-430.4495785340889
 30
-0.0000000000004832
 10
4183.586787691032
 20
-431.5337830266052
 30
-0.0000000000004832
  0
SPLINE
  5
E5
330
1F
100
AcDbEntity
  8
图层 03
100
AcDbSpline
210
0.0
220
0.0
230
1.0
 70
     8
 71
     3
 72
     8
 73
     4
 74
     0
 42
0.0000000001
 43
0.0000000001
 40
2587.539827769755
 40
2587.539827769755
 40
2587.539827769755
 40
2587.539827769755
 40
2602.954894540807
 40
2602.954894540807
 40
2602.954894540807
 40
2602.954894540807
 10
4183.586787691032
 20
-431.5337830266052
 30
-0.0000000000004832
 10
4183.160842729496
 20
-432.6201477548606
 30
-0.0000000000004832
 10
4182.74363224077
 20
-433.7106818721463
 30
-0.0000000000004832
 10
4182.332128584452
 20
-434.8036279914779
 30
-0.0000000000004832
  0
SPLINE
  5
E6
330
1F
100
AcDbEntity
  8
图层 03
100
AcDbSpline
210
0.0
220
0.0
230
1.0
 70
     8
 71
     3
 72
     8
 73
     4
 74
     0
 42
0.0000000001
 43
0.0000000001
 40
2602.954894540807
 40
2602.954894540807
 40
2602.954894540807
 40
2602.954894540807
 40
2630.590068347077
 40
2630.590068347077
 40
2630.590068347077
 40
2630.590068347077
 10
4182.332128584452
 20
-434.8036279914779
 30
-0.0000000000004832
 10
4180.500822900972
 20
-435.452485803224
 30
-0.0000000000004832
 10
4178.295730082742
 20
-435.9557481375321
 30
-0.0000000000004832
 10
4176.385639512742
 20
-436.3348867222377
 30
-0.0000000000004832
  0
SPLINE
  5
E7
330
1F
100
AcDbEntity
  8
图层 03
100
AcDbSpline
210
0.0
220
0.0
230
1.0
 70
     8
 71
     3
 72
     8
 73
     4
 74
     0
 42
0.0000000001
 43
0.0000000001
 40
2630.590068347077
 40
2630.590068347077
 40
2630.590068347077
 40
2630.590068347077
 40
2649.932441580706
 40
2649.932441580706
 40
2649.932441580706
 40
2649.932441580706
 10
4176.385639512742
 20
-436.3348867222377
 30
-0.0000000000004832
 10
4174.971884358351
 20
-435.8939643249912
 30
-0.0000000000004832
 10
4173.539516852747
 20
-435.578584636032
 30
-0.0000000000004832
 10
4172.088958474016
 20
-435.3729387370064
 30
-0.0000000000004832
  0
SPLINE
  5
E8
330
1F
100
AcDbEntity
  8
图层 03
100
AcDbSpline
210
0.0
220
0.0
230
1.0
 70
     8
 71
     3
 72
     8
 73
     4
 74
     0
 42
0.0000000001
 43
0.0000000001
 40
2649.932441580706
 40
2649.932441580706
 40
2649.932441580706
 40
2649.932441580706
 40
2656.211184608017
 40
2656.211184608017
 40
2656.211184608017
 40
2656.211184608017
 10
4172.088958474016
 20
-435.3729387370064
 30
-0.0000000000004832
 10
4171.702474351801
 20
-435.0713990818616
 30
-0.0000000000004832
 10
4171.310952785849
 20
-434.7756869520058
 30
-0.0000000000004832
 10
4170.915198954979
 20
-434.4877951544102
 30
-0.0000000000004832
  0
SPLINE
  5
E9
330
1F
100
AcDbEntity
  8
图层 03
100
AcDbSpline
210
0.0
220
0.0
230
1.0
 70
     8
 71
     3
 72
     8
 73
     4
 74
     0
 42
0.0000000001
 43
0.0000000001
 40
2656.211184608017
 40
2656.211184608017
 40
2656.211184608017
 40
2656.211184608017
 40
2667.390875811063
 40
2667.390875811063
 40
2667.390875811063
 40
2667.390875811063
 10
4170.915198954979
 20
-434.4877951544102
 30
-0.0000000000004832
 10
4170.136719266003
 20
-434.1232897003642
 30
-0.0000000000004832
 10
4169.343171121836
 20
-433.7760845926636
 30
-0.0000000000004832
 10
4168.547172603306
 20
-433.4602746615476
 30
-0.0000000000004832
  0
SPLINE
  5
EA
330
1F
100
AcDbEntity
  8
图层 03
100
AcDbSpline
210
0.0
220
0.0
230
1.0
 70
     8
 71
     3
 72
     8
 73
     4
 74
     0
 42
0.0000000001
 43
0.0000000001
 40
2667.390875811063
 40
2667.390875811063
 40
2667.390875811063
 40
2667.390875811063
 40
2677.464544417199
 40
2677.464544417199
 40
2677.464544417199
 40
2677.464544417199
 10
4168.547172603306
 20
-433.4602746615476
 30
-0.0000000000004832
 10
4167.968676533139
 20
-432.9224482076762
 30
-0.0000000000004832
 10
4167.38713112848
 20
-432.3880740560028
 30
-0.0000000000004832
 10
4166.801929013994
 20
-431.8582094068014
 30
-0.0000000000004832
  0
SPLINE
  5
EB
330
1F
100
AcDbEntity
  8
图层 03
100
AcDbSpline
210
0.0
220
0.0
230
1.0
 70
     8
 71
     3
 72
     8
 73
     4
 74
     0
 42
0.0000000001
 43
0.0000000001
 40
2677.464544417199
 40
2677.464544417199
 40
2677.464544417199
 40
2677.464544417199
 40
2684.585427499851
 40
2684.585427499851
 40
2684.585427499851
 40
2684.585427499851
 10
4166.801929013994
 20
-431.8582094068014
 30
-0.0000000000004832
 10
4166.331204753527
 20
-431.5687813719707
 30
-0.0000000000004832
 10
4165.854581716198
 20
-431.2879043614448
 30
-0.0000000000004832
 10
4165.373607646909
 20
-431.0184981225726
 30
-0.0000000000004832
  0
SPLINE
  5
EC
330
1F
100
AcDbEntity
  8
图层 03
100
AcDbSpline
210
0.0
220
0.0
230
1.0
 70
     8
 71
     3
 72
     8
 73
     4
 74
     0
 42
0.0000000001
 43
0.0000000001
 40
2684.585427499851
 40
2684.585427499851
 40
2684.585427499851
 40
2684.585427499851
 40
2697.196483091575
 40
2697.196483091575
 40
2697.196483091575
 40
2697.196483091575
 10
4165.373607646909
 20
-431.0184981225726
 30
-0.0000000000004832
 10
4164.660150573351
 20
-430.3328957648686
 30
-0.0000000000004832
 10
4163.944818841777
 20
-429.6493735478596
 30
-0.0000000000004832
 10
4163.227636927833
 20
-428.9679842408439
 30
-0.0000000000004832
  0
SPLINE
  5
ED
330
1F
100
AcDbEntity
  8
图层 03
100
AcDbSpline
210
0.0
220
0.0
230
1.0
 70
     8
 71
     3
 72
     8
 73
     4
 74
     0
 42
0.0000000001
 43
0.0000000001
 40
2697.196483091575
 40
2697.196483091575
 40
2697.196483091575
 40
2697.196483091575
 40
2702.966183051157
 40
2702.966183051157
 40
2702.966183051157
 40
2702.966183051157
 10
4163.227636927833
 20
-428.9679842408439
 30
-0.0000000000004832
 10
4162.842032602513
 20
-428.7406659619327
 30
-0.0000000000004832
 10
4162.452564562277
 20
-428.5212667588039
 30
-0.0000000000004832
 10
4162.059364144727
 20
-428.3095218533774
 30
-0.0000000000004832
  0
SPLINE
  5
EE
330
1F
100
AcDbEntity
  8
图层 03
100
AcDbSpline
210
0.0
220
0.0
230
1.0
 70
     8
 71
     3
 72
     8
 73
     4
 74
     0
 42
0.0000000001
 43
0.0000000001
 40
2702.966183051157
 40
2702.966183051157
 40
2702.966183051157
 40
2702.966183051157
 40
2723.265936713229
 40
2723.265936713229
 40
2723.265936713229
 40
2723.265936713229
 10
4162.059364144727
 20
-428.3095218533774
 30
-0.0000000000004832
 10
4160.871906790964
 20
-427.2529036766408
 30
-0.0000000000004832
 10
4159.657984780605
 20
-426.2253235664399
 30
-0.0000000000004832
 10
4158.427177786471
 20
-425.2245320935976
 30
-0.0000000000004832
  0
SPLINE
  5
EF
330
1F
100
AcDbEntity
  8
图层 03
100
AcDbSpline
210
0.0
220
0.0
230
1.0
 70
     8
 71
     3
 72
     8
 73
     4
 74
     0
 42
0.0000000001
 43
0.0000000001
 40
2723.265936713229
 40
2723.265936713229
 40
2723.265936713229
 40
2723.265936713229
 40
2724.859512461589
 40
2724.859512461589
 40
2724.859512461589
 40
2724.859512461589
 10
4158.427177786471
 20
-425.2245320935976
 30
-0.0000000000004832
 10
4158.349890020158
 20
-425.1256009445489
 30
-0.0000000000004832
 10
4158.272680370215
 20
-425.0266061114346
 30
-0.0000000000004832
 10
4158.195547081581
 20
-424.9275497114622
 30
-0.0000000000004832
  0
SPLINE
  5
F0
330
1F
100
AcDbEntity
  8
图层 03
100
AcDbSpline
210
0.0
220
0.0
230
1.0
 70
     8
 71
     3
 72
     8
 73
     4
 74
     0
 42
0.0000000001
 43
0.0000000001
 40
2724.859512461589
 40
2724.859512461589
 40
2724.859512461589
 40
2724.859512461589
 40
2744.275429382967
 40
2744.275429382967
 40
2744.275429382967
 40
2744.275429382967
 10
4158.195547081581
 20
-424.9275497114622
 30
-0.0000000000004832
 10
4157.040553815776
 20
-423.9346441251186
 30
-0.0000000000004832
 10
4155.816360043711
 20
-423.0546837258348
 30
-0.0000000000004832
 10
4154.51942396881
 20
-422.2821032774228
 30
-0.0000000000004832
  0
SPLINE
  5
F1
330
1F
100
AcDbEntity
  8
图层 03
100
AcDbSpline
210
0.0
220
0.0
230
1.0
 70
     8
 71
     3
 72
     8
 73
     4
 74
     0
 42
0.0000000001
 43
0.0000000001
 40
2744.275429382967
 40
2744.275429382967
 40
2744.275429382967
 40
2744.275429382967
 40
2767.966084607975
 40
2767.966084607975
 40
2767.966084607975
 40
2767.966084607975
 10
4154.51942396881
 20
-422.2821032774228
 30
-0.0000000000004832
 10
4153.558517643651
 20
-420.6784073762154
 30
-0.0000000000004832
 10
4152.567744319172
 20
-419.0955140769711
 30
-0.0000000000004832
 10
4151.550530143265
 20
-417.5273588526524
 30
-0.0000000000004832
  0
SPLINE
  5
F2
330
1F
100
AcDbEntity
  8
图层 03
100
AcDbSpline
210
0.0
220
0.0
230
1.0
 70
     8
 71
     3
 72
     8
 73
     4
 74
     0
 42
0.0000000001
 43
0.0000000001
 40
2767.966084607975
 40
2767.966084607975
 40
2767.966084607975
 40
2767.966084607975
 40
2793.288860545855
 40
2793.288860545855
 40
2793.288860545855
 40
2793.288860545855
 10
4151.550530143265
 20
-417.5273588526524
 30
-0.0000000000004832
 10
4151.527414270357
 20
-415.605720887239
 30
-0.0000000000004832
 10
4151.632728000402
 20
-413.5642612776644
 30
-0.0000000000004832
 10
4151.779715018084
 20
-411.6596959461149
 30
-0.0000000000004832
  0
SPLINE
  5
F3
330
1F
100
AcDbEntity
  8
图层 03
100
AcDbSpline
210
0.0
220
0.0
230
1.0
 70
     8
 71
     3
 72
     8
 73
     4
 74
     0
 42
0.0000000001
 43
0.0000000001
 40
2793.288860545855
 40
2793.288860545855
 40
2793.288860545855
 40
2793.288860545855
 40
2842.916585045423
 40
2842.916585045423
 40
2842.916585045423
 40
2842.916585045423
 10
4151.779715018084
 20
-411.6596959461149
 30
-0.0000000000004832
 10
4150.907922146479
 20
-407.8675988328803
 30
-0.0000000000004832
 10
4150.248361855691
 20
-404.0397312800228
 30
-0.0000000000004832
 10
4149.759989401889
 20
-400.1975357476313
 30
-0.0000000000004832
  0
SPLINE
  5
F4
330
1F
100
AcDbEntity
  8
图层 03
100
AcDbSpline
210
0.0
220
0.0
230
1.0
 70
     8
 71
     3
 72
     8
 73
     4
 74
     0
 42
0.0000000001
 43
0.0000000001
 40
2842.916585045423
 40
2842.916585045423
 40
2842.916585045423
 40
2842.916585045423
 40
2846.360344518924
 40
2846.360344518924
 40
2846.360344518924
 40
2846.360344518924
 10
4149.759989401889
 20
-400.1975357476313
 30
-0.0000000000004832
 10
4149.661403201042
 20
-399.9448531035171
 30
-0.0000000000004832
 10
4149.562974007595
 20
-399.6921127614332
 30
-0.0000000000004832
 10
4149.464699863705
 20
-399.4393161745995
 30
-0.0000000000004832
  0
SPLINE
  5
F5
330
1F
100
AcDbEntity
  8
图层 03
100
AcDbSpline
210
0.0
220
0.0
230
1.0
 70
     8
 71
     3
 72
     8
 73
     4
 74
     0
 42
0.0000000001
 43
0.0000000001
 40
2846.360344518924
 40
2846.360344518924
 40
2846.360344518924
 40
2846.360344518924
 40
2888.474367734599
 40
2888.474367734599
 40
2888.474367734599
 40
2888.474367734599
 10
4149.464699863705
 20
-399.4393161745995
 30
-0.0000000000004832
 10
4148.33483026149
 20
-396.3226699527029
 30
-0.0000000000004832
 10
4147.202121268241
 20
-393.2069719668764
 30
-0.0000000000004832
 10
4146.067119818279
 20
-390.0920545614133
 30
-0.0000000000004832
  0
SPLINE
  5
F6
330
1F
100
AcDbEntity
  8
图层 03
100
AcDbSpline
210
0.0
220
0.0
230
1.0
 70
     8
 71
     3
 72
     8
 73
     4
 74
     0
 42
0.0000000001
 43
0.0000000001
 40
2888.474367734599
 40
2888.474367734599
 40
2888.474367734599
 40
2888.474367734599
 40
2927.881614469516
 40
2927.881614469516
 40
2927.881614469516
 40
2927.881614469516
 10
4146.067119818279
 20
-390.0920545614133
 30
-0.0000000000004832
 10
4144.273157272498
 20
-387.5554389699945
 30
-0.0000000000004832
 10
4142.47422912086
 20
-385.0224105995453
 30
-0.0000000000004832
 10
4140.67154639143
 20
-382.4921686208804
 30
-0.0000000000004832
  0
SPLINE
  5
F7
330
1F
100
AcDbEntity
  8
图层 03
100
AcDbSpline
210
0.0
220
0.0
230
1.0
 70
     8
 71
     3
 72
     8
 73
     4
 74
     0
 42
0.0000000001
 43
0.0000000001
 40
2927.881614469516
 40
2927.881614469516
 40
2927.881614469516
 40
2927.881614469516
 40
2958.368579078263
 40
2958.368579078263
 40
2958.368579078263
 40
2958.368579078263
 10
4140.67154639143
 20
-382.4921686208804
 30
-0.0000000000004832
 10
4138.594817844446
 20
-381.3716537728791
 30
-0.0000000000004832
 10
4136.518776074255
 20
-380.2496547695605
 30
-0.0000000000004832
 10
4134.443277329601
 20
-379.1264950191307
 30
-0.0000000000004832
  0
SPLINE
  5
F8
330
1F
100
AcDbEntity
  8
图层 03
100
AcDbSpline
210
0.0
220
0.0
230
1.0
 70
     8
 71
     3
 72
     8
 73
     4
 74
     0
 42
0.0000000001
 43
0.0000000001
 40
2958.368579078263
 40
2958.368579078263
 40
2958.368579078263
 40
2958.368579078263
 40
2987.957426919061
 40
2987.957426919061
 40
2987.957426919061
 40
2987.957426919061
 10
4134.443277329601
 20
-379.1264950191307
 30
-0.0000000000004832
 10
4132.334396803196
 20
-379.7293430601391
 30
-0.0000000000004832
 10
4130.219626378922
 20
-380.3143285819998
 30
-0.0000000000004832
 10
4128.100406147144
 20
-380.8834911193401
 30
-0.0000000000004832
  0
SPLINE
  5
F9
330
1F
100
AcDbEntity
  8
图层 03
100
AcDbSpline
210
0.0
220
0.0
230
1.0
 70
     8
 71
     3
 72
     8
 73
     4
 74
     0
 42
0.0000000001
 43
0.0000000001
 40
2987.957426919061
 40
2987.957426919061
 40
2987.957426919061
 40
2987.957426919061
 40
3025.703561689282
 40
3025.703561689282
 40
3025.703561689282
 40
3025.703561689282
 10
4128.100406147144
 20
-380.8834911193401
 30
-0.0000000000004832
 10
4126.015967037953
 20
-382.74560116027
 30
-0.0000000000004832
 10
4123.9182911928
 20
-384.5924485794102
 30
-0.0000000000004832
 10
4121.808322702357
 20
-386.4239812670723
 30
-0.0000000000004832
  0
SPLINE
  5
FA
330
1F
100
AcDbEntity
  8
图层 03
100
AcDbSpline
210
0.0
220
0.0
230
1.0
 70
     8
 71
     3
 72
     8
 73
     4
 74
     0
 42
0.0000000001
 43
0.0000000001
 40
3025.703561689282
 40
3025.703561689282
 40
3025.703561689282
 40
3025.703561689282
 40
3069.69989710803
 40
3069.69989710803
 40
3069.69989710803
 40
3069.69989710803
 10
4121.808322702357
 20
-386.4239812670723
 30
-0.0000000000004832
 10
4119.743759978368
 20
-388.9668234548886
 30
-0.0000000000004832
 10
4117.672337726346
 20
-391.5036544217751
 30
-0.0000000000004832
 10
4115.593993604774
 20
-394.034231394344
 30
-0.0000000000004832
  0
SPLINE
  5
FB
330
1F
100
AcDbEntity
  8
图层 03
100
AcDbSpline
210
0.0
220
0.0
230
1.0
 70
     8
 71
     3
 72
    11
 73
     7
 74
     0
 42
0.0000000001
 43
0.0000000001
 40
3069.69989710803
 40
3069.69989710803
 40
3069.69989710803
 40
3069.69989710803
 40
3097.083547541378
 40
3097.083547541378
 40
3097.083547541378
 40
3116.083380912403
 40
3116.083380912403
 40
3116.083380912403
 40
3116.083380912403
 10
4115.593993604774
 20
-394.034231394344
 30
-0.0000000000004832
 10
4114.375911386199
 20
-395.6737801536452
 30
-0.0000000000004832
 10
4113.15875369097
 20
-397.3140852714021
 30
-0.0000000000004832
 10
4111.942556853575
 20
-398.9551713187676
 30
-0.0000000000004832
 10
4111.096011974366
 20
-400.0916153541306
 30
-0.0000000000004832
 10
4110.249630261873
 20
-401.228193007991
 30
-0.0000000000004832
 10
4109.403414518917
 20
-402.364906349753
 30
-0.0000000000004832
  0
SPLINE
  5
FC
330
1F
100
AcDbEntity
  8
图层 03
100
AcDbSpline
210
0.0
220
0.0
230
1.0
 70
     8
 71
     3
 72
    14
 73
    10
 74
     0
 42
0.0000000001
 43
0.0000000001
 40
3116.083380912403
 40
3116.083380912403
 40
3116.083380912403
 40
3116.083380912403
 40
3161.542104526932
 40
3161.542104526932
 40
3161.542104526932
 40
3204.225159729019
 40
3204.225159729019
 40
3204.225159729019
 40
3244.325947267125
 40
3244.325947267125
 40
3244.325947267125
 40
3244.325947267125
 10
4109.403414518917
 20
-402.364906349753
 30
-0.0000000000004832
 10
4107.324816741222
 20
-405.0395849954444
 30
-0.0000000000004832
 10
4105.252814241618
 20
-407.7199141728654
 30
-0.0000000000004832
 10
4103.187745129058
 20
-410.4060162177652
 30
-0.0000000000004832
 10
4101.208220740442
 20
-412.8934298715734
 30
-0.0000000000004832
 10
4099.240714995365
 20
-415.3914394457436
 30
-0.0000000000004832
 10
4097.285894477447
 20
-417.9000254320104
 30
-0.0000000000004832
 10
4095.442708871586
 20
-420.2512232799224
 30
-0.0000000000004832
 10
4093.61424154489
 20
-422.6152801636642
 30
-0.0000000000004832
 10
4091.801176642739
 20
-424.9918534470191
 30
-0.0000000000004832
  0
SPLINE
  5
FD
330
1F
100
AcDbEntity
  8
图层 03
100
AcDbSpline
210
0.0
220
0.0
230
1.0
 70
     8
 71
     3
 72
     8
 73
     4
 74
     0
 42
0.0000000001
 43
0.0000000001
 40
3244.325947267125
 40
3244.325947267125
 40
3244.325947267125
 40
3244.325947267125
 40
3286.005029232349
 40
3286.005029232349
 40
3286.005029232349
 40
3286.005029232349
 10
4091.801176642739
 20
-424.9918534470191
 30
-0.0000000000004832
 10
4089.868643534761
 20
-427.4211481075623
 30
-0.0000000000004832
 10
4087.945865063396
 20
-429.8590069944951
 30
-0.0000000000004832
 10
4086.032406312716
 20
-432.3046868376452
 30
-0.0000000000004832
  0
SPLINE
  5
FE
330
1F
100
AcDbEntity
  8
图层 03
100
AcDbSpline
210
0.0
220
0.0
230
1.0
 70
     8
 71
     3
 72
     8
 73
     4
 74
     0
 42
0.0000000001
 43
0.0000000001
 40
3286.005029232349
 40
3286.005029232349
 40
3286.005029232349
 40
3286.005029232349
 40
3333.262445373797
 40
3333.262445373797
 40
3333.262445373797
 40
3333.262445373797
 10
4086.032406312716
 20
-432.3046868376452
 30
-0.0000000000004832
 10
4083.616516058499
 20
-434.587298432016
 30
-0.0000000000004832
 10
4080.823616062962
 20
-437.2502829967057
 30
-0.0000000000004832
 10
4078.458463077038
 20
-439.5888021999115
 30
-0.0000000000004832
  0
SPLINE
  5
FF
330
1F
100
AcDbEntity
  8
图层 03
100
AcDbSpline
210
0.0
220
0.0
230
1.0
 70
     8
 71
     3
 72
     8
 73
     4
 74
     0
 42
0.0000000001
 43
0.0000000001
 40
3333.262445373797
 40
3333.262445373797
 40
3333.262445373797
 40
3333.262445373797
 40
3383.447451789316
 40
3383.447451789316
 40
3383.447451789316
 40
3383.447451789316
 10
4078.458463077038
 20
-439.5888021999115
 30
-0.0000000000004832
 10
4075.64129131132
 20
-442.0098054460957
 30
-0.0000000000004832
 10
4072.824441746926
 20
-444.4312015770995
 30
-0.0000000000004832
 10
4070.008268495182
 20
-446.8534205698172
 30
-0.0000000000004832
  0
SPLINE
  5
100
330
1F
100
AcDbEntity
  8
图层 03
100
AcDbSpline
210
0.0
220
0.0
230
1.0
 70
     8
 71
     3
 72
     8
 73
     4
 74
     0
 42
0.0000000001
 43
0.0000000001
 40
3383.447451789316
 40
3383.447451789316
 40
3383.447451789316
 40
3383.447451789316
 40
3427.081598697697
 40
3427.081598697697
 40
3427.081598697697
 40
3427.081598697697
 10
4070.008268495182
 20
-446.8534205698172
 30
-0.0000000000004832
 10
4067.619210098831
 20
-449.0300545223624
 30
-0.0000000000004832
 10
4065.229407048154
 20
-451.205829750231
 30
-0.0000000000004832
 10
4062.837948451796
 20
-453.3796844537585
 30
-0.0000000000004832
  0
SPLINE
  5
101
330
1F
100
AcDbEntity
  8
图层 03
100
AcDbSpline
210
0.0
220
0.0
230
1.0
 70
     8
 71
     3
 72
     8
 73
     4
 74
     0
 42
0.0000000001
 43
0.0000000001
 40
3427.081598697697
 40
3427.081598697697
 40
3427.081598697697
 40
3427.081598697697
 40
3458.001290696798
 40
3458.001290696798
 40
3458.001290696798
 40
3458.001290696798
 10
4062.837948451796
 20
-453.3796844537585
 30
-0.0000000000004832
 10
4061.313303114785
 20
-455.0989483683807
 30
-0.0000000000004832
 10
4059.793376789291
 20
-456.8228853966132
 30
-0.0000000000004832
 10
4058.288052391662
 20
-458.5603726164841
 30
-0.0000000000004832
  0
SPLINE
  5
102
330
1F
100
AcDbEntity
  8
图层 03
100
AcDbSpline
210
0.0
220
0.0
230
1.0
 70
     8
 71
     3
 72
     8
 73
     4
 74
     0
 42
0.0000000001
 43
0.0000000001
 40
3458.001290696798
 40
3458.001290696798
 40
3458.001290696798
 40
3458.001290696798
 40
3473.42965496085
 40
3473.42965496085
 40
3473.42965496085
 40
3473.42965496085
 10
4058.288052391662
 20
-458.5603726164841
 30
-0.0000000000004832
 10
4057.845733745229
 20
-459.6165080518554
 30
-0.0000000000004832
 10
4057.361705863116
 20
-460.722776296861
 30
-0.0000000000004832
 10
4056.8954743411
 20
-461.7667234209582
 30
-0.0000000000004832
  0
SPLINE
  5
103
330
1F
100
AcDbEntity
  8
图层 03
100
AcDbSpline
210
0.0
220
0.0
230
1.0
 70
     8
 71
     3
 72
     8
 73
     4
 74
     0
 42
0.0000000001
 43
0.0000000001
 40
3473.42965496085
 40
3473.42965496085
 40
3473.42965496085
 40
3473.42965496085
 40
3481.29853267946
 40
3481.29853267946
 40
3481.29853267946
 40
3481.29853267946
 10
4056.8954743411
 20
-461.7667234209582
 30
-0.0000000000004832
 10
4056.723868288643
 20
-462.3404604821601
 30
-0.0000000000004832
 10
4056.556125563587
 20
-462.9156842133891
 30
-0.0000000000004832
 10
4056.392429565707
 20
-463.4922770002188
 30
-0.0000000000004832
  0
SPLINE
  5
104
330
1F
100
AcDbEntity
  8
图层 03
100
AcDbSpline
210
0.0
220
0.0
230
1.0
 70
     8
 71
     3
 72
     8
 73
     4
 74
     0
 42
0.0000000001
 43
0.0000000001
 40
3481.29853267946
 40
3481.29853267946
 40
3481.29853267946
 40
3481.29853267946
 40
3497.351986245988
 40
3497.351986245988
 40
3497.351986245988
 40
3497.351986245988
 10
4056.392429565707
 20
-463.4922770002188
 30
-0.0000000000004832
 10
4056.852986735167
 20
-464.669465663914
 30
-0.0000000000004832
 10
4057.325304310082
 20
-465.8433374455944
 30
-0.0000000000004832
 10
4057.807514425925
 20
-467.0123100823325
 30
-0.0000000000004832
  0
SPLINE
  5
105
330
1F
100
AcDbEntity
  8
图层 03
100
AcDbSpline
210
0.0
220
0.0
230
1.0
 70
     8
 71
     3
 72
     8
 73
     4
 74
     0
 42
0.0000000001
 43
0.0000000001
 40
3497.351986245988
 40
3497.351986245988
 40
3497.351986245988
 40
3497.351986245988
 40
3515.46411957215
 40
3515.46411957215
 40
3515.46411957215
 40
3515.46411957215
 10
4057.807514425925
 20
-467.0123100823325
 30
-0.0000000000004832
 10
4059.08084311434
 20
-467.5833747014792
 30
-0.0000000000004832
 10
4060.356047334198
 20
-468.1495307985385
 30
-0.0000000000004832
 10
4061.633200746166
 20
-468.7101928364648
 30
-0.0000000000004832
  0
SPLINE
  5
106
330
1F
100
AcDbEntity
  8
图层 03
100
AcDbSpline
210
0.0
220
0.0
230
1.0
 70
     8
 71
     3
 72
     8
 73
     4
 74
     0
 42
0.0000000001
 43
0.0000000001
 40
3515.46411957215
 40
3515.46411957215
 40
3515.46411957215
 40
3515.46411957215
 40
3524.297721684698
 40
3524.297721684698
 40
3524.297721684698
 40
3524.297721684698
 10
4061.633200746166
 20
-468.7101928364648
 30
-0.0000000000004832
 10
4062.291716206148
 20
-468.6625197175802
 30
-0.0000000000004832
 10
4062.949905675343
 20
-468.6120382045972
 30
-0.0000000000004832
 10
4063.607709650245
 20
-468.5588007947742
 30
-0.0000000000004832
  0
SPLINE
  5
107
330
1F
100
AcDbEntity
  8
图层 03
100
AcDbSpline
210
0.0
220
0.0
230
1.0
 70
     8
 71
     3
 72
     8
 73
     4
 74
     0
 42
0.0000000001
 43
0.0000000001
 40
3524.297721684698
 40
3524.297721684698
 40
3524.297721684698
 40
3524.297721684698
 40
3541.552311157011
 40
3541.552311157011
 40
3541.552311157011
 40
3541.552311157011
 10
4063.607709650245
 20
-468.5588007947742
 30
-0.0000000000004832
 10
4064.845464342501
 20
-468.3289767261697
 30
-0.0000000000004832
 10
4066.157321514693
 20
-468.0962976538401
 30
-0.0000000000004832
 10
4067.401761948732
 20
-467.8973851063822
 30
-0.0000000000004832
  0
SPLINE
  5
108
330
1F
100
AcDbEntity
  8
图层 03
100
AcDbSpline
210
0.0
220
0.0
230
1.0
 70
     8
 71
     3
 72
     8
 73
     4
 74
     0
 42
0.0000000001
 43
0.0000000001
 40
3541.552311157011
 40
3541.552311157011
 40
3541.552311157011
 40
3541.552311157011
 40
3573.602484448757
 40
3573.602484448757
 40
3573.602484448757
 40
3573.602484448757
 10
4067.401761948732
 20
-467.8973851063822
 30
-0.0000000000004832
 10
4069.568410742046
 20
-466.9396642356571
 30
-0.0000000000004832
 10
4071.729432861571
 20
-465.9695380019446
 30
-0.0000000000004832
 10
4073.888415986956
 20
-464.9952859222451
 30
-0.0000000000004832
  0
SPLINE
  5
109
330
1F
100
AcDbEntity
  8
图层 03
100
AcDbSpline
210
0.0
220
0.0
230
1.0
 70
     8
 71
     3
 72
     8
 73
     4
 74
     0
 42
0.0000000001
 43
0.0000000001
 40
3573.602484448757
 40
3573.602484448757
 40
3573.602484448757
 40
3573.602484448757
 40
3620.566637866003
 40
3620.566637866003
 40
3620.566637866003
 40
3620.566637866003
 10
4073.888415986956
 20
-464.9952859222451
 30
-0.0000000000004832
 10
4076.949310287286
 20
-463.3628747179914
 30
-0.0000000000004832
 10
4080.01865488927
 20
-461.7460147339377
 30
-0.0000000000004832
 10
4083.091511743994
 20
-460.1360560651835
 30
-0.0000000000004832
  0
SPLINE
  5
10A
330
1F
100
AcDbEntity
  8
图层 03
100
AcDbSpline
210
0.0
220
0.0
230
1.0
 70
     8
 71
     3
 72
     8
 73
     4
 74
     0
 42
0.0000000001
 43
0.0000000001
 40
3620.566637866003
 40
3620.566637866003
 40
3620.566637866003
 40
3620.566637866003
 40
3681.279347551615
 40
3681.279347551615
 40
3681.279347551615
 40
3681.279347551615
 10
4083.091511743994
 20
-460.1360560651835
 30
-0.0000000000004832
 10
4087.116296166544
 20
-458.1562024678285
 30
-0.0000000000004832
 10
4091.155598841813
 20
-456.204878338131
 30
-0.0000000000004832
 10
4095.201274295639
 20
-454.2673165427993
 30
-0.0000000000004832
  0
SPLINE
  5
10B
330
1F
100
AcDbEntity
  8
图层 03
100
AcDbSpline
210
0.0
220
0.0
230
1.0
 70
     8
 71
     3
 72
     8
 73
     4
 74
     0
 42
0.0000000001
 43
0.0000000001
 40
3681.279347551615
 40
3681.279347551615
 40
3681.279347551615
 40
3681.279347551615
 40
3759.980748397079
 40
3759.980748397079
 40
3759.980748397079
 40
3759.980748397079
 10
4095.201274295639
 20
-454.2673165427993
 30
-0.0000000000004832
 10
4100.702777134397
 20
-452.3518145986707
 30
-0.0000000000004832
 10
4106.219519298413
 20
-450.4764884514532
 30
-0.0000000000004832
 10
4111.741005312191
 20
-448.6154602192285
 30
-0.0000000000004832
  0
SPLINE
  5
10C
330
1F
100
AcDbEntity
  8
图层 03
100
AcDbSpline
210
0.0
220
0.0
230
1.0
 70
     8
 71
     3
 72
     8
 73
     4
 74
     0
 42
0.0000000001
 43
0.0000000001
 40
3759.980748397079
 40
3759.980748397079
 40
3759.980748397079
 40
3759.980748397079
 40
3785.713113982601
 40
3785.713113982601
 40
3785.713113982601
 40
3785.713113982601
 10
4111.741005312191
 20
-448.6154602192285
 30
-0.0000000000004832
 10
4113.517529282476
 20
-447.932143851858
 30
-0.0000000000004832
 10
4115.29873505454
 20
-447.2600322097994
 30
-0.0000000000004832
 10
4117.084426270616
 20
-446.5997784674355
 30
-0.0000000000004832
  0
SPLINE
  5
10D
330
1F
100
AcDbEntity
  8
图层 03
100
AcDbSpline
210
0.0
220
0.0
230
1.0
 70
     8
 71
     3
 72
    11
 73
     7
 74
     0
 42
0.0000000001
 43
0.0000000001
 40
3785.713113982601
 40
3785.713113982601
 40
3785.713113982601
 40
3785.713113982601
 40
3845.482408812576
 40
3845.482408812576
 40
3845.482408812576
 40
3854.700918063955
 40
3854.700918063955
 40
3854.700918063955
 40
3854.700918063955
 10
4117.084426270616
 20
-446.5997784674355
 30
-0.0000000000004832
 10
4121.497427138691
 20
-446.0530845122967
 30
-0.0000000000004832
 10
4125.953592814934
 20
-445.5928690944526
 30
-0.0000000000004832
 10
4130.40028202631
 20
-445.2745536309462
 30
-0.0000000000004832
 10
4131.087741741835
 20
-445.2269444399855
 30
-0.0000000000004832
 10
4131.775764719403
 20
-445.1836241006687
 30
-0.0000000000004832
 10
4132.464281315354
 20
-445.1455621154928
 30
-0.0000000000004832
  0
SPLINE
  5
10E
330
1F
100
AcDbEntity
  8
图层 03
100
AcDbSpline
210
0.0
220
0.0
230
1.0
 70
     8
 71
     3
 72
     8
 73
     4
 74
     0
 42
0.0000000001
 43
0.0000000001
 40
3854.700918063955
 40
3854.700918063955
 40
3854.700918063955
 40
3854.700918063955
 40
3904.672042754165
 40
3904.672042754165
 40
3904.672042754165
 40
3904.672042754165
 10
4132.464281315354
 20
-445.1455621154928
 30
-0.0000000000004832
 10
4136.129365587341
 20
-445.4587674509221
 30
-0.0000000000004832
 10
4140.048194415524
 20
-445.9637658667594
 30
-0.0000000000004832
 10
4143.668156457867
 20
-446.8099660925193
 30
-0.0000000000004832
  0
SPLINE
  5
10F
330
1F
100
AcDbEntity
  8
图层 03
100
AcDbSpline
210
0.0
220
0.0
230
1.0
 70
     8
 71
     3
 72
     8
 73
     4
 74
     0
 42
0.0000000001
 43
0.0000000001
 40
3904.672042754165
 40
3904.672042754165
 40
3904.672042754165
 40
3904.672042754165
 40
3914.387886566757
 40
3914.387886566757
 40
3914.387886566757
 40
3914.387886566757
 10
4143.668156457867
 20
-446.8099660925193
 30
-0.0000000000004832
 10
4144.380202573871
 20
-447.017599102321
 30
-0.0000000000004832
 10
4145.090804604086
 20
-447.2342146963285
 30
-0.0000000000004832
 10
4145.798508031349
 20
-447.4603527896766
 30
-0.0000000000004832
  0
SPLINE
  5
110
330
1F
100
AcDbEntity
  8
图层 03
100
AcDbSpline
210
0.0
220
0.0
230
1.0
 70
     8
 71
     3
 72
    11
 73
     7
 74
     0
 42
0.0000000001
 43
0.0000000001
 40
3914.387886566757
 40
3914.387886566757
 40
3914.387886566757
 40
3914.387886566757
 40
3944.873545324941
 40
3944.873545324941
 40
3944.873545324941
 40
3952.448587335174
 40
3952.448587335174
 40
3952.448587335174
 40
3952.448587335174
 10
4145.798508031349
 20
-447.4603527896766
 30
-0.0000000000004832
 10
4148.023433259074
 20
-448.0923050310072
 30
-0.0000000000004832
 10
4150.279166729513
 20
-448.7761528850481
 30
-0.0000000000004832
 10
4152.480206234543
 20
-449.5093213474183
 30
-0.0000000000004832
 10
4153.029166643688
 20
-449.6970501872258
 30
-0.0000000000004832
 10
4153.577713869709
 20
-449.886337978468
 30
-0.0000000000004832
 10
4154.12580052294
 20
-450.0772512239232
 30
-0.0000000000004832
  0
SPLINE
  5
111
330
1F
100
AcDbEntity
  8
图层 03
100
AcDbSpline
210
0.0
220
0.0
230
1.0
 70
     8
 71
     3
 72
     8
 73
     4
 74
     0
 42
0.0000000001
 43
0.0000000001
 40
3952.448587335174
 40
3952.448587335174
 40
3952.448587335174
 40
3952.448587335174
 40
3977.766520586059
 40
3977.766520586059
 40
3977.766520586059
 40
3977.766520586059
 10
4154.12580052294
 20
-450.0772512239232
 30
-0.0000000000004832
 10
4155.991279489985
 20
-450.5728703143184
 30
-0.0000000000004832
 10
4157.858331185286
 20
-451.060821466067
 30
-0.0000000000004832
 10
4159.727090707403
 20
-451.5391894293155
 30
-0.0000000000004832
  0
SPLINE
  5
112
330
1F
100
AcDbEntity
  8
图层 03
100
AcDbSpline
210
0.0
220
0.0
230
1.0
 70
     8
 71
     3
 72
     8
 73
     4
 74
     0
 42
0.0000000001
 43
0.0000000001
 40
3977.766520586059
 40
3977.766520586059
 40
3977.766520586059
 40
3977.766520586059
 40
3980.716661313038
 40
3980.716661313038
 40
3980.716661313038
 40
3980.716661313038
 10
4159.727090707403
 20
-451.5391894293155
 30
-0.0000000000004832
 10
4159.945308915389
 20
-451.5924059800391
 30
-0.0000000000004832
 10
4160.163523726487
 20
-451.6456418945147
 30
-0.0000000000004832
 10
4160.381735123087
 20
-451.6988972141978
 30
-0.0000000000004832
  0
SPLINE
  5
113
330
1F
100
AcDbEntity
  8
图层 03
100
AcDbSpline
210
0.0
220
0.0
230
1.0
 70
     8
 71
     3
 72
     8
 73
     4
 74
     0
 42
0.0000000001
 43
0.0000000001
 40
3980.716661313038
 40
3980.716661313038
 40
3980.716661313038
 40
3980.716661313038
 40
4002.712876636263
 40
4002.712876636263
 40
4002.712876636263
 40
4002.712876636263
 10
4160.381735123087
 20
-451.6988972141978
 30
-0.0000000000004832
 10
4162.032568117647
 20
-451.8829161245196
 30
-0.0000000000004832
 10
4163.683478429977
 20
-452.0654225963081
 30
-0.0000000000004832
 10
4165.334465373056
 20
-452.2462534471094
 30
-0.0000000000004832
  0
SPLINE
  5
114
330
1F
100
AcDbEntity
  8
图层 03
100
AcDbSpline
210
0.0
220
0.0
230
1.0
 70
     8
 71
     3
 72
     8
 73
     4
 74
     0
 42
0.0000000001
 43
0.0000000001
 40
4002.712876636263
 40
4002.712876636263
 40
4002.712876636263
 40
4002.712876636263
 40
4003.642492372046
 40
4003.642492372046
 40
4003.642492372046
 40
4003.642492372046
 10
4165.334465373056
 20
-452.2462534471094
 30
-0.0000000000004832
 10
4165.403110586544
 20
-452.2369179399379
 30
-0.0000000000004832
 10
4165.471755198809
 20
-452.2275791118391
 30
-0.0000000000004832
 10
4165.540399203574
 20
-452.2182369332234
 30
-0.0000000000004832
  0
SPLINE
  5
115
330
1F
100
AcDbEntity
  8
图层 03
100
AcDbSpline
210
0.0
220
0.0
230
1.0
 70
     8
 71
     3
 72
     8
 73
     4
 74
     0
 42
0.0000000001
 43
0.0000000001
 40
4003.642492372046
 40
4003.642492372046
 40
4003.642492372046
 40
4003.642492372046
 40
4019.279510418418
 40
4019.279510418418
 40
4019.279510418418
 40
4019.279510418418
 10
4165.540399203574
 20
-452.2182369332234
 30
-0.0000000000004832
 10
4166.697381430913
 20
-452.0743836280474
 30
-0.0000000000004832
 10
4167.855329623079
 20
-451.9359578159556
 30
-0.0000000000004832
 10
4169.014145375938
 20
-451.8032729318086
 30
-0.0000000000004832
  0
SPLINE
  5
116
330
1F
100
AcDbEntity
  8
图层 03
100
AcDbSpline
210
0.0
220
0.0
230
1.0
 70
     8
 71
     3
 72
     8
 73
     4
 74
     0
 42
0.0000000001
 43
0.0000000001
 40
4019.279510418418
 40
4019.279510418418
 40
4019.279510418418
 40
4019.279510418418
 40
4026.468384835007
 40
4026.468384835007
 40
4026.468384835007
 40
4026.468384835007
 10
4169.014145375938
 20
-451.8032729318086
 30
-0.0000000000004832
 10
4169.487679776451
 20
-451.562873136832
 30
-0.0000000000004832
 10
4169.961901427342
 20
-451.3237912822449
 30
-0.0000000000004832
 10
4170.436834570028
 20
-451.086125294936
 30
-0.0000000000004832
  0
SPLINE
  5
117
330
1F
100
AcDbEntity
  8
图层 03
100
AcDbSpline
210
0.0
220
0.0
230
1.0
 70
     8
 71
     3
 72
     8
 73
     4
 74
     0
 42
0.0000000001
 43
0.0000000001
 40
4026.468384835007
 40
4026.468384835007
 40
4026.468384835007
 40
4026.468384835007
 40
4031.646709164801
 40
4031.646709164801
 40
4031.646709164801
 40
4031.646709164801
 10
4170.436834570028
 20
-451.086125294936
 30
-0.0000000000004832
 10
4170.78326025328
 20
-450.9236373823376
 30
-0.0000000000004832
 10
4171.130052520149
 20
-450.7619041079668
 30
-0.0000000000004832
 10
4171.477207890083
 20
-450.600940904955
 30
-0.0000000000004832
  0
SPLINE
  5
118
330
1F
100
AcDbEntity
  8
图层 03
100
AcDbSpline
210
0.0
220
0.0
230
1.0
 70
     8
 71
     3
 72
     8
 73
     4
 74
     0
 42
0.0000000001
 43
0.0000000001
 40
4031.646709164801
 40
4031.646709164801
 40
4031.646709164801
 40
4031.646709164801
 40
4042.437608411508
 40
4042.437608411508
 40
4042.437608411508
 40
4042.437608411508
 10
4171.477207890083
 20
-450.600940904955
 30
-0.0000000000004832
 10
4172.034116609429
 20
-450.0257602434813
 30
-0.0000000000004832
 10
4172.596629448884
 20
-449.4558664892349
 30
-0.0000000000004832
 10
4173.164611468454
 20
-448.8923396327978
 30
-0.0000000000004832
  0
SPLINE
  5
119
330
1F
100
AcDbEntity
  8
图层 03
100
AcDbSpline
210
0.0
220
0.0
230
1.0
 70
     8
 71
     3
 72
     8
 73
     4
 74
     0
 42
0.0000000001
 43
0.0000000001
 40
4042.437608411508
 40
4042.437608411508
 40
4042.437608411508
 40
4042.437608411508
 40
4052.790864103679
 40
4052.790864103679
 40
4052.790864103679
 40
4052.790864103679
 10
4173.164611468454
 20
-448.8923396327978
 30
-0.0000000000004832
 10
4173.58157876941
 20
-448.2395242296617
 30
-0.0000000000004832
 10
4174.005511793195
 20
-447.5906706513227
 30
-0.0000000000004832
 10
4174.436242092255
 20
-446.9478918657717
 30
-0.0000000000004832
  0
SPLINE
  5
11A
330
1F
100
AcDbEntity
  8
图层 03
100
AcDbSpline
210
0.0
220
0.0
230
1.0
 70
     8
 71
     3
 72
    11
 73
     7
 74
     0
 42
0.0000000001
 43
0.0000000001
 40
4052.790864103679
 40
4052.790864103679
 40
4052.790864103679
 40
4052.790864103679
 40
4059.113897601047
 40
4059.113897601047
 40
4059.113897601047
 40
4063.284721909901
 40
4063.284721909901
 40
4063.284721909901
 40
4063.284721909901
 10
4174.436242092255
 20
-446.9478918657719
 30
-0.0000000000004832
 10
4174.680908464237
 20
-446.5421155849855
 30
-0.0000000000004832
 10
4174.929441412896
 20
-446.1387319755011
 30
-0.0000000000004832
 10
4175.181912960294
 20
-445.7383581836439
 30
-0.0000000000004832
 10
4175.346089589882
 20
-445.4725655005669
 30
-0.0000000000004832
 10
4175.512350544044
 20
-445.2081796028581
 30
-0.0000000000004832
 10
4175.680707809493
 20
-444.9453503208057
 30
-0.0000000000004832
  0
SPLINE
  5
11B
330
1F
100
AcDbEntity
  8
图层 03
100
AcDbSpline
210
0.0
220
0.0
230
1.0
 70
     8
 71
     3
 72
     8
 73
     4
 74
     0
 42
0.0000000001
 43
0.0000000001
 40
4063.284721909901
 40
4063.284721909901
 40
4063.284721909901
 40
4063.284721909901
 40
4074.754917669827
 40
4074.754917669827
 40
4074.754917669827
 40
4074.754917669827
 10
4175.680707809493
 20
-444.9453503208057
 30
-0.0000000000004832
 10
4176.111188699342
 20
-444.1999246095738
 30
-0.0000000000004832
 10
4176.57464744665
 20
-443.4780891903771
 30
-0.0000000000004832
 10
4177.07663577411
 20
-442.7842416647088
 30
-0.0000000000004832
  0
SPLINE
  5
11C
330
1F
100
AcDbEntity
  8
图层 03
100
AcDbSpline
210
0.0
220
0.0
230
1.0
 70
     8
 71
     3
 72
     8
 73
     4
 74
     0
 42
0.0000000001
 43
0.0000000001
 40
4074.754917669827
 40
4074.754917669827
 40
4074.754917669827
 40
4074.754917669827
 40
4089.328608203239
 40
4089.328608203239
 40
4089.328608203239
 40
4089.328608203239
 10
4177.07663577411
 20
-442.7842416647088
 30
-0.0000000000004832
 10
4177.650195535623
 20
-441.8468513952233
 30
-0.0000000000004832
 10
4178.312640504066
 20
-441.0068476082479
 30
-0.0000000000004832
 10
4179.114777051894
 20
-440.2712702513459
 30
-0.0000000000004832
  0
SPLINE
  5
11D
330
1F
100
AcDbEntity
  8
图层 03
100
AcDbSpline
210
0.0
220
0.0
230
1.0
 70
     8
 71
     3
 72
     8
 73
     4
 74
     0
 42
0.0000000001
 43
0.0000000001
 40
4089.328608203239
 40
4089.328608203239
 40
4089.328608203239
 40
4089.328608203239
 40
4105.126524927584
 40
4105.126524927584
 40
4105.126524927584
 40
4105.126524927584
 10
4179.114777051894
 20
-440.2712702513459
 30
-0.0000000000004832
 10
4179.914150962234
 20
-439.3489753427349
 30
-0.0000000000004832
 10
4180.840535830738
 20
-438.7817660237265
 30
-0.0000000000004832
 10
4181.961128213403
 20
-438.3427076911742
 30
-0.0000000000004832
  0
SPLINE
  5
11E
330
1F
100
AcDbEntity
  8
图层 03
100
AcDbSpline
210
0.0
220
0.0
230
1.0
 70
    11
 71
     3
 72
    29
 73
    25
 74
     0
 42
0.0000000001
 43
0.0000000001
 40
-15.70796326794897
 40
-15.70796326794897
 40
-15.70796326794897
 40
-15.70796326794897
 40
-14.72621556370216
 40
-13.74446785945534
 40
-12.76272015520853
 40
-12.27184630308513
 40
-11.78097245096172
 40
-11.29009859883832
 40
-10.79922474671491
 40
-9.817477042468102
 40
-8.835729338221292
 40
-8.344855486097888
 40
-7.853981633974483
 40
-7.363107781851078
 40
-6.872233929727672
 40
-5.890486225480862
 40
-4.908738521234051
 40
-4.417864669110646
 40
-3.926990816987241
 40
-3.436116964863836
 40
-2.945243112740431
 40
-1.963495408493621
 40
-0.9817477042468103
 40
0.0
 40
0.0
 40
0.0
 40
0.0
 10
4196.702265976903
 20
-431.2632492886246
 30
-0.0000000000004832
 10
4196.702265976897
 20
-431.616026859564
 30
-0.0000000000004832
 10
4196.574032155422
 20
-432.3809998751432
 30
-0.0000000000004832
 10
4195.886625074219
 20
-433.4476606515173
 30
-0.0000000000004832
 10
4194.998592071099
 20
-434.0210895351661
 30
-0.0000000000004832
 10
4194.244170340781
 20
-434.2315461182574
 30
-0.0000000000004832
 10
4193.702262803191
 20
-434.2791042092786
 30
-0.0000000000004832
 10
4193.160374307872
 20
-434.2315327763775
 30
-0.0000000000004832
 10
4192.405876408464
 20
-434.0211651391505
 30
-0.0000000000004832
 10
4191.518167320291
 20
-433.4473481489342
 30
-0.0000000000004832
 10
4190.94434979738
 20
-432.5596385749686
 30
-0.0000000000004832
 10
4190.733983444408
 20
-431.8051417541924
 30
-0.0000000000004832
 10
4190.686407243151
 20
-431.2632492886248
 30
-0.0000000000004832
 10
4190.733983444408
 20
-430.7213568230575
 30
-0.0000000000004832
 10
4190.94434979738
 20
-429.9668600022802
 30
-0.0000000000004832
 10
4191.518167320291
 20
-429.0791504283152
 30
-0.0000000000004832
 10
4192.405876408464
 20
-428.5053334380993
 30
-0.0000000000004832
 10
4193.160374307872
 20
-428.2949658008713
 30
-0.0000000000004832
 10
4193.702262803191
 20
-428.2473943679715
 30
-0.0000000000004832
 10
4194.244170340781
 20
-428.2949524589916
 30
-0.0000000000004832
 10
4194.998592071099
 20
-428.5054090420838
 30
-0.0000000000004832
 10
4195.886625074219
 20
-429.0788379257324
 30
-0.0000000000004832
 10
4196.574032155422
 20
-430.1454987021066
 30
-0.0000000000004832
 10
4196.702265976898
 20
-430.9104717176856
 30
-0.0000000000004832
 10
4196.702265976903
 20
-431.2632492886246
 30
-0.0000000000004832
  0
SPLINE
  5
11F
330
1F
100
AcDbEntity
  8
图层 03
100
AcDbSpline
210
0.0
220
0.0
230
1.0
 70
    11
 71
     3
 72
    29
 73
    25
 74
     0
 42
0.0000000001
 43
0.0000000001
 40
-15.70796326794897
 40
-15.70796326794897
 40
-15.70796326794897
 40
-15.70796326794897
 40
-14.72621556370216
 40
-13.74446785945534
 40
-12.76272015520853
 40
-12.27184630308513
 40
-11.78097245096172
 40
-11.29009859883832
 40
-10.79922474671491
 40
-9.817477042468102
 40
-8.835729338221292
 40
-8.344855486097888
 40
-7.853981633974483
 40
-7.363107781851078
 40
-6.872233929727672
 40
-5.890486225480862
 40
-4.908738521234051
 40
-4.417864669110646
 40
-3.926990816987241
 40
-3.436116964863836
 40
-2.945243112740431
 40
-1.963495408493621
 40
-0.9817477042468103
 40
0.0
 40
0.0
 40
0.0
 40
0.0
 10
4130.005116047503
 20
-416.9285049705306
 30
-0.0000000000004832
 10
4130.005116047498
 20
-417.2812825414703
 30
-0.0000000000004832
 10
4129.876882226023
 20
-418.0462555570493
 30
-0.0000000000004832
 10
4129.18947514482
 20
-419.1129163334226
 30
-0.0000000000004832
 10
4128.301442141699
 20
-419.6863452170721
 30
-0.0000000000004832
 10
4127.547020411382
 20
-419.8968018001636
 30
-0.0000000000004832
 10
4127.00511287379
 20
-419.9443598911843
 30
-0.0000000000004832
 10
4126.463224378473
 20
-419.8967884582838
 30
-0.0000000000004832
 10
4125.708726479064
 20
-419.6864208210559
 30
-0.0000000000004832
 10
4124.821017390891
 20
-419.1126038308398
 30
-0.0000000000004832
 10
4124.24719986798
 20
-418.2248942568758
 30
-0.0000000000004832
 10
4124.036833515009
 20
-417.4703974360974
 30
-0.0000000000004832
 10
4123.989257313751
 20
-416.9285049705311
 30
-0.0000000000004832
 10
4124.036833515009
 20
-416.3866125049635
 30
-0.0000000000004832
 10
4124.24719986798
 20
-415.6321156841863
 30
-0.0000000000004832
 10
4124.821017390891
 20
-414.7444061102212
 30
-0.0000000000004832
 10
4125.708726479064
 20
-414.1705891200056
 30
-0.0000000000004832
 10
4126.463224378473
 20
-413.9602214827777
 30
-0.0000000000004832
 10
4127.00511287379
 20
-413.9126500498778
 30
-0.0000000000004832
 10
4127.547020411382
 20
-413.9602081408975
 30
-0.0000000000004832
 10
4128.301442141699
 20
-414.1706647239904
 30
-0.0000000000004832
 10
4129.189475144819
 20
-414.744093607638
 30
-0.0000000000004832
 10
4129.876882226023
 20
-415.8107543840133
 30
-0.0000000000004832
 10
4130.005116047499
 20
-416.5757273995912
 30
-0.0000000000004832
 10
4130.005116047503
 20
-416.9285049705306
 30
-0.0000000000004832
  0
POLYLINE
  5
121
330
1F
100
AcDbEntity
  8
图层01
100
AcDb2dPolyline
 66
     1
 10
0.0
 20
0.0
 30
0.0
 70
     1
  0
VERTEX
  5
122
330
121
100
AcDbEntity
  8
图层01
100
AcDbVertex
100
AcDb2dVertex
 10
4010.0
 20
-600.0
 30
0.0
  0
VERTEX
  5
123
330
121
100
AcDbEntity
  8
图层01
100
AcDbVertex
100
AcDb2dVertex
 10
4410.0
 20
-600.0
 30
0.0
  0
VERTEX
  5
124
330
121
100
AcDbEntity
  8
图层01
100
AcDbVertex
100
AcDb2dVertex
 10
4410.0
 20
-200.0
 30
0.0
  0
VERTEX
  5
125
330
121
100
AcDbEntity
  8
图层01
100
AcDbVertex
100
AcDb2dVertex
 10
4010.0
 20
-200.0
 30
0.0
  0
SEQEND
  5
126
330
121
100
AcDbEntity
  8
图层01
  0
ENDSEC
  0
SECTION
  2
OBJECTS
  0
DICTIONARY
  5
C
330
0
100
AcDbDictionary
281
     1
  3
ACAD_DETAILVIEWSTYLE
350
162
  3
ACAD_GROUP
350
D
  3
ACAD_LAYOUT
350
1A
  3
ACAD_MATERIAL
350
43
  3
ACAD_MLEADERSTYLE
350
5B
  3
ACAD_MLINESTYLE
350
17
  3
ACAD_PLOTSETTINGS
350
19
  3
ACAD_PLOTSTYLENAME
350
E
  3
ACAD_SCALELIST
350
47
  3
ACAD_SECTIONVIEWSTYLE
350
163
  3
ACAD_TABLESTYLE
350
59
  3
ACAD_VISUALSTYLE
350
2A
  3
ACDB_RECOMPOSE_DATA
350
15F
  3
AcDbVariableDictionary
350
127
  0
SUN
  5
5D
330
29
100
AcDbSun
 90
        1
290
     0
 63
     7
421
 16777215
 40
1.0
291
     1
 91
  2455826
 92
 54000000
292
     0
 70
     2
 71
   256
280
     1
  0
DICTIONARY
  5
162
102
{ACAD_REACTORS
330
C
102
}
330
C
100
AcDbDictionary
281
     1
  0
DICTIONARY
  5
D
102
{ACAD_REACTORS
330
C
102
}
330
C
100
AcDbDictionary
281
     1
  0
DICTIONARY
  5
1A
102
{ACAD_REACTORS
330
C
102
}
330
C
100
AcDbDictionary
281
     1
  3
Layout1
350
1E
  3
Layout2
350
26
  3
Model
350
22
  0
DICTIONARY
  5
43
102
{ACAD_REACTORS
330
C
102
}
330
C
100
AcDbDictionary
281
     1
  3
ByBlock
350
45
  3
ByLayer
350
44
  3
Global
350
46
  0
DICTIONARY
  5
5B
102
{ACAD_REACTORS
330
C
102
}
330
C
100
AcDbDictionary
281
     1
  3
Standard
350
5C
  0
DICTIONARY
  5
17
102
{ACAD_REACTORS
330
C
102
}
330
C
100
AcDbDictionary
281
     1
  3
Standard
350
18
  0
DICTIONARY
  5
19
102
{ACAD_REACTORS
330
C
102
}
330
C
100
AcDbDictionary
281
     1
  0
ACDBDICTIONARYWDFLT
  5
E
102
{ACAD_REACTORS
330
C
102
}
330
C
100
AcDbDictionary
281
     1
  3
Normal
350
F
100
AcDbDictionaryWithDefault
340
F
  0
DICTIONARY
  5
47
102
{ACAD_REACTORS
330
C
102
}
330
C
100
AcDbDictionary
281
     1
  3
A0
350
48
  3
A1
350
49
  3
A2
350
4A
  3
A3
350
4B
  3
A4
350
4C
  3
A5
350
4D
  3
A6
350
4E
  3
A7
350
4F
  3
A8
350
50
  3
A9
350
51
  3
B1
350
52
  3
B2
350
53
  3
B3
350
54
  3
B4
350
55
  3
B5
350
56
  3
B6
350
57
  3
B7
350
58
  0
DICTIONARY
  5
163
102
{ACAD_REACTORS
330
C
102
}
330
C
100
AcDbDictionary
281
     1
  0
DICTIONARY
  5
59
102
{ACAD_REACTORS
330
C
102
}
330
C
100
AcDbDictionary
281
     1
  3
Standard
350
5A
  0
DICTIONARY
  5
2A
102
{ACAD_REACTORS
330
C
102
}
330
C
100
AcDbDictionary
281
     1
  3
2dWireframe
350
2F
  3
Basic
350
32
  3
Brighten
350
36
  3
ColorChange
350
3A
  3
Conceptual
350
34
  3
Dim
350
35
  3
EdgeColorOff
350
3D
  3
Facepattern
350
39
  3
Flat
350
2B
  3
FlatWithEdges
350
2C
  3
Gouraud
350
2D
  3
GouraudWithEdges
350
2E
  3
Hidden
350
31
  3
JitterOff
350
3B
  3
Linepattern
350
38
  3
OverhangOff
350
3C
  3
Realistic
350
33
  3
Shaded
350
42
  3
Shaded with edges
350
41
  3
Shades of Gray
350
3E
  3
Sketchy
350
3F
  3
Thicken
350
37
  3
Wireframe
350
30
  3
X-Ray
350
40
  0
XRECORD
  5
15F
102
{ACAD_REACTORS
330
C
102
}
330
C
100
AcDbXrecord
280
     1
 90
        1
330
5A
  0
DICTIONARY
  5
127
102
{ACAD_REACTORS
330
C
102
}
330
C
100
AcDbDictionary
281
     1
  3
CANNOSCALE
350
128
  3
CMLEADERSTYLE
350
161
  3
CTABLESTYLE
350
160
  3
XCLIPFRAME
350
129
  0
LAYOUT
  5
1E
102
{ACAD_REACTORS
330
1A
102
}
330
1A
100
AcDbPlotSettings
  1

  2
none_device
  4

  6

 40
0.0
 41
0.0
 42
0.0
 43
0.0
 44
0.0
 45
0.0
 46
0.0
 47
0.0
 48
0.0
 49
0.0
140
0.0
141
0.0
142
1.0
143
1.0
 70
   688
 72
     0
 73
     0
 74
     5
  7

 75
    16
 76
     0
 77
     2
 78
   300
147
1.0
148
0.0
149
0.0
100
AcDbLayout
  1
Layout1
 70
     1
 71
     1
 10
0.0
 20
0.0
 11
12.0
 21
9.0
 12
0.0
 22
0.0
 32
0.0
 14
1.000000000000000E+20
 24
1.000000000000000E+20
 34
1.000000000000000E+20
 15
-1.000000000000000E+20
 25
-1.000000000000000E+20
 35
-1.000000000000000E+20
146
0.0
 13
0.0
 23
0.0
 33
0.0
 16
1.0
 26
0.0
 36
0.0
 17
0.0
 27
1.0
 37
0.0
 76
     0
330
1B
  0
LAYOUT
  5
26
102
{ACAD_REACTORS
330
1A
102
}
330
1A
100
AcDbPlotSettings
  1

  2
none_device
  4

  6

 40
0.0
 41
0.0
 42
0.0
 43
0.0
 44
0.0
 45
0.0
 46
0.0
 47
0.0
 48
0.0
 49
0.0
140
0.0
141
0.0
142
1.0
143
1.0
 70
   688
 72
     0
 73
     0
 74
     5
  7

 75
    16
 76
     0
 77
     2
 78
   300
147
1.0
148
0.0
149
0.0
100
AcDbLayout
  1
Layout2
 70
     1
 71
     2
 10
0.0
 20
0.0
 11
0.0
 21
0.0
 12
0.0
 22
0.0
 32
0.0
 14
0.0
 24
0.0
 34
0.0
 15
0.0
 25
0.0
 35
0.0
146
0.0
 13
0.0
 23
0.0
 33
0.0
 16
1.0
 26
0.0
 36
0.0
 17
0.0
 27
1.0
 37
0.0
 76
     0
330
23
  0
LAYOUT
  5
22
102
{ACAD_REACTORS
330
1A
102
}
330
1A
100
AcDbPlotSettings
  1

  2
none_device
  4
Letter_(8.50_x_11.00_Inches)
  6

 40
6.35
 41
6.35
 42
6.35000508
 43
6.35000508
 44
215.9
 45
279.4
 46
0.0
 47
0.0
 48
0.0
 49
0.0
140
0.0
141
0.0
142
1.0
143
1.0
 70
  1712
 72
     0
 73
     0
 74
     0
  7

 75
     0
 76
     0
 77
     2
 78
   300
147
1.0
148
0.0
149
0.0
100
AcDbLayout
  1
Model
 70
     1
 71
     0
 10
0.0
 20
0.0
 11
12.0
 21
9.0
 12
0.0
 22
0.0
 32
0.0
 14
1.000000000000000E+20
 24
1.000000000000000E+20
 34
1.000000000000000E+20
 15
-1.000000000000000E+20
 25
-1.000000000000000E+20
 35
-1.000000000000000E+20
146
0.0
 13
0.0
 23
0.0
 33
0.0
 16
1.0
 26
0.0
 36
0.0
 17
0.0
 27
1.0
 37
0.0
 76
     0
330
1F
331
29
  0
MATERIAL
  5
45
102
{ACAD_REACTORS
330
43
102
}
330
43
100
AcDbMaterial
  1
ByBlock
 72
     1
 94
      127
  0
MATERIAL
  5
44
102
{ACAD_REACTORS
330
43
102
}
330
43
100
AcDbMaterial
  1
ByLayer
 72
     1
 94
      127
  0
MATERIAL
  5
46
102
{ACAD_REACTORS
330
43
102
}
330
43
100
AcDbMaterial
  1
Global
 72
     1
 94
      127
  0
MLEADERSTYLE
  5
5C
102
{ACAD_REACTORS
330
5B
102
}
102
{ACAD_XDICTIONARY
360
15D
102
}
330
5B
100
AcDbMLeaderStyle
170
     2
171
     1
172
     0
 90
        2
 40
0.0
 41
0.0
173
     1
 91
-1056964608
340
14
 92
       -2
290
     1
 42
0.09
291
     1
 43
0.36
  3
Standard
341
0
 44
0.18
300

342
11
174
     1
178
     6
175
     1
176
     0
 93
-1056964608
 45
0.18
292
     0
297
     0
 46
0.18
343
0
 94
-1056964608
 47
1.0
 49
1.0
140
1.0
293
     1
141
0.0
294
     1
177
     0
142
1.0
295
     0
296
     0
143
0.125
1001
ACAD_MLEADERVER
1070
     2
  0
MLINESTYLE
  5
18
102
{ACAD_REACTORS
330
17
102
}
330
17
100
AcDbMlineStyle
  2
Standard
 70
     0
  3

 62
   256
 51
90.0
 52
90.0
 71
     2
 49
0.5
 62
   256
  6
BYLAYER
 49
-0.5
 62
   256
  6
BYLAYER
  0
ACDBPLACEHOLDER
  5
F
102
{ACAD_REACTORS
330
E
102
}
330
E
  0
SCALE
  5
48
102
{ACAD_REACTORS
330
47
102
}
330
47
100
AcDbScale
 70
     0
300
1:1
140
1.0
141
1.0
290
     1
  0
SCALE
  5
49
102
{ACAD_REACTORS
330
47
102
}
330
47
100
AcDbScale
 70
     0
300
1/128" = 1'-0"
140
0.0078125
141
12.0
290
     0
  0
SCALE
  5
4A
102
{ACAD_REACTORS
330
47
102
}
330
47
100
AcDbScale
 70
     0
300
1/64" = 1'-0"
140
0.015625
141
12.0
290
     0
  0
SCALE
  5
4B
102
{ACAD_REACTORS
330
47
102
}
330
47
100
AcDbScale
 70
     0
300
1/32" = 1'-0"
140
0.03125
141
12.0
290
     0
  0
SCALE
  5
4C
102
{ACAD_REACTORS
330
47
102
}
330
47
100
AcDbScale
 70
     0
300
1/16" = 1'-0"
140
0.0625
141
12.0
290
     0
  0
SCALE
  5
4D
102
{ACAD_REACTORS
330
47
102
}
330
47
100
AcDbScale
 70
     0
300
3/32" = 1'-0"
140
0.09375
141
12.0
290
     0
  0
SCALE
  5
4E
102
{ACAD_REACTORS
330
47
102
}
330
47
100
AcDbScale
 70
     0
300
1/8" = 1'-0"
140
0.125
141
12.0
290
     0
  0
SCALE
  5
4F
102
{ACAD_REACTORS
330
47
102
}
330
47
100
AcDbScale
 70
     0
300
3/16" = 1'-0"
140
0.1875
141
12.0
290
     0
  0
SCALE
  5
50
102
{ACAD_REACTORS
330
47
102
}
330
47
100
AcDbScale
 70
     0
300
1/4" = 1'-0"
140
0.25
141
12.0
290
     0
  0
SCALE
  5
51
102
{ACAD_REACTORS
330
47
102
}
330
47
100
AcDbScale
 70
     0
300
3/8" = 1'-0"
140
0.375
141
12.0
290
     0
  0
SCALE
  5
52
102
{ACAD_REACTORS
330
47
102
}
330
47
100
AcDbScale
 70
     0
300
1/2" = 1'-0"
140
0.5
141
12.0
290
     0
  0
SCALE
  5
53
102
{ACAD_REACTORS
330
47
102
}
330
47
100
AcDbScale
 70
     0
300
3/4" = 1'-0"
140
0.75
141
12.0
290
     0
  0
SCALE
  5
54
102
{ACAD_REACTORS
330
47
102
}
330
47
100
AcDbScale
 70
     0
300
1" = 1'-0"
140
1.0
141
12.0
290
     0
  0
SCALE
  5
55
102
{ACAD_REACTORS
330
47
102
}
330
47
100
AcDbScale
 70
     0
300
1-1/2" = 1'-0"
140
1.5
141
12.0
290
     0
  0
SCALE
  5
56
102
{ACAD_REACTORS
330
47
102
}
330
47
100
AcDbScale
 70
     0
300
3" = 1'-0"
140
3.0
141
12.0
290
     0
  0
SCALE
  5
57
102
{ACAD_REACTORS
330
47
102
}
330
47
100
AcDbScale
 70
     0
300
6" = 1'-0"
140
6.0
141
12.0
290
     0
  0
SCALE
  5
58
102
{ACAD_REACTORS
330
47
102
}
330
47
100
AcDbScale
 70
     0
300
1'-0" = 1'-0"
140
12.0
141
12.0
290
     0
  0
TABLESTYLE
  5
5A
102
{ACAD_REACTORS
330
59
102
}
102
{ACAD_XDICTIONARY
360
15A
102
}
330
59
100
AcDbTableStyle
  3
Standard
 70
     0
 71
     0
 40
0.06
 41
0.06
280
     0
281
     0
  7
Standard
140
0.18
170
     2
 62
     0
 63
   257
283
     0
 90
        4
 91
        0
  1

274
    -2
284
     1
 64
     0
275
    -2
285
     1
 65
     0
276
    -2
286
     1
 66
     0
277
    -2
287
     1
 67
     0
278
    -2
288
     1
 68
     0
279
    -2
289
     1
 69
     0
  7
Standard
140
0.25
170
     5
 62
     0
 63
   257
283
     0
 90
        4
 91
        0
  1

274
    -2
284
     1
 64
     0
275
    -2
285
     1
 65
     0
276
    -2
286
     1
 66
     0
277
    -2
287
     1
 67
     0
278
    -2
288
     1
 68
     0
279
    -2
289
     1
 69
     0
  7
Standard
140
0.18
170
     5
 62
     0
 63
   257
283
     0
 90
        4
 91
        0
  1

274
    -2
284
     1
 64
     0
275
    -2
285
     1
 65
     0
276
    -2
286
     1
 66
     0
277
    -2
287
     1
 67
     0
278
    -2
288
     1
 68
     0
279
    -2
289
     1
 69
     0
  0
VISUALSTYLE
  5
2F
102
{ACAD_REACTORS
330
2A
102
}
102
{ACAD_XDICTIONARY
360
132
102
}
330
2A
100
AcDbVisualStyle
  2
2dWireframe
 70
     4
 71
     0
 72
     2
 73
     0
 90
        0
 40
0.6
 41
30.0
 62
     5
 63
     7
421
 16777215
 74
     1
 91
        4
 64
     7
 65
   257
 75
     1
175
     1
 42
1.0
 92
        0
 66
   257
 43
1.0
 76
     1
 77
     6
 78
     2
 67
     7
 79
     5
170
     0
171
     0
290
     0
174
     0
 93
        1
 44
0.0
173
     0
291
     0
 45
0.0
  0
VISUALSTYLE
  5
32
102
{ACAD_REACTORS
330
2A
102
}
102
{ACAD_XDICTIONARY
360
138
102
}
330
2A
100
AcDbVisualStyle
  2
Basic
 70
     7
 71
     1
 72
     0
 73
     1
 90
        0
 40
0.6
 41
30.0
 62
     5
 63
     7
421
 16777215
 74
     0
 91
        4
 64
     7
 65
   257
 75
     1
175
     1
 42
1.0
 92
        8
 66
     7
 43
1.0
 76
     1
 77
     6
 78
     2
 67
     7
 79
     5
170
     0
171
     0
290
     0
174
     0
 93
        1
 44
0.0
173
     0
291
     1
 45
0.0
  0
VISUALSTYLE
  5
36
102
{ACAD_REACTORS
330
2A
102
}
102
{ACAD_XDICTIONARY
360
140
102
}
330
2A
100
AcDbVisualStyle
  2
Brighten
 70
    12
 71
     2
 72
     2
 73
     0
 90
        0
 40
0.6
 41
30.0
 62
     5
 63
     7
421
 16777215
 74
     1
 91
        4
 64
     7
 65
   257
 75
     1
175
     1
 42
1.0
 92
        8
 66
     7
 43
1.0
 76
     1
 77
     6
 78
     2
 67
     7
 79
     5
170
     0
171
     0
290
     0
174
     0
 93
        1
 44
50.0
173
     0
291
     1
 45
0.0
  0
VISUALSTYLE
  5
3A
102
{ACAD_REACTORS
330
2A
102
}
102
{ACAD_XDICTIONARY
360
148
102
}
330
2A
100
AcDbVisualStyle
  2
ColorChange
 70
    16
 71
     2
 72
     2
 73
     3
 90
        0
 40
0.6
 41
30.0
 62
     5
 63
     8
421
  8421504
 74
     1
 91
        4
 64
     7
 65
   257
 75
     1
175
     1
 42
1.0
 92
        8
 66
     8
424
  8421504
 43
1.0
 76
     1
 77
     6
 78
     2
 67
     7
 79
     5
170
     0
171
     0
290
     0
174
     0
 93
        1
 44
0.0
173
     0
291
     1
 45
0.0
  0
VISUALSTYLE
  5
34
102
{ACAD_REACTORS
330
2A
102
}
102
{ACAD_XDICTIONARY
360
13C
102
}
330
2A
100
AcDbVisualStyle
  2
Conceptual
 70
     9
 71
     3
 72
     2
 73
     0
 90
        0
 40
0.6
 41
30.0
 62
     5
 63
     7
421
 16777215
 74
     2
 91
        2
 64
     7
 65
   257
 75
     1
175
     1
 42
179.0
 92
        8
 66
     7
 43
1.0
 76
     1
 77
     6
 78
     2
 67
     7
 79
     3
170
     0
171
     0
290
     0
174
     0
 93
        1
 44
0.0
173
     0
291
     0
 45
0.0
  0
VISUALSTYLE
  5
35
102
{ACAD_REACTORS
330
2A
102
}
102
{ACAD_XDICTIONARY
360
13E
102
}
330
2A
100
AcDbVisualStyle
  2
Dim
 70
    11
 71
     2
 72
     2
 73
     0
 90
        0
 40
0.6
 41
30.0
 62
     5
 63
     7
421
 16777215
 74
     1
 91
        4
 64
     7
 65
   257
 75
     1
175
     1
 42
1.0
 92
        8
 66
     7
 43
1.0
 76
     1
 77
     6
 78
     2
 67
     7
 79
     5
170
     0
171
     0
290
     0
174
     0
 93
        1
 44
-50.0
173
     0
291
     1
 45
0.0
  0
VISUALSTYLE
  5
3D
102
{ACAD_REACTORS
330
2A
102
}
102
{ACAD_XDICTIONARY
360
14E
102
}
330
2A
100
AcDbVisualStyle
  2
EdgeColorOff
 70
    22
 71
     2
 72
     2
 73
     0
 90
        0
 40
0.6
 41
30.0
 62
     5
 63
     7
421
 16777215
 74
     1
 91
        4
 64
     7
 65
   257
 75
     1
175
     1
 42
1.0
 92
        8
 66
     7
 43
1.0
 76
     1
 77
     6
 78
     2
 67
     7
 79
     5
170
     0
171
     0
290
     0
174
     0
 93
        1
 44
0.0
173
     0
291
     1
 45
0.0
  0
VISUALSTYLE
  5
39
102
{ACAD_REACTORS
330
2A
102
}
102
{ACAD_XDICTIONARY
360
146
102
}
330
2A
100
AcDbVisualStyle
  2
Facepattern
 70
    15
 71
     2
 72
     2
 73
     0
 90
        0
 40
0.6
 41
30.0
 62
     5
 63
     7
421
 16777215
 74
     1
 91
        4
 64
     7
 65
   257
 75
     1
175
     1
 42
1.0
 92
        8
 66
     7
 43
1.0
 76
     1
 77
     6
 78
     2
 67
     7
 79
     5
170
     0
171
     0
290
     0
174
     0
 93
        1
 44
0.0
173
     0
291
     1
 45
0.0
  0
VISUALSTYLE
  5
2B
102
{ACAD_REACTORS
330
2A
102
}
102
{ACAD_XDICTIONARY
360
12A
102
}
330
2A
100
AcDbVisualStyle
  2
Flat
 70
     0
 71
     2
 72
     1
 73
     1
 90
        2
 40
0.6
 41
30.0
 62
     5
 63
     7
421
 16777215
 74
     0
 91
        0
 64
     7
 65
   257
 75
     1
175
     1
 42
1.0
 92
        8
 66
     7
 43
1.0
 76
     1
 77
     6
 78
     2
 67
     7
 79
     5
170
     0
171
     0
290
     0
174
     0
 93
       13
 44
0.0
173
     0
291
     1
 45
0.0
  0
VISUALSTYLE
  5
2C
102
{ACAD_REACTORS
330
2A
102
}
102
{ACAD_XDICTIONARY
360
12C
102
}
330
2A
100
AcDbVisualStyle
  2
FlatWithEdges
 70
     1
 71
     2
 72
     1
 73
     1
 90
        2
 40
0.6
 41
30.0
 62
     5
 63
     7
421
 16777215
 74
     1
 91
        0
 64
     7
 65
   257
 75
     1
175
     1
 42
1.0
 92
        0
 66
   257
 43
1.0
 76
     1
 77
     6
 78
     2
 67
     7
 79
     5
170
     0
171
     0
290
     0
174
     0
 93
       13
 44
0.0
173
     0
291
     1
 45
0.0
  0
VISUALSTYLE
  5
2D
102
{ACAD_REACTORS
330
2A
102
}
102
{ACAD_XDICTIONARY
360
12E
102
}
330
2A
100
AcDbVisualStyle
  2
Gouraud
 70
     2
 71
     2
 72
     2
 73
     1
 90
        2
 40
0.6
 41
30.0
 62
     5
 63
     7
421
 16777215
 74
     0
 91
        0
 64
     7
 65
   257
 75
     1
175
     1
 42
1.0
 92
        0
 66
     7
 43
1.0
 76
     1
 77
     6
 78
     2
 67
     7
 79
     5
170
     0
171
     0
290
     0
174
     0
 93
       13
 44
0.0
173
     0
291
     1
 45
0.0
  0
VISUALSTYLE
  5
2E
102
{ACAD_REACTORS
330
2A
102
}
102
{ACAD_XDICTIONARY
360
130
102
}
330
2A
100
AcDbVisualStyle
  2
GouraudWithEdges
 70
     3
 71
     2
 72
     2
 73
     1
 90
        2
 40
0.6
 41
30.0
 62
     5
 63
     7
421
 16777215
 74
     1
 91
        0
 64
     7
 65
   257
 75
     1
175
     1
 42
1.0
 92
        0
 66
   257
 43
1.0
 76
     1
 77
     6
 78
     2
 67
     7
 79
     5
170
     0
171
     0
290
     0
174
     0
 93
       13
 44
0.0
173
     0
291
     1
 45
0.0
  0
VISUALSTYLE
  5
31
102
{ACAD_REACTORS
330
2A
102
}
102
{ACAD_XDICTIONARY
360
136
102
}
330
2A
100
AcDbVisualStyle
  2
Hidden
 70
     6
 71
     1
 72
     2
 73
     2
 90
        0
 40
0.6
 41
30.0
 62
     5
 63
     7
421
 16777215
 74
     2
 91
        2
 64
     7
 65
   257
 75
     2
175
     1
 42
40.0
 92
        0
 66
   257
 43
1.0
 76
     1
 77
     6
 78
     2
 67
     7
 79
     3
170
     0
171
     0
290
     0
174
     0
 93
        1
 44
0.0
173
     0
291
     0
 45
0.0
  0
VISUALSTYLE
  5
3B
102
{ACAD_REACTORS
330
2A
102
}
102
{ACAD_XDICTIONARY
360
14A
102
}
330
2A
100
AcDbVisualStyle
  2
JitterOff
 70
    20
 71
     2
 72
     2
 73
     0
 90
        0
 40
0.6
 41
30.0
 62
     5
 63
     7
421
 16777215
 74
     1
 91
        4
 64
     7
 65
   257
 75
     1
175
     1
 42
1.0
 92
       10
 66
     7
 43
1.0
 76
     1
 77
     6
 78
     2
 67
     7
 79
     5
170
     0
171
     0
290
     0
174
     0
 93
        1
 44
0.0
173
     0
291
     1
 45
0.0
  0
VISUALSTYLE
  5
38
102
{ACAD_REACTORS
330
2A
102
}
102
{ACAD_XDICTIONARY
360
144
102
}
330
2A
100
AcDbVisualStyle
  2
Linepattern
 70
    14
 71
     2
 72
     2
 73
     0
 90
        0
 40
0.6
 41
30.0
 62
     5
 63
     7
421
 16777215
 74
     1
 91
        4
 64
     7
 65
   257
 75
     7
175
     7
 42
1.0
 92
        8
 66
     7
 43
1.0
 76
     1
 77
     6
 78
     2
 67
     7
 79
     5
170
     0
171
     0
290
     0
174
     0
 93
        1
 44
0.0
173
     0
291
     1
 45
0.0
  0
VISUALSTYLE
  5
3C
102
{ACAD_REACTORS
330
2A
102
}
102
{ACAD_XDICTIONARY
360
14C
102
}
330
2A
100
AcDbVisualStyle
  2
OverhangOff
 70
    21
 71
     2
 72
     2
 73
     0
 90
        0
 40
0.6
 41
30.0
 62
     5
 63
     7
421
 16777215
 74
     1
 91
        4
 64
     7
 65
   257
 75
     1
175
     1
 42
1.0
 92
        9
 66
     7
 43
1.0
 76
     1
 77
     6
 78
     2
 67
     7
 79
     5
170
     0
171
     0
290
     0
174
     0
 93
        1
 44
0.0
173
     0
291
     1
 45
0.0
  0
VISUALSTYLE
  5
33
102
{ACAD_REACTORS
330
2A
102
}
102
{ACAD_XDICTIONARY
360
13A
102
}
330
2A
100
AcDbVisualStyle
  2
Realistic
 70
     8
 71
     2
 72
     3
 73
     0
 90
        2
 40
0.6
 41
30.0
 62
     5
 63
     7
421
 16777215
 74
     0
 91
        0
 64
     7
 65
   257
 75
     1
175
     1
 42
1.0
 92
        8
 66
   257
 43
1.0
 76
     1
 77
     6
 78
     2
 67
     7
 79
     3
170
     0
171
     0
290
     0
174
     0
 93
       13
 44
0.0
173
     0
291
     0
 45
0.0
  0
VISUALSTYLE
  5
42
102
{ACAD_REACTORS
330
2A
102
}
102
{ACAD_XDICTIONARY
360
158
102
}
330
2A
100
AcDbVisualStyle
  2
Shaded
 70
    27
 71
     2
 72
     2
 73
     1
 90
        2
 40
0.6
 41
30.0
 62
     5
 63
     7
421
 16777215
 74
     0
 91
        4
 64
     7
 65
   257
 75
     1
175
     1
 42
1.0
 92
        8
 66
   257
 43
1.0
 76
     1
 77
     6
 78
     2
 67
     8
425
  7895160
 79
     3
170
     0
171
     0
290
     0
174
     0
 93
        5
 44
0.0
173
     0
291
     0
 45
0.0
  0
VISUALSTYLE
  5
41
102
{ACAD_REACTORS
330
2A
102
}
102
{ACAD_XDICTIONARY
360
156
102
}
330
2A
100
AcDbVisualStyle
  2
Shaded with edges
 70
    26
 71
     2
 72
     2
 73
     1
 90
        2
 40
0.6
 41
30.0
 62
     5
 63
     7
421
 16777215
 74
     1
 91
       10
 64
     7
 65
   257
 75
     2
175
     1
 42
1.0
 92
        8
 66
   257
 43
1.0
 76
     1
 77
     6
 78
     2
 67
     7
 79
     3
170
     0
171
     0
290
     0
174
     0
 93
        5
 44
0.0
173
     0
291
     0
 45
0.0
  0
VISUALSTYLE
  5
3E
102
{ACAD_REACTORS
330
2A
102
}
102
{ACAD_XDICTIONARY
360
150
102
}
330
2A
100
AcDbVisualStyle
  2
Shades of Gray
 70
    23
 71
     2
 72
     2
 73
     3
 90
        0
 40
0.6
 41
30.0
 62
     5
 63
     7
421
 16777215
 74
     2
 91
        2
 64
     7
 65
     7
 75
     1
175
     1
 42
40.0
 92
        8
 66
     7
 43
1.0
 76
     1
 77
     6
 78
     2
 67
     7
 79
     3
170
     0
171
     0
290
     0
174
     0
 93
        1
 44
0.0
173
     0
291
     0
 45
0.0
  0
VISUALSTYLE
  5
3F
102
{ACAD_REACTORS
330
2A
102
}
102
{ACAD_XDICTIONARY
360
152
102
}
330
2A
100
AcDbVisualStyle
  2
Sketchy
 70
    24
 71
     1
 72
     2
 73
     2
 90
        0
 40
0.6
 41
30.0
 62
     5
 63
     7
421
 16777215
 74
     2
 91
        2
 64
     7
 65
     7
 75
     1
175
     1
 42
40.0
 92
       11
 66
     7
 43
1.0
 76
     1
 77
     6
 78
     2
 67
     7
 79
     6
170
     0
171
     0
290
     0
174
     0
 93
        1
 44
0.0
173
     0
291
     0
 45
0.0
  0
VISUALSTYLE
  5
37
102
{ACAD_REACTORS
330
2A
102
}
102
{ACAD_XDICTIONARY
360
142
102
}
330
2A
100
AcDbVisualStyle
  2
Thicken
 70
    13
 71
     2
 72
     2
 73
     0
 90
        0
 40
0.6
 41
30.0
 62
     5
 63
     7
421
 16777215
 74
     1
 91
        4
 64
     7
 65
   257
 75
     1
175
     1
 42
1.0
 92
       12
 66
     7
 43
1.0
 76
     1
 77
     6
 78
     2
 67
     7
 79
     5
170
     0
171
     0
290
     0
174
     0
 93
        1
 44
0.0
173
     0
291
     1
 45
0.0
  0
VISUALSTYLE
  5
30
102
{ACAD_REACTORS
330
2A
102
}
102
{ACAD_XDICTIONARY
360
134
102
}
330
2A
100
AcDbVisualStyle
  2
Wireframe
 70
     5
 71
     0
 72
     2
 73
     0
 90
        0
 40
0.6
 41
30.0
 62
     5
 63
     7
421
 16777215
 74
     1
 91
        4
 64
     7
 65
   257
 75
     1
175
     1
 42
1.0
 92
        0
 66
   257
 43
1.0
 76
     1
 77
     6
 78
     2
 67
     7
 79
     3
170
     0
171
     0
290
     0
174
     0
 93
        1
 44
0.0
173
     0
291
     0
 45
0.0
  0
VISUALSTYLE
  5
40
102
{ACAD_REACTORS
330
2A
102
}
102
{ACAD_XDICTIONARY
360
154
102
}
330
2A
100
AcDbVisualStyle
  2
X-Ray
 70
    25
 71
     2
 72
     2
 73
     1
 90
        1
 40
0.5
 41
30.0
 62
     5
 63
     7
421
 16777215
 74
     1
 91
        0
 64
     7
 65
   257
 75
     1
175
     1
 42
1.0
 92
        8
 66
     7
 43
1.0
 76
     1
 77
     6
 78
     2
 67
     7
 79
     3
170
     0
171
     0
290
     0
174
     0
 93
       13
 44
0.0
173
     0
291
     0
 45
0.0
  0
DICTIONARYVAR
  5
128
102
{ACAD_REACTORS
330
127
102
}
330
127
100
DictionaryVariables
280
     0
  1
1:1
  0
DICTIONARYVAR
  5
161
102
{ACAD_REACTORS
330
127
102
}
330
127
100
DictionaryVariables
280
     0
  1
Standard
  0
DICTIONARYVAR
  5
160
102
{ACAD_REACTORS
330
127
102
}
330
127
100
DictionaryVariables
280
     0
  1
Standard
  0
DICTIONARYVAR
  5
129
102
{ACAD_REACTORS
330
127
102
}
330
127
100
DictionaryVariables
280
     0
  1
2
  0
DICTIONARY
  5
15D
330
5C
100
AcDbDictionary
280
     1
281
     1
  3
ACAD_XREC_ROUNDTRIP
360
15E
  0
DICTIONARY
  5
15A
330
5A
100
AcDbDictionary
280
     1
281
     1
  3
ACAD_ROUNDTRIP_2008_TABLESTYLE_CELLSTYLEMAP
360
15B
  0
DICTIONARY
  5
132
330
2F
100
AcDbDictionary
280
     1
281
     1
  3
ACAD_XREC_ROUNDTRIP
360
133
  0
DICTIONARY
  5
138
330
32
100
AcDbDictionary
280
     1
281
     1
  3
ACAD_XREC_ROUNDTRIP
360
139
  0
DICTIONARY
  5
140
330
36
100
AcDbDictionary
280
     1
281
     1
  3
ACAD_XREC_ROUNDTRIP
360
141
  0
DICTIONARY
  5
148
330
3A
100
AcDbDictionary
280
     1
281
     1
  3
ACAD_XREC_ROUNDTRIP
360
149
  0
DICTIONARY
  5
13C
330
34
100
AcDbDictionary
280
     1
281
     1
  3
ACAD_XREC_ROUNDTRIP
360
13D
  0
DICTIONARY
  5
13E
330
35
100
AcDbDictionary
280
     1
281
     1
  3
ACAD_XREC_ROUNDTRIP
360
13F
  0
DICTIONARY
  5
14E
330
3D
100
AcDbDictionary
280
     1
281
     1
  3
ACAD_XREC_ROUNDTRIP
360
14F
  0
DICTIONARY
  5
146
330
39
100
AcDbDictionary
280
     1
281
     1
  3
ACAD_XREC_ROUNDTRIP
360
147
  0
DICTIONARY
  5
12A
330
2B
100
AcDbDictionary
280
     1
281
     1
  3
ACAD_XREC_ROUNDTRIP
360
12B
  0
DICTIONARY
  5
12C
330
2C
100
AcDbDictionary
280
     1
281
     1
  3
ACAD_XREC_ROUNDTRIP
360
12D
  0
DICTIONARY
  5
12E
330
2D
100
AcDbDictionary
280
     1
281
     1
  3
ACAD_XREC_ROUNDTRIP
360
12F
  0
DICTIONARY
  5
130
330
2E
100
AcDbDictionary
280
     1
281
     1
  3
ACAD_XREC_ROUNDTRIP
360
131
  0
DICTIONARY
  5
136
330
31
100
AcDbDictionary
280
     1
281
     1
  3
ACAD_XREC_ROUNDTRIP
360
137
  0
DICTIONARY
  5
14A
330
3B
100
AcDbDictionary
280
     1
281
     1
  3
ACAD_XREC_ROUNDTRIP
360
14B
  0
DICTIONARY
  5
144
330
38
100
AcDbDictionary
280
     1
281
     1
  3
ACAD_XREC_ROUNDTRIP
360
145
  0
DICTIONARY
  5
14C
330
3C
100
AcDbDictionary
280
     1
281
     1
  3
ACAD_XREC_ROUNDTRIP
360
14D
  0
DICTIONARY
  5
13A
330
33
100
AcDbDictionary
280
     1
281
     1
  3
ACAD_XREC_ROUNDTRIP
360
13B
  0
DICTIONARY
  5
158
330
42
100
AcDbDictionary
280
     1
281
     1
  3
ACAD_XREC_ROUNDTRIP
360
159
  0
DICTIONARY
  5
156
330
41
100
AcDbDictionary
280
     1
281
     1
  3
ACAD_XREC_ROUNDTRIP
360
157
  0
DICTIONARY
  5
150
330
3E
100
AcDbDictionary
280
     1
281
     1
  3
ACAD_XREC_ROUNDTRIP
360
151
  0
DICTIONARY
  5
152
330
3F
100
AcDbDictionary
280
     1
281
     1
  3
ACAD_XREC_ROUNDTRIP
360
153
  0
DICTIONARY
  5
142
330
37
100
AcDbDictionary
280
     1
281
     1
  3
ACAD_XREC_ROUNDTRIP
360
143
  0
DICTIONARY
  5
134
330
30
100
AcDbDictionary
280
     1
281
     1
  3
ACAD_XREC_ROUNDTRIP
360
135
  0
DICTIONARY
  5
154
330
40
100
AcDbDictionary
280
     1
281
     1
  3
ACAD_XREC_ROUNDTRIP
360
155
  0
XRECORD
  5
15E
102
{ACAD_REACTORS
330
15D
102
}
330
15D
100
AcDbXrecord
280
     1
102
ACAD_ROUNDTRIP_2010_MLEADER_STYLE
  0
CELLSTYLEMAP
  5
15B
102
{ACAD_REACTORS
330
15A
102
}
330
15A
100
AcDbCellStyleMap
 90
        3
300
CELLSTYLE
  1
TABLEFORMAT_BEGIN
 90
        5
170
     1
 91
        0
 92
    32768
 62
   257
 93
        1
300
CONTENTFORMAT
  1
CONTENTFORMAT_BEGIN
 90
        0
 91
        0
 92
        4
 93
        0
300

 40
0.0
140
1.0
 94
        5
 62
     0
340
11
144
0.25
309
CONTENTFORMAT_END
171
     1
301
MARGIN
  1
CELLMARGIN_BEGIN
 40
0.06
 40
0.06
 40
0.06
 40
0.06
 40
0.06
 40
0.06
309
CELLMARGIN_END
 94
        6
 95
        1
302
GRIDFORMAT
  1
GRIDFORMAT_BEGIN
 90
        0
 91
        1
 62
     0
 92
       -2
340
14
 93
        0
 40
0.045
309
GRIDFORMAT_END
 95
        2
302
GRIDFORMAT
  1
GRIDFORMAT_BEGIN
 90
        0
 91
        1
 62
     0
 92
       -2
340
14
 93
        0
 40
0.045
309
GRIDFORMAT_END
 95
        4
302
GRIDFORMAT
  1
GRIDFORMAT_BEGIN
 90
        0
 91
        1
 62
     0
 92
       -2
340
14
 93
        0
 40
0.045
309
GRIDFORMAT_END
 95
        8
302
GRIDFORMAT
  1
GRIDFORMAT_BEGIN
 90
        0
 91
        1
 62
     0
 92
       -2
340
14
 93
        0
 40
0.045
309
GRIDFORMAT_END
 95
       16
302
GRIDFORMAT
  1
GRIDFORMAT_BEGIN
 90
        0
 91
        1
 62
     0
 92
       -2
340
14
 93
        0
 40
0.045
309
GRIDFORMAT_END
 95
       32
302
GRIDFORMAT
  1
GRIDFORMAT_BEGIN
 90
        0
 91
        1
 62
     0
 92
       -2
340
14
 93
        0
 40
0.045
309
GRIDFORMAT_END
309
TABLEFORMAT_END
  1
CELLSTYLE_BEGIN
 90
        1
 91
        1
300
_TITLE
309
CELLSTYLE_END
300
CELLSTYLE
  1
TABLEFORMAT_BEGIN
 90
        5
170
     1
 91
        0
 92
        0
 62
   257
 93
        1
300
CONTENTFORMAT
  1
CONTENTFORMAT_BEGIN
 90
        0
 91
        0
 92
        4
 93
        0
300

 40
0.0
140
1.0
 94
        5
 62
     0
340
11
144
0.18
309
CONTENTFORMAT_END
171
     1
301
MARGIN
  1
CELLMARGIN_BEGIN
 40
0.06
 40
0.06
 40
0.06
 40
0.06
 40
0.06
 40
0.06
309
CELLMARGIN_END
 94
        6
 95
        1
302
GRIDFORMAT
  1
GRIDFORMAT_BEGIN
 90
        0
 91
        1
 62
     0
 92
       -2
340
14
 93
        0
 40
0.045
309
GRIDFORMAT_END
 95
        2
302
GRIDFORMAT
  1
GRIDFORMAT_BEGIN
 90
        0
 91
        1
 62
     0
 92
       -2
340
14
 93
        0
 40
0.045
309
GRIDFORMAT_END
 95
        4
302
GRIDFORMAT
  1
GRIDFORMAT_BEGIN
 90
        0
 91
        1
 62
     0
 92
       -2
340
14
 93
        0
 40
0.045
309
GRIDFORMAT_END
 95
        8
302
GRIDFORMAT
  1
GRIDFORMAT_BEGIN
 90
        0
 91
        1
 62
     0
 92
       -2
340
14
 93
        0
 40
0.045
309
GRIDFORMAT_END
 95
       16
302
GRIDFORMAT
  1
GRIDFORMAT_BEGIN
 90
        0
 91
        1
 62
     0
 92
       -2
340
14
 93
        0
 40
0.045
309
GRIDFORMAT_END
 95
       32
302
GRIDFORMAT
  1
GRIDFORMAT_BEGIN
 90
        0
 91
        1
 62
     0
 92
       -2
340
14
 93
        0
 40
0.045
309
GRIDFORMAT_END
309
TABLEFORMAT_END
  1
CELLSTYLE_BEGIN
 90
        2
 91
        1
300
_HEADER
309
CELLSTYLE_END
300
CELLSTYLE
  1
TABLEFORMAT_BEGIN
 90
        5
170
     1
 91
        0
 92
        0
 62
   257
 93
        1
300
CONTENTFORMAT
  1
CONTENTFORMAT_BEGIN
 90
        0
 91
        0
 92
        4
 93
        0
300

 40
0.0
140
1.0
 94
        2
 62
     0
340
11
144
0.18
309
CONTENTFORMAT_END
171
     1
301
MARGIN
  1
CELLMARGIN_BEGIN
 40
0.06
 40
0.06
 40
0.06
 40
0.06
 40
0.06
 40
0.06
309
CELLMARGIN_END
 94
        6
 95
        1
302
GRIDFORMAT
  1
GRIDFORMAT_BEGIN
 90
        0
 91
        1
 62
     0
 92
       -2
340
14
 93
        0
 40
0.045
309
GRIDFORMAT_END
 95
        2
302
GRIDFORMAT
  1
GRIDFORMAT_BEGIN
 90
        0
 91
        1
 62
     0
 92
       -2
340
14
 93
        0
 40
0.045
309
GRIDFORMAT_END
 95
        4
302
GRIDFORMAT
  1
GRIDFORMAT_BEGIN
 90
        0
 91
        1
 62
     0
 92
       -2
340
14
 93
        0
 40
0.045
309
GRIDFORMAT_END
 95
        8
302
GRIDFORMAT
  1
GRIDFORMAT_BEGIN
 90
        0
 91
        1
 62
     0
 92
       -2
340
14
 93
        0
 40
0.045
309
GRIDFORMAT_END
 95
       16
302
GRIDFORMAT
  1
GRIDFORMAT_BEGIN
 90
        0
 91
        1
 62
     0
 92
       -2
340
14
 93
        0
 40
0.045
309
GRIDFORMAT_END
 95
       32
302
GRIDFORMAT
  1
GRIDFORMAT_BEGIN
 90
        0
 91
        1
 62
     0
 92
       -2
340
14
 93
        0
 40
0.045
309
GRIDFORMAT_END
309
TABLEFORMAT_END
  1
CELLSTYLE_BEGIN
 90
        3
 91
        2
300
_DATA
309
CELLSTYLE_END
  0
XRECORD
  5
133
102
{ACAD_REACTORS
330
132
102
}
330
132
100
AcDbXrecord
280
     1
102
RTVSPropertyOp0
 70
     1
102
RTVSPropertyOp1
 70
     1
102
RTVSPropertyOp2
 70
     1
102
RTVSPropertyOp3
 70
     1
102
RTVSPropertyOp4
 70
     1
102
RTVSPropertyOp5
 70
     1
102
RTVSPropertyOp6
 70
     1
102
RTVSPropertyOp7
 70
     1
102
RTVSPropertyOp8
 70
     1
102
RTVSPropertyOp9
 70
     1
102
RTVSPropertyOp10
 70
     1
102
RTVSPropertyOp11
 70
     1
102
RTVSPropertyOp12
 70
     1
102
RTVSPropertyOp13
 70
     1
102
RTVSPropertyOp14
 70
     1
102
RTVSPropertyOp15
 70
     1
102
RTVSPropertyOp16
 70
     1
102
RTVSPropertyOp17
 70
     1
102
RTVSPropertyOp18
 70
     1
102
RTVSPropertyOp19
 70
     1
102
RTVSPropertyOp20
 70
     1
102
RTVSPropertyOp21
 70
     1
102
RTVSPropertyOp22
 70
     1
102
RTVSPropertyOp23
 70
     1
102
RTVSPropertyOp24
 70
     1
102
RTVSPropertyOp25
 70
     1
102
RTVSPropertyOp26
 70
     1
102
RTVSPropertyOp27
 70
     1
102
RTVSPropertyOp28
 70
     1
102
RTVSPropertyOp29
 70
     1
102
RTVSPropertyOp30
 70
     1
102
RTVSPropertyOp31
 70
     1
102
RTVSPropertyOp32
 70
     1
102
RTVSPropertyOp33
 70
     1
102
RTVSPropertyOp34
 70
     1
102
RTVSPropertyOp35
 70
     1
102
RTVSPropertyOp36
 70
     1
102
RTVSPropertyOp37
 70
     1
102
RTVSPropertyOp38
 70
     1
102
RTVSPropertyOp39
 70
     1
102
RTVSPropertyOp40
 70
     1
102
RTVSPropertyOp41
 70
     1
102
RTVSPropertyOp42
 70
     1
102
RTVSPropertyOp43
 70
     1
102
RTVSPropertyOp44
 70
     1
102
RTVSPropertyOp45
 70
     1
102
RTVSPropertyOp46
 70
     1
102
RTVSPropertyOp47
 70
     1
102
RTVSPropertyOp48
 70
     1
102
RTVSPropertyOp49
 70
     1
102
RTVSPropertyOp50
 70
     1
102
RTVSPropertyOp51
 70
     0
102
RTVSPropertyOp52
 70
     0
102
RTVSPropertyOp53
 70
     1
102
RTVSPropertyOp54
 70
     1
102
RTVSPropertyOp55
 70
     1
102
RTVSPropertyOp56
 70
     1
102
RTVSPropertyOp57
 70
     1
102
RTVSPost2010Prop28
280
     1
102
RTVSPost2010PropOp28
 70
     1
102
RTVSPost2010Prop29
280
     1
102
RTVSPost2010PropOp29
 70
     1
102
RTVSPost2010Prop30
280
     0
102
RTVSPost2010PropOp30
 70
     1
102
RTVSPost2010Prop31
280
     0
102
RTVSPost2010PropOp31
 70
     1
102
RTVSPost2010Prop32
280
     0
102
RTVSPost2010PropOp32
 70
     1
102
RTVSPost2010Prop33
280
     0
102
RTVSPost2010PropOp33
 70
     1
102
RTVSPost2010Prop34
280
     0
102
RTVSPost2010PropOp34
 70
     1
102
RTVSPost2010Prop35
280
     0
102
RTVSPost2010PropOp35
 70
     1
102
RTVSPost2010Prop36
280
     0
102
RTVSPost2010PropOp36
 70
     1
102
RTVSPost2010Prop37
 90
       50
102
RTVSPost2010PropOp37
 70
     1
102
RTVSPost2010Prop38
140
0.0
102
RTVSPost2010PropOp38
 70
     1
102
RTVSPost2010Prop39
140
1.0
102
RTVSPost2010PropOp39
 70
     1
102
RTVSPost2010Prop40
 90
        0
102
RTVSPost2010PropOp40
 70
     1
102
RTVSPost2010Prop41ColorIndex
 90
       18
102
RTVSPost2010Prop41ColorRGB
 90
        0
102
RTVSPost2010PropOp41
 70
     1
102
RTVSPost2010Prop42
 90
       50
102
RTVSPost2010PropOp42
 70
     1
102
RTVSPost2010Prop43
 90
        3
102
RTVSPost2010PropOp43
 70
     1
102
RTVSPost2010Prop44ColorIndex
 90
        5
102
RTVSPost2010Prop44ColorRGB
 90
      255
102
RTVSPost2010PropOp44
 70
     1
102
RTVSPost2010Prop45
280
     0
102
RTVSPost2010PropOp45
 70
     1
102
RTVSPost2010Prop46
 90
       50
102
RTVSPost2010PropOp46
 70
     1
102
RTVSPost2010Prop47
 90
       50
102
RTVSPost2010PropOp47
 70
     1
102
RTVSPost2010Prop48
 90
       50
102
RTVSPost2010PropOp48
 70
     1
102
RTVSPost2010Prop49
280
     0
102
RTVSPost2010PropOp49
 70
     1
102
RTVSPost2010Prop50
 90
       50
102
RTVSPost2010PropOp50
 70
     1
102
RTVSPost2010Prop51ColorIndex
 90
      256
102
RTVSPost2010Prop51ColorRGB
 90
-16777216
102
RTVSPost2010PropOp51
 70
     0
102
RTVSPost2010Prop52
140
1.0
102
RTVSPost2010PropOp52
 70
     0
102
RTVSPost2010Prop53
 90
        2
102
RTVSPost2010PropOp53
 70
     1
102
RTVSPost2010Prop54
  1
strokes_ogs.tif
102
RTVSPost2010PropOp54
 70
     1
102
RTVSPost2010Prop55
280
     0
102
RTVSPost2010PropOp55
 70
     1
102
RTVSPost2010Prop56
140
1.0
102
RTVSPost2010PropOp56
 70
     1
102
RTVSPost2010Prop57
140
1.0
102
RTVSPost2010PropOp57
 70
     1
  0
XRECORD
  5
139
102
{ACAD_REACTORS
330
138
102
}
330
138
100
AcDbXrecord
280
     1
102
RTVSPropertyOp0
 70
     1
102
RTVSPropertyOp1
 70
     1
102
RTVSPropertyOp2
 70
     1
102
RTVSPropertyOp3
 70
     1
102
RTVSPropertyOp4
 70
     1
102
RTVSPropertyOp5
 70
     1
102
RTVSPropertyOp6
 70
     1
102
RTVSPropertyOp7
 70
     1
102
RTVSPropertyOp8
 70
     1
102
RTVSPropertyOp9
 70
     1
102
RTVSPropertyOp10
 70
     1
102
RTVSPropertyOp11
 70
     1
102
RTVSPropertyOp12
 70
     1
102
RTVSPropertyOp13
 70
     1
102
RTVSPropertyOp14
 70
     1
102
RTVSPropertyOp15
 70
     1
102
RTVSPropertyOp16
 70
     1
102
RTVSPropertyOp17
 70
     1
102
RTVSPropertyOp18
 70
     1
102
RTVSPropertyOp19
 70
     1
102
RTVSPropertyOp20
 70
     1
102
RTVSPropertyOp21
 70
     1
102
RTVSPropertyOp22
 70
     1
102
RTVSPropertyOp23
 70
     1
102
RTVSPropertyOp24
 70
     1
102
RTVSPropertyOp25
 70
     1
102
RTVSPropertyOp26
 70
     1
102
RTVSPropertyOp27
 70
     1
102
RTVSPropertyOp28
 70
     1
102
RTVSPropertyOp29
 70
     1
102
RTVSPropertyOp30
 70
     1
102
RTVSPropertyOp31
 70
     1
102
RTVSPropertyOp32
 70
     1
102
RTVSPropertyOp33
 70
     1
102
RTVSPropertyOp34
 70
     1
102
RTVSPropertyOp35
 70
     1
102
RTVSPropertyOp36
 70
     1
102
RTVSPropertyOp37
 70
     1
102
RTVSPropertyOp38
 70
     1
102
RTVSPropertyOp39
 70
     1
102
RTVSPropertyOp40
 70
     1
102
RTVSPropertyOp41
 70
     1
102
RTVSPropertyOp42
 70
     1
102
RTVSPropertyOp43
 70
     1
102
RTVSPropertyOp44
 70
     1
102
RTVSPropertyOp45
 70
     1
102
RTVSPropertyOp46
 70
     1
102
RTVSPropertyOp47
 70
     1
102
RTVSPropertyOp48
 70
     1
102
RTVSPropertyOp49
 70
     1
102
RTVSPropertyOp50
 70
     1
102
RTVSPropertyOp51
 70
     0
102
RTVSPropertyOp52
 70
     0
102
RTVSPropertyOp53
 70
     1
102
RTVSPropertyOp54
 70
     1
102
RTVSPropertyOp55
 70
     1
102
RTVSPropertyOp56
 70
     1
102
RTVSPropertyOp57
 70
     1
102
RTVSPost2010Prop28
280
     0
102
RTVSPost2010PropOp28
 70
     1
102
RTVSPost2010Prop29
280
     1
102
RTVSPost2010PropOp29
 70
     1
102
RTVSPost2010Prop30
280
     1
102
RTVSPost2010PropOp30
 70
     1
102
RTVSPost2010Prop31
280
     0
102
RTVSPost2010PropOp31
 70
     1
102
RTVSPost2010Prop32
280
     0
102
RTVSPost2010PropOp32
 70
     1
102
RTVSPost2010Prop33
280
     0
102
RTVSPost2010PropOp33
 70
     1
102
RTVSPost2010Prop34
280
     0
102
RTVSPost2010PropOp34
 70
     1
102
RTVSPost2010Prop35
280
     0
102
RTVSPost2010PropOp35
 70
     1
102
RTVSPost2010Prop36
280
     0
102
RTVSPost2010PropOp36
 70
     1
102
RTVSPost2010Prop37
 90
       50
102
RTVSPost2010PropOp37
 70
     1
102
RTVSPost2010Prop38
140
0.0
102
RTVSPost2010PropOp38
 70
     1
102
RTVSPost2010Prop39
140
1.0
102
RTVSPost2010PropOp39
 70
     1
102
RTVSPost2010Prop40
 90
        0
102
RTVSPost2010PropOp40
 70
     1
102
RTVSPost2010Prop41ColorIndex
 90
       18
102
RTVSPost2010Prop41ColorRGB
 90
        0
102
RTVSPost2010PropOp41
 70
     1
102
RTVSPost2010Prop42
 90
       50
102
RTVSPost2010PropOp42
 70
     1
102
RTVSPost2010Prop43
 90
        3
102
RTVSPost2010PropOp43
 70
     1
102
RTVSPost2010Prop44ColorIndex
 90
        5
102
RTVSPost2010Prop44ColorRGB
 90
      255
102
RTVSPost2010PropOp44
 70
     1
102
RTVSPost2010Prop45
280
     0
102
RTVSPost2010PropOp45
 70
     1
102
RTVSPost2010Prop46
 90
       50
102
RTVSPost2010PropOp46
 70
     1
102
RTVSPost2010Prop47
 90
       50
102
RTVSPost2010PropOp47
 70
     1
102
RTVSPost2010Prop48
 90
       50
102
RTVSPost2010PropOp48
 70
     1
102
RTVSPost2010Prop49
280
     0
102
RTVSPost2010PropOp49
 70
     1
102
RTVSPost2010Prop50
 90
       50
102
RTVSPost2010PropOp50
 70
     1
102
RTVSPost2010Prop51ColorIndex
 90
      256
102
RTVSPost2010Prop51ColorRGB
 90
-16777216
102
RTVSPost2010PropOp51
 70
     0
102
RTVSPost2010Prop52
140
1.0
102
RTVSPost2010PropOp52
 70
     0
102
RTVSPost2010Prop53
 90
        2
102
RTVSPost2010PropOp53
 70
     1
102
RTVSPost2010Prop54
  1
strokes_ogs.tif
102
RTVSPost2010PropOp54
 70
     1
102
RTVSPost2010Prop55
280
     0
102
RTVSPost2010PropOp55
 70
     1
102
RTVSPost2010Prop56
140
1.0
102
RTVSPost2010PropOp56
 70
     1
102
RTVSPost2010Prop57
140
1.0
102
RTVSPost2010PropOp57
 70
     1
  0
XRECORD
  5
141
102
{ACAD_REACTORS
330
140
102
}
330
140
100
AcDbXrecord
280
     1
102
RTVSPropertyOp0
 70
     1
102
RTVSPropertyOp1
 70
     1
102
RTVSPropertyOp2
 70
     1
102
RTVSPropertyOp3
 70
     1
102
RTVSPropertyOp4
 70
     1
102
RTVSPropertyOp5
 70
     1
102
RTVSPropertyOp6
 70
     1
102
RTVSPropertyOp7
 70
     1
102
RTVSPropertyOp8
 70
     1
102
RTVSPropertyOp9
 70
     1
102
RTVSPropertyOp10
 70
     1
102
RTVSPropertyOp11
 70
     1
102
RTVSPropertyOp12
 70
     1
102
RTVSPropertyOp13
 70
     1
102
RTVSPropertyOp14
 70
     1
102
RTVSPropertyOp15
 70
     1
102
RTVSPropertyOp16
 70
     1
102
RTVSPropertyOp17
 70
     1
102
RTVSPropertyOp18
 70
     1
102
RTVSPropertyOp19
 70
     1
102
RTVSPropertyOp20
 70
     1
102
RTVSPropertyOp21
 70
     1
102
RTVSPropertyOp22
 70
     1
102
RTVSPropertyOp23
 70
     1
102
RTVSPropertyOp24
 70
     1
102
RTVSPropertyOp25
 70
     1
102
RTVSPropertyOp26
 70
     1
102
RTVSPropertyOp27
 70
     1
102
RTVSPropertyOp28
 70
     1
102
RTVSPropertyOp29
 70
     1
102
RTVSPropertyOp30
 70
     1
102
RTVSPropertyOp31
 70
     1
102
RTVSPropertyOp32
 70
     1
102
RTVSPropertyOp33
 70
     1
102
RTVSPropertyOp34
 70
     1
102
RTVSPropertyOp35
 70
     1
102
RTVSPropertyOp36
 70
     1
102
RTVSPropertyOp37
 70
     1
102
RTVSPropertyOp38
 70
     1
102
RTVSPropertyOp39
 70
     1
102
RTVSPropertyOp40
 70
     1
102
RTVSPropertyOp41
 70
     1
102
RTVSPropertyOp42
 70
     1
102
RTVSPropertyOp43
 70
     1
102
RTVSPropertyOp44
 70
     1
102
RTVSPropertyOp45
 70
     1
102
RTVSPropertyOp46
 70
     1
102
RTVSPropertyOp47
 70
     1
102
RTVSPropertyOp48
 70
     1
102
RTVSPropertyOp49
 70
     1
102
RTVSPropertyOp50
 70
     1
102
RTVSPropertyOp51
 70
     0
102
RTVSPropertyOp52
 70
     0
102
RTVSPropertyOp53
 70
     1
102
RTVSPropertyOp54
 70
     1
102
RTVSPropertyOp55
 70
     1
102
RTVSPropertyOp56
 70
     1
102
RTVSPropertyOp57
 70
     1
102
RTVSPost2010Prop28
280
     0
102
RTVSPost2010PropOp28
 70
     1
102
RTVSPost2010Prop29
280
     1
102
RTVSPost2010PropOp29
 70
     1
102
RTVSPost2010Prop30
280
     1
102
RTVSPost2010PropOp30
 70
     1
102
RTVSPost2010Prop31
280
     0
102
RTVSPost2010PropOp31
 70
     1
102
RTVSPost2010Prop32
280
     0
102
RTVSPost2010PropOp32
 70
     1
102
RTVSPost2010Prop33
280
     0
102
RTVSPost2010PropOp33
 70
     1
102
RTVSPost2010Prop34
280
     0
102
RTVSPost2010PropOp34
 70
     1
102
RTVSPost2010Prop35
280
     0
102
RTVSPost2010PropOp35
 70
     1
102
RTVSPost2010Prop36
280
     0
102
RTVSPost2010PropOp36
 70
     1
102
RTVSPost2010Prop37
 90
       50
102
RTVSPost2010PropOp37
 70
     1
102
RTVSPost2010Prop38
140
0.0
102
RTVSPost2010PropOp38
 70
     1
102
RTVSPost2010Prop39
140
1.0
102
RTVSPost2010PropOp39
 70
     1
102
RTVSPost2010Prop40
 90
        0
102
RTVSPost2010PropOp40
 70
     1
102
RTVSPost2010Prop41ColorIndex
 90
       18
102
RTVSPost2010Prop41ColorRGB
 90
        0
102
RTVSPost2010PropOp41
 70
     1
102
RTVSPost2010Prop42
 90
       50
102
RTVSPost2010PropOp42
 70
     1
102
RTVSPost2010Prop43
 90
        3
102
RTVSPost2010PropOp43
 70
     1
102
RTVSPost2010Prop44ColorIndex
 90
        5
102
RTVSPost2010Prop44ColorRGB
 90
      255
102
RTVSPost2010PropOp44
 70
     1
102
RTVSPost2010Prop45
280
     0
102
RTVSPost2010PropOp45
 70
     1
102
RTVSPost2010Prop46
 90
       50
102
RTVSPost2010PropOp46
 70
     1
102
RTVSPost2010Prop47
 90
       50
102
RTVSPost2010PropOp47
 70
     1
102
RTVSPost2010Prop48
 90
       50
102
RTVSPost2010PropOp48
 70
     1
102
RTVSPost2010Prop49
280
     0
102
RTVSPost2010PropOp49
 70
     1
102
RTVSPost2010Prop50
 90
       50
102
RTVSPost2010PropOp50
 70
     1
102
RTVSPost2010Prop51ColorIndex
 90
      256
102
RTVSPost2010Prop51ColorRGB
 90
-16777216
102
RTVSPost2010PropOp51
 70
     0
102
RTVSPost2010Prop52
140
1.0
102
RTVSPost2010PropOp52
 70
     0
102
RTVSPost2010Prop53
 90
        2
102
RTVSPost2010PropOp53
 70
     1
102
RTVSPost2010Prop54
  1
strokes_ogs.tif
102
RTVSPost2010PropOp54
 70
     1
102
RTVSPost2010Prop55
280
     0
102
RTVSPost2010PropOp55
 70
     1
102
RTVSPost2010Prop56
140
1.0
102
RTVSPost2010PropOp56
 70
     1
102
RTVSPost2010Prop57
140
1.0
102
RTVSPost2010PropOp57
 70
     1
  0
XRECORD
  5
149
102
{ACAD_REACTORS
330
148
102
}
330
148
100
AcDbXrecord
280
     1
102
RTVSPropertyOp0
 70
     1
102
RTVSPropertyOp1
 70
     1
102
RTVSPropertyOp2
 70
     1
102
RTVSPropertyOp3
 70
     1
102
RTVSPropertyOp4
 70
     1
102
RTVSPropertyOp5
 70
     1
102
RTVSPropertyOp6
 70
     1
102
RTVSPropertyOp7
 70
     1
102
RTVSPropertyOp8
 70
     1
102
RTVSPropertyOp9
 70
     1
102
RTVSPropertyOp10
 70
     1
102
RTVSPropertyOp11
 70
     1
102
RTVSPropertyOp12
 70
     1
102
RTVSPropertyOp13
 70
     1
102
RTVSPropertyOp14
 70
     1
102
RTVSPropertyOp15
 70
     1
102
RTVSPropertyOp16
 70
     1
102
RTVSPropertyOp17
 70
     1
102
RTVSPropertyOp18
 70
     1
102
RTVSPropertyOp19
 70
     1
102
RTVSPropertyOp20
 70
     1
102
RTVSPropertyOp21
 70
     1
102
RTVSPropertyOp22
 70
     1
102
RTVSPropertyOp23
 70
     1
102
RTVSPropertyOp24
 70
     1
102
RTVSPropertyOp25
 70
     1
102
RTVSPropertyOp26
 70
     1
102
RTVSPropertyOp27
 70
     1
102
RTVSPropertyOp28
 70
     1
102
RTVSPropertyOp29
 70
     1
102
RTVSPropertyOp30
 70
     1
102
RTVSPropertyOp31
 70
     1
102
RTVSPropertyOp32
 70
     1
102
RTVSPropertyOp33
 70
     1
102
RTVSPropertyOp34
 70
     1
102
RTVSPropertyOp35
 70
     1
102
RTVSPropertyOp36
 70
     1
102
RTVSPropertyOp37
 70
     1
102
RTVSPropertyOp38
 70
     1
102
RTVSPropertyOp39
 70
     1
102
RTVSPropertyOp40
 70
     1
102
RTVSPropertyOp41
 70
     1
102
RTVSPropertyOp42
 70
     1
102
RTVSPropertyOp43
 70
     1
102
RTVSPropertyOp44
 70
     1
102
RTVSPropertyOp45
 70
     1
102
RTVSPropertyOp46
 70
     1
102
RTVSPropertyOp47
 70
     1
102
RTVSPropertyOp48
 70
     1
102
RTVSPropertyOp49
 70
     1
102
RTVSPropertyOp50
 70
     1
102
RTVSPropertyOp51
 70
     0
102
RTVSPropertyOp52
 70
     0
102
RTVSPropertyOp53
 70
     1
102
RTVSPropertyOp54
 70
     1
102
RTVSPropertyOp55
 70
     1
102
RTVSPropertyOp56
 70
     1
102
RTVSPropertyOp57
 70
     1
102
RTVSPost2010Prop28
280
     0
102
RTVSPost2010PropOp28
 70
     1
102
RTVSPost2010Prop29
280
     1
102
RTVSPost2010PropOp29
 70
     1
102
RTVSPost2010Prop30
280
     1
102
RTVSPost2010PropOp30
 70
     1
102
RTVSPost2010Prop31
280
     0
102
RTVSPost2010PropOp31
 70
     1
102
RTVSPost2010Prop32
280
     0
102
RTVSPost2010PropOp32
 70
     1
102
RTVSPost2010Prop33
280
     0
102
RTVSPost2010PropOp33
 70
     1
102
RTVSPost2010Prop34
280
     0
102
RTVSPost2010PropOp34
 70
     1
102
RTVSPost2010Prop35
280
     0
102
RTVSPost2010PropOp35
 70
     1
102
RTVSPost2010Prop36
280
     0
102
RTVSPost2010PropOp36
 70
     1
102
RTVSPost2010Prop37
 90
       50
102
RTVSPost2010PropOp37
 70
     1
102
RTVSPost2010Prop38
140
0.0
102
RTVSPost2010PropOp38
 70
     1
102
RTVSPost2010Prop39
140
1.0
102
RTVSPost2010PropOp39
 70
     1
102
RTVSPost2010Prop40
 90
        0
102
RTVSPost2010PropOp40
 70
     1
102
RTVSPost2010Prop41ColorIndex
 90
       18
102
RTVSPost2010Prop41ColorRGB
 90
        0
102
RTVSPost2010PropOp41
 70
     1
102
RTVSPost2010Prop42
 90
       50
102
RTVSPost2010PropOp42
 70
     1
102
RTVSPost2010Prop43
 90
        3
102
RTVSPost2010PropOp43
 70
     1
102
RTVSPost2010Prop44ColorIndex
 90
        5
102
RTVSPost2010Prop44ColorRGB
 90
      255
102
RTVSPost2010PropOp44
 70
     1
102
RTVSPost2010Prop45
280
     0
102
RTVSPost2010PropOp45
 70
     1
102
RTVSPost2010Prop46
 90
       50
102
RTVSPost2010PropOp46
 70
     1
102
RTVSPost2010Prop47
 90
       50
102
RTVSPost2010PropOp47
 70
     1
102
RTVSPost2010Prop48
 90
       50
102
RTVSPost2010PropOp48
 70
     1
102
RTVSPost2010Prop49
280
     0
102
RTVSPost2010PropOp49
 70
     1
102
RTVSPost2010Prop50
 90
       50
102
RTVSPost2010PropOp50
 70
     1
102
RTVSPost2010Prop51ColorIndex
 90
      256
102
RTVSPost2010Prop51ColorRGB
 90
-16777216
102
RTVSPost2010PropOp51
 70
     0
102
RTVSPost2010Prop52
140
1.0
102
RTVSPost2010PropOp52
 70
     0
102
RTVSPost2010Prop53
 90
        2
102
RTVSPost2010PropOp53
 70
     1
102
RTVSPost2010Prop54
  1
strokes_ogs.tif
102
RTVSPost2010PropOp54
 70
     1
102
RTVSPost2010Prop55
280
     0
102
RTVSPost2010PropOp55
 70
     1
102
RTVSPost2010Prop56
140
1.0
102
RTVSPost2010PropOp56
 70
     1
102
RTVSPost2010Prop57
140
1.0
102
RTVSPost2010PropOp57
 70
     1
  0
XRECORD
  5
13D
102
{ACAD_REACTORS
330
13C
102
}
330
13C
100
AcDbXrecord
280
     1
102
RTVSPropertyOp0
 70
     1
102
RTVSPropertyOp1
 70
     1
102
RTVSPropertyOp2
 70
     1
102
RTVSPropertyOp3
 70
     1
102
RTVSPropertyOp4
 70
     1
102
RTVSPropertyOp5
 70
     1
102
RTVSPropertyOp6
 70
     1
102
RTVSPropertyOp7
 70
     1
102
RTVSPropertyOp8
 70
     1
102
RTVSPropertyOp9
 70
     1
102
RTVSPropertyOp10
 70
     1
102
RTVSPropertyOp11
 70
     1
102
RTVSPropertyOp12
 70
     1
102
RTVSPropertyOp13
 70
     1
102
RTVSPropertyOp14
 70
     1
102
RTVSPropertyOp15
 70
     1
102
RTVSPropertyOp16
 70
     1
102
RTVSPropertyOp17
 70
     1
102
RTVSPropertyOp18
 70
     1
102
RTVSPropertyOp19
 70
     1
102
RTVSPropertyOp20
 70
     1
102
RTVSPropertyOp21
 70
     1
102
RTVSPropertyOp22
 70
     1
102
RTVSPropertyOp23
 70
     1
102
RTVSPropertyOp24
 70
     1
102
RTVSPropertyOp25
 70
     1
102
RTVSPropertyOp26
 70
     1
102
RTVSPropertyOp27
 70
     1
102
RTVSPropertyOp28
 70
     1
102
RTVSPropertyOp29
 70
     1
102
RTVSPropertyOp30
 70
     1
102
RTVSPropertyOp31
 70
     1
102
RTVSPropertyOp32
 70
     1
102
RTVSPropertyOp33
 70
     1
102
RTVSPropertyOp34
 70
     1
102
RTVSPropertyOp35
 70
     1
102
RTVSPropertyOp36
 70
     1
102
RTVSPropertyOp37
 70
     1
102
RTVSPropertyOp38
 70
     1
102
RTVSPropertyOp39
 70
     1
102
RTVSPropertyOp40
 70
     1
102
RTVSPropertyOp41
 70
     1
102
RTVSPropertyOp42
 70
     1
102
RTVSPropertyOp43
 70
     1
102
RTVSPropertyOp44
 70
     1
102
RTVSPropertyOp45
 70
     1
102
RTVSPropertyOp46
 70
     1
102
RTVSPropertyOp47
 70
     1
102
RTVSPropertyOp48
 70
     1
102
RTVSPropertyOp49
 70
     1
102
RTVSPropertyOp50
 70
     1
102
RTVSPropertyOp51
 70
     0
102
RTVSPropertyOp52
 70
     0
102
RTVSPropertyOp53
 70
     1
102
RTVSPropertyOp54
 70
     1
102
RTVSPropertyOp55
 70
     1
102
RTVSPropertyOp56
 70
     1
102
RTVSPropertyOp57
 70
     1
102
RTVSPost2010Prop28
280
     0
102
RTVSPost2010PropOp28
 70
     1
102
RTVSPost2010Prop29
280
     1
102
RTVSPost2010PropOp29
 70
     1
102
RTVSPost2010Prop30
280
     1
102
RTVSPost2010PropOp30
 70
     1
102
RTVSPost2010Prop31
280
     0
102
RTVSPost2010PropOp31
 70
     1
102
RTVSPost2010Prop32
280
     0
102
RTVSPost2010PropOp32
 70
     1
102
RTVSPost2010Prop33
280
     0
102
RTVSPost2010PropOp33
 70
     1
102
RTVSPost2010Prop34
280
     0
102
RTVSPost2010PropOp34
 70
     1
102
RTVSPost2010Prop35
280
     0
102
RTVSPost2010PropOp35
 70
     1
102
RTVSPost2010Prop36
280
     0
102
RTVSPost2010PropOp36
 70
     1
102
RTVSPost2010Prop37
 90
       50
102
RTVSPost2010PropOp37
 70
     1
102
RTVSPost2010Prop38
140
0.0
102
RTVSPost2010PropOp38
 70
     1
102
RTVSPost2010Prop39
140
1.0
102
RTVSPost2010PropOp39
 70
     1
102
RTVSPost2010Prop40
 90
        0
102
RTVSPost2010PropOp40
 70
     1
102
RTVSPost2010Prop41ColorIndex
 90
       18
102
RTVSPost2010Prop41ColorRGB
 90
        0
102
RTVSPost2010PropOp41
 70
     1
102
RTVSPost2010Prop42
 90
       50
102
RTVSPost2010PropOp42
 70
     1
102
RTVSPost2010Prop43
 90
        3
102
RTVSPost2010PropOp43
 70
     1
102
RTVSPost2010Prop44ColorIndex
 90
        5
102
RTVSPost2010Prop44ColorRGB
 90
      255
102
RTVSPost2010PropOp44
 70
     1
102
RTVSPost2010Prop45
280
     0
102
RTVSPost2010PropOp45
 70
     1
102
RTVSPost2010Prop46
 90
       50
102
RTVSPost2010PropOp46
 70
     1
102
RTVSPost2010Prop47
 90
       50
102
RTVSPost2010PropOp47
 70
     1
102
RTVSPost2010Prop48
 90
       50
102
RTVSPost2010PropOp48
 70
     1
102
RTVSPost2010Prop49
280
     0
102
RTVSPost2010PropOp49
 70
     1
102
RTVSPost2010Prop50
 90
       50
102
RTVSPost2010PropOp50
 70
     1
102
RTVSPost2010Prop51ColorIndex
 90
      256
102
RTVSPost2010Prop51ColorRGB
 90
-16777216
102
RTVSPost2010PropOp51
 70
     0
102
RTVSPost2010Prop52
140
1.0
102
RTVSPost2010PropOp52
 70
     0
102
RTVSPost2010Prop53
 90
        2
102
RTVSPost2010PropOp53
 70
     1
102
RTVSPost2010Prop54
  1
strokes_ogs.tif
102
RTVSPost2010PropOp54
 70
     1
102
RTVSPost2010Prop55
280
     0
102
RTVSPost2010PropOp55
 70
     1
102
RTVSPost2010Prop56
140
1.0
102
RTVSPost2010PropOp56
 70
     1
102
RTVSPost2010Prop57
140
1.0
102
RTVSPost2010PropOp57
 70
     1
  0
XRECORD
  5
13F
102
{ACAD_REACTORS
330
13E
102
}
330
13E
100
AcDbXrecord
280
     1
102
RTVSPropertyOp0
 70
     1
102
RTVSPropertyOp1
 70
     1
102
RTVSPropertyOp2
 70
     1
102
RTVSPropertyOp3
 70
     1
102
RTVSPropertyOp4
 70
     1
102
RTVSPropertyOp5
 70
     1
102
RTVSPropertyOp6
 70
     1
102
RTVSPropertyOp7
 70
     1
102
RTVSPropertyOp8
 70
     1
102
RTVSPropertyOp9
 70
     1
102
RTVSPropertyOp10
 70
     1
102
RTVSPropertyOp11
 70
     1
102
RTVSPropertyOp12
 70
     1
102
RTVSPropertyOp13
 70
     1
102
RTVSPropertyOp14
 70
     1
102
RTVSPropertyOp15
 70
     1
102
RTVSPropertyOp16
 70
     1
102
RTVSPropertyOp17
 70
     1
102
RTVSPropertyOp18
 70
     1
102
RTVSPropertyOp19
 70
     1
102
RTVSPropertyOp20
 70
     1
102
RTVSPropertyOp21
 70
     1
102
RTVSPropertyOp22
 70
     1
102
RTVSPropertyOp23
 70
     1
102
RTVSPropertyOp24
 70
     1
102
RTVSPropertyOp25
 70
     1
102
RTVSPropertyOp26
 70
     1
102
RTVSPropertyOp27
 70
     1
102
RTVSPropertyOp28
 70
     1
102
RTVSPropertyOp29
 70
     1
102
RTVSPropertyOp30
 70
     1
102
RTVSPropertyOp31
 70
     1
102
RTVSPropertyOp32
 70
     1
102
RTVSPropertyOp33
 70
     1
102
RTVSPropertyOp34
 70
     1
102
RTVSPropertyOp35
 70
     1
102
RTVSPropertyOp36
 70
     1
102
RTVSPropertyOp37
 70
     1
102
RTVSPropertyOp38
 70
     1
102
RTVSPropertyOp39
 70
     1
102
RTVSPropertyOp40
 70
     1
102
RTVSPropertyOp41
 70
     1
102
RTVSPropertyOp42
 70
     1
102
RTVSPropertyOp43
 70
     1
102
RTVSPropertyOp44
 70
     1
102
RTVSPropertyOp45
 70
     1
102
RTVSPropertyOp46
 70
     1
102
RTVSPropertyOp47
 70
     1
102
RTVSPropertyOp48
 70
     1
102
RTVSPropertyOp49
 70
     1
102
RTVSPropertyOp50
 70
     1
102
RTVSPropertyOp51
 70
     0
102
RTVSPropertyOp52
 70
     0
102
RTVSPropertyOp53
 70
     1
102
RTVSPropertyOp54
 70
     1
102
RTVSPropertyOp55
 70
     1
102
RTVSPropertyOp56
 70
     1
102
RTVSPropertyOp57
 70
     1
102
RTVSPost2010Prop28
280
     0
102
RTVSPost2010PropOp28
 70
     1
102
RTVSPost2010Prop29
280
     1
102
RTVSPost2010PropOp29
 70
     1
102
RTVSPost2010Prop30
280
     1
102
RTVSPost2010PropOp30
 70
     1
102
RTVSPost2010Prop31
280
     0
102
RTVSPost2010PropOp31
 70
     1
102
RTVSPost2010Prop32
280
     0
102
RTVSPost2010PropOp32
 70
     1
102
RTVSPost2010Prop33
280
     0
102
RTVSPost2010PropOp33
 70
     1
102
RTVSPost2010Prop34
280
     0
102
RTVSPost2010PropOp34
 70
     1
102
RTVSPost2010Prop35
280
     0
102
RTVSPost2010PropOp35
 70
     1
102
RTVSPost2010Prop36
280
     0
102
RTVSPost2010PropOp36
 70
     1
102
RTVSPost2010Prop37
 90
       50
102
RTVSPost2010PropOp37
 70
     1
102
RTVSPost2010Prop38
140
0.0
102
RTVSPost2010PropOp38
 70
     1
102
RTVSPost2010Prop39
140
1.0
102
RTVSPost2010PropOp39
 70
     1
102
RTVSPost2010Prop40
 90
        0
102
RTVSPost2010PropOp40
 70
     1
102
RTVSPost2010Prop41ColorIndex
 90
       18
102
RTVSPost2010Prop41ColorRGB
 90
        0
102
RTVSPost2010PropOp41
 70
     1
102
RTVSPost2010Prop42
 90
       50
102
RTVSPost2010PropOp42
 70
     1
102
RTVSPost2010Prop43
 90
        3
102
RTVSPost2010PropOp43
 70
     1
102
RTVSPost2010Prop44ColorIndex
 90
        5
102
RTVSPost2010Prop44ColorRGB
 90
      255
102
RTVSPost2010PropOp44
 70
     1
102
RTVSPost2010Prop45
280
     0
102
RTVSPost2010PropOp45
 70
     1
102
RTVSPost2010Prop46
 90
       50
102
RTVSPost2010PropOp46
 70
     1
102
RTVSPost2010Prop47
 90
       50
102
RTVSPost2010PropOp47
 70
     1
102
RTVSPost2010Prop48
 90
       50
102
RTVSPost2010PropOp48
 70
     1
102
RTVSPost2010Prop49
280
     0
102
RTVSPost2010PropOp49
 70
     1
102
RTVSPost2010Prop50
 90
       50
102
RTVSPost2010PropOp50
 70
     1
102
RTVSPost2010Prop51ColorIndex
 90
      256
102
RTVSPost2010Prop51ColorRGB
 90
-16777216
102
RTVSPost2010PropOp51
 70
     0
102
RTVSPost2010Prop52
140
1.0
102
RTVSPost2010PropOp52
 70
     0
102
RTVSPost2010Prop53
 90
        2
102
RTVSPost2010PropOp53
 70
     1
102
RTVSPost2010Prop54
  1
strokes_ogs.tif
102
RTVSPost2010PropOp54
 70
     1
102
RTVSPost2010Prop55
280
     0
102
RTVSPost2010PropOp55
 70
     1
102
RTVSPost2010Prop56
140
1.0
102
RTVSPost2010PropOp56
 70
     1
102
RTVSPost2010Prop57
140
1.0
102
RTVSPost2010PropOp57
 70
     1
  0
XRECORD
  5
14F
102
{ACAD_REACTORS
330
14E
102
}
330
14E
100
AcDbXrecord
280
     1
102
RTVSPropertyOp0
 70
     0
102
RTVSPropertyOp1
 70
     0
102
RTVSPropertyOp2
 70
     0
102
RTVSPropertyOp3
 70
     0
102
RTVSPropertyOp4
 70
     0
102
RTVSPropertyOp5
 70
     0
102
RTVSPropertyOp6
 70
     0
102
RTVSPropertyOp7
 70
     0
102
RTVSPropertyOp8
 70
     0
102
RTVSPropertyOp9
 70
     0
102
RTVSPropertyOp10
 70
     0
102
RTVSPropertyOp11
 70
     0
102
RTVSPropertyOp12
 70
     0
102
RTVSPropertyOp13
 70
     0
102
RTVSPropertyOp14
 70
     2
102
RTVSPropertyOp15
 70
     0
102
RTVSPropertyOp16
 70
     0
102
RTVSPropertyOp17
 70
     0
102
RTVSPropertyOp18
 70
     0
102
RTVSPropertyOp19
 70
     0
102
RTVSPropertyOp20
 70
     0
102
RTVSPropertyOp21
 70
     0
102
RTVSPropertyOp22
 70
     0
102
RTVSPropertyOp23
 70
     0
102
RTVSPropertyOp24
 70
     0
102
RTVSPropertyOp25
 70
     0
102
RTVSPropertyOp26
 70
     0
102
RTVSPropertyOp27
 70
     0
102
RTVSPropertyOp28
 70
     0
102
RTVSPropertyOp29
 70
     0
102
RTVSPropertyOp30
 70
     0
102
RTVSPropertyOp31
 70
     0
102
RTVSPropertyOp32
 70
     0
102
RTVSPropertyOp33
 70
     0
102
RTVSPropertyOp34
 70
     0
102
RTVSPropertyOp35
 70
     0
102
RTVSPropertyOp36
 70
     0
102
RTVSPropertyOp37
 70
     0
102
RTVSPropertyOp38
 70
     0
102
RTVSPropertyOp39
 70
     0
102
RTVSPropertyOp40
 70
     0
102
RTVSPropertyOp41
 70
     0
102
RTVSPropertyOp42
 70
     0
102
RTVSPropertyOp43
 70
     0
102
RTVSPropertyOp44
 70
     0
102
RTVSPropertyOp45
 70
     0
102
RTVSPropertyOp46
 70
     0
102
RTVSPropertyOp47
 70
     0
102
RTVSPropertyOp48
 70
     0
102
RTVSPropertyOp49
 70
     0
102
RTVSPropertyOp50
 70
     0
102
RTVSPropertyOp51
 70
     0
102
RTVSPropertyOp52
 70
     0
102
RTVSPropertyOp53
 70
     0
102
RTVSPropertyOp54
 70
     0
102
RTVSPropertyOp55
 70
     0
102
RTVSPropertyOp56
 70
     0
102
RTVSPropertyOp57
 70
     0
102
RTVSPost2010Prop28
280
     0
102
RTVSPost2010PropOp28
 70
     0
102
RTVSPost2010Prop29
280
     1
102
RTVSPost2010PropOp29
 70
     0
102
RTVSPost2010Prop30
280
     1
102
RTVSPost2010PropOp30
 70
     0
102
RTVSPost2010Prop31
280
     0
102
RTVSPost2010PropOp31
 70
     0
102
RTVSPost2010Prop32
280
     0
102
RTVSPost2010PropOp32
 70
     0
102
RTVSPost2010Prop33
280
     0
102
RTVSPost2010PropOp33
 70
     0
102
RTVSPost2010Prop34
280
     0
102
RTVSPost2010PropOp34
 70
     0
102
RTVSPost2010Prop35
280
     0
102
RTVSPost2010PropOp35
 70
     0
102
RTVSPost2010Prop36
280
     0
102
RTVSPost2010PropOp36
 70
     0
102
RTVSPost2010Prop37
 90
       50
102
RTVSPost2010PropOp37
 70
     0
102
RTVSPost2010Prop38
140
0.0
102
RTVSPost2010PropOp38
 70
     0
102
RTVSPost2010Prop39
140
1.0
102
RTVSPost2010PropOp39
 70
     0
102
RTVSPost2010Prop40
 90
        0
102
RTVSPost2010PropOp40
 70
     0
102
RTVSPost2010Prop41ColorIndex
 90
       18
102
RTVSPost2010Prop41ColorRGB
 90
        0
102
RTVSPost2010PropOp41
 70
     0
102
RTVSPost2010Prop42
 90
       50
102
RTVSPost2010PropOp42
 70
     0
102
RTVSPost2010Prop43
 90
        3
102
RTVSPost2010PropOp43
 70
     0
102
RTVSPost2010Prop44ColorIndex
 90
        5
102
RTVSPost2010Prop44ColorRGB
 90
      255
102
RTVSPost2010PropOp44
 70
     0
102
RTVSPost2010Prop45
280
     0
102
RTVSPost2010PropOp45
 70
     0
102
RTVSPost2010Prop46
 90
       50
102
RTVSPost2010PropOp46
 70
     0
102
RTVSPost2010Prop47
 90
       50
102
RTVSPost2010PropOp47
 70
     0
102
RTVSPost2010Prop48
 90
       50
102
RTVSPost2010PropOp48
 70
     0
102
RTVSPost2010Prop49
280
     0
102
RTVSPost2010PropOp49
 70
     0
102
RTVSPost2010Prop50
 90
       50
102
RTVSPost2010PropOp50
 70
     0
102
RTVSPost2010Prop51ColorIndex
 90
      256
102
RTVSPost2010Prop51ColorRGB
 90
-16777216
102
RTVSPost2010PropOp51
 70
     0
102
RTVSPost2010Prop52
140
1.0
102
RTVSPost2010PropOp52
 70
     0
102
RTVSPost2010Prop53
 90
        2
102
RTVSPost2010PropOp53
 70
     0
102
RTVSPost2010Prop54
  1
strokes_ogs.tif
102
RTVSPost2010PropOp54
 70
     0
102
RTVSPost2010Prop55
280
     0
102
RTVSPost2010PropOp55
 70
     0
102
RTVSPost2010Prop56
140
1.0
102
RTVSPost2010PropOp56
 70
     0
102
RTVSPost2010Prop57
140
1.0
102
RTVSPost2010PropOp57
 70
     0
  0
XRECORD
  5
147
102
{ACAD_REACTORS
330
146
102
}
330
146
100
AcDbXrecord
280
     1
102
RTVSPropertyOp0
 70
     1
102
RTVSPropertyOp1
 70
     1
102
RTVSPropertyOp2
 70
     1
102
RTVSPropertyOp3
 70
     1
102
RTVSPropertyOp4
 70
     1
102
RTVSPropertyOp5
 70
     1
102
RTVSPropertyOp6
 70
     1
102
RTVSPropertyOp7
 70
     1
102
RTVSPropertyOp8
 70
     1
102
RTVSPropertyOp9
 70
     1
102
RTVSPropertyOp10
 70
     1
102
RTVSPropertyOp11
 70
     1
102
RTVSPropertyOp12
 70
     1
102
RTVSPropertyOp13
 70
     1
102
RTVSPropertyOp14
 70
     1
102
RTVSPropertyOp15
 70
     1
102
RTVSPropertyOp16
 70
     1
102
RTVSPropertyOp17
 70
     1
102
RTVSPropertyOp18
 70
     1
102
RTVSPropertyOp19
 70
     1
102
RTVSPropertyOp20
 70
     1
102
RTVSPropertyOp21
 70
     1
102
RTVSPropertyOp22
 70
     1
102
RTVSPropertyOp23
 70
     1
102
RTVSPropertyOp24
 70
     1
102
RTVSPropertyOp25
 70
     1
102
RTVSPropertyOp26
 70
     1
102
RTVSPropertyOp27
 70
     1
102
RTVSPropertyOp28
 70
     1
102
RTVSPropertyOp29
 70
     1
102
RTVSPropertyOp30
 70
     1
102
RTVSPropertyOp31
 70
     1
102
RTVSPropertyOp32
 70
     1
102
RTVSPropertyOp33
 70
     1
102
RTVSPropertyOp34
 70
     1
102
RTVSPropertyOp35
 70
     1
102
RTVSPropertyOp36
 70
     1
102
RTVSPropertyOp37
 70
     1
102
RTVSPropertyOp38
 70
     1
102
RTVSPropertyOp39
 70
     1
102
RTVSPropertyOp40
 70
     1
102
RTVSPropertyOp41
 70
     1
102
RTVSPropertyOp42
 70
     1
102
RTVSPropertyOp43
 70
     1
102
RTVSPropertyOp44
 70
     1
102
RTVSPropertyOp45
 70
     1
102
RTVSPropertyOp46
 70
     1
102
RTVSPropertyOp47
 70
     1
102
RTVSPropertyOp48
 70
     1
102
RTVSPropertyOp49
 70
     1
102
RTVSPropertyOp50
 70
     1
102
RTVSPropertyOp51
 70
     0
102
RTVSPropertyOp52
 70
     0
102
RTVSPropertyOp53
 70
     1
102
RTVSPropertyOp54
 70
     1
102
RTVSPropertyOp55
 70
     1
102
RTVSPropertyOp56
 70
     1
102
RTVSPropertyOp57
 70
     1
102
RTVSPost2010Prop28
280
     0
102
RTVSPost2010PropOp28
 70
     1
102
RTVSPost2010Prop29
280
     1
102
RTVSPost2010PropOp29
 70
     1
102
RTVSPost2010Prop30
280
     1
102
RTVSPost2010PropOp30
 70
     1
102
RTVSPost2010Prop31
280
     0
102
RTVSPost2010PropOp31
 70
     1
102
RTVSPost2010Prop32
280
     0
102
RTVSPost2010PropOp32
 70
     1
102
RTVSPost2010Prop33
280
     0
102
RTVSPost2010PropOp33
 70
     1
102
RTVSPost2010Prop34
280
     0
102
RTVSPost2010PropOp34
 70
     1
102
RTVSPost2010Prop35
280
     0
102
RTVSPost2010PropOp35
 70
     1
102
RTVSPost2010Prop36
280
     0
102
RTVSPost2010PropOp36
 70
     1
102
RTVSPost2010Prop37
 90
       50
102
RTVSPost2010PropOp37
 70
     1
102
RTVSPost2010Prop38
140
0.0
102
RTVSPost2010PropOp38
 70
     1
102
RTVSPost2010Prop39
140
1.0
102
RTVSPost2010PropOp39
 70
     1
102
RTVSPost2010Prop40
 90
        0
102
RTVSPost2010PropOp40
 70
     1
102
RTVSPost2010Prop41ColorIndex
 90
       18
102
RTVSPost2010Prop41ColorRGB
 90
        0
102
RTVSPost2010PropOp41
 70
     1
102
RTVSPost2010Prop42
 90
       50
102
RTVSPost2010PropOp42
 70
     1
102
RTVSPost2010Prop43
 90
        3
102
RTVSPost2010PropOp43
 70
     1
102
RTVSPost2010Prop44ColorIndex
 90
        5
102
RTVSPost2010Prop44ColorRGB
 90
      255
102
RTVSPost2010PropOp44
 70
     1
102
RTVSPost2010Prop45
280
     0
102
RTVSPost2010PropOp45
 70
     1
102
RTVSPost2010Prop46
 90
       50
102
RTVSPost2010PropOp46
 70
     1
102
RTVSPost2010Prop47
 90
       50
102
RTVSPost2010PropOp47
 70
     1
102
RTVSPost2010Prop48
 90
       50
102
RTVSPost2010PropOp48
 70
     1
102
RTVSPost2010Prop49
280
     0
102
RTVSPost2010PropOp49
 70
     1
102
RTVSPost2010Prop50
 90
       50
102
RTVSPost2010PropOp50
 70
     1
102
RTVSPost2010Prop51ColorIndex
 90
      256
102
RTVSPost2010Prop51ColorRGB
 90
-16777216
102
RTVSPost2010PropOp51
 70
     0
102
RTVSPost2010Prop52
140
1.0
102
RTVSPost2010PropOp52
 70
     0
102
RTVSPost2010Prop53
 90
        2
102
RTVSPost2010PropOp53
 70
     1
102
RTVSPost2010Prop54
  1
strokes_ogs.tif
102
RTVSPost2010PropOp54
 70
     1
102
RTVSPost2010Prop55
280
     0
102
RTVSPost2010PropOp55
 70
     1
102
RTVSPost2010Prop56
140
1.0
102
RTVSPost2010PropOp56
 70
     1
102
RTVSPost2010Prop57
140
1.0
102
RTVSPost2010PropOp57
 70
     1
  0
XRECORD
  5
12B
102
{ACAD_REACTORS
330
12A
102
}
330
12A
100
AcDbXrecord
280
     1
102
RTVSPropertyOp0
 70
     1
102
RTVSPropertyOp1
 70
     1
102
RTVSPropertyOp2
 70
     1
102
RTVSPropertyOp3
 70
     1
102
RTVSPropertyOp4
 70
     1
102
RTVSPropertyOp5
 70
     1
102
RTVSPropertyOp6
 70
     1
102
RTVSPropertyOp7
 70
     1
102
RTVSPropertyOp8
 70
     1
102
RTVSPropertyOp9
 70
     1
102
RTVSPropertyOp10
 70
     1
102
RTVSPropertyOp11
 70
     1
102
RTVSPropertyOp12
 70
     1
102
RTVSPropertyOp13
 70
     1
102
RTVSPropertyOp14
 70
     1
102
RTVSPropertyOp15
 70
     1
102
RTVSPropertyOp16
 70
     1
102
RTVSPropertyOp17
 70
     1
102
RTVSPropertyOp18
 70
     1
102
RTVSPropertyOp19
 70
     1
102
RTVSPropertyOp20
 70
     1
102
RTVSPropertyOp21
 70
     1
102
RTVSPropertyOp22
 70
     1
102
RTVSPropertyOp23
 70
     1
102
RTVSPropertyOp24
 70
     1
102
RTVSPropertyOp25
 70
     1
102
RTVSPropertyOp26
 70
     1
102
RTVSPropertyOp27
 70
     1
102
RTVSPropertyOp28
 70
     1
102
RTVSPropertyOp29
 70
     1
102
RTVSPropertyOp30
 70
     1
102
RTVSPropertyOp31
 70
     1
102
RTVSPropertyOp32
 70
     1
102
RTVSPropertyOp33
 70
     1
102
RTVSPropertyOp34
 70
     1
102
RTVSPropertyOp35
 70
     1
102
RTVSPropertyOp36
 70
     1
102
RTVSPropertyOp37
 70
     1
102
RTVSPropertyOp38
 70
     1
102
RTVSPropertyOp39
 70
     1
102
RTVSPropertyOp40
 70
     1
102
RTVSPropertyOp41
 70
     1
102
RTVSPropertyOp42
 70
     1
102
RTVSPropertyOp43
 70
     1
102
RTVSPropertyOp44
 70
     1
102
RTVSPropertyOp45
 70
     1
102
RTVSPropertyOp46
 70
     1
102
RTVSPropertyOp47
 70
     1
102
RTVSPropertyOp48
 70
     1
102
RTVSPropertyOp49
 70
     1
102
RTVSPropertyOp50
 70
     1
102
RTVSPropertyOp51
 70
     0
102
RTVSPropertyOp52
 70
     0
102
RTVSPropertyOp53
 70
     1
102
RTVSPropertyOp54
 70
     1
102
RTVSPropertyOp55
 70
     1
102
RTVSPropertyOp56
 70
     1
102
RTVSPropertyOp57
 70
     1
102
RTVSPost2010Prop28
280
     0
102
RTVSPost2010PropOp28
 70
     1
102
RTVSPost2010Prop29
280
     1
102
RTVSPost2010PropOp29
 70
     1
102
RTVSPost2010Prop30
280
     1
102
RTVSPost2010PropOp30
 70
     1
102
RTVSPost2010Prop31
280
     0
102
RTVSPost2010PropOp31
 70
     1
102
RTVSPost2010Prop32
280
     0
102
RTVSPost2010PropOp32
 70
     1
102
RTVSPost2010Prop33
280
     0
102
RTVSPost2010PropOp33
 70
     1
102
RTVSPost2010Prop34
280
     0
102
RTVSPost2010PropOp34
 70
     1
102
RTVSPost2010Prop35
280
     0
102
RTVSPost2010PropOp35
 70
     1
102
RTVSPost2010Prop36
280
     0
102
RTVSPost2010PropOp36
 70
     1
102
RTVSPost2010Prop37
 90
       50
102
RTVSPost2010PropOp37
 70
     1
102
RTVSPost2010Prop38
140
0.0
102
RTVSPost2010PropOp38
 70
     1
102
RTVSPost2010Prop39
140
1.0
102
RTVSPost2010PropOp39
 70
     1
102
RTVSPost2010Prop40
 90
        0
102
RTVSPost2010PropOp40
 70
     1
102
RTVSPost2010Prop41ColorIndex
 90
       18
102
RTVSPost2010Prop41ColorRGB
 90
        0
102
RTVSPost2010PropOp41
 70
     1
102
RTVSPost2010Prop42
 90
       50
102
RTVSPost2010PropOp42
 70
     1
102
RTVSPost2010Prop43
 90
        3
102
RTVSPost2010PropOp43
 70
     1
102
RTVSPost2010Prop44ColorIndex
 90
        5
102
RTVSPost2010Prop44ColorRGB
 90
      255
102
RTVSPost2010PropOp44
 70
     1
102
RTVSPost2010Prop45
280
     0
102
RTVSPost2010PropOp45
 70
     1
102
RTVSPost2010Prop46
 90
       50
102
RTVSPost2010PropOp46
 70
     1
102
RTVSPost2010Prop47
 90
       50
102
RTVSPost2010PropOp47
 70
     1
102
RTVSPost2010Prop48
 90
       50
102
RTVSPost2010PropOp48
 70
     1
102
RTVSPost2010Prop49
280
     0
102
RTVSPost2010PropOp49
 70
     1
102
RTVSPost2010Prop50
 90
       50
102
RTVSPost2010PropOp50
 70
     1
102
RTVSPost2010Prop51ColorIndex
 90
      256
102
RTVSPost2010Prop51ColorRGB
 90
-16777216
102
RTVSPost2010PropOp51
 70
     0
102
RTVSPost2010Prop52
140
1.0
102
RTVSPost2010PropOp52
 70
     0
102
RTVSPost2010Prop53
 90
        2
102
RTVSPost2010PropOp53
 70
     1
102
RTVSPost2010Prop54
  1
strokes_ogs.tif
102
RTVSPost2010PropOp54
 70
     1
102
RTVSPost2010Prop55
280
     0
102
RTVSPost2010PropOp55
 70
     1
102
RTVSPost2010Prop56
140
1.0
102
RTVSPost2010PropOp56
 70
     1
102
RTVSPost2010Prop57
140
1.0
102
RTVSPost2010PropOp57
 70
     1
  0
XRECORD
  5
12D
102
{ACAD_REACTORS
330
12C
102
}
330
12C
100
AcDbXrecord
280
     1
102
RTVSPropertyOp0
 70
     1
102
RTVSPropertyOp1
 70
     1
102
RTVSPropertyOp2
 70
     1
102
RTVSPropertyOp3
 70
     1
102
RTVSPropertyOp4
 70
     1
102
RTVSPropertyOp5
 70
     1
102
RTVSPropertyOp6
 70
     1
102
RTVSPropertyOp7
 70
     1
102
RTVSPropertyOp8
 70
     1
102
RTVSPropertyOp9
 70
     1
102
RTVSPropertyOp10
 70
     1
102
RTVSPropertyOp11
 70
     1
102
RTVSPropertyOp12
 70
     1
102
RTVSPropertyOp13
 70
     1
102
RTVSPropertyOp14
 70
     1
102
RTVSPropertyOp15
 70
     1
102
RTVSPropertyOp16
 70
     1
102
RTVSPropertyOp17
 70
     1
102
RTVSPropertyOp18
 70
     1
102
RTVSPropertyOp19
 70
     1
102
RTVSPropertyOp20
 70
     1
102
RTVSPropertyOp21
 70
     1
102
RTVSPropertyOp22
 70
     1
102
RTVSPropertyOp23
 70
     1
102
RTVSPropertyOp24
 70
     1
102
RTVSPropertyOp25
 70
     1
102
RTVSPropertyOp26
 70
     1
102
RTVSPropertyOp27
 70
     1
102
RTVSPropertyOp28
 70
     1
102
RTVSPropertyOp29
 70
     1
102
RTVSPropertyOp30
 70
     1
102
RTVSPropertyOp31
 70
     1
102
RTVSPropertyOp32
 70
     1
102
RTVSPropertyOp33
 70
     1
102
RTVSPropertyOp34
 70
     1
102
RTVSPropertyOp35
 70
     1
102
RTVSPropertyOp36
 70
     1
102
RTVSPropertyOp37
 70
     1
102
RTVSPropertyOp38
 70
     1
102
RTVSPropertyOp39
 70
     1
102
RTVSPropertyOp40
 70
     1
102
RTVSPropertyOp41
 70
     1
102
RTVSPropertyOp42
 70
     1
102
RTVSPropertyOp43
 70
     1
102
RTVSPropertyOp44
 70
     1
102
RTVSPropertyOp45
 70
     1
102
RTVSPropertyOp46
 70
     1
102
RTVSPropertyOp47
 70
     1
102
RTVSPropertyOp48
 70
     1
102
RTVSPropertyOp49
 70
     1
102
RTVSPropertyOp50
 70
     1
102
RTVSPropertyOp51
 70
     0
102
RTVSPropertyOp52
 70
     0
102
RTVSPropertyOp53
 70
     1
102
RTVSPropertyOp54
 70
     1
102
RTVSPropertyOp55
 70
     1
102
RTVSPropertyOp56
 70
     1
102
RTVSPropertyOp57
 70
     1
102
RTVSPost2010Prop28
280
     0
102
RTVSPost2010PropOp28
 70
     1
102
RTVSPost2010Prop29
280
     1
102
RTVSPost2010PropOp29
 70
     1
102
RTVSPost2010Prop30
280
     1
102
RTVSPost2010PropOp30
 70
     1
102
RTVSPost2010Prop31
280
     0
102
RTVSPost2010PropOp31
 70
     1
102
RTVSPost2010Prop32
280
     0
102
RTVSPost2010PropOp32
 70
     1
102
RTVSPost2010Prop33
280
     0
102
RTVSPost2010PropOp33
 70
     1
102
RTVSPost2010Prop34
280
     0
102
RTVSPost2010PropOp34
 70
     1
102
RTVSPost2010Prop35
280
     0
102
RTVSPost2010PropOp35
 70
     1
102
RTVSPost2010Prop36
280
     0
102
RTVSPost2010PropOp36
 70
     1
102
RTVSPost2010Prop37
 90
       50
102
RTVSPost2010PropOp37
 70
     1
102
RTVSPost2010Prop38
140
0.0
102
RTVSPost2010PropOp38
 70
     1
102
RTVSPost2010Prop39
140
1.0
102
RTVSPost2010PropOp39
 70
     1
102
RTVSPost2010Prop40
 90
        0
102
RTVSPost2010PropOp40
 70
     1
102
RTVSPost2010Prop41ColorIndex
 90
       18
102
RTVSPost2010Prop41ColorRGB
 90
        0
102
RTVSPost2010PropOp41
 70
     1
102
RTVSPost2010Prop42
 90
       50
102
RTVSPost2010PropOp42
 70
     1
102
RTVSPost2010Prop43
 90
        3
102
RTVSPost2010PropOp43
 70
     1
102
RTVSPost2010Prop44ColorIndex
 90
        5
102
RTVSPost2010Prop44ColorRGB
 90
      255
102
RTVSPost2010PropOp44
 70
     1
102
RTVSPost2010Prop45
280
     0
102
RTVSPost2010PropOp45
 70
     1
102
RTVSPost2010Prop46
 90
       50
102
RTVSPost2010PropOp46
 70
     1
102
RTVSPost2010Prop47
 90
       50
102
RTVSPost2010PropOp47
 70
     1
102
RTVSPost2010Prop48
 90
       50
102
RTVSPost2010PropOp48
 70
     1
102
RTVSPost2010Prop49
280
     0
102
RTVSPost2010PropOp49
 70
     1
102
RTVSPost2010Prop50
 90
       50
102
RTVSPost2010PropOp50
 70
     1
102
RTVSPost2010Prop51ColorIndex
 90
      256
102
RTVSPost2010Prop51ColorRGB
 90
-16777216
102
RTVSPost2010PropOp51
 70
     0
102
RTVSPost2010Prop52
140
1.0
102
RTVSPost2010PropOp52
 70
     0
102
RTVSPost2010Prop53
 90
        2
102
RTVSPost2010PropOp53
 70
     1
102
RTVSPost2010Prop54
  1
strokes_ogs.tif
102
RTVSPost2010PropOp54
 70
     1
102
RTVSPost2010Prop55
280
     0
102
RTVSPost2010PropOp55
 70
     1
102
RTVSPost2010Prop56
140
1.0
102
RTVSPost2010PropOp56
 70
     1
102
RTVSPost2010Prop57
140
1.0
102
RTVSPost2010PropOp57
 70
     1
  0
XRECORD
  5
12F
102
{ACAD_REACTORS
330
12E
102
}
330
12E
100
AcDbXrecord
280
     1
102
RTVSPropertyOp0
 70
     1
102
RTVSPropertyOp1
 70
     1
102
RTVSPropertyOp2
 70
     1
102
RTVSPropertyOp3
 70
     1
102
RTVSPropertyOp4
 70
     1
102
RTVSPropertyOp5
 70
     1
102
RTVSPropertyOp6
 70
     1
102
RTVSPropertyOp7
 70
     1
102
RTVSPropertyOp8
 70
     1
102
RTVSPropertyOp9
 70
     1
102
RTVSPropertyOp10
 70
     1
102
RTVSPropertyOp11
 70
     1
102
RTVSPropertyOp12
 70
     1
102
RTVSPropertyOp13
 70
     1
102
RTVSPropertyOp14
 70
     1
102
RTVSPropertyOp15
 70
     1
102
RTVSPropertyOp16
 70
     1
102
RTVSPropertyOp17
 70
     1
102
RTVSPropertyOp18
 70
     1
102
RTVSPropertyOp19
 70
     1
102
RTVSPropertyOp20
 70
     1
102
RTVSPropertyOp21
 70
     1
102
RTVSPropertyOp22
 70
     1
102
RTVSPropertyOp23
 70
     1
102
RTVSPropertyOp24
 70
     1
102
RTVSPropertyOp25
 70
     1
102
RTVSPropertyOp26
 70
     1
102
RTVSPropertyOp27
 70
     1
102
RTVSPropertyOp28
 70
     1
102
RTVSPropertyOp29
 70
     1
102
RTVSPropertyOp30
 70
     1
102
RTVSPropertyOp31
 70
     1
102
RTVSPropertyOp32
 70
     1
102
RTVSPropertyOp33
 70
     1
102
RTVSPropertyOp34
 70
     1
102
RTVSPropertyOp35
 70
     1
102
RTVSPropertyOp36
 70
     1
102
RTVSPropertyOp37
 70
     1
102
RTVSPropertyOp38
 70
     1
102
RTVSPropertyOp39
 70
     1
102
RTVSPropertyOp40
 70
     1
102
RTVSPropertyOp41
 70
     1
102
RTVSPropertyOp42
 70
     1
102
RTVSPropertyOp43
 70
     1
102
RTVSPropertyOp44
 70
     1
102
RTVSPropertyOp45
 70
     1
102
RTVSPropertyOp46
 70
     1
102
RTVSPropertyOp47
 70
     1
102
RTVSPropertyOp48
 70
     1
102
RTVSPropertyOp49
 70
     1
102
RTVSPropertyOp50
 70
     1
102
RTVSPropertyOp51
 70
     0
102
RTVSPropertyOp52
 70
     0
102
RTVSPropertyOp53
 70
     1
102
RTVSPropertyOp54
 70
     1
102
RTVSPropertyOp55
 70
     1
102
RTVSPropertyOp56
 70
     1
102
RTVSPropertyOp57
 70
     1
102
RTVSPost2010Prop28
280
     0
102
RTVSPost2010PropOp28
 70
     1
102
RTVSPost2010Prop29
280
     1
102
RTVSPost2010PropOp29
 70
     1
102
RTVSPost2010Prop30
280
     1
102
RTVSPost2010PropOp30
 70
     1
102
RTVSPost2010Prop31
280
     0
102
RTVSPost2010PropOp31
 70
     1
102
RTVSPost2010Prop32
280
     0
102
RTVSPost2010PropOp32
 70
     1
102
RTVSPost2010Prop33
280
     0
102
RTVSPost2010PropOp33
 70
     1
102
RTVSPost2010Prop34
280
     0
102
RTVSPost2010PropOp34
 70
     1
102
RTVSPost2010Prop35
280
     0
102
RTVSPost2010PropOp35
 70
     1
102
RTVSPost2010Prop36
280
     0
102
RTVSPost2010PropOp36
 70
     1
102
RTVSPost2010Prop37
 90
       50
102
RTVSPost2010PropOp37
 70
     1
102
RTVSPost2010Prop38
140
0.0
102
RTVSPost2010PropOp38
 70
     1
102
RTVSPost2010Prop39
140
1.0
102
RTVSPost2010PropOp39
 70
     1
102
RTVSPost2010Prop40
 90
        0
102
RTVSPost2010PropOp40
 70
     1
102
RTVSPost2010Prop41ColorIndex
 90
       18
102
RTVSPost2010Prop41ColorRGB
 90
        0
102
RTVSPost2010PropOp41
 70
     1
102
RTVSPost2010Prop42
 90
       50
102
RTVSPost2010PropOp42
 70
     1
102
RTVSPost2010Prop43
 90
        3
102
RTVSPost2010PropOp43
 70
     1
102
RTVSPost2010Prop44ColorIndex
 90
        5
102
RTVSPost2010Prop44ColorRGB
 90
      255
102
RTVSPost2010PropOp44
 70
     1
102
RTVSPost2010Prop45
280
     0
102
RTVSPost2010PropOp45
 70
     1
102
RTVSPost2010Prop46
 90
       50
102
RTVSPost2010PropOp46
 70
     1
102
RTVSPost2010Prop47
 90
       50
102
RTVSPost2010PropOp47
 70
     1
102
RTVSPost2010Prop48
 90
       50
102
RTVSPost2010PropOp48
 70
     1
102
RTVSPost2010Prop49
280
     0
102
RTVSPost2010PropOp49
 70
     1
102
RTVSPost2010Prop50
 90
       50
102
RTVSPost2010PropOp50
 70
     1
102
RTVSPost2010Prop51ColorIndex
 90
      256
102
RTVSPost2010Prop51ColorRGB
 90
-16777216
102
RTVSPost2010PropOp51
 70
     0
102
RTVSPost2010Prop52
140
1.0
102
RTVSPost2010PropOp52
 70
     0
102
RTVSPost2010Prop53
 90
        2
102
RTVSPost2010PropOp53
 70
     1
102
RTVSPost2010Prop54
  1
strokes_ogs.tif
102
RTVSPost2010PropOp54
 70
     1
102
RTVSPost2010Prop55
280
     0
102
RTVSPost2010PropOp55
 70
     1
102
RTVSPost2010Prop56
140
1.0
102
RTVSPost2010PropOp56
 70
     1
102
RTVSPost2010Prop57
140
1.0
102
RTVSPost2010PropOp57
 70
     1
  0
XRECORD
  5
131
102
{ACAD_REACTORS
330
130
102
}
330
130
100
AcDbXrecord
280
     1
102
RTVSPropertyOp0
 70
     1
102
RTVSPropertyOp1
 70
     1
102
RTVSPropertyOp2
 70
     1
102
RTVSPropertyOp3
 70
     1
102
RTVSPropertyOp4
 70
     1
102
RTVSPropertyOp5
 70
     1
102
RTVSPropertyOp6
 70
     1
102
RTVSPropertyOp7
 70
     1
102
RTVSPropertyOp8
 70
     1
102
RTVSPropertyOp9
 70
     1
102
RTVSPropertyOp10
 70
     1
102
RTVSPropertyOp11
 70
     1
102
RTVSPropertyOp12
 70
     1
102
RTVSPropertyOp13
 70
     1
102
RTVSPropertyOp14
 70
     1
102
RTVSPropertyOp15
 70
     1
102
RTVSPropertyOp16
 70
     1
102
RTVSPropertyOp17
 70
     1
102
RTVSPropertyOp18
 70
     1
102
RTVSPropertyOp19
 70
     1
102
RTVSPropertyOp20
 70
     1
102
RTVSPropertyOp21
 70
     1
102
RTVSPropertyOp22
 70
     1
102
RTVSPropertyOp23
 70
     1
102
RTVSPropertyOp24
 70
     1
102
RTVSPropertyOp25
 70
     1
102
RTVSPropertyOp26
 70
     1
102
RTVSPropertyOp27
 70
     1
102
RTVSPropertyOp28
 70
     1
102
RTVSPropertyOp29
 70
     1
102
RTVSPropertyOp30
 70
     1
102
RTVSPropertyOp31
 70
     1
102
RTVSPropertyOp32
 70
     1
102
RTVSPropertyOp33
 70
     1
102
RTVSPropertyOp34
 70
     1
102
RTVSPropertyOp35
 70
     1
102
RTVSPropertyOp36
 70
     1
102
RTVSPropertyOp37
 70
     1
102
RTVSPropertyOp38
 70
     1
102
RTVSPropertyOp39
 70
     1
102
RTVSPropertyOp40
 70
     1
102
RTVSPropertyOp41
 70
     1
102
RTVSPropertyOp42
 70
     1
102
RTVSPropertyOp43
 70
     1
102
RTVSPropertyOp44
 70
     1
102
RTVSPropertyOp45
 70
     1
102
RTVSPropertyOp46
 70
     1
102
RTVSPropertyOp47
 70
     1
102
RTVSPropertyOp48
 70
     1
102
RTVSPropertyOp49
 70
     1
102
RTVSPropertyOp50
 70
     1
102
RTVSPropertyOp51
 70
     0
102
RTVSPropertyOp52
 70
     0
102
RTVSPropertyOp53
 70
     1
102
RTVSPropertyOp54
 70
     1
102
RTVSPropertyOp55
 70
     1
102
RTVSPropertyOp56
 70
     1
102
RTVSPropertyOp57
 70
     1
102
RTVSPost2010Prop28
280
     0
102
RTVSPost2010PropOp28
 70
     1
102
RTVSPost2010Prop29
280
     1
102
RTVSPost2010PropOp29
 70
     1
102
RTVSPost2010Prop30
280
     1
102
RTVSPost2010PropOp30
 70
     1
102
RTVSPost2010Prop31
280
     0
102
RTVSPost2010PropOp31
 70
     1
102
RTVSPost2010Prop32
280
     0
102
RTVSPost2010PropOp32
 70
     1
102
RTVSPost2010Prop33
280
     0
102
RTVSPost2010PropOp33
 70
     1
102
RTVSPost2010Prop34
280
     0
102
RTVSPost2010PropOp34
 70
     1
102
RTVSPost2010Prop35
280
     0
102
RTVSPost2010PropOp35
 70
     1
102
RTVSPost2010Prop36
280
     0
102
RTVSPost2010PropOp36
 70
     1
102
RTVSPost2010Prop37
 90
       50
102
RTVSPost2010PropOp37
 70
     1
102
RTVSPost2010Prop38
140
0.0
102
RTVSPost2010PropOp38
 70
     1
102
RTVSPost2010Prop39
140
1.0
102
RTVSPost2010PropOp39
 70
     1
102
RTVSPost2010Prop40
 90
        0
102
RTVSPost2010PropOp40
 70
     1
102
RTVSPost2010Prop41ColorIndex
 90
       18
102
RTVSPost2010Prop41ColorRGB
 90
        0
102
RTVSPost2010PropOp41
 70
     1
102
RTVSPost2010Prop42
 90
       50
102
RTVSPost2010PropOp42
 70
     1
102
RTVSPost2010Prop43
 90
        3
102
RTVSPost2010PropOp43
 70
     1
102
RTVSPost2010Prop44ColorIndex
 90
        5
102
RTVSPost2010Prop44ColorRGB
 90
      255
102
RTVSPost2010PropOp44
 70
     1
102
RTVSPost2010Prop45
280
     0
102
RTVSPost2010PropOp45
 70
     1
102
RTVSPost2010Prop46
 90
       50
102
RTVSPost2010PropOp46
 70
     1
102
RTVSPost2010Prop47
 90
       50
102
RTVSPost2010PropOp47
 70
     1
102
RTVSPost2010Prop48
 90
       50
102
RTVSPost2010PropOp48
 70
     1
102
RTVSPost2010Prop49
280
     0
102
RTVSPost2010PropOp49
 70
     1
102
RTVSPost2010Prop50
 90
       50
102
RTVSPost2010PropOp50
 70
     1
102
RTVSPost2010Prop51ColorIndex
 90
      256
102
RTVSPost2010Prop51ColorRGB
 90
-16777216
102
RTVSPost2010PropOp51
 70
     0
102
RTVSPost2010Prop52
140
1.0
102
RTVSPost2010PropOp52
 70
     0
102
RTVSPost2010Prop53
 90
        2
102
RTVSPost2010PropOp53
 70
     1
102
RTVSPost2010Prop54
  1
strokes_ogs.tif
102
RTVSPost2010PropOp54
 70
     1
102
RTVSPost2010Prop55
280
     0
102
RTVSPost2010PropOp55
 70
     1
102
RTVSPost2010Prop56
140
1.0
102
RTVSPost2010PropOp56
 70
     1
102
RTVSPost2010Prop57
140
1.0
102
RTVSPost2010PropOp57
 70
     1
  0
XRECORD
  5
137
102
{ACAD_REACTORS
330
136
102
}
330
136
100
AcDbXrecord
280
     1
102
RTVSPropertyOp0
 70
     1
102
RTVSPropertyOp1
 70
     1
102
RTVSPropertyOp2
 70
     1
102
RTVSPropertyOp3
 70
     1
102
RTVSPropertyOp4
 70
     1
102
RTVSPropertyOp5
 70
     1
102
RTVSPropertyOp6
 70
     1
102
RTVSPropertyOp7
 70
     1
102
RTVSPropertyOp8
 70
     1
102
RTVSPropertyOp9
 70
     1
102
RTVSPropertyOp10
 70
     1
102
RTVSPropertyOp11
 70
     1
102
RTVSPropertyOp12
 70
     1
102
RTVSPropertyOp13
 70
     1
102
RTVSPropertyOp14
 70
     1
102
RTVSPropertyOp15
 70
     1
102
RTVSPropertyOp16
 70
     1
102
RTVSPropertyOp17
 70
     1
102
RTVSPropertyOp18
 70
     1
102
RTVSPropertyOp19
 70
     1
102
RTVSPropertyOp20
 70
     1
102
RTVSPropertyOp21
 70
     1
102
RTVSPropertyOp22
 70
     1
102
RTVSPropertyOp23
 70
     1
102
RTVSPropertyOp24
 70
     1
102
RTVSPropertyOp25
 70
     1
102
RTVSPropertyOp26
 70
     1
102
RTVSPropertyOp27
 70
     1
102
RTVSPropertyOp28
 70
     1
102
RTVSPropertyOp29
 70
     1
102
RTVSPropertyOp30
 70
     1
102
RTVSPropertyOp31
 70
     1
102
RTVSPropertyOp32
 70
     1
102
RTVSPropertyOp33
 70
     1
102
RTVSPropertyOp34
 70
     1
102
RTVSPropertyOp35
 70
     1
102
RTVSPropertyOp36
 70
     1
102
RTVSPropertyOp37
 70
     1
102
RTVSPropertyOp38
 70
     1
102
RTVSPropertyOp39
 70
     1
102
RTVSPropertyOp40
 70
     1
102
RTVSPropertyOp41
 70
     1
102
RTVSPropertyOp42
 70
     1
102
RTVSPropertyOp43
 70
     1
102
RTVSPropertyOp44
 70
     1
102
RTVSPropertyOp45
 70
     1
102
RTVSPropertyOp46
 70
     1
102
RTVSPropertyOp47
 70
     1
102
RTVSPropertyOp48
 70
     1
102
RTVSPropertyOp49
 70
     1
102
RTVSPropertyOp50
 70
     1
102
RTVSPropertyOp51
 70
     0
102
RTVSPropertyOp52
 70
     0
102
RTVSPropertyOp53
 70
     1
102
RTVSPropertyOp54
 70
     1
102
RTVSPropertyOp55
 70
     1
102
RTVSPropertyOp56
 70
     1
102
RTVSPropertyOp57
 70
     1
102
RTVSPost2010Prop28
280
     0
102
RTVSPost2010PropOp28
 70
     1
102
RTVSPost2010Prop29
280
     1
102
RTVSPost2010PropOp29
 70
     1
102
RTVSPost2010Prop30
280
     1
102
RTVSPost2010PropOp30
 70
     1
102
RTVSPost2010Prop31
280
     0
102
RTVSPost2010PropOp31
 70
     1
102
RTVSPost2010Prop32
280
     0
102
RTVSPost2010PropOp32
 70
     1
102
RTVSPost2010Prop33
280
     0
102
RTVSPost2010PropOp33
 70
     1
102
RTVSPost2010Prop34
280
     0
102
RTVSPost2010PropOp34
 70
     1
102
RTVSPost2010Prop35
280
     0
102
RTVSPost2010PropOp35
 70
     1
102
RTVSPost2010Prop36
280
     0
102
RTVSPost2010PropOp36
 70
     1
102
RTVSPost2010Prop37
 90
       50
102
RTVSPost2010PropOp37
 70
     1
102
RTVSPost2010Prop38
140
0.0
102
RTVSPost2010PropOp38
 70
     1
102
RTVSPost2010Prop39
140
1.0
102
RTVSPost2010PropOp39
 70
     1
102
RTVSPost2010Prop40
 90
        0
102
RTVSPost2010PropOp40
 70
     1
102
RTVSPost2010Prop41ColorIndex
 90
       18
102
RTVSPost2010Prop41ColorRGB
 90
        0
102
RTVSPost2010PropOp41
 70
     1
102
RTVSPost2010Prop42
 90
       50
102
RTVSPost2010PropOp42
 70
     1
102
RTVSPost2010Prop43
 90
        3
102
RTVSPost2010PropOp43
 70
     1
102
RTVSPost2010Prop44ColorIndex
 90
        5
102
RTVSPost2010Prop44ColorRGB
 90
      255
102
RTVSPost2010PropOp44
 70
     1
102
RTVSPost2010Prop45
280
     0
102
RTVSPost2010PropOp45
 70
     1
102
RTVSPost2010Prop46
 90
       50
102
RTVSPost2010PropOp46
 70
     1
102
RTVSPost2010Prop47
 90
       50
102
RTVSPost2010PropOp47
 70
     1
102
RTVSPost2010Prop48
 90
       50
102
RTVSPost2010PropOp48
 70
     1
102
RTVSPost2010Prop49
280
     0
102
RTVSPost2010PropOp49
 70
     1
102
RTVSPost2010Prop50
 90
       50
102
RTVSPost2010PropOp50
 70
     1
102
RTVSPost2010Prop51ColorIndex
 90
      256
102
RTVSPost2010Prop51ColorRGB
 90
-16777216
102
RTVSPost2010PropOp51
 70
     0
102
RTVSPost2010Prop52
140
1.0
102
RTVSPost2010PropOp52
 70
     0
102
RTVSPost2010Prop53
 90
        2
102
RTVSPost2010PropOp53
 70
     1
102
RTVSPost2010Prop54
  1
strokes_ogs.tif
102
RTVSPost2010PropOp54
 70
     1
102
RTVSPost2010Prop55
280
     0
102
RTVSPost2010PropOp55
 70
     1
102
RTVSPost2010Prop56
140
1.0
102
RTVSPost2010PropOp56
 70
     1
102
RTVSPost2010Prop57
140
1.0
102
RTVSPost2010PropOp57
 70
     1
  0
XRECORD
  5
14B
102
{ACAD_REACTORS
330
14A
102
}
330
14A
100
AcDbXrecord
280
     1
102
RTVSPropertyOp0
 70
     0
102
RTVSPropertyOp1
 70
     0
102
RTVSPropertyOp2
 70
     0
102
RTVSPropertyOp3
 70
     0
102
RTVSPropertyOp4
 70
     0
102
RTVSPropertyOp5
 70
     0
102
RTVSPropertyOp6
 70
     0
102
RTVSPropertyOp7
 70
     0
102
RTVSPropertyOp8
 70
     0
102
RTVSPropertyOp9
 70
     0
102
RTVSPropertyOp10
 70
     0
102
RTVSPropertyOp11
 70
     0
102
RTVSPropertyOp12
 70
     0
102
RTVSPropertyOp13
 70
     0
102
RTVSPropertyOp14
 70
     2
102
RTVSPropertyOp15
 70
     0
102
RTVSPropertyOp16
 70
     0
102
RTVSPropertyOp17
 70
     0
102
RTVSPropertyOp18
 70
     0
102
RTVSPropertyOp19
 70
     0
102
RTVSPropertyOp20
 70
     0
102
RTVSPropertyOp21
 70
     0
102
RTVSPropertyOp22
 70
     0
102
RTVSPropertyOp23
 70
     0
102
RTVSPropertyOp24
 70
     0
102
RTVSPropertyOp25
 70
     0
102
RTVSPropertyOp26
 70
     0
102
RTVSPropertyOp27
 70
     0
102
RTVSPropertyOp28
 70
     0
102
RTVSPropertyOp29
 70
     0
102
RTVSPropertyOp30
 70
     0
102
RTVSPropertyOp31
 70
     0
102
RTVSPropertyOp32
 70
     0
102
RTVSPropertyOp33
 70
     0
102
RTVSPropertyOp34
 70
     0
102
RTVSPropertyOp35
 70
     0
102
RTVSPropertyOp36
 70
     0
102
RTVSPropertyOp37
 70
     0
102
RTVSPropertyOp38
 70
     0
102
RTVSPropertyOp39
 70
     0
102
RTVSPropertyOp40
 70
     0
102
RTVSPropertyOp41
 70
     0
102
RTVSPropertyOp42
 70
     0
102
RTVSPropertyOp43
 70
     0
102
RTVSPropertyOp44
 70
     0
102
RTVSPropertyOp45
 70
     0
102
RTVSPropertyOp46
 70
     0
102
RTVSPropertyOp47
 70
     0
102
RTVSPropertyOp48
 70
     0
102
RTVSPropertyOp49
 70
     0
102
RTVSPropertyOp50
 70
     0
102
RTVSPropertyOp51
 70
     0
102
RTVSPropertyOp52
 70
     0
102
RTVSPropertyOp53
 70
     0
102
RTVSPropertyOp54
 70
     0
102
RTVSPropertyOp55
 70
     0
102
RTVSPropertyOp56
 70
     0
102
RTVSPropertyOp57
 70
     0
102
RTVSPost2010Prop28
280
     0
102
RTVSPost2010PropOp28
 70
     0
102
RTVSPost2010Prop29
280
     1
102
RTVSPost2010PropOp29
 70
     0
102
RTVSPost2010Prop30
280
     1
102
RTVSPost2010PropOp30
 70
     0
102
RTVSPost2010Prop31
280
     0
102
RTVSPost2010PropOp31
 70
     0
102
RTVSPost2010Prop32
280
     0
102
RTVSPost2010PropOp32
 70
     0
102
RTVSPost2010Prop33
280
     0
102
RTVSPost2010PropOp33
 70
     0
102
RTVSPost2010Prop34
280
     0
102
RTVSPost2010PropOp34
 70
     0
102
RTVSPost2010Prop35
280
     0
102
RTVSPost2010PropOp35
 70
     0
102
RTVSPost2010Prop36
280
     0
102
RTVSPost2010PropOp36
 70
     0
102
RTVSPost2010Prop37
 90
       50
102
RTVSPost2010PropOp37
 70
     0
102
RTVSPost2010Prop38
140
0.0
102
RTVSPost2010PropOp38
 70
     0
102
RTVSPost2010Prop39
140
1.0
102
RTVSPost2010PropOp39
 70
     0
102
RTVSPost2010Prop40
 90
        0
102
RTVSPost2010PropOp40
 70
     0
102
RTVSPost2010Prop41ColorIndex
 90
       18
102
RTVSPost2010Prop41ColorRGB
 90
        0
102
RTVSPost2010PropOp41
 70
     0
102
RTVSPost2010Prop42
 90
       50
102
RTVSPost2010PropOp42
 70
     0
102
RTVSPost2010Prop43
 90
        3
102
RTVSPost2010PropOp43
 70
     0
102
RTVSPost2010Prop44ColorIndex
 90
        5
102
RTVSPost2010Prop44ColorRGB
 90
      255
102
RTVSPost2010PropOp44
 70
     0
102
RTVSPost2010Prop45
280
     0
102
RTVSPost2010PropOp45
 70
     0
102
RTVSPost2010Prop46
 90
       50
102
RTVSPost2010PropOp46
 70
     0
102
RTVSPost2010Prop47
 90
       50
102
RTVSPost2010PropOp47
 70
     0
102
RTVSPost2010Prop48
 90
       50
102
RTVSPost2010PropOp48
 70
     0
102
RTVSPost2010Prop49
280
     0
102
RTVSPost2010PropOp49
 70
     0
102
RTVSPost2010Prop50
 90
       50
102
RTVSPost2010PropOp50
 70
     0
102
RTVSPost2010Prop51ColorIndex
 90
      256
102
RTVSPost2010Prop51ColorRGB
 90
-16777216
102
RTVSPost2010PropOp51
 70
     0
102
RTVSPost2010Prop52
140
1.0
102
RTVSPost2010PropOp52
 70
     0
102
RTVSPost2010Prop53
 90
        2
102
RTVSPost2010PropOp53
 70
     0
102
RTVSPost2010Prop54
  1
strokes_ogs.tif
102
RTVSPost2010PropOp54
 70
     0
102
RTVSPost2010Prop55
280
     0
102
RTVSPost2010PropOp55
 70
     0
102
RTVSPost2010Prop56
140
1.0
102
RTVSPost2010PropOp56
 70
     0
102
RTVSPost2010Prop57
140
1.0
102
RTVSPost2010PropOp57
 70
     0
  0
XRECORD
  5
145
102
{ACAD_REACTORS
330
144
102
}
330
144
100
AcDbXrecord
280
     1
102
RTVSPropertyOp0
 70
     1
102
RTVSPropertyOp1
 70
     1
102
RTVSPropertyOp2
 70
     1
102
RTVSPropertyOp3
 70
     1
102
RTVSPropertyOp4
 70
     1
102
RTVSPropertyOp5
 70
     1
102
RTVSPropertyOp6
 70
     1
102
RTVSPropertyOp7
 70
     1
102
RTVSPropertyOp8
 70
     1
102
RTVSPropertyOp9
 70
     1
102
RTVSPropertyOp10
 70
     1
102
RTVSPropertyOp11
 70
     1
102
RTVSPropertyOp12
 70
     1
102
RTVSPropertyOp13
 70
     1
102
RTVSPropertyOp14
 70
     1
102
RTVSPropertyOp15
 70
     1
102
RTVSPropertyOp16
 70
     1
102
RTVSPropertyOp17
 70
     1
102
RTVSPropertyOp18
 70
     1
102
RTVSPropertyOp19
 70
     1
102
RTVSPropertyOp20
 70
     1
102
RTVSPropertyOp21
 70
     1
102
RTVSPropertyOp22
 70
     1
102
RTVSPropertyOp23
 70
     1
102
RTVSPropertyOp24
 70
     1
102
RTVSPropertyOp25
 70
     1
102
RTVSPropertyOp26
 70
     1
102
RTVSPropertyOp27
 70
     1
102
RTVSPropertyOp28
 70
     1
102
RTVSPropertyOp29
 70
     1
102
RTVSPropertyOp30
 70
     1
102
RTVSPropertyOp31
 70
     1
102
RTVSPropertyOp32
 70
     1
102
RTVSPropertyOp33
 70
     1
102
RTVSPropertyOp34
 70
     1
102
RTVSPropertyOp35
 70
     1
102
RTVSPropertyOp36
 70
     1
102
RTVSPropertyOp37
 70
     1
102
RTVSPropertyOp38
 70
     1
102
RTVSPropertyOp39
 70
     1
102
RTVSPropertyOp40
 70
     1
102
RTVSPropertyOp41
 70
     1
102
RTVSPropertyOp42
 70
     1
102
RTVSPropertyOp43
 70
     1
102
RTVSPropertyOp44
 70
     1
102
RTVSPropertyOp45
 70
     1
102
RTVSPropertyOp46
 70
     1
102
RTVSPropertyOp47
 70
     1
102
RTVSPropertyOp48
 70
     1
102
RTVSPropertyOp49
 70
     1
102
RTVSPropertyOp50
 70
     1
102
RTVSPropertyOp51
 70
     0
102
RTVSPropertyOp52
 70
     0
102
RTVSPropertyOp53
 70
     1
102
RTVSPropertyOp54
 70
     1
102
RTVSPropertyOp55
 70
     1
102
RTVSPropertyOp56
 70
     1
102
RTVSPropertyOp57
 70
     1
102
RTVSPost2010Prop28
280
     0
102
RTVSPost2010PropOp28
 70
     1
102
RTVSPost2010Prop29
280
     1
102
RTVSPost2010PropOp29
 70
     1
102
RTVSPost2010Prop30
280
     1
102
RTVSPost2010PropOp30
 70
     1
102
RTVSPost2010Prop31
280
     0
102
RTVSPost2010PropOp31
 70
     1
102
RTVSPost2010Prop32
280
     0
102
RTVSPost2010PropOp32
 70
     1
102
RTVSPost2010Prop33
280
     0
102
RTVSPost2010PropOp33
 70
     1
102
RTVSPost2010Prop34
280
     0
102
RTVSPost2010PropOp34
 70
     1
102
RTVSPost2010Prop35
280
     0
102
RTVSPost2010PropOp35
 70
     1
102
RTVSPost2010Prop36
280
     0
102
RTVSPost2010PropOp36
 70
     1
102
RTVSPost2010Prop37
 90
       50
102
RTVSPost2010PropOp37
 70
     1
102
RTVSPost2010Prop38
140
0.0
102
RTVSPost2010PropOp38
 70
     1
102
RTVSPost2010Prop39
140
1.0
102
RTVSPost2010PropOp39
 70
     1
102
RTVSPost2010Prop40
 90
        0
102
RTVSPost2010PropOp40
 70
     1
102
RTVSPost2010Prop41ColorIndex
 90
       18
102
RTVSPost2010Prop41ColorRGB
 90
        0
102
RTVSPost2010PropOp41
 70
     1
102
RTVSPost2010Prop42
 90
       50
102
RTVSPost2010PropOp42
 70
     1
102
RTVSPost2010Prop43
 90
        3
102
RTVSPost2010PropOp43
 70
     1
102
RTVSPost2010Prop44ColorIndex
 90
        5
102
RTVSPost2010Prop44ColorRGB
 90
      255
102
RTVSPost2010PropOp44
 70
     1
102
RTVSPost2010Prop45
280
     0
102
RTVSPost2010PropOp45
 70
     1
102
RTVSPost2010Prop46
 90
       50
102
RTVSPost2010PropOp46
 70
     1
102
RTVSPost2010Prop47
 90
       50
102
RTVSPost2010PropOp47
 70
     1
102
RTVSPost2010Prop48
 90
       50
102
RTVSPost2010PropOp48
 70
     1
102
RTVSPost2010Prop49
280
     0
102
RTVSPost2010PropOp49
 70
     1
102
RTVSPost2010Prop50
 90
       50
102
RTVSPost2010PropOp50
 70
     1
102
RTVSPost2010Prop51ColorIndex
 90
      256
102
RTVSPost2010Prop51ColorRGB
 90
-16777216
102
RTVSPost2010PropOp51
 70
     0
102
RTVSPost2010Prop52
140
1.0
102
RTVSPost2010PropOp52
 70
     0
102
RTVSPost2010Prop53
 90
        2
102
RTVSPost2010PropOp53
 70
     1
102
RTVSPost2010Prop54
  1
strokes_ogs.tif
102
RTVSPost2010PropOp54
 70
     1
102
RTVSPost2010Prop55
280
     0
102
RTVSPost2010PropOp55
 70
     1
102
RTVSPost2010Prop56
140
1.0
102
RTVSPost2010PropOp56
 70
     1
102
RTVSPost2010Prop57
140
1.0
102
RTVSPost2010PropOp57
 70
     1
  0
XRECORD
  5
14D
102
{ACAD_REACTORS
330
14C
102
}
330
14C
100
AcDbXrecord
280
     1
102
RTVSPropertyOp0
 70
     0
102
RTVSPropertyOp1
 70
     0
102
RTVSPropertyOp2
 70
     0
102
RTVSPropertyOp3
 70
     0
102
RTVSPropertyOp4
 70
     0
102
RTVSPropertyOp5
 70
     0
102
RTVSPropertyOp6
 70
     0
102
RTVSPropertyOp7
 70
     0
102
RTVSPropertyOp8
 70
     0
102
RTVSPropertyOp9
 70
     0
102
RTVSPropertyOp10
 70
     0
102
RTVSPropertyOp11
 70
     0
102
RTVSPropertyOp12
 70
     0
102
RTVSPropertyOp13
 70
     0
102
RTVSPropertyOp14
 70
     2
102
RTVSPropertyOp15
 70
     0
102
RTVSPropertyOp16
 70
     0
102
RTVSPropertyOp17
 70
     0
102
RTVSPropertyOp18
 70
     0
102
RTVSPropertyOp19
 70
     0
102
RTVSPropertyOp20
 70
     0
102
RTVSPropertyOp21
 70
     0
102
RTVSPropertyOp22
 70
     0
102
RTVSPropertyOp23
 70
     0
102
RTVSPropertyOp24
 70
     0
102
RTVSPropertyOp25
 70
     0
102
RTVSPropertyOp26
 70
     0
102
RTVSPropertyOp27
 70
     0
102
RTVSPropertyOp28
 70
     0
102
RTVSPropertyOp29
 70
     0
102
RTVSPropertyOp30
 70
     0
102
RTVSPropertyOp31
 70
     0
102
RTVSPropertyOp32
 70
     0
102
RTVSPropertyOp33
 70
     0
102
RTVSPropertyOp34
 70
     0
102
RTVSPropertyOp35
 70
     0
102
RTVSPropertyOp36
 70
     0
102
RTVSPropertyOp37
 70
     0
102
RTVSPropertyOp38
 70
     0
102
RTVSPropertyOp39
 70
     0
102
RTVSPropertyOp40
 70
     0
102
RTVSPropertyOp41
 70
     0
102
RTVSPropertyOp42
 70
     0
102
RTVSPropertyOp43
 70
     0
102
RTVSPropertyOp44
 70
     0
102
RTVSPropertyOp45
 70
     0
102
RTVSPropertyOp46
 70
     0
102
RTVSPropertyOp47
 70
     0
102
RTVSPropertyOp48
 70
     0
102
RTVSPropertyOp49
 70
     0
102
RTVSPropertyOp50
 70
     0
102
RTVSPropertyOp51
 70
     0
102
RTVSPropertyOp52
 70
     0
102
RTVSPropertyOp53
 70
     0
102
RTVSPropertyOp54
 70
     0
102
RTVSPropertyOp55
 70
     0
102
RTVSPropertyOp56
 70
     0
102
RTVSPropertyOp57
 70
     0
102
RTVSPost2010Prop28
280
     0
102
RTVSPost2010PropOp28
 70
     0
102
RTVSPost2010Prop29
280
     1
102
RTVSPost2010PropOp29
 70
     0
102
RTVSPost2010Prop30
280
     1
102
RTVSPost2010PropOp30
 70
     0
102
RTVSPost2010Prop31
280
     0
102
RTVSPost2010PropOp31
 70
     0
102
RTVSPost2010Prop32
280
     0
102
RTVSPost2010PropOp32
 70
     0
102
RTVSPost2010Prop33
280
     0
102
RTVSPost2010PropOp33
 70
     0
102
RTVSPost2010Prop34
280
     0
102
RTVSPost2010PropOp34
 70
     0
102
RTVSPost2010Prop35
280
     0
102
RTVSPost2010PropOp35
 70
     0
102
RTVSPost2010Prop36
280
     0
102
RTVSPost2010PropOp36
 70
     0
102
RTVSPost2010Prop37
 90
       50
102
RTVSPost2010PropOp37
 70
     0
102
RTVSPost2010Prop38
140
0.0
102
RTVSPost2010PropOp38
 70
     0
102
RTVSPost2010Prop39
140
1.0
102
RTVSPost2010PropOp39
 70
     0
102
RTVSPost2010Prop40
 90
        0
102
RTVSPost2010PropOp40
 70
     0
102
RTVSPost2010Prop41ColorIndex
 90
       18
102
RTVSPost2010Prop41ColorRGB
 90
        0
102
RTVSPost2010PropOp41
 70
     0
102
RTVSPost2010Prop42
 90
       50
102
RTVSPost2010PropOp42
 70
     0
102
RTVSPost2010Prop43
 90
        3
102
RTVSPost2010PropOp43
 70
     0
102
RTVSPost2010Prop44ColorIndex
 90
        5
102
RTVSPost2010Prop44ColorRGB
 90
      255
102
RTVSPost2010PropOp44
 70
     0
102
RTVSPost2010Prop45
280
     0
102
RTVSPost2010PropOp45
 70
     0
102
RTVSPost2010Prop46
 90
       50
102
RTVSPost2010PropOp46
 70
     0
102
RTVSPost2010Prop47
 90
       50
102
RTVSPost2010PropOp47
 70
     0
102
RTVSPost2010Prop48
 90
       50
102
RTVSPost2010PropOp48
 70
     0
102
RTVSPost2010Prop49
280
     0
102
RTVSPost2010PropOp49
 70
     0
102
RTVSPost2010Prop50
 90
       50
102
RTVSPost2010PropOp50
 70
     0
102
RTVSPost2010Prop51ColorIndex
 90
      256
102
RTVSPost2010Prop51ColorRGB
 90
-16777216
102
RTVSPost2010PropOp51
 70
     0
102
RTVSPost2010Prop52
140
1.0
102
RTVSPost2010PropOp52
 70
     0
102
RTVSPost2010Prop53
 90
        2
102
RTVSPost2010PropOp53
 70
     0
102
RTVSPost2010Prop54
  1
strokes_ogs.tif
102
RTVSPost2010PropOp54
 70
     0
102
RTVSPost2010Prop55
280
     0
102
RTVSPost2010PropOp55
 70
     0
102
RTVSPost2010Prop56
140
1.0
102
RTVSPost2010PropOp56
 70
     0
102
RTVSPost2010Prop57
140
1.0
102
RTVSPost2010PropOp57
 70
     0
  0
XRECORD
  5
13B
102
{ACAD_REACTORS
330
13A
102
}
330
13A
100
AcDbXrecord
280
     1
102
RTVSPropertyOp0
 70
     1
102
RTVSPropertyOp1
 70
     1
102
RTVSPropertyOp2
 70
     1
102
RTVSPropertyOp3
 70
     1
102
RTVSPropertyOp4
 70
     1
102
RTVSPropertyOp5
 70
     1
102
RTVSPropertyOp6
 70
     1
102
RTVSPropertyOp7
 70
     1
102
RTVSPropertyOp8
 70
     1
102
RTVSPropertyOp9
 70
     1
102
RTVSPropertyOp10
 70
     1
102
RTVSPropertyOp11
 70
     1
102
RTVSPropertyOp12
 70
     1
102
RTVSPropertyOp13
 70
     1
102
RTVSPropertyOp14
 70
     1
102
RTVSPropertyOp15
 70
     1
102
RTVSPropertyOp16
 70
     1
102
RTVSPropertyOp17
 70
     1
102
RTVSPropertyOp18
 70
     1
102
RTVSPropertyOp19
 70
     1
102
RTVSPropertyOp20
 70
     1
102
RTVSPropertyOp21
 70
     1
102
RTVSPropertyOp22
 70
     1
102
RTVSPropertyOp23
 70
     1
102
RTVSPropertyOp24
 70
     1
102
RTVSPropertyOp25
 70
     1
102
RTVSPropertyOp26
 70
     1
102
RTVSPropertyOp27
 70
     1
102
RTVSPropertyOp28
 70
     1
102
RTVSPropertyOp29
 70
     1
102
RTVSPropertyOp30
 70
     1
102
RTVSPropertyOp31
 70
     1
102
RTVSPropertyOp32
 70
     1
102
RTVSPropertyOp33
 70
     1
102
RTVSPropertyOp34
 70
     1
102
RTVSPropertyOp35
 70
     1
102
RTVSPropertyOp36
 70
     1
102
RTVSPropertyOp37
 70
     1
102
RTVSPropertyOp38
 70
     1
102
RTVSPropertyOp39
 70
     1
102
RTVSPropertyOp40
 70
     1
102
RTVSPropertyOp41
 70
     1
102
RTVSPropertyOp42
 70
     1
102
RTVSPropertyOp43
 70
     1
102
RTVSPropertyOp44
 70
     1
102
RTVSPropertyOp45
 70
     1
102
RTVSPropertyOp46
 70
     1
102
RTVSPropertyOp47
 70
     1
102
RTVSPropertyOp48
 70
     1
102
RTVSPropertyOp49
 70
     1
102
RTVSPropertyOp50
 70
     1
102
RTVSPropertyOp51
 70
     0
102
RTVSPropertyOp52
 70
     0
102
RTVSPropertyOp53
 70
     1
102
RTVSPropertyOp54
 70
     1
102
RTVSPropertyOp55
 70
     1
102
RTVSPropertyOp56
 70
     1
102
RTVSPropertyOp57
 70
     1
102
RTVSPost2010Prop28
280
     0
102
RTVSPost2010PropOp28
 70
     1
102
RTVSPost2010Prop29
280
     1
102
RTVSPost2010PropOp29
 70
     1
102
RTVSPost2010Prop30
280
     1
102
RTVSPost2010PropOp30
 70
     1
102
RTVSPost2010Prop31
280
     0
102
RTVSPost2010PropOp31
 70
     1
102
RTVSPost2010Prop32
280
     0
102
RTVSPost2010PropOp32
 70
     1
102
RTVSPost2010Prop33
280
     0
102
RTVSPost2010PropOp33
 70
     1
102
RTVSPost2010Prop34
280
     0
102
RTVSPost2010PropOp34
 70
     1
102
RTVSPost2010Prop35
280
     0
102
RTVSPost2010PropOp35
 70
     1
102
RTVSPost2010Prop36
280
     0
102
RTVSPost2010PropOp36
 70
     1
102
RTVSPost2010Prop37
 90
       50
102
RTVSPost2010PropOp37
 70
     1
102
RTVSPost2010Prop38
140
0.0
102
RTVSPost2010PropOp38
 70
     1
102
RTVSPost2010Prop39
140
1.0
102
RTVSPost2010PropOp39
 70
     1
102
RTVSPost2010Prop40
 90
        0
102
RTVSPost2010PropOp40
 70
     1
102
RTVSPost2010Prop41ColorIndex
 90
       18
102
RTVSPost2010Prop41ColorRGB
 90
        0
102
RTVSPost2010PropOp41
 70
     1
102
RTVSPost2010Prop42
 90
       50
102
RTVSPost2010PropOp42
 70
     1
102
RTVSPost2010Prop43
 90
        3
102
RTVSPost2010PropOp43
 70
     1
102
RTVSPost2010Prop44ColorIndex
 90
        5
102
RTVSPost2010Prop44ColorRGB
 90
      255
102
RTVSPost2010PropOp44
 70
     1
102
RTVSPost2010Prop45
280
     0
102
RTVSPost2010PropOp45
 70
     1
102
RTVSPost2010Prop46
 90
       50
102
RTVSPost2010PropOp46
 70
     1
102
RTVSPost2010Prop47
 90
       50
102
RTVSPost2010PropOp47
 70
     1
102
RTVSPost2010Prop48
 90
       50
102
RTVSPost2010PropOp48
 70
     1
102
RTVSPost2010Prop49
280
     0
102
RTVSPost2010PropOp49
 70
     1
102
RTVSPost2010Prop50
 90
       50
102
RTVSPost2010PropOp50
 70
     1
102
RTVSPost2010Prop51ColorIndex
 90
      256
102
RTVSPost2010Prop51ColorRGB
 90
-16777216
102
RTVSPost2010PropOp51
 70
     0
102
RTVSPost2010Prop52
140
1.0
102
RTVSPost2010PropOp52
 70
     0
102
RTVSPost2010Prop53
 90
        2
102
RTVSPost2010PropOp53
 70
     1
102
RTVSPost2010Prop54
  1
strokes_ogs.tif
102
RTVSPost2010PropOp54
 70
     1
102
RTVSPost2010Prop55
280
     0
102
RTVSPost2010PropOp55
 70
     1
102
RTVSPost2010Prop56
140
1.0
102
RTVSPost2010PropOp56
 70
     1
102
RTVSPost2010Prop57
140
1.0
102
RTVSPost2010PropOp57
 70
     1
  0
XRECORD
  5
159
102
{ACAD_REACTORS
330
158
102
}
330
158
100
AcDbXrecord
280
     1
102
RTVSPropertyOp0
 70
     1
102
RTVSPropertyOp1
 70
     1
102
RTVSPropertyOp2
 70
     1
102
RTVSPropertyOp3
 70
     1
102
RTVSPropertyOp4
 70
     1
102
RTVSPropertyOp5
 70
     1
102
RTVSPropertyOp6
 70
     1
102
RTVSPropertyOp7
 70
     1
102
RTVSPropertyOp8
 70
     1
102
RTVSPropertyOp9
 70
     1
102
RTVSPropertyOp10
 70
     1
102
RTVSPropertyOp11
 70
     1
102
RTVSPropertyOp12
 70
     1
102
RTVSPropertyOp13
 70
     1
102
RTVSPropertyOp14
 70
     1
102
RTVSPropertyOp15
 70
     1
102
RTVSPropertyOp16
 70
     1
102
RTVSPropertyOp17
 70
     1
102
RTVSPropertyOp18
 70
     1
102
RTVSPropertyOp19
 70
     1
102
RTVSPropertyOp20
 70
     1
102
RTVSPropertyOp21
 70
     1
102
RTVSPropertyOp22
 70
     1
102
RTVSPropertyOp23
 70
     1
102
RTVSPropertyOp24
 70
     1
102
RTVSPropertyOp25
 70
     1
102
RTVSPropertyOp26
 70
     1
102
RTVSPropertyOp27
 70
     1
102
RTVSPropertyOp28
 70
     1
102
RTVSPropertyOp29
 70
     1
102
RTVSPropertyOp30
 70
     1
102
RTVSPropertyOp31
 70
     1
102
RTVSPropertyOp32
 70
     1
102
RTVSPropertyOp33
 70
     1
102
RTVSPropertyOp34
 70
     1
102
RTVSPropertyOp35
 70
     1
102
RTVSPropertyOp36
 70
     1
102
RTVSPropertyOp37
 70
     1
102
RTVSPropertyOp38
 70
     1
102
RTVSPropertyOp39
 70
     1
102
RTVSPropertyOp40
 70
     1
102
RTVSPropertyOp41
 70
     1
102
RTVSPropertyOp42
 70
     1
102
RTVSPropertyOp43
 70
     1
102
RTVSPropertyOp44
 70
     1
102
RTVSPropertyOp45
 70
     1
102
RTVSPropertyOp46
 70
     1
102
RTVSPropertyOp47
 70
     1
102
RTVSPropertyOp48
 70
     1
102
RTVSPropertyOp49
 70
     1
102
RTVSPropertyOp50
 70
     1
102
RTVSPropertyOp51
 70
     0
102
RTVSPropertyOp52
 70
     0
102
RTVSPropertyOp53
 70
     1
102
RTVSPropertyOp54
 70
     1
102
RTVSPropertyOp55
 70
     1
102
RTVSPropertyOp56
 70
     1
102
RTVSPropertyOp57
 70
     1
102
RTVSPost2010Prop28
280
     0
102
RTVSPost2010PropOp28
 70
     1
102
RTVSPost2010Prop29
280
     1
102
RTVSPost2010PropOp29
 70
     1
102
RTVSPost2010Prop30
280
     1
102
RTVSPost2010PropOp30
 70
     1
102
RTVSPost2010Prop31
280
     0
102
RTVSPost2010PropOp31
 70
     1
102
RTVSPost2010Prop32
280
     0
102
RTVSPost2010PropOp32
 70
     1
102
RTVSPost2010Prop33
280
     0
102
RTVSPost2010PropOp33
 70
     1
102
RTVSPost2010Prop34
280
     0
102
RTVSPost2010PropOp34
 70
     1
102
RTVSPost2010Prop35
280
     0
102
RTVSPost2010PropOp35
 70
     1
102
RTVSPost2010Prop36
280
     0
102
RTVSPost2010PropOp36
 70
     1
102
RTVSPost2010Prop37
 90
       50
102
RTVSPost2010PropOp37
 70
     1
102
RTVSPost2010Prop38
140
0.0
102
RTVSPost2010PropOp38
 70
     1
102
RTVSPost2010Prop39
140
1.0
102
RTVSPost2010PropOp39
 70
     1
102
RTVSPost2010Prop40
 90
        0
102
RTVSPost2010PropOp40
 70
     1
102
RTVSPost2010Prop41ColorIndex
 90
       18
102
RTVSPost2010Prop41ColorRGB
 90
        0
102
RTVSPost2010PropOp41
 70
     1
102
RTVSPost2010Prop42
 90
       50
102
RTVSPost2010PropOp42
 70
     1
102
RTVSPost2010Prop43
 90
        3
102
RTVSPost2010PropOp43
 70
     1
102
RTVSPost2010Prop44ColorIndex
 90
        5
102
RTVSPost2010Prop44ColorRGB
 90
      255
102
RTVSPost2010PropOp44
 70
     1
102
RTVSPost2010Prop45
280
     0
102
RTVSPost2010PropOp45
 70
     1
102
RTVSPost2010Prop46
 90
       50
102
RTVSPost2010PropOp46
 70
     1
102
RTVSPost2010Prop47
 90
       50
102
RTVSPost2010PropOp47
 70
     1
102
RTVSPost2010Prop48
 90
       50
102
RTVSPost2010PropOp48
 70
     1
102
RTVSPost2010Prop49
280
     0
102
RTVSPost2010PropOp49
 70
     1
102
RTVSPost2010Prop50
 90
       50
102
RTVSPost2010PropOp50
 70
     1
102
RTVSPost2010Prop51ColorIndex
 90
      256
102
RTVSPost2010Prop51ColorRGB
 90
-16777216
102
RTVSPost2010PropOp51
 70
     0
102
RTVSPost2010Prop52
140
1.0
102
RTVSPost2010PropOp52
 70
     0
102
RTVSPost2010Prop53
 90
        2
102
RTVSPost2010PropOp53
 70
     1
102
RTVSPost2010Prop54
  1
strokes_ogs.tif
102
RTVSPost2010PropOp54
 70
     1
102
RTVSPost2010Prop55
280
     0
102
RTVSPost2010PropOp55
 70
     1
102
RTVSPost2010Prop56
140
1.0
102
RTVSPost2010PropOp56
 70
     1
102
RTVSPost2010Prop57
140
1.0
102
RTVSPost2010PropOp57
 70
     1
  0
XRECORD
  5
157
102
{ACAD_REACTORS
330
156
102
}
330
156
100
AcDbXrecord
280
     1
102
RTVSPropertyOp0
 70
     1
102
RTVSPropertyOp1
 70
     1
102
RTVSPropertyOp2
 70
     1
102
RTVSPropertyOp3
 70
     1
102
RTVSPropertyOp4
 70
     1
102
RTVSPropertyOp5
 70
     1
102
RTVSPropertyOp6
 70
     1
102
RTVSPropertyOp7
 70
     1
102
RTVSPropertyOp8
 70
     1
102
RTVSPropertyOp9
 70
     1
102
RTVSPropertyOp10
 70
     1
102
RTVSPropertyOp11
 70
     1
102
RTVSPropertyOp12
 70
     1
102
RTVSPropertyOp13
 70
     1
102
RTVSPropertyOp14
 70
     1
102
RTVSPropertyOp15
 70
     1
102
RTVSPropertyOp16
 70
     1
102
RTVSPropertyOp17
 70
     1
102
RTVSPropertyOp18
 70
     1
102
RTVSPropertyOp19
 70
     1
102
RTVSPropertyOp20
 70
     1
102
RTVSPropertyOp21
 70
     1
102
RTVSPropertyOp22
 70
     1
102
RTVSPropertyOp23
 70
     1
102
RTVSPropertyOp24
 70
     1
102
RTVSPropertyOp25
 70
     1
102
RTVSPropertyOp26
 70
     1
102
RTVSPropertyOp27
 70
     1
102
RTVSPropertyOp28
 70
     1
102
RTVSPropertyOp29
 70
     1
102
RTVSPropertyOp30
 70
     1
102
RTVSPropertyOp31
 70
     1
102
RTVSPropertyOp32
 70
     1
102
RTVSPropertyOp33
 70
     1
102
RTVSPropertyOp34
 70
     1
102
RTVSPropertyOp35
 70
     1
102
RTVSPropertyOp36
 70
     1
102
RTVSPropertyOp37
 70
     1
102
RTVSPropertyOp38
 70
     1
102
RTVSPropertyOp39
 70
     1
102
RTVSPropertyOp40
 70
     1
102
RTVSPropertyOp41
 70
     1
102
RTVSPropertyOp42
 70
     1
102
RTVSPropertyOp43
 70
     1
102
RTVSPropertyOp44
 70
     1
102
RTVSPropertyOp45
 70
     1
102
RTVSPropertyOp46
 70
     1
102
RTVSPropertyOp47
 70
     1
102
RTVSPropertyOp48
 70
     1
102
RTVSPropertyOp49
 70
     1
102
RTVSPropertyOp50
 70
     1
102
RTVSPropertyOp51
 70
     0
102
RTVSPropertyOp52
 70
     0
102
RTVSPropertyOp53
 70
     1
102
RTVSPropertyOp54
 70
     1
102
RTVSPropertyOp55
 70
     1
102
RTVSPropertyOp56
 70
     1
102
RTVSPropertyOp57
 70
     1
102
RTVSPost2010Prop28
280
     0
102
RTVSPost2010PropOp28
 70
     1
102
RTVSPost2010Prop29
280
     1
102
RTVSPost2010PropOp29
 70
     1
102
RTVSPost2010Prop30
280
     1
102
RTVSPost2010PropOp30
 70
     1
102
RTVSPost2010Prop31
280
     0
102
RTVSPost2010PropOp31
 70
     1
102
RTVSPost2010Prop32
280
     0
102
RTVSPost2010PropOp32
 70
     1
102
RTVSPost2010Prop33
280
     0
102
RTVSPost2010PropOp33
 70
     1
102
RTVSPost2010Prop34
280
     0
102
RTVSPost2010PropOp34
 70
     1
102
RTVSPost2010Prop35
280
     0
102
RTVSPost2010PropOp35
 70
     1
102
RTVSPost2010Prop36
280
     0
102
RTVSPost2010PropOp36
 70
     1
102
RTVSPost2010Prop37
 90
       50
102
RTVSPost2010PropOp37
 70
     1
102
RTVSPost2010Prop38
140
0.0
102
RTVSPost2010PropOp38
 70
     1
102
RTVSPost2010Prop39
140
1.0
102
RTVSPost2010PropOp39
 70
     1
102
RTVSPost2010Prop40
 90
        0
102
RTVSPost2010PropOp40
 70
     1
102
RTVSPost2010Prop41ColorIndex
 90
       18
102
RTVSPost2010Prop41ColorRGB
 90
        0
102
RTVSPost2010PropOp41
 70
     1
102
RTVSPost2010Prop42
 90
       50
102
RTVSPost2010PropOp42
 70
     1
102
RTVSPost2010Prop43
 90
        3
102
RTVSPost2010PropOp43
 70
     1
102
RTVSPost2010Prop44ColorIndex
 90
        5
102
RTVSPost2010Prop44ColorRGB
 90
      255
102
RTVSPost2010PropOp44
 70
     1
102
RTVSPost2010Prop45
280
     0
102
RTVSPost2010PropOp45
 70
     1
102
RTVSPost2010Prop46
 90
       50
102
RTVSPost2010PropOp46
 70
     1
102
RTVSPost2010Prop47
 90
       50
102
RTVSPost2010PropOp47
 70
     1
102
RTVSPost2010Prop48
 90
       50
102
RTVSPost2010PropOp48
 70
     1
102
RTVSPost2010Prop49
280
     0
102
RTVSPost2010PropOp49
 70
     1
102
RTVSPost2010Prop50
 90
       50
102
RTVSPost2010PropOp50
 70
     1
102
RTVSPost2010Prop51ColorIndex
 90
      256
102
RTVSPost2010Prop51ColorRGB
 90
-16777216
102
RTVSPost2010PropOp51
 70
     0
102
RTVSPost2010Prop52
140
1.0
102
RTVSPost2010PropOp52
 70
     0
102
RTVSPost2010Prop53
 90
        2
102
RTVSPost2010PropOp53
 70
     1
102
RTVSPost2010Prop54
  1
strokes_ogs.tif
102
RTVSPost2010PropOp54
 70
     1
102
RTVSPost2010Prop55
280
     0
102
RTVSPost2010PropOp55
 70
     1
102
RTVSPost2010Prop56
140
1.0
102
RTVSPost2010PropOp56
 70
     1
102
RTVSPost2010Prop57
140
1.0
102
RTVSPost2010PropOp57
 70
     1
  0
XRECORD
  5
151
102
{ACAD_REACTORS
330
150
102
}
330
150
100
AcDbXrecord
280
     1
102
RTVSPropertyOp0
 70
     1
102
RTVSPropertyOp1
 70
     1
102
RTVSPropertyOp2
 70
     1
102
RTVSPropertyOp3
 70
     1
102
RTVSPropertyOp4
 70
     1
102
RTVSPropertyOp5
 70
     1
102
RTVSPropertyOp6
 70
     1
102
RTVSPropertyOp7
 70
     1
102
RTVSPropertyOp8
 70
     1
102
RTVSPropertyOp9
 70
     1
102
RTVSPropertyOp10
 70
     1
102
RTVSPropertyOp11
 70
     1
102
RTVSPropertyOp12
 70
     1
102
RTVSPropertyOp13
 70
     1
102
RTVSPropertyOp14
 70
     1
102
RTVSPropertyOp15
 70
     1
102
RTVSPropertyOp16
 70
     1
102
RTVSPropertyOp17
 70
     1
102
RTVSPropertyOp18
 70
     1
102
RTVSPropertyOp19
 70
     1
102
RTVSPropertyOp20
 70
     1
102
RTVSPropertyOp21
 70
     1
102
RTVSPropertyOp22
 70
     1
102
RTVSPropertyOp23
 70
     1
102
RTVSPropertyOp24
 70
     1
102
RTVSPropertyOp25
 70
     1
102
RTVSPropertyOp26
 70
     1
102
RTVSPropertyOp27
 70
     1
102
RTVSPropertyOp28
 70
     1
102
RTVSPropertyOp29
 70
     1
102
RTVSPropertyOp30
 70
     1
102
RTVSPropertyOp31
 70
     1
102
RTVSPropertyOp32
 70
     1
102
RTVSPropertyOp33
 70
     1
102
RTVSPropertyOp34
 70
     1
102
RTVSPropertyOp35
 70
     1
102
RTVSPropertyOp36
 70
     1
102
RTVSPropertyOp37
 70
     1
102
RTVSPropertyOp38
 70
     1
102
RTVSPropertyOp39
 70
     1
102
RTVSPropertyOp40
 70
     1
102
RTVSPropertyOp41
 70
     1
102
RTVSPropertyOp42
 70
     1
102
RTVSPropertyOp43
 70
     1
102
RTVSPropertyOp44
 70
     1
102
RTVSPropertyOp45
 70
     1
102
RTVSPropertyOp46
 70
     1
102
RTVSPropertyOp47
 70
     1
102
RTVSPropertyOp48
 70
     1
102
RTVSPropertyOp49
 70
     1
102
RTVSPropertyOp50
 70
     1
102
RTVSPropertyOp51
 70
     0
102
RTVSPropertyOp52
 70
     0
102
RTVSPropertyOp53
 70
     1
102
RTVSPropertyOp54
 70
     1
102
RTVSPropertyOp55
 70
     1
102
RTVSPropertyOp56
 70
     1
102
RTVSPropertyOp57
 70
     1
102
RTVSPost2010Prop28
280
     0
102
RTVSPost2010PropOp28
 70
     1
102
RTVSPost2010Prop29
280
     1
102
RTVSPost2010PropOp29
 70
     1
102
RTVSPost2010Prop30
280
     1
102
RTVSPost2010PropOp30
 70
     1
102
RTVSPost2010Prop31
280
     0
102
RTVSPost2010PropOp31
 70
     1
102
RTVSPost2010Prop32
280
     0
102
RTVSPost2010PropOp32
 70
     1
102
RTVSPost2010Prop33
280
     0
102
RTVSPost2010PropOp33
 70
     1
102
RTVSPost2010Prop34
280
     0
102
RTVSPost2010PropOp34
 70
     1
102
RTVSPost2010Prop35
280
     0
102
RTVSPost2010PropOp35
 70
     1
102
RTVSPost2010Prop36
280
     0
102
RTVSPost2010PropOp36
 70
     1
102
RTVSPost2010Prop37
 90
       50
102
RTVSPost2010PropOp37
 70
     1
102
RTVSPost2010Prop38
140
0.0
102
RTVSPost2010PropOp38
 70
     1
102
RTVSPost2010Prop39
140
1.0
102
RTVSPost2010PropOp39
 70
     1
102
RTVSPost2010Prop40
 90
        0
102
RTVSPost2010PropOp40
 70
     1
102
RTVSPost2010Prop41ColorIndex
 90
       18
102
RTVSPost2010Prop41ColorRGB
 90
        0
102
RTVSPost2010PropOp41
 70
     1
102
RTVSPost2010Prop42
 90
       50
102
RTVSPost2010PropOp42
 70
     1
102
RTVSPost2010Prop43
 90
        3
102
RTVSPost2010PropOp43
 70
     1
102
RTVSPost2010Prop44ColorIndex
 90
        5
102
RTVSPost2010Prop44ColorRGB
 90
      255
102
RTVSPost2010PropOp44
 70
     1
102
RTVSPost2010Prop45
280
     0
102
RTVSPost2010PropOp45
 70
     1
102
RTVSPost2010Prop46
 90
       50
102
RTVSPost2010PropOp46
 70
     1
102
RTVSPost2010Prop47
 90
       50
102
RTVSPost2010PropOp47
 70
     1
102
RTVSPost2010Prop48
 90
       50
102
RTVSPost2010PropOp48
 70
     1
102
RTVSPost2010Prop49
280
     0
102
RTVSPost2010PropOp49
 70
     1
102
RTVSPost2010Prop50
 90
       50
102
RTVSPost2010PropOp50
 70
     1
102
RTVSPost2010Prop51ColorIndex
 90
      256
102
RTVSPost2010Prop51ColorRGB
 90
-16777216
102
RTVSPost2010PropOp51
 70
     0
102
RTVSPost2010Prop52
140
1.0
102
RTVSPost2010PropOp52
 70
     0
102
RTVSPost2010Prop53
 90
        2
102
RTVSPost2010PropOp53
 70
     1
102
RTVSPost2010Prop54
  1
strokes_ogs.tif
102
RTVSPost2010PropOp54
 70
     1
102
RTVSPost2010Prop55
280
     0
102
RTVSPost2010PropOp55
 70
     1
102
RTVSPost2010Prop56
140
1.0
102
RTVSPost2010PropOp56
 70
     1
102
RTVSPost2010Prop57
140
1.0
102
RTVSPost2010PropOp57
 70
     1
  0
XRECORD
  5
153
102
{ACAD_REACTORS
330
152
102
}
330
152
100
AcDbXrecord
280
     1
102
RTVSPropertyOp0
 70
     1
102
RTVSPropertyOp1
 70
     1
102
RTVSPropertyOp2
 70
     1
102
RTVSPropertyOp3
 70
     1
102
RTVSPropertyOp4
 70
     1
102
RTVSPropertyOp5
 70
     1
102
RTVSPropertyOp6
 70
     1
102
RTVSPropertyOp7
 70
     1
102
RTVSPropertyOp8
 70
     1
102
RTVSPropertyOp9
 70
     1
102
RTVSPropertyOp10
 70
     1
102
RTVSPropertyOp11
 70
     1
102
RTVSPropertyOp12
 70
     1
102
RTVSPropertyOp13
 70
     1
102
RTVSPropertyOp14
 70
     1
102
RTVSPropertyOp15
 70
     1
102
RTVSPropertyOp16
 70
     1
102
RTVSPropertyOp17
 70
     1
102
RTVSPropertyOp18
 70
     1
102
RTVSPropertyOp19
 70
     1
102
RTVSPropertyOp20
 70
     1
102
RTVSPropertyOp21
 70
     1
102
RTVSPropertyOp22
 70
     1
102
RTVSPropertyOp23
 70
     1
102
RTVSPropertyOp24
 70
     1
102
RTVSPropertyOp25
 70
     1
102
RTVSPropertyOp26
 70
     1
102
RTVSPropertyOp27
 70
     1
102
RTVSPropertyOp28
 70
     1
102
RTVSPropertyOp29
 70
     1
102
RTVSPropertyOp30
 70
     1
102
RTVSPropertyOp31
 70
     1
102
RTVSPropertyOp32
 70
     1
102
RTVSPropertyOp33
 70
     1
102
RTVSPropertyOp34
 70
     1
102
RTVSPropertyOp35
 70
     1
102
RTVSPropertyOp36
 70
     1
102
RTVSPropertyOp37
 70
     1
102
RTVSPropertyOp38
 70
     1
102
RTVSPropertyOp39
 70
     1
102
RTVSPropertyOp40
 70
     1
102
RTVSPropertyOp41
 70
     1
102
RTVSPropertyOp42
 70
     1
102
RTVSPropertyOp43
 70
     1
102
RTVSPropertyOp44
 70
     1
102
RTVSPropertyOp45
 70
     1
102
RTVSPropertyOp46
 70
     1
102
RTVSPropertyOp47
 70
     1
102
RTVSPropertyOp48
 70
     1
102
RTVSPropertyOp49
 70
     1
102
RTVSPropertyOp50
 70
     1
102
RTVSPropertyOp51
 70
     0
102
RTVSPropertyOp52
 70
     0
102
RTVSPropertyOp53
 70
     1
102
RTVSPropertyOp54
 70
     1
102
RTVSPropertyOp55
 70
     1
102
RTVSPropertyOp56
 70
     1
102
RTVSPropertyOp57
 70
     1
102
RTVSPost2010Prop28
280
     0
102
RTVSPost2010PropOp28
 70
     1
102
RTVSPost2010Prop29
280
     1
102
RTVSPost2010PropOp29
 70
     1
102
RTVSPost2010Prop30
280
     1
102
RTVSPost2010PropOp30
 70
     1
102
RTVSPost2010Prop31
280
     0
102
RTVSPost2010PropOp31
 70
     1
102
RTVSPost2010Prop32
280
     0
102
RTVSPost2010PropOp32
 70
     1
102
RTVSPost2010Prop33
280
     0
102
RTVSPost2010PropOp33
 70
     1
102
RTVSPost2010Prop34
280
     0
102
RTVSPost2010PropOp34
 70
     1
102
RTVSPost2010Prop35
280
     0
102
RTVSPost2010PropOp35
 70
     1
102
RTVSPost2010Prop36
280
     0
102
RTVSPost2010PropOp36
 70
     1
102
RTVSPost2010Prop37
 90
       50
102
RTVSPost2010PropOp37
 70
     1
102
RTVSPost2010Prop38
140
0.0
102
RTVSPost2010PropOp38
 70
     1
102
RTVSPost2010Prop39
140
1.0
102
RTVSPost2010PropOp39
 70
     1
102
RTVSPost2010Prop40
 90
        0
102
RTVSPost2010PropOp40
 70
     1
102
RTVSPost2010Prop41ColorIndex
 90
       18
102
RTVSPost2010Prop41ColorRGB
 90
        0
102
RTVSPost2010PropOp41
 70
     1
102
RTVSPost2010Prop42
 90
       50
102
RTVSPost2010PropOp42
 70
     1
102
RTVSPost2010Prop43
 90
        3
102
RTVSPost2010PropOp43
 70
     1
102
RTVSPost2010Prop44ColorIndex
 90
        5
102
RTVSPost2010Prop44ColorRGB
 90
      255
102
RTVSPost2010PropOp44
 70
     1
102
RTVSPost2010Prop45
280
     0
102
RTVSPost2010PropOp45
 70
     1
102
RTVSPost2010Prop46
 90
       50
102
RTVSPost2010PropOp46
 70
     1
102
RTVSPost2010Prop47
 90
       50
102
RTVSPost2010PropOp47
 70
     1
102
RTVSPost2010Prop48
 90
       50
102
RTVSPost2010PropOp48
 70
     1
102
RTVSPost2010Prop49
280
     0
102
RTVSPost2010PropOp49
 70
     1
102
RTVSPost2010Prop50
 90
       50
102
RTVSPost2010PropOp50
 70
     1
102
RTVSPost2010Prop51ColorIndex
 90
      256
102
RTVSPost2010Prop51ColorRGB
 90
-16777216
102
RTVSPost2010PropOp51
 70
     0
102
RTVSPost2010Prop52
140
1.0
102
RTVSPost2010PropOp52
 70
     0
102
RTVSPost2010Prop53
 90
        2
102
RTVSPost2010PropOp53
 70
     1
102
RTVSPost2010Prop54
  1
strokes_ogs.tif
102
RTVSPost2010PropOp54
 70
     1
102
RTVSPost2010Prop55
280
     0
102
RTVSPost2010PropOp55
 70
     1
102
RTVSPost2010Prop56
140
1.0
102
RTVSPost2010PropOp56
 70
     1
102
RTVSPost2010Prop57
140
1.0
102
RTVSPost2010PropOp57
 70
     1
  0
XRECORD
  5
143
102
{ACAD_REACTORS
330
142
102
}
330
142
100
AcDbXrecord
280
     1
102
RTVSPropertyOp0
 70
     1
102
RTVSPropertyOp1
 70
     1
102
RTVSPropertyOp2
 70
     1
102
RTVSPropertyOp3
 70
     1
102
RTVSPropertyOp4
 70
     1
102
RTVSPropertyOp5
 70
     1
102
RTVSPropertyOp6
 70
     1
102
RTVSPropertyOp7
 70
     1
102
RTVSPropertyOp8
 70
     1
102
RTVSPropertyOp9
 70
     1
102
RTVSPropertyOp10
 70
     1
102
RTVSPropertyOp11
 70
     1
102
RTVSPropertyOp12
 70
     1
102
RTVSPropertyOp13
 70
     1
102
RTVSPropertyOp14
 70
     1
102
RTVSPropertyOp15
 70
     1
102
RTVSPropertyOp16
 70
     1
102
RTVSPropertyOp17
 70
     1
102
RTVSPropertyOp18
 70
     1
102
RTVSPropertyOp19
 70
     1
102
RTVSPropertyOp20
 70
     1
102
RTVSPropertyOp21
 70
     1
102
RTVSPropertyOp22
 70
     1
102
RTVSPropertyOp23
 70
     1
102
RTVSPropertyOp24
 70
     1
102
RTVSPropertyOp25
 70
     1
102
RTVSPropertyOp26
 70
     1
102
RTVSPropertyOp27
 70
     1
102
RTVSPropertyOp28
 70
     1
102
RTVSPropertyOp29
 70
     1
102
RTVSPropertyOp30
 70
     1
102
RTVSPropertyOp31
 70
     1
102
RTVSPropertyOp32
 70
     1
102
RTVSPropertyOp33
 70
     1
102
RTVSPropertyOp34
 70
     1
102
RTVSPropertyOp35
 70
     1
102
RTVSPropertyOp36
 70
     1
102
RTVSPropertyOp37
 70
     1
102
RTVSPropertyOp38
 70
     1
102
RTVSPropertyOp39
 70
     1
102
RTVSPropertyOp40
 70
     1
102
RTVSPropertyOp41
 70
     1
102
RTVSPropertyOp42
 70
     1
102
RTVSPropertyOp43
 70
     1
102
RTVSPropertyOp44
 70
     1
102
RTVSPropertyOp45
 70
     1
102
RTVSPropertyOp46
 70
     1
102
RTVSPropertyOp47
 70
     1
102
RTVSPropertyOp48
 70
     1
102
RTVSPropertyOp49
 70
     1
102
RTVSPropertyOp50
 70
     1
102
RTVSPropertyOp51
 70
     0
102
RTVSPropertyOp52
 70
     0
102
RTVSPropertyOp53
 70
     1
102
RTVSPropertyOp54
 70
     1
102
RTVSPropertyOp55
 70
     1
102
RTVSPropertyOp56
 70
     1
102
RTVSPropertyOp57
 70
     1
102
RTVSPost2010Prop28
280
     0
102
RTVSPost2010PropOp28
 70
     1
102
RTVSPost2010Prop29
280
     1
102
RTVSPost2010PropOp29
 70
     1
102
RTVSPost2010Prop30
280
     1
102
RTVSPost2010PropOp30
 70
     1
102
RTVSPost2010Prop31
280
     0
102
RTVSPost2010PropOp31
 70
     1
102
RTVSPost2010Prop32
280
     0
102
RTVSPost2010PropOp32
 70
     1
102
RTVSPost2010Prop33
280
     0
102
RTVSPost2010PropOp33
 70
     1
102
RTVSPost2010Prop34
280
     0
102
RTVSPost2010PropOp34
 70
     1
102
RTVSPost2010Prop35
280
     0
102
RTVSPost2010PropOp35
 70
     1
102
RTVSPost2010Prop36
280
     0
102
RTVSPost2010PropOp36
 70
     1
102
RTVSPost2010Prop37
 90
       50
102
RTVSPost2010PropOp37
 70
     1
102
RTVSPost2010Prop38
140
0.0
102
RTVSPost2010PropOp38
 70
     1
102
RTVSPost2010Prop39
140
1.0
102
RTVSPost2010PropOp39
 70
     1
102
RTVSPost2010Prop40
 90
        0
102
RTVSPost2010PropOp40
 70
     1
102
RTVSPost2010Prop41ColorIndex
 90
       18
102
RTVSPost2010Prop41ColorRGB
 90
        0
102
RTVSPost2010PropOp41
 70
     1
102
RTVSPost2010Prop42
 90
       50
102
RTVSPost2010PropOp42
 70
     1
102
RTVSPost2010Prop43
 90
        3
102
RTVSPost2010PropOp43
 70
     1
102
RTVSPost2010Prop44ColorIndex
 90
        5
102
RTVSPost2010Prop44ColorRGB
 90
      255
102
RTVSPost2010PropOp44
 70
     1
102
RTVSPost2010Prop45
280
     0
102
RTVSPost2010PropOp45
 70
     1
102
RTVSPost2010Prop46
 90
       50
102
RTVSPost2010PropOp46
 70
     1
102
RTVSPost2010Prop47
 90
       50
102
RTVSPost2010PropOp47
 70
     1
102
RTVSPost2010Prop48
 90
       50
102
RTVSPost2010PropOp48
 70
     1
102
RTVSPost2010Prop49
280
     0
102
RTVSPost2010PropOp49
 70
     1
102
RTVSPost2010Prop50
 90
       50
102
RTVSPost2010PropOp50
 70
     1
102
RTVSPost2010Prop51ColorIndex
 90
      256
102
RTVSPost2010Prop51ColorRGB
 90
-16777216
102
RTVSPost2010PropOp51
 70
     0
102
RTVSPost2010Prop52
140
1.0
102
RTVSPost2010PropOp52
 70
     0
102
RTVSPost2010Prop53
 90
        2
102
RTVSPost2010PropOp53
 70
     1
102
RTVSPost2010Prop54
  1
strokes_ogs.tif
102
RTVSPost2010PropOp54
 70
     1
102
RTVSPost2010Prop55
280
     0
102
RTVSPost2010PropOp55
 70
     1
102
RTVSPost2010Prop56
140
1.0
102
RTVSPost2010PropOp56
 70
     1
102
RTVSPost2010Prop57
140
1.0
102
RTVSPost2010PropOp57
 70
     1
  0
XRECORD
  5
135
102
{ACAD_REACTORS
330
134
102
}
330
134
100
AcDbXrecord
280
     1
102
RTVSPropertyOp0
 70
     1
102
RTVSPropertyOp1
 70
     1
102
RTVSPropertyOp2
 70
     1
102
RTVSPropertyOp3
 70
     1
102
RTVSPropertyOp4
 70
     1
102
RTVSPropertyOp5
 70
     1
102
RTVSPropertyOp6
 70
     1
102
RTVSPropertyOp7
 70
     1
102
RTVSPropertyOp8
 70
     1
102
RTVSPropertyOp9
 70
     1
102
RTVSPropertyOp10
 70
     1
102
RTVSPropertyOp11
 70
     1
102
RTVSPropertyOp12
 70
     1
102
RTVSPropertyOp13
 70
     1
102
RTVSPropertyOp14
 70
     1
102
RTVSPropertyOp15
 70
     1
102
RTVSPropertyOp16
 70
     1
102
RTVSPropertyOp17
 70
     1
102
RTVSPropertyOp18
 70
     1
102
RTVSPropertyOp19
 70
     1
102
RTVSPropertyOp20
 70
     1
102
RTVSPropertyOp21
 70
     1
102
RTVSPropertyOp22
 70
     1
102
RTVSPropertyOp23
 70
     1
102
RTVSPropertyOp24
 70
     1
102
RTVSPropertyOp25
 70
     1
102
RTVSPropertyOp26
 70
     1
102
RTVSPropertyOp27
 70
     1
102
RTVSPropertyOp28
 70
     1
102
RTVSPropertyOp29
 70
     1
102
RTVSPropertyOp30
 70
     1
102
RTVSPropertyOp31
 70
     1
102
RTVSPropertyOp32
 70
     1
102
RTVSPropertyOp33
 70
     1
102
RTVSPropertyOp34
 70
     1
102
RTVSPropertyOp35
 70
     1
102
RTVSPropertyOp36
 70
     1
102
RTVSPropertyOp37
 70
     1
102
RTVSPropertyOp38
 70
     1
102
RTVSPropertyOp39
 70
     1
102
RTVSPropertyOp40
 70
     1
102
RTVSPropertyOp41
 70
     1
102
RTVSPropertyOp42
 70
     1
102
RTVSPropertyOp43
 70
     1
102
RTVSPropertyOp44
 70
     1
102
RTVSPropertyOp45
 70
     1
102
RTVSPropertyOp46
 70
     1
102
RTVSPropertyOp47
 70
     1
102
RTVSPropertyOp48
 70
     1
102
RTVSPropertyOp49
 70
     1
102
RTVSPropertyOp50
 70
     1
102
RTVSPropertyOp51
 70
     0
102
RTVSPropertyOp52
 70
     0
102
RTVSPropertyOp53
 70
     1
102
RTVSPropertyOp54
 70
     1
102
RTVSPropertyOp55
 70
     1
102
RTVSPropertyOp56
 70
     1
102
RTVSPropertyOp57
 70
     1
102
RTVSPost2010Prop28
280
     0
102
RTVSPost2010PropOp28
 70
     1
102
RTVSPost2010Prop29
280
     1
102
RTVSPost2010PropOp29
 70
     1
102
RTVSPost2010Prop30
280
     1
102
RTVSPost2010PropOp30
 70
     1
102
RTVSPost2010Prop31
280
     0
102
RTVSPost2010PropOp31
 70
     1
102
RTVSPost2010Prop32
280
     0
102
RTVSPost2010PropOp32
 70
     1
102
RTVSPost2010Prop33
280
     0
102
RTVSPost2010PropOp33
 70
     1
102
RTVSPost2010Prop34
280
     0
102
RTVSPost2010PropOp34
 70
     1
102
RTVSPost2010Prop35
280
     0
102
RTVSPost2010PropOp35
 70
     1
102
RTVSPost2010Prop36
280
     0
102
RTVSPost2010PropOp36
 70
     1
102
RTVSPost2010Prop37
 90
       50
102
RTVSPost2010PropOp37
 70
     1
102
RTVSPost2010Prop38
140
0.0
102
RTVSPost2010PropOp38
 70
     1
102
RTVSPost2010Prop39
140
1.0
102
RTVSPost2010PropOp39
 70
     1
102
RTVSPost2010Prop40
 90
        0
102
RTVSPost2010PropOp40
 70
     1
102
RTVSPost2010Prop41ColorIndex
 90
       18
102
RTVSPost2010Prop41ColorRGB
 90
        0
102
RTVSPost2010PropOp41
 70
     1
102
RTVSPost2010Prop42
 90
       50
102
RTVSPost2010PropOp42
 70
     1
102
RTVSPost2010Prop43
 90
        3
102
RTVSPost2010PropOp43
 70
     1
102
RTVSPost2010Prop44ColorIndex
 90
        5
102
RTVSPost2010Prop44ColorRGB
 90
      255
102
RTVSPost2010PropOp44
 70
     1
102
RTVSPost2010Prop45
280
     0
102
RTVSPost2010PropOp45
 70
     1
102
RTVSPost2010Prop46
 90
       50
102
RTVSPost2010PropOp46
 70
     1
102
RTVSPost2010Prop47
 90
       50
102
RTVSPost2010PropOp47
 70
     1
102
RTVSPost2010Prop48
 90
       50
102
RTVSPost2010PropOp48
 70
     1
102
RTVSPost2010Prop49
280
     0
102
RTVSPost2010PropOp49
 70
     1
102
RTVSPost2010Prop50
 90
       50
102
RTVSPost2010PropOp50
 70
     1
102
RTVSPost2010Prop51ColorIndex
 90
      256
102
RTVSPost2010Prop51ColorRGB
 90
-16777216
102
RTVSPost2010PropOp51
 70
     0
102
RTVSPost2010Prop52
140
1.0
102
RTVSPost2010PropOp52
 70
     0
102
RTVSPost2010Prop53
 90
        2
102
RTVSPost2010PropOp53
 70
     1
102
RTVSPost2010Prop54
  1
strokes_ogs.tif
102
RTVSPost2010PropOp54
 70
     1
102
RTVSPost2010Prop55
280
     0
102
RTVSPost2010PropOp55
 70
     1
102
RTVSPost2010Prop56
140
1.0
102
RTVSPost2010PropOp56
 70
     1
102
RTVSPost2010Prop57
140
1.0
102
RTVSPost2010PropOp57
 70
     1
  0
XRECORD
  5
155
102
{ACAD_REACTORS
330
154
102
}
330
154
100
AcDbXrecord
280
     1
102
RTVSPropertyOp0
 70
     1
102
RTVSPropertyOp1
 70
     1
102
RTVSPropertyOp2
 70
     1
102
RTVSPropertyOp3
 70
     1
102
RTVSPropertyOp4
 70
     1
102
RTVSPropertyOp5
 70
     1
102
RTVSPropertyOp6
 70
     1
102
RTVSPropertyOp7
 70
     1
102
RTVSPropertyOp8
 70
     1
102
RTVSPropertyOp9
 70
     1
102
RTVSPropertyOp10
 70
     1
102
RTVSPropertyOp11
 70
     1
102
RTVSPropertyOp12
 70
     1
102
RTVSPropertyOp13
 70
     1
102
RTVSPropertyOp14
 70
     1
102
RTVSPropertyOp15
 70
     1
102
RTVSPropertyOp16
 70
     1
102
RTVSPropertyOp17
 70
     1
102
RTVSPropertyOp18
 70
     1
102
RTVSPropertyOp19
 70
     1
102
RTVSPropertyOp20
 70
     1
102
RTVSPropertyOp21
 70
     1
102
RTVSPropertyOp22
 70
     1
102
RTVSPropertyOp23
 70
     1
102
RTVSPropertyOp24
 70
     1
102
RTVSPropertyOp25
 70
     1
102
RTVSPropertyOp26
 70
     1
102
RTVSPropertyOp27
 70
     1
102
RTVSPropertyOp28
 70
     1
102
RTVSPropertyOp29
 70
     1
102
RTVSPropertyOp30
 70
     1
102
RTVSPropertyOp31
 70
     1
102
RTVSPropertyOp32
 70
     1
102
RTVSPropertyOp33
 70
     1
102
RTVSPropertyOp34
 70
     1
102
RTVSPropertyOp35
 70
     1
102
RTVSPropertyOp36
 70
     1
102
RTVSPropertyOp37
 70
     1
102
RTVSPropertyOp38
 70
     1
102
RTVSPropertyOp39
 70
     1
102
RTVSPropertyOp40
 70
     1
102
RTVSPropertyOp41
 70
     1
102
RTVSPropertyOp42
 70
     1
102
RTVSPropertyOp43
 70
     1
102
RTVSPropertyOp44
 70
     1
102
RTVSPropertyOp45
 70
     1
102
RTVSPropertyOp46
 70
     1
102
RTVSPropertyOp47
 70
     1
102
RTVSPropertyOp48
 70
     1
102
RTVSPropertyOp49
 70
     1
102
RTVSPropertyOp50
 70
     1
102
RTVSPropertyOp51
 70
     0
102
RTVSPropertyOp52
 70
     0
102
RTVSPropertyOp53
 70
     1
102
RTVSPropertyOp54
 70
     1
102
RTVSPropertyOp55
 70
     1
102
RTVSPropertyOp56
 70
     1
102
RTVSPropertyOp57
 70
     1
102
RTVSPost2010Prop28
280
     0
102
RTVSPost2010PropOp28
 70
     1
102
RTVSPost2010Prop29
280
     1
102
RTVSPost2010PropOp29
 70
     1
102
RTVSPost2010Prop30
280
     1
102
RTVSPost2010PropOp30
 70
     1
102
RTVSPost2010Prop31
280
     0
102
RTVSPost2010PropOp31
 70
     1
102
RTVSPost2010Prop32
280
     0
102
RTVSPost2010PropOp32
 70
     1
102
RTVSPost2010Prop33
280
     0
102
RTVSPost2010PropOp33
 70
     1
102
RTVSPost2010Prop34
280
     0
102
RTVSPost2010PropOp34
 70
     1
102
RTVSPost2010Prop35
280
     0
102
RTVSPost2010PropOp35
 70
     1
102
RTVSPost2010Prop36
280
     0
102
RTVSPost2010PropOp36
 70
     1
102
RTVSPost2010Prop37
 90
       50
102
RTVSPost2010PropOp37
 70
     1
102
RTVSPost2010Prop38
140
0.0
102
RTVSPost2010PropOp38
 70
     1
102
RTVSPost2010Prop39
140
1.0
102
RTVSPost2010PropOp39
 70
     1
102
RTVSPost2010Prop40
 90
        0
102
RTVSPost2010PropOp40
 70
     1
102
RTVSPost2010Prop41ColorIndex
 90
       18
102
RTVSPost2010Prop41ColorRGB
 90
        0
102
RTVSPost2010PropOp41
 70
     1
102
RTVSPost2010Prop42
 90
       50
102
RTVSPost2010PropOp42
 70
     1
102
RTVSPost2010Prop43
 90
        3
102
RTVSPost2010PropOp43
 70
     1
102
RTVSPost2010Prop44ColorIndex
 90
        5
102
RTVSPost2010Prop44ColorRGB
 90
      255
102
RTVSPost2010PropOp44
 70
     1
102
RTVSPost2010Prop45
280
     0
102
RTVSPost2010PropOp45
 70
     1
102
RTVSPost2010Prop46
 90
       50
102
RTVSPost2010PropOp46
 70
     1
102
RTVSPost2010Prop47
 90
       50
102
RTVSPost2010PropOp47
 70
     1
102
RTVSPost2010Prop48
 90
       50
102
RTVSPost2010PropOp48
 70
     1
102
RTVSPost2010Prop49
280
     0
102
RTVSPost2010PropOp49
 70
     1
102
RTVSPost2010Prop50
 90
       50
102
RTVSPost2010PropOp50
 70
     1
102
RTVSPost2010Prop51ColorIndex
 90
      256
102
RTVSPost2010Prop51ColorRGB
 90
-16777216
102
RTVSPost2010PropOp51
 70
     0
102
RTVSPost2010Prop52
140
1.0
102
RTVSPost2010PropOp52
 70
     0
102
RTVSPost2010Prop53
 90
        2
102
RTVSPost2010PropOp53
 70
     1
102
RTVSPost2010Prop54
  1
strokes_ogs.tif
102
RTVSPost2010PropOp54
 70
     1
102
RTVSPost2010Prop55
280
     0
102
RTVSPost2010PropOp55
 70
     1
102
RTVSPost2010Prop56
140
1.0
102
RTVSPost2010PropOp56
 70
     1
102
RTVSPost2010Prop57
140
1.0
102
RTVSPost2010PropOp57
 70
     1
  0
ENDSEC
  0
EOF
