0
SECTION
2
HEADER
9
$INSUNITS
70
4
9
$ACADVER
1
AC1014
9
$HANDSEED
5
FFFF
0
ENDSEC
0
SECTION
2
TABLES
0
TABLE
2
VPORT
5
8
100
AcDbSymbolTable
0
ENDTAB
0
TABLE
2
LTYPE
5
5
100
AcDbSymbolTable
0
LTYPE
5
14
100
AcDbSymbolTableRecord
100
AcDbLinetypeTableRecord
2
BYBLOCK
70
0
0
LTYPE
5
15
100
AcDbSymbolTableRecord
100
AcDbLinetypeTableRecord
2
BYLAYER
70
0
0
ENDTAB
0
TABLE
2
LAYER
5
2
100
AcDbSymbolTable
70
2
0
LAYER
5
50
100
AcDbSymbolTableRecord
100
AcDbLayerTableRecord
2
0
70
0
6
CONTINUOUS
0
ENDTAB
0
TABLE
2
STYLE
5
3
100
AcDbSymbolTable
70
1
0
STYLE
5
11
100
AcDbSymbolTableRecord
100
AcDbTextStyleTableRecord
2
STANDARD
70
0
0
ENDTAB
0
TABLE
2
VIEW
5
6
100
AcDbSymbolTable
70
0
0
ENDTAB
0
TABLE
2
UCS
5
7
100
AcDbSymbolTable
70
0
0
ENDTAB
0
TABLE
2
APPID
5
9
100
AcDbSymbolTable
70
2
0
APPID
5
12
100
AcDbSymbolTableRecord
100
AcDbRegAppTableRecord
2
ACAD
70
0
0
ENDTAB
0
TABLE
2
DIMSTYLE
5
A
100
AcDbSymbolTable
70
1
0
ENDTAB
0
TABLE
2
BLOCK_RECORD
5
1
100
AcDbSymbolTable
70
1
0
BLOCK_RECORD
5
1F
100
AcDbSymbolTableRecord
100
AcDbBlockTableRecord
2
*MODEL_SPACE
0
BLOCK_RECORD
5
1B
100
AcDbSymbolTableRecord
100
AcDbBlockTableRecord
2
*PAPER_SPACE
0
ENDTAB
0
ENDSEC
0
SECTION
2
BLOCKS
0
BLOCK
5
20
100
AcDbEntity
100
AcDbBlockBegin
2
*MODEL_SPACE
0
ENDBLK
5
21
100
AcDbEntity
100
AcDbBlockEnd
0
BLOCK
5
1C
100
AcDbEntity
100
AcDbBlockBegin
2
*PAPER_SPACE
0
ENDBLK
5
1D
100
AcDbEntity
100
AcDbBlockEnd
0
ENDSEC
0
SECTION
2
ENTITIES
0
LWPOLYLINE
5
100
100
AcDbEntity
8
0
100
AcDbPolyline
90
105
70
1
43
0.0
10
58.816480216790048
20
78.40198753305765
10
59.99205073889236
20
80.020021545918098
10
80.621984059287655
20
65.031497638736099
10
79.446413537185336
20
63.413463625875636
10
81.873464556476051
20
61.650107842722164
10
83.04903507857837
20
63.268141855582634
10
103.67896839897367
20
48.279617948400627
10
102.50339787687133
20
46.66158393554015
10
104.93044889616206
20
44.898228152386679
10
106.10601941826438
20
46.516262165247149
10
117.55705045849444
20
38.196601125010645
10
113.18314580735682
20
24.735106787029849
10
111.28103274642284
20
25.353140784989169
10
110.35398174948385
20
22.49997119358817
10
112.25609481041785
20
21.881937195628854
10
104.37616146767083
20
-2.370003927382025
10
102.47404840673683
20
-1.7519699294227076
10
101.54699740979787
20
-4.6051395208237089
10
103.44911047073185
20
-5.2231735187830264
10
95.56917712798483
20
-29.475114641793894
10
93.667064067050845
20
-28.857080643834578
10
92.740013070111871
20
-31.710250235235581
10
94.642126131045856
20
-32.3282842331949
10
86.762192788298847
20
-56.58022535620578
10
84.860079727364862
20
-55.962191358246457
10
83.933028730425875
20
-58.815360949647456
10
85.835141791359874
20
-59.433394947606779
10
77.955208448612851
20
-83.685336070617652
10
76.053095387678866
20
-83.067302072658322
10
75.126044390739878
20
-85.920471664059335
10
77.028157451673877
20
-86.53850566201865
10
72.65425280053617
20
-99.999999999999787
10
58.500000022352026
20
-99.999999999999886
10
58.500000022352026
20
-97.999999970197564
10
55.499999977648542
20
-97.999999970197564
10
55.499999977648542
20
-99.999999999999886
10
30.000000022352033
20
-99.999999999999886
10
30.000000022352033
20
-97.999999970197564
10
26.99999997764855
20
-97.999999970197564
10
26.99999997764855
20
-99.999999999999886
10
1.5000000223520371
20
-99.999999999999886
10
1.5000000223520371
20
-97.999999970197564
10
-1.5000000223514465
20
-97.999999970197564
10
-1.5000000223514487
20
-99.999999999999886
10
-26.99999997764796
20
-99.999999999999886
10
-26.99999997764796
20
-97.999999970197564
10
-30.000000022351443
20
-97.999999970197564
10
-30.000000022351443
20
-99.999999999999886
10
-55.49999997764796
20
-99.999999999999886
10
-55.49999997764796
20
-97.999999970197564
10
-58.500000022351443
20
-97.999999970197564
10
-58.500000022351443
20
-99.999999999999886
10
-72.6542528005359
20
-99.999999999999972
10
-77.028157451673678
20
-86.538505662019247
10
-75.126044390739679
20
-85.920471664059917
10
-76.053095387678667
20
-83.067302072658933
10
-77.955208448612652
20
-83.685336070618234
10
-85.835141791359675
20
-59.433394947607368
10
-83.93302873042569
20
-58.815360949648046
10
-84.860079727364663
20
-55.96219135824704
10
-86.762192788298648
20
-56.58022535620637
10
-94.642126131045671
20
-32.328284233195497
10
-92.740013070111686
20
-31.710250235236174
10
-93.66706406705066
20
-28.857080643835175
10
-95.569177127984659
20
-29.475114641794494
10
-103.44911047073168
20
-5.223173518783617
10
-101.54699740979768
20
-4.6051395208242951
10
-102.47404840673667
20
-1.7519699294232938
10
-104.37616146767067
20
-2.3700039273826157
10
-112.25609481041769
20
21.881937195628257
10
-110.35398174948369
20
22.49997119358758
10
-111.28103274642268
20
25.353140784988575
10
-113.18314580735667
20
24.735106787029256
10
-117.55705045850388
20
38.196601125012819
10
-106.10601941826485
20
46.516262165246765
10
-104.93044889616255
20
44.898228152386288
10
-102.50339787687182
20
46.661583935539767
10
-103.67896839897412
20
48.279617948400229
10
-83.049035078578839
20
63.268141855582257
10
-81.873464556476534
20
61.650107842721766
10
-79.446413537185819
20
63.413463625875238
10
-80.62198405928811
20
65.031497638735715
10
-59.99205073889285
20
80.020021545917729
10
-58.816480216790545
20
78.401987533057252
10
-56.389429197499823
20
80.165343316210723
10
-57.564999719602127
20
81.783377329071214
10
-36.935066399206853
20
96.771901236253214
10
-35.759495877104548
20
95.153867223392737
10
-33.332444857813826
20
96.917223006546195
10
-34.508015379916131
20
98.535257019406686
10
-13.878082059520862
20
113.5237809265887
10
-12.702511537418557
20
111.90574691372822
10
-10.275460518127835
20
113.66910269688169
10
-11.45103104023014
20
115.28713670974216
10
1.9984014443252818e-14
20
123.60679774998832
10
11.451031040229633
20
115.28713670974254
10
10.27546051812732
20
113.66910269688206
10
12.702511537418033
20
111.90574691372859
10
13.878082059520347
20
113.52378092658907
10
34.508015379915634
20
98.535257019407055
10
33.332444857813321
20
96.917223006546593
10
35.759495877104044
20
95.153867223393121
10
36.935066399206356
20
96.771901236253584
10
57.564999719601637
20
81.783377329071584
10
56.389429197499325
20
80.165343316211107
0
LWPOLYLINE
5
101
100
AcDbEntity
8
0
100
AcDbPolyline
90
3
70
1
43
0.0
10
7.8064658370830511
20
-57.463525491562429
10
16.218163630989125
20
-57.463525491562216
10
14.611672303899299
20
-52.519253581563497
0
LWPOLYLINE
5
102
100
AcDbEntity
8
0
100
AcDbPolyline
90
5
70
1
43
0.0
10
-2.1796275840160972
20
-65.000000000000099
10
-3.5267115137547678
20
-69.14589803375047
10
1.4876988529977098e-13
20
-71.708203932499444
10
3.5267115137549498
20
-69.145898033750314
10
2.1796275840160928
20
-65.000000000000014
0
CIRCLE
5
103
100
AcDbEntity
8
0
100
AcDbCircle
10
15.870201811896781
20
21.843458848123582
30
0
40
1.5000000000000013
0
CIRCLE
5
104
100
AcDbEntity
8
0
100
AcDbCircle
10
-15.870201811896774
20
21.843458848123586
30
0
40
1.4999999999999991
0
LWPOLYLINE
5
105
100
AcDbEntity
8
0
100
AcDbPolyline
90
5
70
1
43
0.0
10
5.428824546345135
20
-59.472135954999573
10
4.0817406166064636
20
-63.618033988749943
10
7.6084521303613863
20
-66.180339887498945
10
11.135163644116187
20
-63.618033988749765
10
9.788079714377325
20
-59.472135954999466
0
CIRCLE
5
106
100
AcDbEntity
8
0
100
AcDbCircle
10
25.678525939969145
20
-8.3434588481235821
30
0
40
1.4999999999999991
0
LWPOLYLINE
5
107
100
AcDbEntity
8
0
100
AcDbPolyline
90
5
70
1
43
0.0
10
-2.1796275840160972
20
-63.000000000000014
10
2.1796275840160928
20
-63.000000000000014
10
3.5267115137548544
20
-58.854101966249679
10
-4.4408920985006262e-15
20
-56.291796067500613
10
-3.526711513754861
20
-58.854101966249679
0
CIRCLE
5
108
100
AcDbEntity
8
0
100
AcDbCircle
10
-25.678525939969148
20
-8.3434588481235767
30
0
40
1.4999999999999991
0
CIRCLE
5
109
100
AcDbEntity
8
0
100
AcDbCircle
10
0
20
-27
30
0
40
1.5000000000000002
0
CIRCLE
5
110
100
AcDbEntity
8
0
100
AcDbCircle
10
0
20
0
30
0
40
21
0
LWPOLYLINE
5
111
100
AcDbEntity
8
0
100
AcDbPolyline
90
5
70
1
43
0.0
10
1.1755705045849263
20
-54.673762078750741
10
4.7022820183398402
20
-57.236067977499737
10
8.2289935320946466
20
-54.673762078750599
10
6.8819096023557886
20
-50.527864045000271
10
2.522654434323599
20
-50.527864045000371
0
LWPOLYLINE
5
112
100
AcDbEntity
8
0
100
AcDbPolyline
90
5
70
1
43
0.0
10
-4.7022820183397922
20
-57.236067977499808
10
-1.1755705045849907
20
-54.67376207875067
10
-2.5226544343238477
20
-50.527864045000356
10
-6.8819096023560373
20
-50.527864045000463
10
-8.2289935320947087
20
-54.673762078750812
0
LWPOLYLINE
5
113
100
AcDbEntity
8
0
100
AcDbPolyline
90
5
70
1
43
0.0
10
-4.0817406166063801
20
-63.618033988749907
10
-5.4288245463452327
20
-59.472135954999608
10
-9.7880797143774316
20
-59.472135954999715
10
-11.135163644116098
20
-63.618033988750071
10
-7.6084521303611847
20
-66.180339887499045
0
LWPOLYLINE
5
114
100
AcDbEntity
8
0
100
AcDbPolyline
90
3
70
1
43
0.0
10
-7.4240187891955571
20
-74.64057647468708
10
-4.8246612193322242
20
-66.640576474687293
10
-11.629867686148375
20
-71.584848384686566
0
LWPOLYLINE
5
115
100
AcDbEntity
8
0
100
AcDbPolyline
90
3
70
1
43
0.0
10
4.8246612193322242
20
-66.640576474687279
10
7.424018789195646
20
-74.640576474687165
10
11.629867686148295
20
-71.584848384686467
0
LWPOLYLINE
5
116
100
AcDbEntity
8
0
100
AcDbPolyline
90
5
70
1
43
0.0
10
-16.523263594900673
20
76.041019662496879
10
-32.88310594609338
20
76.041019662496879
10
-28.893339841599754
20
69.891079442172412
10
-29.912913097515499
20
66.753155617496404
10
-23.27129181792543
20
66.753155617496404
0
LWPOLYLINE
5
117
100
AcDbEntity
8
0
100
AcDbPolyline
90
5
70
1
43
0.0
10
-55.629000668945906
20
74.865449157911982
10
-60.684469980759445
20
59.306314484248752
10
-53.602623729524552
20
61.200371493950662
10
-50.933346291516777
20
59.261027916192823
10
-48.880972445921167
20
65.577585112911507
0
LWPOLYLINE
5
118
100
AcDbEntity
8
0
100
AcDbPolyline
90
5
70
1
43
0.0
10
-14.905229606150774
20
74.865449157911925
10
-21.653257829175523
20
65.57758511291145
10
-19.600883983579912
20
59.261027916192759
10
-16.931606545572134
20
61.200371493950591
10
-9.8497602943372513
20
59.306314484248681
0
LWPOLYLINE
5
119
100
AcDbEntity
8
0
100
AcDbPolyline
90
5
70
1
43
0.0
10
-47.262938457171259
20
66.753155617496446
10
-40.621317177581197
20
66.753155617496461
10
-41.640890433496921
20
69.891079442172469
10
-37.651124329003316
20
76.041019662496922
10
-54.010966680195992
20
76.041019662496922
0
LWPOLYLINE
5
120
100
AcDbEntity
8
0
100
AcDbPolyline
90
5
70
1
43
0.0
10
-67.213338002384376
20
39.212524857703961
10
-56.294798980486775
20
42.760173240006054
10
-54.242425134891157
20
49.076730436724745
10
-57.541833499075253
20
49.076730436724745
10
-62.157868690570808
20
54.771659531367177
0
LWPOLYLINE
5
121
100
AcDbEntity
8
0
100
AcDbPolyline
90
5
70
1
43
0.0
10
-36.267115137548444
20
15.275692809257976
10
-36.26711513754843
20
26.756124134654723
10
-41.640299622939082
20
30.659971174109629
10
-42.659872878854806
20
27.52204734943362
10
-49.502505624958317
20
24.891766873118861
0
LWPOLYLINE
5
122
100
AcDbEntity
8
0
100
AcDbPolyline
90
5
70
1
43
0.0
10
-66.595304013634461
20
37.310411825113647
10
-53.359913526224588
20
27.694337761252754
10
-52.972857944353997
20
35.014869590202984
10
-50.303580506346222
20
36.954213167960823
10
-55.676764991736874
20
40.858060207415733
0
LWPOLYLINE
5
123
100
AcDbEntity
8
0
100
AcDbPolyline
90
5
70
1
43
0.0
10
-17.561372330742785
20
35.014869590202892
10
-17.174316748872215
20
27.694337761252665
10
-3.9389262614623344
20
37.31041182511354
10
-14.857465283359923
20
40.858060207415647
10
-20.23064976875056
20
36.954213167960731
0
LWPOLYLINE
5
124
100
AcDbEntity
8
0
100
AcDbPolyline
90
5
70
1
43
0.0
10
-3.3208922727124324
20
39.212524857703855
10
-8.3763615845259647
20
54.771659531367092
10
-12.992396776021542
20
49.076730436724638
10
-16.291805140205625
20
49.076730436724638
10
-14.239431294610021
20
42.760173240005955
0
LWPOLYLINE
5
125
100
AcDbEntity
8
0
100
AcDbPolyline
90
5
70
1
43
0.0
10
-34.26711513754843
20
15.27569280925797
10
-21.031724650138557
20
24.891766873118854
10
-27.87435739624204
20
27.522047349433613
10
-28.893930652157771
20
30.659971174109621
10
-34.267115137548423
20
26.756124134654726
0
LWPOLYLINE
5
126
100
AcDbEntity
8
0
100
AcDbPolyline
90
5
70
1
43
0.0
10
-75.807242520356837
20
8.9589803375032453
10
-69.05921429733209
20
-0.32888370749723173
10
-62.417593017742028
20
-0.32888370749723617
10
-63.437166273657752
20
2.8090401171787782
10
-59.44740016916414
20
8.9589803375032258
0
LWPOLYLINE
5
127
100
AcDbEntity
8
0
100
AcDbPolyline
90
5
70
1
43
0.0
10
-38.727882385732968
20
-5.881667831043087
10
-31.64603613449809
20
-7.7757248407450019
10
-36.701505446311621
20
7.7834098329182222
10
-43.449533669336361
20
-1.5044542120822513
10
-41.397159823740743
20
-7.8210114088009286
0
LWPOLYLINE
5
128
100
AcDbEntity
8
0
100
AcDbPolyline
90
5
70
1
43
0.0
10
-38.319539435061515
20
8.9589803375031778
10
-54.679381786254204
20
8.9589803375031867
10
-50.689615681760586
20
2.8090401171787249
10
-51.709188937676331
20
-0.32888370749728502
10
-45.067567658086261
20
-0.32888370749728946
0
LWPOLYLINE
5
129
100
AcDbEntity
8
0
100
AcDbPolyline
90
5
70
1
43
0.0
10
-56.063390977709275
20
-51.806346515735711
10
-42.828000490299388
20
-42.190272451874847
10
-49.670633236402885
20
-39.559991975560081
10
-50.690206492318609
20
-36.422068150884073
10
-56.063390977709268
20
-40.325915190338975
0
LWPOLYLINE
5
130
100
AcDbEntity
8
0
100
AcDbPolyline
90
5
70
1
43
0.0
10
-77.425276509106723
20
7.7834098329182977
10
-82.480745820920276
20
-7.7757248407449442
10
-75.398899569685398
20
-5.8816678310430248
10
-72.729622131677615
20
-7.8210114088008753
10
-70.677248286082005
20
-1.5044542120821891
0
LWPOLYLINE
5
131
100
AcDbEntity
8
0
100
AcDbPolyline
90
5
70
1
43
0.0
10
-25.735202101623187
20
-29.771627499880154
10
-36.653741123520774
20
-26.22397911757804
10
-42.026925608911426
20
-30.127826157032942
10
-39.357648170903651
20
-32.067169734790781
10
-38.970592589033075
20
-39.387701563741011
0
LWPOLYLINE
5
132
100
AcDbEntity
8
0
100
AcDbPolyline
90
5
70
1
43
0.0
10
-25.117168112873294
20
-27.869514467289829
10
-30.172637424686826
20
-12.310379793626609
10
-34.788672616182396
20
-18.005308888269028
10
-38.088080980366485
20
-18.005308888269028
10
-36.035707134770874
20
-24.321866084987718
0
LWPOLYLINE
5
133
100
AcDbEntity
8
0
100
AcDbPolyline
90
5
70
1
43
0.0
10
-58.06339097770929
20
-51.806346515735733
10
-58.063390977709275
20
-40.325915190338968
10
-63.436575463099921
20
-36.422068150884073
10
-64.456148719015658
20
-39.559991975560095
10
-71.298781465119148
20
-42.190272451874833
0
LWPOLYLINE
5
134
100
AcDbEntity
8
0
100
AcDbPolyline
90
5
70
1
43
0.0
10
-78.09107482064762
20
-24.32186608498764
10
-76.038700975051995
20
-18.005308888268949
10
-79.338109339236084
20
-18.005308888268942
10
-83.954144530731654
20
-12.310379793626502
10
-89.009613842545207
20
-27.869514467289733
0
LWPOLYLINE
5
135
100
AcDbEntity
8
0
100
AcDbPolyline
90
5
70
1
43
0.0
10
-88.391579853795307
20
-29.771627499880047
10
-75.156189366385419
20
-39.387701563740919
10
-74.769133784514864
20
-32.067169734790696
10
-72.099856346507082
20
-30.127826157032864
10
-77.47304083189772
20
-26.223979117577947
0
LWPOLYLINE
5
136
100
AcDbEntity
8
0
100
AcDbPolyline
90
5
70
1
43
0.0
10
65.292384509803881
20
-13.21478174124743
10
63.945300580065016
20
-9.0688837074971183
10
59.586045412032824
20
-9.0688837074972195
10
58.238961482294158
20
-13.21478174124759
10
61.765672996049076
20
-15.777087639996585
0
LWPOLYLINE
5
137
100
AcDbEntity
8
0
100
AcDbPolyline
90
3
70
1
43
0.0
10
71.67506328160853
20
-11.060273244060346
10
64.869856814792271
20
-16.004545154059258
10
73.281554608698357
20
-16.004545154059066
0
LWPOLYLINE
5
138
100
AcDbEntity
8
0
100
AcDbPolyline
90
6
70
1
43
0.0
10
48.728396319342281
20
-7.0688837074972977
10
53.89995072795724
20
-7.0688837074972
10
52.35983136781315
20
-2.3288837074971047
10
45.284584736596798
20
-2.3288837074972069
10
43.09821328815751
20
-9.0578431205102738
10
47.13029811974593
20
-11.987324227184901
0
LWPOLYLINE
5
139
100
AcDbEntity
8
0
100
AcDbPolyline
90
6
70
1
43
0.0
10
66.996483835672478
20
-11.987324227185105
10
71.028568667261197
20
-9.0578431205104692
10
68.842197218821156
20
-2.3288837074968516
10
61.766950587605564
20
-2.3288837074972957
10
60.226831227461382
20
-7.0688837074970934
10
65.398385636075687
20
-7.0688837074969424
0
LWPOLYLINE
5
140
100
AcDbEntity
8
0
100
AcDbPolyline
90
5
70
1
43
0.0
10
55.887820473124243
20
-13.214781741247519
10
54.540736543385378
20
-9.0688837074972017
10
50.181481375353187
20
-9.0688837074972994
10
48.834397445614513
20
-13.214781741247661
10
52.361108959369432
20
-15.777087639996656
0
LWPOLYLINE
5
141
100
AcDbEntity
8
0
100
AcDbPolyline
90
3
70
1
43
0.0
10
54.464033407846188
20
-2.3328157299976038
10
57.063390977709226
20
-10.33281572999746
10
59.662748547572271
20
-2.3328157299974528
0
LWPOLYLINE
5
142
100
AcDbEntity
8
0
100
AcDbPolyline
90
6
70
1
43
0.0
10
52.879515573805271
20
-29.681596137184066
10
51.339396213661331
20
-34.42159613718421
10
57.06339097770951
20
-38.580321763345111
10
62.787385741756765
20
-34.42159613718421
10
61.247266381613073
20
-29.681596137184265
10
57.06339097770951
20
-32.721359549995988
0
LWPOLYLINE
5
143
100
AcDbEntity
8
0
100
AcDbPolyline
90
3
70
1
43
0.0
10
52.238729758376998
20
-25.18159613718413
10
45.433523291560853
20
-30.125868047183417
10
49.639372188513676
20
-33.181596137183902
0
LWPOLYLINE
5
144
100
AcDbEntity
8
0
100
AcDbPolyline
90
3
70
1
43
0.0
10
49.256925140626173
20
-16.004545154059258
10
42.451718673809793
20
-11.060273244060301
10
40.845227346720236
20
-16.004545154059116
0
LWPOLYLINE
5
145
100
AcDbEntity
8
0
100
AcDbPolyline
90
5
70
1
43
0.0
10
53.536679463954364
20
-17.39512162874653
10
54.883763393693137
20
-21.541019662496872
10
59.243018561725322
20
-21.541019662496865
10
60.59010249146408
20
-17.39512162874653
10
57.063390977709233
20
-14.832815729997462
0
LWPOLYLINE
5
146
100
AcDbEntity
8
0
100
AcDbPolyline
90
6
70
1
43
0.0
10
43.577086324423171
20
-22.922985673747299
10
45.17518452401977
20
-18.004545154059073
10
40.191253581130269
20
-18.004545154059155
10
38.004882132690405
20
-24.733504567072828
10
43.7288768967382
20
-28.892230193233004
10
47.76096172832689
20
-25.96274908655878
0
LWPOLYLINE
5
147
100
AcDbEntity
8
0
100
AcDbPolyline
90
3
70
1
43
0.0
10
68.693258663857534
20
-30.1258680471833
10
61.888052197041461
20
-25.18159613718413
10
64.487409766904861
20
-33.181596137184009
0
LWPOLYLINE
5
148
100
AcDbEntity
8
0
100
AcDbPolyline
90
5
70
1
43
0.0
10
64.671843108070618
20
-24.721359549995768
10
68.198554621825423
20
-22.15905365124663
10
66.851470692086551
20
-18.013155617496317
10
62.492215524054366
20
-18.013155617496423
10
61.145131594315686
20
-22.159053651246793
0
LWPOLYLINE
5
149
100
AcDbEntity
8
0
100
AcDbPolyline
90
5
70
1
43
0.0
10
54.883763393693137
20
-23.541019662496943
10
53.536679463954464
20
-27.686917696247313
10
57.063390977709368
20
-30.249223594996295
10
60.590102491464172
20
-27.686917696247157
10
59.243018561725322
20
-23.541019662496836
0
LWPOLYLINE
5
150
100
AcDbEntity
8
0
100
AcDbPolyline
90
5
70
1
43
0.0
10
49.454938847348032
20
-24.721359549995896
10
52.981650361102844
20
-22.159053651246758
10
51.634566431363986
20
-18.013155617496437
10
47.275311263331801
20
-18.013155617496544
10
45.928227333593135
20
-22.159053651246914
0
LWPOLYLINE
5
151
100
AcDbEntity
8
0
100
AcDbPolyline
90
6
70
1
43
0.0
10
66.365820227091334
20
-25.962749086558816
10
70.397905058680138
20
-28.892230193233324
10
76.12189982272821
20
-24.733504567072266
10
73.935528374288069
20
-18.004545154059475
10
68.951597431398824
20
-18.004545154059215
10
70.549695630995458
20
-22.92298567374673
0
LWPOLYLINE
5
152
100
AcDbEntity
8
0
100
AcDbPolyline
90
5
70
1
43
0.0
10
3.3208922727124324
20
39.21252485770394
10
14.239431294610016
20
42.760173240006026
10
16.291805140205636
20
49.076730436724709
10
12.992396776021542
20
49.076730436724709
10
8.3763615845259807
20
54.771659531367156
0
LWPOLYLINE
5
153
100
AcDbEntity
8
0
100
AcDbPolyline
90
5
70
1
43
0.0
10
27.874357396241962
20
27.522047349433581
10
21.031724650138464
20
24.891766873118822
10
34.26711513754833
20
15.275692809257945
10
34.26711513754833
20
26.756124134654691
10
28.893930652157689
20
30.659971174109586
0
LWPOLYLINE
5
154
100
AcDbEntity
8
0
100
AcDbPolyline
90
5
70
1
43
0.0
10
36.267115137548345
20
15.27569280925794
10
49.502505624958232
20
24.891766873118812
10
42.659872878854728
20
27.522047349433578
10
41.64029962293899
20
30.659971174109586
10
36.267115137548352
20
26.756124134654684
0
LWPOLYLINE
5
155
100
AcDbEntity
8
0
100
AcDbPolyline
90
3
70
1
43
0.0
10
0
20
-51.791796067500613
10
2.5993575698630433
20
-43.791796067500627
10
-2.5993575698630478
20
-43.791796067500755
0
LWPOLYLINE
5
156
100
AcDbEntity
8
0
100
AcDbPolyline
90
3
70
1
43
0.0
10
-7.8064658370830493
20
-57.463525491562429
10
-14.611672303899439
20
-52.519253581563461
10
-16.21816363098899
20
-57.463525491562287
0
LWPOLYLINE
5
157
100
AcDbEntity
8
0
100
AcDbPolyline
90
6
70
1
43
0.0
10
2.9531932455029164e-13
20
-74.180339887499144
10
-4.183875403903949
20
-71.140576474687236
10
-5.723994764047891
20
-75.880576474687359
10
2.9531932455029164e-13
20
-80.039302100848246
10
5.7239947640475481
20
-75.880576474687359
10
4.1838754039038566
20
-71.140576474687421
0
LWPOLYLINE
5
158
100
AcDbEntity
8
0
100
AcDbPolyline
90
6
70
1
43
0.0
10
13.486304653286227
20
-64.381966011249887
10
9.3024292493821026
20
-67.421729424061965
10
13.334514080970914
20
-70.351210530736466
10
19.058508845018984
20
-66.192484904575409
10
16.872137396578843
20
-59.463525491562635
10
11.888206453689589
20
-59.463525491562386
0
LWPOLYLINE
5
159
100
AcDbEntity
8
0
100
AcDbPolyline
90
6
70
1
43
0.0
10
8.3349946583664547
20
-48.527864045000101
10
9.9330928579632527
20
-53.446304564688248
10
13.965177689551975
20
-50.516823458013619
10
11.77880624111193
20
-43.787864045000006
10
4.7035596098963328
20
-43.787864045000461
10
3.1634402497521563
20
-48.527864045000257
0
LWPOLYLINE
5
160
100
AcDbEntity
8
0
100
AcDbPolyline
90
6
70
1
43
0.0
10
-8.3349946583669503
20
-48.527864045000442
10
-3.1634402497519853
20
-48.527864045000335
10
-4.7035596098960646
20
-43.787864045000255
10
-11.778806241112425
20
-43.78786404500034
10
-13.965177689551716
20
-50.51682345801342
10
-9.9330928579633042
20
-53.446304564688035
0
LWPOLYLINE
5
161
100
AcDbEntity
8
0
100
AcDbPolyline
90
6
70
1
43
0.0
10
-13.486304653286048
20
-64.381966011250441
10
-11.888206453689437
20
-59.46352549156223
10
-16.872137396578946
20
-59.463525491562315
10
-19.058508845018803
20
-66.192484904575977
10
-13.334514080971019
20
-70.35121053073614
10
-9.302429249382314
20
-67.421729424061937
0
LWPOLYLINE
5
162
100
AcDbEntity
8
0
100
AcDbPolyline
90
5
70
1
43
0.0
10
-3.2499999999999996
20
-41.791796067500684
10
3.2499999999999996
20
-41.791796067500684
10
4.177050983124837
20
-38.938626518615223
10
3.1086244689504383e-14
20
-32.499999999999993
10
-4.1770509831248397
20
-38.938626518615223
0
LWPOLYLINE
5
163
100
AcDbEntity
8
0
100
AcDbPolyline
90
5
70
1
43
0.0
10
26.154054198116754
20
-51.502032654688989
10
18.739776751440797
20
-49.519066112976311
10
16.31272576831595
20
-51.282421869853721
10
18.321336231753101
20
-57.464289225772227
10
21.321336231753104
20
-57.464289225772205
0
LWPOLYLINE
5
164
100
AcDbEntity
8
0
100
AcDbPolyline
90
5
70
1
43
0.0
10
73.227485415752227
20
-40.78898700780794
10
72.822260934809563
20
-33.124819767860451
10
70.39520995168472
20
-31.361464010983021
10
65.136599488247555
20
-35.182068150884092
10
66.063650471372412
20
-38.03523769976956
0
LWPOLYLINE
5
165
100
AcDbEntity
8
0
100
AcDbPolyline
90
5
70
1
43
0.0
10
73.376116746025161
20
-9.8234415323505644
10
75.384727209462312
20
-16.005308888269063
10
78.384727209462326
20
-16.005308888269063
10
83.217445175825958
20
-10.043052317185825
10
75.803167729150019
20
-8.0600857754731514
0
LWPOLYLINE
5
166
100
AcDbEntity
8
0
100
AcDbPolyline
90
5
70
1
43
0.0
10
-16.164094438043055
20
-82.247967345311039
10
-9.000259493663199
20
-79.494218037272702
10
-8.0732085105383415
20
-76.641048488387241
10
-13.331818973975505
20
-72.820444348486163
10
-15.758869957100348
20
-74.583800105363608
0
LWPOLYLINE
5
167
100
AcDbEntity
8
0
100
AcDbPolyline
90
5
70
1
43
0.0
10
-26.154054198116732
20
-51.502032654688918
10
-21.321336231753108
20
-57.464289225772205
10
-18.321336231753108
20
-57.464289225772205
10
-16.312725768315946
20
-51.282421869853714
10
-18.73977675144079
20
-49.519066112976297
0
LWPOLYLINE
5
168
100
AcDbEntity
8
0
100
AcDbPolyline
90
5
70
1
43
0.0
10
16.164094438042987
20
-82.247967345311082
10
15.75886995710033
20
-74.583800105363608
10
13.331818973975489
20
-72.820444348486163
10
8.0732085105383291
20
-76.641048488387227
10
9.0002594936631795
20
-79.494218037272702
0
LWPOLYLINE
5
169
100
AcDbEntity
8
0
100
AcDbPolyline
90
5
70
1
43
0.0
10
32.017115137548402
20
66.749223594996153
10
38.517115137548387
20
66.749223594996153
10
39.444166120673231
20
69.602393143881613
10
35.267115137548437
20
76.041019662496851
10
31.090064154423565
20
69.602393143881628
0
LWPOLYLINE
5
170
100
AcDbEntity
8
0
100
AcDbPolyline
90
5
70
1
43
0.0
10
61.421169335665141
20
57.038987007807862
10
54.006891888989188
20
59.021953549520525
10
51.579840905864344
20
57.258597792643116
10
53.588451369301495
20
51.076730436724617
10
56.588451369301502
20
51.076730436724631
0
LWPOLYLINE
5
171
100
AcDbEntity
8
0
100
AcDbPolyline
90
5
70
1
43
0.0
10
43.340323648086724
20
31.899971174109591
10
44.267374631211567
20
29.046801625224138
10
51.431209575591396
20
26.293052317185751
10
51.025985094648725
20
33.95721955713325
10
48.598934111523882
20
35.720575314010674
0
LWPOLYLINE
5
172
100
AcDbEntity
8
0
100
AcDbPolyline
90
5
70
1
43
0.0
10
19.508245180448057
20
33.957219557133257
10
19.103020699505347
20
26.293052317185793
10
26.266855643885204
20
29.046801625224145
10
27.193906627010058
20
31.899971174109602
10
21.9352961635729
20
35.720575314010674
0
LWPOLYLINE
5
173
100
AcDbEntity
8
0
100
AcDbPolyline
90
5
70
1
43
0.0
10
16.945778905795294
20
51.076730436724638
10
18.954389369232455
20
57.25859779264313
10
16.527338386107605
20
59.021953549520546
10
9.1130609394316728
20
57.03898700780794
10
13.945778905795292
20
51.076730436724645
0
LWPOLYLINE
5
174
100
AcDbEntity
8
0
100
AcDbPolyline
90
5
70
1
43
0.0
10
53.813390977709233
20
-0.33281572999752207
10
60.313390977709233
20
-0.33281572999752651
10
61.240441960834069
20
2.5203538188879371
10
57.063390977709261
20
8.9589803375031689
10
52.886339994584404
20
2.520353818887946
0
LWPOLYLINE
5
175
100
AcDbEntity
8
0
100
AcDbPolyline
90
5
70
1
43
0.0
10
38.323614226268433
20
-8.0600857754731425
10
30.909336779592493
20
-10.043052317185763
10
35.742054745956118
20
-16.005308888269056
10
38.742054745956118
20
-16.005308888269063
10
40.750665209393276
20
-9.8234415323505608
0
LWPOLYLINE
5
176
100
AcDbEntity
8
0
100
AcDbPolyline
90
5
70
1
43
0.0
10
43.731572003733717
20
-31.361464010983021
10
41.304521020608874
20
-33.124819767860444
10
40.899296539666175
20
-40.788987007807904
10
48.063131484046025
20
-38.035237699769553
10
48.990182467170882
20
-35.182068150884092
0
LWPOLYLINE
5
177
100
AcDbEntity
8
0
100
AcDbPolyline
90
5
70
1
43
0.0
10
-53.813390977709219
20
-0.33281572999749987
10
-52.886339994584375
20
2.5203538188879637
10
-57.06339097770919
20
8.9589803375031902
10
-61.240441960834048
20
2.5203538188879637
10
-60.313390977709219
20
-0.33281572999749987
0
LWPOLYLINE
5
178
100
AcDbEntity
8
0
100
AcDbPolyline
90
5
70
1
43
0.0
10
-43.731572003733739
20
-31.361464010983006
10
-48.990182467170897
20
-35.182068150884078
10
-48.063131484046046
20
-38.035237699769539
10
-40.899296539666246
20
-40.788987007807918
10
-41.304521020608902
20
-33.12481976786043
0
LWPOLYLINE
5
179
100
AcDbEntity
8
0
100
AcDbPolyline
90
5
70
1
43
0.0
10
-35.742054745956125
20
-16.005308888269035
10
-30.909336779592476
20
-10.043052317185808
10
-38.323614226268433
20
-8.0600857754731337
10
-40.750665209393276
20
-9.8234415323505431
10
-38.742054745956125
20
-16.005308888269045
0
LWPOLYLINE
5
180
100
AcDbEntity
8
0
100
AcDbPolyline
90
5
70
1
43
0.0
10
-65.136599488247569
20
-35.182068150884056
10
-70.39520995168472
20
-31.361464010982978
10
-72.822260934809563
20
-33.124819767860401
10
-73.227485415752284
20
-40.788987007807869
10
-66.063650471372426
20
-38.035237699769517
0
LWPOLYLINE
5
181
100
AcDbEntity
8
0
100
AcDbPolyline
90
5
70
1
43
0.0
10
-83.217445175825958
20
-10.043052317185722
10
-78.384727209462341
20
-16.00530888826902
10
-75.384727209462341
20
-16.005308888269028
10
-73.376116746025176
20
-9.8234415323505289
10
-75.803167729150019
20
-8.060085775473107
0
LWPOLYLINE
5
182
100
AcDbEntity
8
0
100
AcDbPolyline
90
5
70
1
43
0.0
10
-35.267115137548345
20
76.041019662496893
10
-39.444166120673209
20
69.602393143881656
10
-38.517115137548373
20
66.749223594996195
10
-32.017115137548373
20
66.749223594996195
10
-31.090064154423533
20
69.602393143881656
0
LWPOLYLINE
5
183
100
AcDbEntity
8
0
100
AcDbPolyline
90
5
70
1
43
0.0
10
-53.588451369301481
20
51.076730436724667
10
-51.579840905864323
20
57.258597792643151
10
-54.006891888989166
20
59.021953549520575
10
-61.421169335665112
20
57.038987007807968
10
-56.588451369301481
20
51.076730436724667
0
LWPOLYLINE
5
184
100
AcDbEntity
8
0
100
AcDbPolyline
90
5
70
1
43
0.0
10
-43.340323648086738
20
31.899971174109631
10
-48.598934111523889
20
35.720575314010709
10
-51.025985094648732
20
33.957219557133278
10
-51.431209575591446
20
26.293052317185825
10
-44.267374631211581
20
29.046801625224173
0
LWPOLYLINE
5
185
100
AcDbEntity
8
0
100
AcDbPolyline
90
5
70
1
43
0.0
10
-16.945778905795269
20
51.07673043672466
10
-13.945778905795272
20
51.076730436724645
10
-9.1130609394316213
20
57.038987007807897
10
-16.527338386107584
20
59.021953549520561
10
-18.95438936923243
20
57.258597792643151
0
LWPOLYLINE
5
186
100
AcDbEntity
8
0
100
AcDbPolyline
90
5
70
1
43
0.0
10
-26.266855643885201
20
29.046801625224163
10
-19.10302069950539
20
26.293052317185776
10
-19.50824518044805
20
33.957219557133278
10
-21.935296163572893
20
35.720575314010702
10
-27.193906627010051
20
31.899971174109627
0
LWPOLYLINE
5
187
100
AcDbEntity
8
0
100
AcDbPolyline
90
3
70
1
43
0.0
10
-57.063390977709219
20
-10.332815729997442
10
-54.464033407846188
20
-2.3328157299974395
10
-59.662748547572278
20
-2.3328157299975771
0
LWPOLYLINE
5
188
100
AcDbEntity
8
0
100
AcDbPolyline
90
6
70
1
43
0.0
10
-60.226831227461197
20
-7.0688837074971689
10
-61.766950587605287
20
-2.3288837074970736
10
-68.842197218821639
20
-2.3288837074971713
10
-71.028568667260913
20
-9.0578431205102383
10
-66.996483835672521
20
-11.987324227184871
10
-65.398385636076156
20
-7.0688837074972621
0
LWPOLYLINE
5
189
100
AcDbEntity
8
0
100
AcDbPolyline
90
3
70
1
43
0.0
10
-45.433523291560938
20
-30.125868047183282
10
-52.238729758377005
20
-25.181596137184108
10
-49.63937218851359
20
-33.181596137183995
0
LWPOLYLINE
5
190
100
AcDbEntity
8
0
100
AcDbPolyline
90
5
70
1
43
0.0
10
-52.981650361102766
20
-22.159053651246758
10
-49.45493884734784
20
-24.721359549995753
10
-45.928227333593043
20
-22.159053651246605
10
-47.275311263331901
20
-18.013155617496295
10
-51.634566431364092
20
-18.013155617496388
0
LWPOLYLINE
5
191
100
AcDbEntity
8
0
100
AcDbPolyline
90
6
70
1
43
0.0
10
-61.247266381613173
20
-29.681596137184052
10
-62.787385741757113
20
-34.421596137184181
10
-57.063390977708934
20
-38.580321763345083
10
-51.339396213661679
20
-34.421596137184196
10
-52.879515573805371
20
-29.681596137184236
10
-57.063390977708934
20
-32.721359549995967
0
LWPOLYLINE
5
192
100
AcDbEntity
8
0
100
AcDbPolyline
90
6
70
1
43
0.0
10
-43.577086324423
20
-22.922985673746716
10
-47.760961728327125
20
-25.962749086558787
10
-43.728876896738306
20
-28.892230193233299
10
-38.004882132690241
20
-24.733504567072238
10
-40.191253581130383
20
-18.004545154059457
10
-45.175184524019642
20
-18.004545154059201
0
LWPOLYLINE
5
193
100
AcDbEntity
8
0
100
AcDbPolyline
90
3
70
1
43
0.0
10
-64.48740976690479
20
-33.181596137183867
10
-61.888052197041446
20
-25.181596137184108
10
-68.693258663857605
20
-30.125868047183388
0
LWPOLYLINE
5
194
100
AcDbEntity
8
0
100
AcDbPolyline
90
5
70
1
43
0.0
10
-60.590102491463995
20
-27.686917696247288
10
-57.063390977709076
20
-30.249223594996273
10
-53.536679463954272
20
-27.686917696247122
10
-54.883763393693137
20
-23.541019662496822
10
-59.243018561725329
20
-23.541019662496907
0
LWPOLYLINE
5
195
100
AcDbEntity
8
0
100
AcDbPolyline
90
3
70
1
43
0.0
10
-49.256925140626173
20
-16.004545154059244
10
-40.845227346720108
20
-16.004545154059056
10
-42.451718673809921
20
-11.060273244060328
0
LWPOLYLINE
5
196
100
AcDbEntity
8
0
100
AcDbPolyline
90
5
70
1
43
0.0
10
-53.536679463954364
20
-17.395121628746502
10
-57.063390977709233
20
-14.832815729997444
10
-60.59010249146408
20
-17.395121628746502
10
-59.243018561725329
20
-21.541019662496844
10
-54.883763393693137
20
-21.541019662496844
0
LWPOLYLINE
5
197
100
AcDbEntity
8
0
100
AcDbPolyline
90
6
70
1
43
0.0
10
-48.728396319342757
20
-7.0688837074969157
10
-47.130298119745959
20
-11.987324227185079
10
-43.098213288157233
20
-9.0578431205104479
10
-45.284584736597267
20
-2.3288837074968249
10
-52.359831367812873
20
-2.3288837074972735
10
-53.899950727957048
20
-7.0688837074970667
0
LWPOLYLINE
5
198
100
AcDbEntity
8
0
100
AcDbPolyline
90
3
70
1
43
0.0
10
-73.281554608698244
20
-16.004545154059091
10
-64.869856814792286
20
-16.004545154059244
10
-71.675063281608658
20
-11.060273244060275
0
LWPOLYLINE
5
199
100
AcDbEntity
8
0
100
AcDbPolyline
90
5
70
1
43
0.0
10
-66.85147069208665
20
-18.013155617496519
10
-68.198554621825338
20
-22.159053651246879
10
-64.671843108070405
20
-24.721359549995874
10
-61.145131594315608
20
-22.15905365124673
10
-62.492215524054451
20
-18.013155617496423
0
LWPOLYLINE
5
200
100
AcDbEntity
8
0
100
AcDbPolyline
90
5
70
1
43
0.0
10
-58.238961482294222
20
-13.214781741247492
10
-59.586045412033073
20
-9.0688837074971751
10
-63.945300580065265
20
-9.0688837074972728
10
-65.292384509803924
20
-13.214781741247643
10
-61.765672996049013
20
-15.77708763999663
0
LWPOLYLINE
5
201
100
AcDbEntity
8
0
100
AcDbPolyline
90
5
70
1
43
0.0
10
-54.540736543385613
20
-9.0688837074971929
10
-55.887820473124286
20
-13.214781741247563
10
-52.361108959369375
20
-15.77708763999655
10
-48.834397445614577
20
-13.214781741247412
10
-50.181481375353442
20
-9.068883707497104
0
LWPOLYLINE
5
202
100
AcDbEntity
8
0
100
AcDbPolyline
90
6
70
1
43
0.0
10
-68.951597431398667
20
-18.004545154059048
10
-73.935528374288182
20
-18.00454515405913
10
-76.121899822728039
20
-24.733504567072799
10
-70.397905058680251
20
-28.892230193232969
10
-66.365820227091547
20
-25.962749086558759
10
-70.549695630995288
20
-22.922985673747263
0
LWPOLYLINE
5
203
100
AcDbEntity
8
0
100
AcDbPolyline
90
3
70
1
43
0.0
10
-27.460649300465334
20
51.07749417093445
10
-19.048951506559259
20
51.077494170934649
10
-20.655442833649094
20
56.021766080933375
0
LWPOLYLINE
5
204
100
AcDbEntity
8
0
100
AcDbPolyline
90
6
70
1
43
0.0
10
-25.33402227958512
20
55.094715097808603
10
-21.301937447996401
20
58.024196204483246
10
-23.488308896436436
20
64.753155617496873
10
-30.563555527652035
20
64.753155617496418
10
-32.103674887796217
20
60.013155617496629
10
-26.932120479181918
20
60.013155617496771
0
LWPOLYLINE
5
205
100
AcDbEntity
8
0
100
AcDbPolyline
90
3
70
1
43
0.0
10
-42.691133926743952
20
33.900443187809827
10
-40.091776356880615
20
41.900443187809586
10
-46.896982823696767
20
36.956171277810306
0
LWPOLYLINE
5
206
100
AcDbEntity
8
0
100
AcDbPolyline
90
5
70
1
43
0.0
10
-37.446742721564483
20
43.541019662496787
10
-38.793826651303156
20
39.395121628746416
10
-35.267115137548231
20
36.832815729997421
10
-31.740403623793433
20
39.395121628746566
10
-33.087487553532291
20
43.541019662496872
0
LWPOLYLINE
5
207
100
AcDbEntity
8
0
100
AcDbPolyline
90
6
70
1
43
0.0
10
-47.155321591237822
20
49.077494170934642
10
-52.13925253412733
20
49.077494170934564
10
-54.325623982567194
20
42.348534757920895
10
-48.601629218519413
20
38.189809131760711
10
-44.569544386930701
20
41.119290238434942
10
-48.753419790834435
20
44.159053651246424
0
LWPOLYLINE
5
208
100
AcDbEntity
8
0
100
AcDbPolyline
90
6
70
1
43
0.0
10
-35.267115137548089
20
34.360679774997735
10
-39.450990541452327
20
37.40044318780965
10
-40.991109901596268
20
32.660443187809506
10
-35.267115137548082
20
28.501717561648611
10
-29.543120373500837
20
32.660443187809506
10
-31.083239733644533
20
37.400443187809465
0
LWPOLYLINE
5
209
100
AcDbEntity
8
0
100
AcDbPolyline
90
3
70
1
43
0.0
10
-51.485278768537377
20
51.0774941709346
10
-43.07358097463144
20
51.07749417093445
10
-49.878787441447813
20
56.021766080933411
0
LWPOLYLINE
5
210
100
AcDbEntity
8
0
100
AcDbPolyline
90
5
70
1
43
0.0
10
-45.055194851925805
20
49.068883707497179
10
-46.402278781664478
20
44.922985673746808
10
-42.875567267909567
20
42.36067977499782
10
-39.348855754154769
20
44.922985673746965
10
-40.69593968389362
20
49.068883707497271
0
LWPOLYLINE
5
211
100
AcDbEntity
8
0
100
AcDbPolyline
90
3
70
1
43
0.0
10
-30.44245391821616
20
41.900443187809586
10
-27.843096348352752
20
33.900443187809714
10
-23.637247451400096
20
36.956171277810419
0
LWPOLYLINE
5
212
100
AcDbEntity
8
0
100
AcDbPolyline
90
5
70
1
43
0.0
10
-33.087487553532284
20
45.541019662496851
10
-31.740403623793529
20
49.686917696247193
10
-35.267115137548387
20
52.249223594996259
10
-38.793826651303249
20
49.686917696247193
10
-37.446742721564483
20
45.541019662496858
0
LWPOLYLINE
5
213
100
AcDbEntity
8
0
100
AcDbPolyline
90
6
70
1
43
0.0
10
-21.780810484262147
20
44.159053651246978
10
-25.964685888166272
20
41.1192902384349
10
-21.932601056577461
20
38.189809131760384
10
-16.208606292529389
20
42.348534757921435
10
-18.39497774096953
20
49.077494170934237
10
-23.378908683858786
20
49.077494170934486
0
LWPOLYLINE
5
214
100
AcDbEntity
8
0
100
AcDbPolyline
90
3
70
1
43
0.0
10
-37.866472707411432
20
64.749223594996124
10
-35.267115137548394
20
56.749223594996266
10
-32.667757567685342
20
64.749223594996266
0
LWPOLYLINE
5
215
100
AcDbEntity
8
0
100
AcDbPolyline
90
5
70
1
43
0.0
10
-37.789769571872228
20
58.013155617496523
10
-42.149024739904412
20
58.013155617496423
10
-43.496108669643085
20
53.86725758374606
10
-39.969397155888174
20
51.304951684997064
10
-36.442685642133377
20
53.867257583746209
0
LWPOLYLINE
5
216
100
AcDbEntity
8
0
100
AcDbPolyline
90
5
70
1
43
0.0
10
-30.564833119208544
20
51.304951684997143
10
-27.038121605453735
20
53.867257583746301
10
-28.385205535192597
20
58.013155617496601
10
-32.744460703224775
20
58.013155617496501
10
-34.091544632963455
20
53.867257583746131
0
LWPOLYLINE
5
217
100
AcDbEntity
8
0
100
AcDbPolyline
90
5
70
1
43
0.0
10
-25.479035423171048
20
49.068883707497399
10
-29.83829059120324
20
49.068883707497299
10
-31.185374520941913
20
44.922985673746929
10
-27.658663007186995
20
42.360679774997941
10
-24.131951493432204
20
44.9229856737471
0
LWPOLYLINE
5
218
100
AcDbEntity
8
0
100
AcDbPolyline
90
6
70
1
43
0.0
10
-38.430555387300359
20
60.01315561749653
10
-39.970674747444448
20
64.753155617496617
10
-47.0459213786608
20
64.753155617496517
10
-49.232292827100096
20
58.024196204483445
10
-45.200207995511683
20
55.09471509780883
10
-43.602109795915325
20
60.013155617496423
0
LWPOLYLINE
5
219
100
AcDbEntity
8
0
100
AcDbPolyline
90
3
70
1
43
0.0
10
40.091776356880615
20
41.900443187809557
10
42.691133926744044
20
33.900443187809685
10
46.896982823696689
20
36.956171277810398
0
LWPOLYLINE
5
220
100
AcDbEntity
8
0
100
AcDbPolyline
90
6
70
1
43
0.0
10
44.569544386930495
20
41.119290238434871
10
48.601629218519307
20
38.189809131760363
10
54.325623982567365
20
42.348534757921414
10
52.139252534127223
20
49.077494170934209
10
47.155321591237978
20
49.077494170934472
10
48.75341979083462
20
44.15905365124695
0
LWPOLYLINE
5
221
100
AcDbEntity
8
0
100
AcDbPolyline
90
3
70
1
43
0.0
10
19.048951506559408
20
51.077494170934585
10
27.460649300465345
20
51.077494170934429
10
20.655442833648962
20
56.021766080933382
0
LWPOLYLINE
5
222
100
AcDbEntity
8
0
100
AcDbPolyline
90
5
70
1
43
0.0
10
29.838290591203169
20
49.06888370749725
10
25.479035423170977
20
49.068883707497157
10
24.131951493432304
20
44.92298567374678
10
27.658663007187215
20
42.360679774997784
10
31.18537452094202
20
44.922985673746936
0
LWPOLYLINE
5
223
100
AcDbEntity
8
0
100
AcDbPolyline
90
6
70
1
43
0.0
10
32.103674887796416
20
60.013155617496494
10
30.563555527652326
20
64.753155617496574
10
23.488308896435974
20
64.753155617496475
10
21.301937447996689
20
58.02419620448341
10
25.334022279585099
20
55.094715097808802
10
26.932120479181457
20
60.013155617496395
0
LWPOLYLINE
5
224
100
AcDbEntity
8
0
100
AcDbPolyline
90
6
70
1
43
0.0
10
21.780810484262354
20
44.159053651246396
10
23.378908683858963
20
49.077494170934614
10
18.394977740969452
20
49.077494170934528
10
16.208606292529598
20
42.348534757920852
10
21.932601056577383
20
38.18980913176069
10
25.964685888166088
20
41.119290238434907
0
LWPOLYLINE
5
225
100
AcDbEntity
8
0
100
AcDbPolyline
90
3
70
1
43
0.0
10
32.667757567685349
20
64.749223594996096
10
35.267115137548394
20
56.749223594996238
10
37.866472707411425
20
64.749223594996224
0
LWPOLYLINE
5
226
100
AcDbEntity
8
0
100
AcDbPolyline
90
5
70
1
43
0.0
10
32.744460703224547
20
58.013155617496494
10
28.385205535192355
20
58.013155617496388
10
27.038121605453689
20
53.867257583746024
10
30.564833119208608
20
51.304951684997036
10
34.091544632963412
20
53.867257583746181
0
LWPOLYLINE
5
227
100
AcDbEntity
8
0
100
AcDbPolyline
90
3
70
1
43
0.0
10
30.442453918216167
20
41.900443187809557
10
23.637247451400015
20
36.956171277810284
10
27.843096348352834
20
33.900443187809792
0
LWPOLYLINE
5
228
100
AcDbEntity
8
0
100
AcDbPolyline
90
5
70
1
43
0.0
10
33.087487553532299
20
45.541019662496822
10
37.44674272156449
20
45.541019662496829
10
38.793826651303256
20
49.686917696247164
10
35.267115137548394
20
52.249223594996231
10
31.740403623793544
20
49.686917696247164
0
LWPOLYLINE
5
229
100
AcDbEntity
8
0
100
AcDbPolyline
90
6
70
1
43
0.0
10
35.267115137548693
20
34.360679774997692
10
31.08323973364444
20
37.400443187809607
10
29.543120373500503
20
32.660443187809477
10
35.267115137548679
20
28.501717561648576
10
40.991109901595941
20
32.660443187809477
10
39.450990541452242
20
37.400443187809415
0
LWPOLYLINE
5
230
100
AcDbEntity
8
0
100
AcDbPolyline
90
3
70
1
43
0.0
10
49.878787441447699
20
56.021766080933361
10
43.073580974631447
20
51.077494170934436
10
51.485278768537512
20
51.077494170934621
0
LWPOLYLINE
5
231
100
AcDbEntity
8
0
100
AcDbPolyline
90
5
70
1
43
0.0
10
43.49610866964305
20
53.867257583746266
10
42.149024739904192
20
58.013155617496572
10
37.789769571872
20
58.013155617496466
10
36.442685642133327
20
53.867257583746103
10
39.969397155888238
20
51.304951684997121
0
LWPOLYLINE
5
232
100
AcDbEntity
8
0
100
AcDbPolyline
90
5
70
1
43
0.0
10
39.348855754154862
20
44.922985673746908
10
42.875567267909787
20
42.360679774997919
10
46.402278781664577
20
44.922985673747064
10
45.055194851925727
20
49.068883707497363
10
40.695939683893528
20
49.068883707497271
0
LWPOLYLINE
5
233
100
AcDbEntity
8
0
100
AcDbPolyline
90
5
70
1
43
0.0
10
38.793826651303334
20
39.395121628746537
10
37.446742721564483
20
43.541019662496851
10
33.087487553532299
20
43.541019662496751
10
31.740403623793625
20
39.395121628746381
10
35.267115137548551
20
36.8328157299974
0
LWPOLYLINE
5
234
100
AcDbEntity
8
0
100
AcDbPolyline
90
5
70
1
43
0.0
10
0.99999999999996092
20
-93.265326853238903
10
14.235390487409836
20
-83.649252789378011
10
7.3927577413063403
20
-81.018972313063244
10
6.3731844853906106
20
-77.88104848838725
10
0.99999999999996092
20
-81.784895527842139
0
LWPOLYLINE
5
235
100
AcDbEntity
8
0
100
AcDbPolyline
90
5
70
1
43
0.0
10
-20.361885531397526
20
-33.675570504584883
10
-25.417354843211069
20
-49.234705178248113
10
-18.335508591976176
20
-47.340648168546203
10
-15.666231153968402
20
-49.279991746304042
10
-13.613857308372788
20
-42.963434549585358
0
LWPOLYLINE
5
236
100
AcDbEntity
8
0
100
AcDbPolyline
90
5
70
1
43
0.0
10
-7.3927577413064256
20
-81.018972313063244
10
-14.235390487409923
20
-83.649252789378011
10
-1.0000000000000475
20
-93.265326853238903
10
-1.0000000000000475
20
-81.784895527842139
10
-6.3731844853906967
20
-77.88104848838725
0
LWPOLYLINE
5
237
100
AcDbEntity
8
0
100
AcDbPolyline
90
5
70
1
43
0.0
10
-21.027683842938387
20
-65.780846422490825
10
-18.975309997342769
20
-59.464289225772127
10
-22.274718361526862
20
-59.464289225772127
10
-26.890753553022428
20
-53.76936013112968
10
-31.946222864835974
20
-69.328494804792925
0
LWPOLYLINE
5
238
100
AcDbEntity
8
0
100
AcDbPolyline
90
5
70
1
43
0.0
10
-31.328188876086081
20
-71.230607837383218
10
-18.092798388676187
20
-80.846681901244111
10
-17.70574280680562
20
-73.526150072293873
10
-15.036465368797838
20
-71.586806494536049
10
-20.409649854188487
20
-67.682959455081118
0
LWPOLYLINE
5
239
100
AcDbEntity
8
0
100
AcDbPolyline
90
5
70
1
43
0.0
10
13.613857308372843
20
-42.963434549585422
10
15.666231153968457
20
-49.279991746304113
10
18.335508591976229
20
-47.340648168546267
10
25.417354843211115
20
-49.234705178248184
10
20.36188553139759
20
-33.675570504584954
0
LWPOLYLINE
5
240
100
AcDbEntity
8
0
100
AcDbPolyline
90
5
70
1
43
0.0
10
18.743851542647683
20
-32.5
10
2.3840091914550054
20
-32.500000000000007
10
6.3737752959486027
20
-38.649940220324453
10
5.3542020400328738
20
-41.787864045000461
10
11.995823319622936
20
-41.787864045000475
0
LWPOLYLINE
5
241
100
AcDbEntity
8
0
100
AcDbPolyline
90
5
70
1
43
0.0
10
31.946222864835939
20
-69.328494804792996
10
26.890753553022407
20
-53.769360131129773
10
22.274718361526837
20
-59.464289225772198
10
18.975309997342748
20
-59.464289225772198
10
21.027683842938359
20
-65.780846422490896
0
LWPOLYLINE
5
242
100
AcDbEntity
8
0
100
AcDbPolyline
90
5
70
1
43
0.0
10
-11.995823319622881
20
-41.787864045000411
10
-5.3542020400328187
20
-41.787864045000404
10
-6.3737752959485476
20
-38.649940220324396
10
-2.3840091914549388
20
-32.499999999999936
10
-18.743851542647619
20
-32.499999999999936
0
LWPOLYLINE
5
243
100
AcDbEntity
8
0
100
AcDbPolyline
90
5
70
1
43
0.0
10
20.409649854188459
20
-67.682959455081232
10
15.036465368797813
20
-71.58680649453612
10
17.705742806805596
20
-73.526150072293973
10
18.092798388676165
20
-80.846681901244182
10
31.328188876086045
20
-71.230607837383332
0
LWPOLYLINE
5
244
100
AcDbEntity
8
0
100
AcDbPolyline
90
5
70
1
43
0.0
10
25.735202101623141
20
-29.771627499880076
10
38.970592589033018
20
-39.387701563740961
10
39.357648170903595
20
-32.067169734790724
10
42.02692560891137
20
-30.127826157032878
10
36.653741123520724
20
-26.223979117577983
0
LWPOLYLINE
5
245
100
AcDbEntity
8
0
100
AcDbPolyline
90
5
70
1
43
0.0
10
34.788672616182346
20
-18.005308888268978
10
30.172637424686783
20
-12.310379793626529
10
25.117168112873248
20
-27.869514467289758
10
36.035707134770831
20
-24.321866084987658
10
38.088080980366435
20
-18.005308888268978
0
LWPOLYLINE
5
246
100
AcDbEntity
8
0
100
AcDbPolyline
90
5
70
1
43
0.0
10
75.807242520356908
20
8.9589803375031618
10
59.447400169164226
20
8.9589803375031636
10
63.43716627365783
20
2.8090401171787072
10
62.417593017742099
20
-0.32888370749730278
10
69.059214297332176
20
-0.32888370749730722
0
LWPOLYLINE
5
247
100
AcDbEntity
8
0
100
AcDbPolyline
90
5
70
1
43
0.0
10
38.319539435061607
20
8.958980337503208
10
45.067567658086347
20
-0.32888370749726725
10
51.709188937676409
20
-0.32888370749726725
10
50.689615681760678
20
2.8090401171787427
10
54.679381786254297
20
8.9589803375031973
0
LWPOLYLINE
5
248
100
AcDbEntity
8
0
100
AcDbPolyline
90
5
70
1
43
0.0
10
36.7015054463117
20
7.7834098329182533
10
31.646036134498175
20
-7.7757248407449708
10
38.727882385733039
20
-5.8816678310430692
10
41.397159823740814
20
-7.8210114088009064
10
43.449533669336439
20
-1.5044542120822246
0
LWPOLYLINE
5
249
100
AcDbEntity
8
0
100
AcDbPolyline
90
5
70
1
43
0.0
10
89.009613842545164
20
-27.869514467289846
10
83.954144530731639
20
-12.310379793626618
10
79.33810933923607
20
-18.005308888269056
10
76.038700975051967
20
-18.005308888269056
10
78.091074820647592
20
-24.321866084987754
0
LWPOLYLINE
5
250
100
AcDbEntity
8
0
100
AcDbPolyline
90
5
70
1
43
0.0
10
77.473040831897691
20
-26.223979117578065
10
72.099856346507039
20
-30.12782615703297
10
74.769133784514821
20
-32.067169734790816
10
75.156189366385391
20
-39.387701563741039
10
88.391579853795278
20
-29.771627499880154
0
LWPOLYLINE
5
251
100
AcDbEntity
8
0
100
AcDbPolyline
90
5
70
1
43
0.0
10
58.063390977709169
20
-51.806346515735754
10
71.298781465119063
20
-42.190272451874861
10
64.456148719015559
20
-39.559991975560109
10
63.436575463099828
20
-36.422068150884087
10
58.063390977709176
20
-40.325915190338996
0
LWPOLYLINE
5
252
100
AcDbEntity
8
0
100
AcDbPolyline
90
5
70
1
43
0.0
10
77.425276509106823
20
7.7834098329182133
10
70.677248286082076
20
-1.5044542120822602
10
72.729622131677701
20
-7.8210114088009508
10
75.398899569685483
20
-5.8816678310431048
10
82.480745820920333
20
-7.7757248407450152
0
LWPOLYLINE
5
253
100
AcDbEntity
8
0
100
AcDbPolyline
90
5
70
1
43
0.0
10
56.063390977709162
20
-51.806346515735754
10
56.063390977709169
20
-40.325915190338996
10
50.690206492318524
20
-36.422068150884087
10
49.670633236402786
20
-39.559991975560102
10
42.828000490299296
20
-42.190272451874861
0
LWPOLYLINE
5
254
100
AcDbEntity
8
0
100
AcDbPolyline
90
6
70
1
43
0.0
10
45.200207995511654
20
55.094715097808589
10
49.23229282710038
20
58.024196204483225
10
47.045921378660331
20
64.753155617496844
10
39.970674747444733
20
64.75315561749639
10
38.430555387300558
20
60.013155617496594
10
43.602109795914856
20
60.013155617496743
0
LWPOLYLINE
5
255
100
AcDbEntity
8
0
100
AcDbPolyline
90
5
70
1
43
0.0
10
48.880972445921245
20
65.577585112911422
10
50.933346291516855
20
59.261027916192731
10
53.60262372952463
20
61.200371493950584
10
60.684469980759516
20
59.306314484248659
10
55.629000668945991
20
74.865449157911883
0
LWPOLYLINE
5
256
100
AcDbEntity
8
0
100
AcDbPolyline
90
5
70
1
43
0.0
10
54.010966680196084
20
76.041019662496836
10
37.651124329003409
20
76.041019662496836
10
41.640890433497006
20
69.891079442172398
10
40.621317177581275
20
66.75315561749639
10
47.262938457171337
20
66.753155617496375
0
LWPOLYLINE
5
257
100
AcDbEntity
8
0
100
AcDbPolyline
90
5
70
1
43
0.0
10
16.523263594900783
20
76.041019662496893
10
23.271291817925519
20
66.753155617496418
10
29.912913097515581
20
66.753155617496418
10
28.893339841599847
20
69.89107944217244
10
32.883105946093451
20
76.041019662496879
0
LWPOLYLINE
5
258
100
AcDbEntity
8
0
100
AcDbPolyline
90
5
70
1
43
0.0
10
67.213338002384333
20
39.212524857703826
10
62.157868690570794
20
54.771659531367064
10
57.541833499075224
20
49.076730436724617
10
54.242425134891135
20
49.076730436724631
10
56.294798980486732
20
42.760173240005926
0
LWPOLYLINE
5
259
100
AcDbEntity
8
0
100
AcDbPolyline
90
5
70
1
43
0.0
10
66.595304013634433
20
37.310411825113512
10
55.676764991736853
20
40.858060207415633
10
50.303580506346194
20
36.954213167960717
10
52.972857944353969
20
35.014869590202863
10
53.359913526224538
20
27.694337761252648
0
LWPOLYLINE
5
260
100
AcDbEntity
8
0
100
AcDbPolyline
90
5
70
1
43
0.0
10
14.905229606150883
20
74.865449157911939
10
9.8497602943373366
20
59.306314484248723
10
16.931606545572222
20
61.200371493950627
10
19.600883983579994
20
59.261027916192781
10
21.653257829175608
20
65.577585112911478
0
LWPOLYLINE
5
261
100
AcDbEntity
8
0
100
AcDbPolyline
90
5
70
1
43
0.0
10
3.9389262614623322
20
37.310411825113619
10
17.174316748872204
20
27.694337761252747
10
17.561372330742785
20
35.014869590202963
10
20.230649768750556
20
36.954213167960795
10
14.857465283359922
20
40.858060207415711
0
LWPOLYLINE
5
262
100
AcDbEntity
8
0
100
AcDbPolyline
90
5
70
1
43
0.0
10
52.336998206699754
20
-76.979970013433004
10
54.133110113018077
20
-82.507834058433431
10
59.945450337060976
20
-82.507834058433431
10
61.741562243379335
20
-76.979970013433018
10
57.039280225039533
20
-73.563562148434272
0
LWPOLYLINE
5
263
100
AcDbEntity
8
0
100
AcDbPolyline
90
5
70
1
43
0.0
10
89.385323985922383
20
25.987324227184914
10
95.197664209965254
20
25.987324227184907
10
96.993776116283613
20
31.51518827218533
10
92.291494097943826
20
34.931596137184073
10
87.589212079604039
20
31.515188272185334
0
LWPOLYLINE
5
264
100
AcDbEntity
8
0
100
AcDbPolyline
90
5
70
1
43
0.0
10
56.039280225039541
20
-71.817968721440053
10
56.039280225039519
20
-57.969168916037987
10
47.634716188359995
20
-51.862895714045898
10
47.634716188359974
20
-63.862260531730215
10
54.321585705659636
20
-73.065946839891282
0
LWPOLYLINE
5
265
100
AcDbEntity
8
0
100
AcDbPolyline
90
4
70
1
43
0.0
10
72.415323968478006
20
-84.555007445506916
10
62.436681179693863
20
-81.312749861758505
10
61.780501404321782
20
-83.332263553848492
10
69.403506171764803
20
-93.824429495422606
0
LWPOLYLINE
5
266
100
AcDbEntity
8
0
100
AcDbPolyline
90
4
70
1
43
0.0
10
56.039025057007208
20
-95.00000000000756
10
56.039025057007308
20
-84.507834058433417
10
53.916093034507149
20
-84.507834058433417
10
46.29308826706513
20
-95.000000000006182
0
LWPOLYLINE
5
267
100
AcDbEntity
8
0
100
AcDbPolyline
90
6
70
1
43
0.0
10
23.326778961387937
20
-95.000000000007248
10
30.743186826386818
20
-95.000000000007319
10
38.302228967087473
20
-84.595871061467406
10
26.650017625317094
20
-80.809838091857614
10
20.650017625317084
20
-85.169093259889735
10
28.594025034587979
20
-87.750257734182085
0
LWPOLYLINE
5
268
100
AcDbEntity
8
0
100
AcDbPolyline
90
6
70
1
43
0.0
10
-20.650017625317226
20
-85.169093259889976
10
-26.650017625317215
20
-80.809838091857827
10
-38.302228967087629
20
-84.595871061467506
10
-30.743186826387049
20
-95.000000000007475
10
-23.326778961388168
20
-95.000000000007475
10
-28.594025034588149
20
-87.750257734182284
0
LWPOLYLINE
5
269
100
AcDbEntity
8
0
100
AcDbPolyline
90
5
70
1
43
0.0
10
-33.840676075848478
20
-58.97868237677595
10
-31.100434168897358
20
-50.545084971874807
10
-38.46066973856523
20
-45.197560814373333
10
-45.634716188360059
20
-50.409810658035148
10
-45.634716188359988
20
-62.810798307491893
0
LWPOLYLINE
5
270
100
AcDbEntity
8
0
100
AcDbPolyline
90
6
70
1
43
0.0
10
-83.141997924949635
20
-51.541699601026963
10
-80.850201857449036
20
-58.595122628536799
10
-68.619414751402786
20
-62.569146259722814
10
-68.619414751402672
20
-50.317286205010525
10
-74.61941475140263
20
-45.958031036978326
10
-74.619414751402715
20
-54.310854736895607
0
LWPOLYLINE
5
271
100
AcDbEntity
8
0
100
AcDbPolyline
90
4
70
1
43
0.0
10
-69.403506171764747
20
-93.824429495422351
10
-61.780501404321903
20
-83.332263553848449
10
-62.436681179693991
20
-81.312749861758419
10
-72.415323968477452
20
-84.555007445506504
0
LWPOLYLINE
5
272
100
AcDbEntity
8
0
100
AcDbPolyline
90
5
70
1
43
0.0
10
-84.326099422132415
20
2.7252006480363988
10
-81.048779661108114
20
12.811753722600063
10
-89.168306907411392
20
23.987324227184992
10
-91.291494083042636
20
23.987324227184992
10
-91.291494083042636
20
12.312243928259583
0
LWPOLYLINE
5
273
100
AcDbEntity
8
0
100
AcDbPolyline
90
5
70
1
43
0.0
10
-87.550272918661534
20
25.162894731769939
10
-79.410152631095315
20
13.95898033750322
10
-69.021540160509346
20
13.95898033750321
10
-76.074589837221339
20
23.666670396714675
10
-86.894171994547818
20
27.182165744640162
0
LWPOLYLINE
5
274
100
AcDbEntity
8
0
100
AcDbPolyline
90
4
70
1
43
0.0
10
-101.17612258711175
20
43.917701984268902
10
-95.008982182049181
20
35.429361429733355
10
-93.291494097943769
20
36.677189564178377
10
-93.291494097943797
20
49.646219899170383
0
LWPOLYLINE
5
275
100
AcDbEntity
8
0
100
AcDbPolyline
90
5
70
1
43
0.0
10
-81.093325558719854
20
43.698979304906267
10
-87.955765577758712
20
34.253640932383512
10
-86.238071070434117
20
33.005662822690979
10
-73.100400013334564
20
37.274350911771613
10
-69.823080252310078
20
47.360903986335131
0
LWPOLYLINE
5
276
100
AcDbEntity
8
0
100
AcDbPolyline
90
4
70
1
43
0.0
10
88.145759534633214
20
-9.0305043978131838
10
92.550241045752969
20
-22.586104634378188
10
96.794808148643085
20
-9.5226703393875525
10
92.291494097943456
20
-3.324390297800619
0
LWPOLYLINE
5
277
100
AcDbEntity
8
0
100
AcDbPolyline
90
5
70
1
43
0.0
10
85.620037081684259
20
31.103549790100601
10
72.449045783889559
20
35.383064281666286
10
64.044481747210014
20
29.276791079674204
10
75.456555848471481
20
25.568783429304887
10
86.276138005797961
20
29.084278777230381
0
LWPOLYLINE
5
278
100
AcDbEntity
8
0
100
AcDbPolyline
90
4
70
1
43
0.0
10
93.291494097943826
20
49.646219899171953
10
93.291494097943826
20
36.677189564178285
10
95.008982182049266
20
35.429361429733227
10
101.17612258711191
20
43.917701984268703
0
LWPOLYLINE
5
279
100
AcDbEntity
8
0
100
AcDbPolyline
90
6
70
1
43
0.0
10
66.767352162309436
20
56.765468023014655
10
69.059148229810063
20
49.712044995504989
10
80.711359571580488
20
45.926012025895346
10
80.711359571580488
20
58.786222640603476
10
74.711359571580374
20
63.145477808635739
10
74.711359571580388
20
54.184303548722418
0
LWPOLYLINE
5
280
100
AcDbEntity
8
0
100
AcDbPolyline
90
5
70
1
43
0.0
10
-7.2891176542117524
20
67.605806673644409
10
-4.5488757472606576
20
59.172209268743259
10
4.5488757472607251
20
59.172209268743259
10
7.2891176542118385
20
67.605806673644409
10
1.3322676295501878e-14
20
77.638416429088707
0
LWPOLYLINE
5
281
100
AcDbEntity
8
0
100
AcDbPolyline
90
4
70
1
43
0.0
10
-8.8850413597169542
20
110.97109745156837
10
-2.7179009546542909
20
102.48275689703289
10
-0.99999999999992428
20
103.73088499949027
10
-0.99999999999992095
20
116.69991533448399
0
LWPOLYLINE
5
282
100
AcDbEntity
8
0
100
AcDbPolyline
90
4
70
1
43
0.0
10
10.503075348467071
20
109.79552694698334
10
4.3359349434043457
20
101.3071863924479
10
6.0534230275097478
20
100.05935825800287
10
18.387703837633431
20
104.06700903207962
0
LWPOLYLINE
5
283
100
AcDbEntity
8
0
100
AcDbPolyline
90
6
70
1
43
0.0
10
36.967838363998396
20
90.567751122616045
10
30.967838363998325
20
94.92700629064835
10
18.737051257952007
20
90.952982659462549
10
25.938513911263041
20
81.041019662496666
10
33.354921776261762
20
81.041019662496609
10
28.445255190451412
20
87.798595986747586
0
LWPOLYLINE
5
284
100
AcDbEntity
8
0
100
AcDbPolyline
90
5
70
1
43
0.0
10
20.387703837633275
20
102.61392397606886
10
6.6714570162596338
20
98.157245225412566
10
6.0153560921459199
20
96.137974212542332
10
17.119017269202246
20
92.530175995819974
10
28.967838363998332
20
96.380091346659086
0
LWPOLYLINE
5
285
100
AcDbEntity
8
0
100
AcDbPolyline
90
4
70
1
43
0.0
10
-50.080259306890625
20
81.041019662496879
10
-35.827057731261469
20
81.041019662496879
10
-31.681323167951287
20
86.747133762509506
10
-38.967838363998389
20
89.114666066605551
0
LWPOLYLINE
5
286
100
AcDbEntity
8
0
100
AcDbPolyline
90
5
70
1
43
0.0
10
-12.860748425585498
20
81.041019662496893
10
-4.7412211792822125
20
92.216590167081847
10
-5.3973220987912063
20
94.235861165780221
10
-16.500983295353389
20
90.628062942720135
10
-23.466377956263536
20
81.041019662496893
0
LWPOLYLINE
5
287
100
AcDbEntity
8
0
100
AcDbPolyline
90
3
70
1
43
0.0
10
3.8990363547949087
20
57.172209268743259
10
-3.8990363547948488
20
57.172209268743259
10
1.9984014443252818e-14
20
45.172209268743259
0
LWPOLYLINE
5
288
100
AcDbEntity
8
0
100
AcDbPolyline
90
4
70
1
43
0.0
10
102.79415657586176
20
42.742131479683785
10
96.627016170799152
20
34.253790925148301
10
98.344917125453506
20
33.005662822690887
10
110.67919793557878
20
37.013313596768157
0
LWPOLYLINE
5
289
100
AcDbEntity
8
0
100
AcDbPolyline
90
3
70
1
43
0.0
10
55.578870671345832
20
13.958980337503155
10
53.169133680711113
20
21.375388202501895
10
42.961323980486625
20
13.958980337503164
0
LWPOLYLINE
5
290
100
AcDbEntity
8
0
100
AcDbPolyline
90
6
70
1
43
0.0
10
97.55874017114337
20
-7.1715293302175676
10
99.850536238644096
20
-0.11810630270777445
10
92.291494097943627
20
10.286022635832271
10
85.090031444632388
20
0.37405963886653293
10
87.381827512132986
20
-6.6793633886431447
10
92.29149409794347
20
0.07821293560770215
0
LWPOLYLINE
5
291
100
AcDbEntity
8
0
100
AcDbPolyline
90
4
70
1
43
0.0
10
111.29723192432837
20
35.11120056417775
10
98.962951114203406
20
31.10354979010058
10
98.306771338831297
20
29.084036098010543
10
108.28541412761469
20
25.841778514262259
0
LWPOLYLINE
5
292
100
AcDbEntity
8
0
100
AcDbPolyline
90
5
70
1
43
0.0
10
-91.291494097943797
20
51.099304955180941
10
-91.291494097943769
20
36.677189564178363
10
-89.573799578563865
20
35.429211445727134
10
-82.711359571580303
20
44.874549801657231
10
-82.711359571580232
20
57.333137584592805
0
LWPOLYLINE
5
293
100
AcDbEntity
8
0
100
AcDbPolyline
90
3
70
1
43
0.0
10
-53.169133680711091
20
21.375388202501938
10
-55.578870671345811
20
13.958980337503192
10
-42.961323980486611
20
13.958980337503188
0
LWPOLYLINE
5
294
100
AcDbEntity
8
0
100
AcDbPolyline
90
4
70
1
43
0.0
10
-88.14575953463347
20
-9.0305043978131074
10
-92.291494097943684
20
-3.3243902978005035
10
-96.794808148643355
20
-9.5226703393874068
10
-92.55024104575466
20
-22.586104634383567
0
LWPOLYLINE
5
295
100
AcDbEntity
8
0
100
AcDbPolyline
90
4
70
1
43
0.0
10
-104.65572004466905
20
14.670728790195845
10
-97.03271527722606
20
25.162894731769949
10
-97.688737350081411
20
27.181923065420417
10
-107.66738013886552
20
23.939665481671973
0
LWPOLYLINE
5
296
100
AcDbEntity
8
0
100
AcDbPolyline
90
4
70
1
43
0.0
10
-76.619414751402729
20
-44.504945980967506
10
-88.150497050334138
20
-36.127124296864416
10
-83.905929947449863
20
-49.190558591856963
10
-76.6194147514028
20
-51.558090895953121
0
LWPOLYLINE
5
297
100
AcDbEntity
8
0
100
AcDbPolyline
90
3
70
1
43
0.0
10
-36.759368121861151
20
-43.961492836873546
10
-30.45059477643154
20
-48.545084971874807
10
-26.55155842163666
20
-36.545084971874807
0
LWPOLYLINE
5
298
100
AcDbEntity
8
0
100
AcDbPolyline
90
5
70
1
43
0.0
10
-28.650017625317158
20
-79.356753035847163
10
-37.230152151680485
20
-73.122920406437075
10
-50.367823208780045
20
-77.391608495517715
10
-51.023924128289046
20
-79.41087949421609
10
-39.92026293172686
20
-83.018677717276177
0
LWPOLYLINE
5
299
100
AcDbEntity
8
0
100
AcDbPolyline
90
4
70
1
43
0.0
10
-58.039025057007414
20
-95.000000000007518
10
-58.039025057007436
20
-84.507834058433403
10
-60.16246741557201
20
-84.507834058433403
10
-67.785472183015017
20
-95.000000000007532
0
LWPOLYLINE
5
300
100
AcDbEntity
8
0
100
AcDbPolyline
90
5
70
1
43
0.0
10
43.820952312065657
20
-95.000000000006054
10
52.298059045757263
20
-83.332263553848492
10
51.641958121643547
20
-81.312992540978229
10
40.538296944587167
20
-84.920790757700431
10
33.215322781386398
20
-95.000000000007333
0
LWPOLYLINE
5
301
100
AcDbEntity
8
0
100
AcDbPolyline
90
4
70
1
43
0.0
10
76.619414751402871
20
-44.504945980967712
10
76.6194147514029
20
-51.558090895953328
10
83.905929947449977
20
-49.190558591857219
10
88.150497050338643
20
-36.127124296861048
0
LWPOLYLINE
5
302
100
AcDbEntity
8
0
100
AcDbPolyline
90
5
70
1
43
0.0
10
66.619414751402871
20
-51.770371261021353
10
58.039280225039526
20
-58.004203890431441
10
58.039280225039533
20
-71.817968721440053
10
59.756974732364142
20
-73.065946831132592
10
66.6194147514029
20
-63.620608458609802
0
LWPOLYLINE
5
303
100
AcDbEntity
8
0
100
AcDbPolyline
90
5
70
1
43
0.0
10
37.814865899735196
20
-71.209980971361745
10
50.98585719752986
20
-75.489495462927437
10
52.703551716909757
20
-74.241517344476208
10
46.016682199610088
20
-65.037831036315154
10
34.604608098348635
20
-61.329823385945886
0
LWPOLYLINE
5
304
100
AcDbEntity
8
0
100
AcDbPolyline
90
5
70
1
43
0.0
10
-57.039280225039619
20
-73.563562148434244
10
-61.741562243379413
20
-76.979970013432975
10
-59.945450337061075
20
-82.507834058433417
10
-54.133110113018184
20
-82.507834058433417
10
-52.336998206699832
20
-76.979970013432975
0
LWPOLYLINE
5
305
100
AcDbEntity
8
0
100
AcDbPolyline
90
5
70
1
43
0.0
10
-4.702282018339722
20
98.568883707497321
10
-2.9061701120213845
20
93.041019662496893
10
2.9061701120215035
20
93.041019662496893
10
4.7022820183398517
20
98.568883707497307
10
6.7168492989821971e-14
20
101.98529157249607
0
LWPOLYLINE
5
306
100
AcDbEntity
8
0
100
AcDbPolyline
90
5
70
1
43
0.0
10
45.634716188360002
20
-50.409810658035177
10
38.46066973856518
20
-45.197560814373354
10
31.100434168897312
20
-50.545084971874829
10
33.840676075848421
20
-58.978682376775978
10
45.634716188359981
20
-62.810798307491879
0
LWPOLYLINE
5
307
100
AcDbEntity
8
0
100
AcDbPolyline
90
4
70
1
43
0.0
10
76.04501805142435
20
-73.38395772144051
10
63.7107372412991
20
-77.391608495517758
10
63.054715168443749
20
-79.410636829168226
10
73.033357957227892
20
-82.652894412916623
0
LWPOLYLINE
5
308
100
AcDbEntity
8
0
100
AcDbPolyline
90
4
70
1
43
0.0
10
67.785472183014718
20
-95.000000000007304
10
60.162467415571896
20
-84.507834058433417
10
58.039025057007279
20
-84.507834058433417
10
58.03902505700718
20
-95.000000000006807
0
LWPOLYLINE
5
309
100
AcDbEntity
8
0
100
AcDbPolyline
90
4
70
1
43
0.0
10
18.650017625316959
20
-86.622178315900541
10
7.1189353263859356
20
-95.000000000004135
10
20.854643006388255
20
-95.000000000007219
10
25.357957057088029
20
-88.801719958420392
0
LWPOLYLINE
5
310
100
AcDbEntity
8
0
100
AcDbPolyline
90
4
70
1
43
0.0
10
-18.650017625317112
20
-86.622178315900783
10
-25.357957057088214
20
-88.801719958420605
10
-20.854643006388475
20
-95.000000000007461
10
-7.1189353263813349
20
-95.000000000007446
0
LWPOLYLINE
5
311
100
AcDbEntity
8
0
100
AcDbPolyline
90
5
70
1
43
0.0
10
-50.985857197529938
20
-75.489495462927422
10
-37.81486589973526
20
-71.209980971361688
10
-34.604608098348692
20
-61.329823385945843
10
-46.016682199610166
20
-65.037831036315112
10
-52.703551716909836
20
-74.241517344476208
0
LWPOLYLINE
5
312
100
AcDbEntity
8
0
100
AcDbPolyline
90
5
70
1
43
0.0
10
-66.6194147514029
20
-63.620608458609667
10
-59.756974732364213
20
-73.06594683113255
10
-58.039280225039612
20
-71.817968721440025
10
-58.039280225039619
20
-58.004203890431441
10
-66.619414751402758
20
-51.770371261021225
0
LWPOLYLINE
5
313
100
AcDbEntity
8
0
100
AcDbPolyline
90
4
70
1
43
0.0
10
-73.033357957228063
20
-82.652894412916453
10
-63.054715168443863
20
-79.410636829168112
10
-63.710737241299206
20
-77.391608495517715
10
-76.045018051422886
20
-73.38395772144095
0
LWPOLYLINE
5
314
100
AcDbEntity
8
0
100
AcDbPolyline
90
5
70
1
43
0.0
10
-100.61446826114449
20
2.2330347064622824
10
-93.291494097943797
20
12.312243948769265
10
-93.291494097943797
20
23.987324227184992
10
-95.414681288476174
20
23.98732422718501
10
-103.89178802216884
20
12.319587781025954
0
LWPOLYLINE
5
315
100
AcDbEntity
8
0
100
AcDbPolyline
90
5
70
1
43
0.0
10
-72.449045783889531
20
35.383064281666378
10
-85.620037081684217
20
31.103549790100679
10
-86.276138005797932
20
29.084278777230459
10
-75.456555848471453
20
25.568783429304972
10
-64.04448174721
20
29.276791079674286
0
LWPOLYLINE
5
316
100
AcDbEntity
8
0
100
AcDbPolyline
90
4
70
1
43
0.0
10
-110.67919793557846
20
37.013313596768171
10
-98.344917125453463
20
33.005662822690994
10
-96.627016170799052
20
34.253790925148429
10
-102.79415657586117
20
42.742131479683366
0
LWPOLYLINE
5
317
100
AcDbEntity
8
0
100
AcDbPolyline
90
6
70
1
43
0.0
10
-74.711359571580061
20
63.145477808635704
10
-80.711359571580203
20
58.786222640603505
10
-80.711359571580331
20
45.926012025895361
10
-69.059148229809878
20
49.712044995504918
10
-66.767352162309209
20
56.765468023014563
10
-74.711359571580147
20
54.18430354872239
0
LWPOLYLINE
5
318
100
AcDbEntity
8
0
100
AcDbPolyline
90
5
70
1
43
0.0
10
103.89178802216779
20
12.319587781027334
10
95.414681288476189
20
23.987324227184903
10
93.291494097943769
20
23.987324227184907
10
93.291494097943684
20
12.31224394876914
10
100.61446826114434
20
2.2330347064621181
0
LWPOLYLINE
5
319
100
AcDbEntity
8
0
100
AcDbPolyline
90
5
70
1
43
0.0
10
79.410152631095357
20
13.958980337503137
10
87.550272918661562
20
25.16289473176986
10
86.894171994547861
20
27.182165744640084
10
76.074589837221382
20
23.66667039671459
10
69.021540160509417
20
13.958980337503144
0
LWPOLYLINE
5
320
100
AcDbEntity
8
0
100
AcDbPolyline
90
5
70
1
43
0.0
10
82.711359571580488
20
57.333137584592762
10
82.711359571580488
20
44.874549801657196
10
89.573799578563921
20
35.42921144572707
10
91.291494097943854
20
36.677189564178278
10
91.291494097943826
20
51.099304955182667
0
LWPOLYLINE
5
321
100
AcDbEntity
8
0
100
AcDbPolyline
90
4
70
1
43
0.0
10
66.003420139809194
20
59.116609032184684
10
72.711359571580317
20
56.937067389664904
10
72.71135957158026
20
64.59856286464651
10
61.598938628687996
20
72.672209268755154
0
LWPOLYLINE
5
322
100
AcDbEntity
8
0
100
AcDbPolyline
90
5
70
1
43
0.0
10
11.263307478098625
20
79.837105268230161
10
3.1231871905324304
20
91.041019662496893
10
1.0000000000000531
20
91.041019662496893
10
1.0000000000000531
20
79.664637742025747
10
8.0530496767120567
20
69.956947682814331
0
LWPOLYLINE
5
323
100
AcDbEntity
8
0
100
AcDbPolyline
90
4
70
1
43
0.0
10
-18.387703837634852
20
104.06700903208016
10
-6.0534230275096066
20
100.0593582580029
10
-4.3359349434041654
20
101.30718639244793
10
-10.503075348466812
20
109.79552694698343
0
LWPOLYLINE
5
324
100
AcDbEntity
8
0
100
AcDbPolyline
90
4
70
1
43
0.0
10
1.0000000000000751
20
116.69991533448368
10
1.0000000000000753
20
103.73088499949027
10
2.717900954654473
20
102.48275689703284
10
8.8850413597172206
20
110.9710974515683
0
LWPOLYLINE
5
325
100
AcDbEntity
8
0
100
AcDbPolyline
90
4
70
1
43
0.0
10
35.82705773126149
20
81.041019662496595
10
50.080259306885011
20
81.041019662496922
10
38.967838363998467
20
89.114666066605238
10
31.681323167951348
20
86.747133762509236
0
LWPOLYLINE
5
326
100
AcDbEntity
8
0
100
AcDbPolyline
90
5
70
1
43
0.0
10
16.500983295353489
20
90.628062942719993
10
5.3973220987913173
20
94.235861165780193
10
4.7412211792823289
20
92.216590167081847
10
12.8607484255856
20
81.041019662496922
10
23.466377956263553
20
81.041019662496709
0
LWPOLYLINE
5
327
100
AcDbEntity
8
0
100
AcDbPolyline
90
6
70
1
43
0.0
10
-18.737051257951904
20
90.952982659462705
10
-30.96783836399819
20
94.927006290648592
10
-36.967838363998304
20
90.567751122616343
10
-28.445255190451341
20
87.798595986747813
10
-33.35492177626174
20
81.041019662496879
10
-25.938513911263023
20
81.041019662496879
0
LWPOLYLINE
5
328
100
AcDbEntity
8
0
100
AcDbPolyline
90
5
70
1
43
0.0
10
-17.119017269202132
20
92.530175995820116
10
-6.0153560921458071
20
96.13797421254236
10
-6.6714570162595095
20
98.157245225412595
10
-20.387703837634863
20
102.61392397606943
10
-28.96783836399819
20
96.380091346659327
0
LWPOLYLINE
5
329
100
AcDbEntity
8
0
100
AcDbPolyline
90
5
70
1
43
0.0
10
-3.1231871905323239
20
91.041019662496893
10
-11.263307478098511
20
79.837105268230161
10
-8.0530496767119608
20
69.956947682814302
10
-0.9999999999999365
20
79.664637742025747
10
-0.9999999999999365
20
91.041019662496893
0
LWPOLYLINE
5
330
100
AcDbEntity
8
0
100
AcDbPolyline
90
5
70
1
43
0.0
10
69.823080252310262
20
47.360903986335202
10
73.100400013334593
20
37.274350911771535
10
86.238071070434131
20
33.005662822690908
10
87.955765577758754
20
34.253640932383441
10
81.093325558719997
20
43.698979304906246
0
LWPOLYLINE
5
331
100
AcDbEntity
8
0
100
AcDbPolyline
90
5
70
1
43
0.0
10
62.044481747210014
20
27.82370602366349
10
54.870435297415192
20
22.611456180001682
10
57.681795119822368
20
13.958980337503155
10
66.549404205509816
20
13.958980337503149
10
73.838521859721524
20
23.991590092947519
0
LWPOLYLINE
5
332
100
AcDbEntity
8
0
100
AcDbPolyline
90
5
70
1
43
0.0
10
91.291494083042551
20
12.312243928259472
10
91.291494083042636
20
23.987324227184914
10
89.168306907411434
20
23.987324227184917
10
81.048779661108171
20
12.811753722599995
10
84.326099422132245
20
2.7252006480363455
0
LWPOLYLINE
5
333
100
AcDbEntity
8
0
100
AcDbPolyline
90
4
70
1
43
0.0
10
107.66738013886554
20
23.939665481671742
10
97.688737350081411
20
27.181923065420264
10
97.032715277226075
20
25.162894731769843
10
104.6557200446681
20
14.670728790197089
0
LWPOLYLINE
5
334
100
AcDbEntity
8
0
100
AcDbPolyline
90
4
70
1
43
0.0
10
-66.003420139808924
20
59.116609032184599
10
-61.59893862868978
20
72.672209268749796
10
-72.711359571579962
20
64.598562864646453
10
-72.711359571580033
20
56.937067389664847
0
LWPOLYLINE
5
335
100
AcDbEntity
8
0
100
AcDbPolyline
90
5
70
1
43
0.0
10
-66.549404205509774
20
13.958980337503208
10
-57.681795119822354
20
13.958980337503196
10
-54.87043529741517
20
22.611456180001728
10
-62.04448174721
20
27.823706023663554
10
-73.838521859721524
20
23.991590092947522
0
LWPOLYLINE
5
336
100
AcDbEntity
8
0
100
AcDbPolyline
90
6
70
1
43
0.0
10
-87.381827512133214
20
-6.6793633886430737
10
-85.090031444632586
20
0.37405963886658622
10
-92.29149409794374
20
10.286022635832385
10
-99.850536238644295
20
-0.11810630270761013
10
-97.558740171143626
20
-7.1715293302174121
10
-92.291494097943669
20
0.078212935607817613
0
LWPOLYLINE
5
337
100
AcDbEntity
8
0
100
AcDbPolyline
90
4
70
1
43
0.0
10
-108.28541412761541
20
25.841778514262238
10
-98.306771338831282
20
29.084036098010692
10
-98.962951114203364
20
31.10354979010069
10
-111.29723192432864
20
35.111200564177963
0
LWPOLYLINE
5
338
100
AcDbEntity
8
0
100
AcDbPolyline
90
5
70
1
43
0.0
10
-76.808950073922929
20
-71.032816712271114
10
-63.092703252549299
20
-75.489495462927394
10
-61.375008733169381
20
-74.241517344476165
10
-68.2374487401528
20
-64.796178988545961
10
-80.086269834948851
20
-60.946263637706707
0
LWPOLYLINE
5
339
100
AcDbEntity
8
0
100
AcDbPolyline
90
5
70
1
43
0.0
10
-56.039280225039612
20
-57.969168916037965
10
-56.039280225039619
20
-71.817968721440039
10
-54.321585705659729
20
-73.065946839891254
10
-47.634716188360059
20
-63.862260531730179
10
-47.634716188360088
20
-51.862895714045891
0
LWPOLYLINE
5
340
100
AcDbEntity
8
0
100
AcDbPolyline
90
5
70
1
43
0.0
10
-33.215322781386625
20
-95.000000000007475
10
-40.53829694458733
20
-84.920790757700502
10
-51.641958121643647
20
-81.312992540978243
10
-52.29805904575737
20
-83.332263553848463
10
-43.820952312064669
20
-95.000000000007503
0
LWPOLYLINE
5
341
100
AcDbEntity
8
0
100
AcDbPolyline
90
4
70
1
43
0.0
10
-46.293088267064263
20
-95.000000000007503
10
-53.916093034507256
20
-84.507834058433403
10
-56.039025057007457
20
-84.507834058433403
10
-56.03902505700745
20
-95.000000000007518
0
LWPOLYLINE
5
342
100
AcDbEntity
8
0
100
AcDbPolyline
90
5
70
1
43
0.0
10
39.920262931726718
20
-83.018677717276091
10
51.023924128288947
20
-79.41087949421609
10
50.36782320877996
20
-77.391608495517744
10
37.230152151680429
20
-73.122920406437117
10
28.650017625317048
20
-79.356753035846992
0
LWPOLYLINE
5
343
100
AcDbEntity
8
0
100
AcDbPolyline
90
6
70
1
43
0.0
10
74.619414751402758
20
-45.958031036978525
10
68.619414751402772
20
-50.317286205010667
10
68.619414751402786
20
-62.569146259722956
10
80.850201857449079
20
-58.595122628537041
10
83.141997924949749
20
-51.541699601027219
10
74.619414751402786
20
-54.310854736895791
0
LWPOLYLINE
5
344
100
AcDbEntity
8
0
100
AcDbPolyline
90
5
70
1
43
0.0
10
80.086269834948865
20
-60.94626363770692
10
68.237448740152786
20
-64.796178988546117
10
61.375008733169317
20
-74.241517344476222
10
63.092703252549207
20
-75.489495462927451
10
76.808950073924564
20
-71.032816712270602
0
LWPOLYLINE
5
345
100
AcDbEntity
8
0
100
AcDbPolyline
90
3
70
1
43
0.0
10
30.450594776431501
20
-48.545084971874815
10
36.759368121861108
20
-43.96149283687356
10
26.551558421636628
20
-36.545084971874815
0
LWPOLYLINE
5
346
100
AcDbEntity
8
0
100
AcDbPolyline
90
5
70
1
43
0.0
10
-87.589212079603996
20
31.515188272185416
10
-92.291494097943769
20
34.931596137184158
10
-96.99377611628357
20
31.515188272185419
10
-95.197664209965239
20
25.987324227184999
10
-89.385323985922355
20
25.987324227184992
0
ENDSEC
0
SECTION
2
OBJECTS
0
DICTIONARY
5
C
100
AcDbDictionary
3
ACAD_GROUP
350
D
3
ACAD_MLINESTYLE
350
17
0
DICTIONARY
5
D
100
AcDbDictionary
0
DICTIONARY
5
1A
330
C
100
AcDbDictionary
0
DICTIONARY
5
17
100
AcDbDictionary
0
ENDSEC
0
EOF
