999
dxfrw 0.6.3
  0
SECTION
  2
HEADER
  9
$ACADVER
  1
AC1021
  9
$DWGCODEPAGE
  3
ANSI_1252
  9
$INSBASE
 10
0
 20
0
 30
0
  9
$EXTMIN
 10
5.03103448275732
 20
5.031034482758798
 30
0
  9
$EXTMAX
 10
294.9689655172401
 20
294.9689655172416
 30
0
  9
$LIMMIN
 10
0
 20
0
  9
$LIMMAX
 10
420
 20
297
  9
$ORTHOMODE
 70
    0
  9
$REGENMODE
 70
    1
  9
$FILLMODE
 70
    1
  9
$QTEXTMODE
 70
    0
  9
$MIRRTEXT
 70
    0
  9
$LTSCALE
 40
1
  9
$ATTMODE
 70
    0
  9
$TEXTSIZE
 40
2.5
  9
$TRACEWID
 40
15.68
  9
$TEXTSTYLE
  7
STANDARD
  9
$CLAYER
  8
0
  9
$CELTYPE
  6
BYLAYER
  9
$CECOLOR
 62
  256
  9
$CELTSCALE
 40
1
  9
$DISPSILH
 70
    0
  9
$DIMSCALE
 40
2.5
  9
$DIMASZ
 40
2.5
  9
$DIMEXO
 40
0.625
  9
$DIMDLI
 40
3.75
  9
$DIMRND
 40
0
  9
$DIMDLE
 40
0
  9
$DIMEXE
 40
1.25
  9
$DIMTP
 40
0
  9
$DIMTM
 40
0
  9
$DIMTXT
 40
2.5
  9
$DIMCEN
 40
2.5
  9
$DIMTSZ
 40
0
  9
$DIMTOL
 70
    0
  9
$DIMLIM
 70
    0
  9
$DIMTIH
 70
    0
  9
$DIMTOH
 70
    0
  9
$DIMSE1
 70
    0
  9
$DIMSE2
 70
    0
  9
$DIMTAD
 70
    1
  9
$DIMZIN
 70
    8
  9
$DIMBLK
  1

  9
$DIMASO
 70
    1
  9
$DIMSHO
 70
    1
  9
$DIMPOST
  1

  9
$DIMAPOST
  1

  9
$DIMALT
 70
    0
  9
$DIMALTD
 70
    3
  9
$DIMALTF
 40
0.03937
  9
$DIMLFAC
 40
1
  9
$DIMTOFL
 70
    1
  9
$DIMTVP
 40
0
  9
$DIMTIX
 70
    0
  9
$DIMSOXD
 70
    0
  9
$DIMSAH
 70
    0
  9
$DIMBLK1
  1

  9
$DIMBLK2
  1

  9
$DIMSTYLE
  2
Standard
  9
$DIMCLRD
 70
    0
  9
$DIMCLRE
 70
    0
  9
$DIMCLRT
 70
    0
  9
$DIMTFAC
 40
1
  9
$DIMGAP
 40
0.625
  9
$DIMJUST
 70
    0
  9
$DIMSD1
 70
    0
  9
$DIMSD2
 70
    0
  9
$DIMTOLJ
 70
    0
  9
$DIMTZIN
 70
    8
  9
$DIMALTZ
 70
    0
  9
$DIMALTTZ
 70
    0
  9
$DIMUPT
 70
    0
  9
$DIMDEC
 70
    2
  9
$DIMTDEC
 70
    2
  9
$DIMALTU
 70
    2
  9
$DIMALTTD
 70
    3
  9
$DIMTXSTY
  7
STANDARD
  9
$DIMAUNIT
 70
    0
  9
$DIMADEC
 70
    0
  9
$DIMALTRND
 40
0
  9
$DIMAZIN
 70
    0
  9
$DIMDSEP
 70
   44
  9
$DIMATFIT
 70
    3
  9
$DIMFRAC
 70
    0
  9
$DIMLDRBLK
  1
STANDARD
  9
$DIMLUNIT
 70
    2
  9
$DIMLWD
 70
   -2
  9
$DIMLWE
 70
   -2
  9
$DIMTMOVE
 70
    0
  9
$DIMFXL
 40
1
  9
$DIMFXLON
 70
    0
  9
$DIMJOGANG
 40
0.7854
  9
$DIMTFILL
 70
    0
  9
$DIMTFILLCLR
 70
    0
  9
$DIMARCSYM
 70
    0
  9
$DIMLTYPE
  6

  9
$DIMLTEX1
  6

  9
$DIMLTEX2
  6

  9
$LUNITS
 70
    2
  9
$LUPREC
 70
    4
  9
$SKETCHINC
 40
1
  9
$FILLETRAD
 40
0
  9
$AUNITS
 70
    0
  9
$AUPREC
 70
    2
  9
$MENU
  1
.
  9
$ELEVATION
 40
0
  9
$PELEVATION
 40
0
  9
$THICKNESS
 40
0
  9
$LIMCHECK
 70
    0
  9
$CHAMFERA
 40
0
  9
$CHAMFERB
 40
0
  9
$CHAMFERC
 40
0
  9
$CHAMFERD
 40
0
  9
$SKPOLY
 70
    0
  9
$USRTIMER
 70
    1
  9
$ANGBASE
 50
0
  9
$ANGDIR
 70
    0
  9
$PDMODE
 70
   34
  9
$PDSIZE
 40
0
  9
$PLINEWID
 40
0
  9
$SPLFRAME
 70
    0
  9
$SPLINETYPE
 70
    2
  9
$SPLINESEGS
 70
    8
  9
$HANDSEED
  5
20000
  9
$SURFTAB1
 70
    6
  9
$SURFTAB2
 70
    6
  9
$SURFTYPE
 70
    6
  9
$SURFU
 70
    6
  9
$SURFV
 70
    6
  9
$UCSBASE
  2

  9
$UCSNAME
  2

  9
$UCSORG
 10
0
 20
0
 30
0
  9
$UCSXDIR
 10
1
 20
0
 30
0
  9
$UCSYDIR
 10
0
 20
1
 30
0
  9
$UCSORTHOREF
  2

  9
$UCSORTHOVIEW
 70
    0
  9
$UCSORGTOP
 10
0
 20
0
 30
0
  9
$UCSORGBOTTOM
 10
0
 20
0
 30
0
  9
$UCSORGLEFT
 10
0
 20
0
 30
0
  9
$UCSORGRIGHT
 10
0
 20
0
 30
0
  9
$UCSORGFRONT
 10
0
 20
0
 30
0
  9
$UCSORGBACK
 10
0
 20
0
 30
0
  9
$PUCSBASE
  2

  9
$PUCSNAME
  2

  9
$PUCSORG
 10
0
 20
0
 30
0
  9
$PUCSXDIR
 10
1
 20
0
 30
0
  9
$PUCSYDIR
 10
0
 20
1
 30
0
  9
$PUCSORTHOREF
  2

  9
$PUCSORTHOVIEW
 70
    0
  9
$PUCSORGTOP
 10
0
 20
0
 30
0
  9
$PUCSORGBOTTOM
 10
0
 20
0
 30
0
  9
$PUCSORGLEFT
 10
0
 20
0
 30
0
  9
$PUCSORGRIGHT
 10
0
 20
0
 30
0
  9
$PUCSORGFRONT
 10
0
 20
0
 30
0
  9
$PUCSORGBACK
 10
0
 20
0
 30
0
  9
$USERI1
 70
    0
  9
$USERI2
 70
    0
  9
$USERI3
 70
    0
  9
$USERI4
 70
    0
  9
$USERI5
 70
    0
  9
$USERR1
 40
0
  9
$USERR2
 40
0
  9
$USERR3
 40
0
  9
$USERR4
 40
0
  9
$USERR5
 40
0
  9
$WORLDVIEW
 70
    1
  9
$SHADEDGE
 70
    3
  9
$SHADEDIF
 70
   70
  9
$TILEMODE
 70
    1
  9
$MAXACTVP
 70
   64
  9
$PINSBASE
 10
0
 20
0
 30
0
  9
$PLIMCHECK
 70
    0
  9
$PEXTMIN
 10
0
 20
0
 30
0
  9
$PEXTMAX
 10
0
 20
0
 30
0
  9
$SNAPSTYLE
 70
    0
  9
$PLIMMIN
 10
0
 20
0
  9
$PLIMMAX
 10
210
 20
297
  9
$UNITMODE
 70
    0
  9
$VISRETAIN
 70
    1
  9
$PLINEGEN
 70
    0
  9
$PSLTSCALE
 70
    1
  9
$TREEDEPTH
 70
 3020
  9
$CMLSTYLE
  2
Standard
  9
$CMLJUST
 70
    0
  9
$CMLSCALE
 40
20
  9
$PROXYGRAPHICS
 70
    1
  9
$MEASUREMENT
 70
    1
  9
$CELWEIGHT
370
   -1
  9
$ENDCAPS
280
    0
  9
$JOINSTYLE
280
    0
  9
$LWDISPLAY
290
    0
  9
$INSUNITS
 70
    0
  9
$HYPERLINKBASE
  1

  9
$STYLESHEET
  1

  9
$XEDIT
290
    1
  9
$CEPSNTYPE
380
    0
  9
$PSTYLEMODE
290
    1
  9
$EXTNAMES
290
    1
  9
$PSVPSCALE
 40
1
  9
$OLESTARTUP
290
    0
  9
$SORTENTS
280
  127
  9
$INDEXCTL
280
    0
  9
$HIDETEXT
280
    1
  9
$XCLIPFRAME
290
    0
  9
$HALOGAP
280
    0
  9
$OBSCOLOR
 70
  257
  9
$OBSLTYPE
280
    0
  9
$INTERSECTIONDISPLAY
280
    0
  9
$INTERSECTIONCOLOR
 70
  257
  9
$DIMASSOC
280
    1
  9
$PROJECTNAME
  1

  9
$CAMERADISPLAY
290
    0
  9
$LENSLENGTH
 40
50
  9
$CAMERAHEIGHT
 40
0
  9
$STEPSPERSEC
 40
2
  9
$STEPSIZE
 40
50
  9
$3DDWFPREC
 40
2
  9
$PSOLWIDTH
 40
5
  9
$PSOLHEIGHT
 40
80
  9
$LOFTANG1
 40
1.570796326794897
  9
$LOFTANG2
 40
1.570796326794897
  9
$LOFTMAG1
 40
0
  9
$LOFTMAG2
 40
0
  9
$LOFTPARAM
 70
    7
  9
$LOFTNORMALS
280
    1
  9
$LATITUDE
 40
1
  9
$LONGITUDE
 40
1
  9
$NORTHDIRECTION
 40
0
  9
$TIMEZONE
 70
-8000
  9
$LIGHTGLYPHDISPLAY
280
    1
  9
$TILEMODELIGHTSYNCH
280
    1
  9
$SOLIDHIST
280
    1
  9
$SHOWHIST
280
    1
  9
$DWFFRAME
280
    2
  9
$DGNFRAME
280
    0
  9
$REALWORLDSCALE
290
    1
  9
$INTERFERECOLOR
 62
    1
  9
$CSHADOW
280
    0
  9
$SHADOWPLANELOCATION
 40
0
  0
ENDSEC
  0
SECTION
  2
CLASSES
  0
ENDSEC
  0
SECTION
  2
TABLES
  0
TABLE
  2
VPORT
  5
8
330
0
100
AcDbSymbolTable
 70
    1
  0
VPORT
  5
31
330
2
100
AcDbSymbolTableRecord
100
AcDbViewportTableRecord
  2
*ACTIVE
 70
    0
 10
0
 20
0
 11
1
 21
1
 12
276.5151380481929
 22
204.9424066089511
 13
0
 23
0
 14
10
 24
10
 15
10
 25
10
 16
0
 26
0
 36
1
 17
0
 27
0
 37
0
 40
504.8496081031401
 41
1.253112033195021
 42
50
 43
0
 44
0
 50
0
 51
0
 71
    0
 72
  100
 73
    1
 74
    3
 75
    0
 76
    1
 77
    0
 78
    0
281
    0
 65
    1
110
0
120
0
130
0
111
1
121
0
131
0
112
0
122
1
132
0
 79
    0
146
0
348
10020
 60
    7
 61
    5
292
1
282
    1
141
0
142
0
 63
  250
421
3358443
  0
ENDTAB
  0
TABLE
  2
LTYPE
  5
5
330
0
100
AcDbSymbolTable
 70
    4
  0
LTYPE
  5
14
330
5
100
AcDbSymbolTableRecord
100
AcDbLinetypeTableRecord
  2
ByBlock
 70
    0
  3

 72
   65
 73
    0
 40
0
  0
LTYPE
  5
15
330
5
100
AcDbSymbolTableRecord
100
AcDbLinetypeTableRecord
  2
ByLayer
 70
    0
  3

 72
   65
 73
    0
 40
0
  0
LTYPE
  5
16
330
5
100
AcDbSymbolTableRecord
100
AcDbLinetypeTableRecord
  2
Continuous
 70
    0
  3
Solid line
 72
   65
 73
    0
 40
0
  0
LTYPE
  5
32
330
5
100
AcDbSymbolTableRecord
100
AcDbLinetypeTableRecord
  2
DOT
 70
    0
  3
Dot . . . . . . . . . . . . . . . . . . . . . .
 72
   65
 73
    2
 40
6.35
 49
0
 74
    0
 49
-6.35
 74
    0
  0
LTYPE
  5
33
330
5
100
AcDbSymbolTableRecord
100
AcDbLinetypeTableRecord
  2
DOTTINY
 70
    0
  3
Dot (.15x) .....................................
 72
   65
 73
    2
 40
0.9525
 49
0
 74
    0
 49
-0.9525
 74
    0
  0
LTYPE
  5
34
330
5
100
AcDbSymbolTableRecord
100
AcDbLinetypeTableRecord
  2
DOT2
 70
    0
  3
Dot (.5x) .....................................
 72
   65
 73
    2
 40
3.175
 49
0
 74
    0
 49
-3.175
 74
    0
  0
LTYPE
  5
35
330
5
100
AcDbSymbolTableRecord
100
AcDbLinetypeTableRecord
  2
DOTX2
 70
    0
  3
Dot (2x) .  .  .  .  .  .  .  .  .  .  .  .  .
 72
   65
 73
    2
 40
12.7
 49
0
 74
    0
 49
-12.7
 74
    0
  0
LTYPE
  5
36
330
5
100
AcDbSymbolTableRecord
100
AcDbLinetypeTableRecord
  2
DASHED
 70
    0
  3
Dashed _ _ _ _ _ _ _ _ _ _ _ _ _ _ _ _ _
 72
   65
 73
    2
 40
19.05
 49
12.7
 74
    0
 49
-6.35
 74
    0
  0
LTYPE
  5
37
330
5
100
AcDbSymbolTableRecord
100
AcDbLinetypeTableRecord
  2
DASHEDTINY
 70
    0
  3
Dashed (.15x) _ _ _ _ _ _ _ _ _ _ _ _ _ _ _ _ _
 72
   65
 73
    2
 40
2.8575
 49
1.905
 74
    0
 49
-0.9525
 74
    0
  0
LTYPE
  5
38
330
5
100
AcDbSymbolTableRecord
100
AcDbLinetypeTableRecord
  2
DASHED2
 70
    0
  3
Dashed (.5x) _ _ _ _ _ _ _ _ _ _ _ _ _ _ _ _ _
 72
   65
 73
    2
 40
9.524999999999999
 49
6.35
 74
    0
 49
-3.175
 74
    0
  0
LTYPE
  5
39
330
5
100
AcDbSymbolTableRecord
100
AcDbLinetypeTableRecord
  2
DASHEDX2
 70
    0
  3
Dashed (2x) ____  ____  ____  ____  ____  ___
 72
   65
 73
    2
 40
38.09999999999999
 49
25.4
 74
    0
 49
-12.7
 74
    0
  0
LTYPE
  5
3A
330
5
100
AcDbSymbolTableRecord
100
AcDbLinetypeTableRecord
  2
DASHDOT
 70
    0
  3
Dash dot __ . __ . __ . __ . __ . __ . __ . __
 72
   65
 73
    4
 40
25.4
 49
12.7
 74
    0
 49
-6.35
 74
    0
 49
0
 74
    0
 49
-6.35
 74
    0
  0
LTYPE
  5
3B
330
5
100
AcDbSymbolTableRecord
100
AcDbLinetypeTableRecord
  2
DASHDOTTINY
 70
    0
  3
Dash dot (.15x) _._._._._._._._._._._._._._._.
 72
   65
 73
    4
 40
3.81
 49
1.905
 74
    0
 49
-0.9525
 74
    0
 49
0
 74
    0
 49
-0.9525
 74
    0
  0
LTYPE
  5
3C
330
5
100
AcDbSymbolTableRecord
100
AcDbLinetypeTableRecord
  2
DASHDOT2
 70
    0
  3
Dash dot (.5x) _._._._._._._._._._._._._._._.
 72
   65
 73
    4
 40
12.7
 49
6.35
 74
    0
 49
-3.175
 74
    0
 49
0
 74
    0
 49
-3.175
 74
    0
  0
LTYPE
  5
3D
330
5
100
AcDbSymbolTableRecord
100
AcDbLinetypeTableRecord
  2
DASHDOTX2
 70
    0
  3
Dash dot (2x) ____  .  ____  .  ____  .  ___
 72
   65
 73
    4
 40
50.8
 49
25.4
 74
    0
 49
-12.7
 74
    0
 49
0
 74
    0
 49
-12.7
 74
    0
  0
LTYPE
  5
3E
330
5
100
AcDbSymbolTableRecord
100
AcDbLinetypeTableRecord
  2
DIVIDE
 70
    0
  3
Divide ____ . . ____ . . ____ . . ____ . . ____
 72
   65
 73
    6
 40
31.75
 49
12.7
 74
    0
 49
-6.35
 74
    0
 49
0
 74
    0
 49
-6.35
 74
    0
 49
0
 74
    0
 49
-6.35
 74
    0
  0
LTYPE
  5
3F
330
5
100
AcDbSymbolTableRecord
100
AcDbLinetypeTableRecord
  2
DIVIDETINY
 70
    0
  3
Divide (.15x) __..__..__..__..__..__..__..__.._
 72
   65
 73
    6
 40
4.7625
 49
1.905
 74
    0
 49
-0.9525
 74
    0
 49
0
 74
    0
 49
-0.9525
 74
    0
 49
0
 74
    0
 49
-0.9525
 74
    0
  0
LTYPE
  5
40
330
5
100
AcDbSymbolTableRecord
100
AcDbLinetypeTableRecord
  2
DIVIDE2
 70
    0
  3
Divide (.5x) __..__..__..__..__..__..__..__.._
 72
   65
 73
    6
 40
15.875
 49
6.35
 74
    0
 49
-3.175
 74
    0
 49
0
 74
    0
 49
-3.175
 74
    0
 49
0
 74
    0
 49
-3.175
 74
    0
  0
LTYPE
  5
41
330
5
100
AcDbSymbolTableRecord
100
AcDbLinetypeTableRecord
  2
DIVIDEX2
 70
    0
  3
Divide (2x) ________  .  .  ________  .  .  _
 72
   65
 73
    6
 40
63.5
 49
25.4
 74
    0
 49
-12.7
 74
    0
 49
0
 74
    0
 49
-12.7
 74
    0
 49
0
 74
    0
 49
-12.7
 74
    0
  0
LTYPE
  5
42
330
5
100
AcDbSymbolTableRecord
100
AcDbLinetypeTableRecord
  2
BORDER
 70
    0
  3
Border __ __ . __ __ . __ __ . __ __ . __ __ .
 72
   65
 73
    6
 40
44.45
 49
12.7
 74
    0
 49
-6.35
 74
    0
 49
12.7
 74
    0
 49
-6.35
 74
    0
 49
0
 74
    0
 49
-6.35
 74
    0
  0
LTYPE
  5
43
330
5
100
AcDbSymbolTableRecord
100
AcDbLinetypeTableRecord
  2
BORDERTINY
 70
    0
  3
Border (.15x) __.__.__.__.__.__.__.__.__.__.__.
 72
   65
 73
    6
 40
6.6675
 49
1.905
 74
    0
 49
-0.9525
 74
    0
 49
1.905
 74
    0
 49
-0.9525
 74
    0
 49
0
 74
    0
 49
-0.9525
 74
    0
  0
LTYPE
  5
44
330
5
100
AcDbSymbolTableRecord
100
AcDbLinetypeTableRecord
  2
BORDER2
 70
    0
  3
Border (.5x) __.__.__.__.__.__.__.__.__.__.__.
 72
   65
 73
    6
 40
22.225
 49
6.35
 74
    0
 49
-3.175
 74
    0
 49
6.35
 74
    0
 49
-3.175
 74
    0
 49
0
 74
    0
 49
-3.175
 74
    0
  0
LTYPE
  5
45
330
5
100
AcDbSymbolTableRecord
100
AcDbLinetypeTableRecord
  2
BORDERX2
 70
    0
  3
Border (2x) ____  ____  .  ____  ____  .  ___
 72
   65
 73
    6
 40
88.89999999999999
 49
25.4
 74
    0
 49
-12.7
 74
    0
 49
25.4
 74
    0
 49
-12.7
 74
    0
 49
0
 74
    0
 49
-12.7
 74
    0
  0
LTYPE
  5
46
330
5
100
AcDbSymbolTableRecord
100
AcDbLinetypeTableRecord
  2
CENTER
 70
    0
  3
Center ____ _ ____ _ ____ _ ____ _ ____ _ ____
 72
   65
 73
    4
 40
50.8
 49
31.75
 74
    0
 49
-6.35
 74
    0
 49
6.35
 74
    0
 49
-6.35
 74
    0
  0
LTYPE
  5
47
330
5
100
AcDbSymbolTableRecord
100
AcDbLinetypeTableRecord
  2
CENTERTINY
 70
    0
  3
Center (.15x) ___ _ ___ _ ___ _ ___ _ ___ _ ___
 72
   65
 73
    4
 40
7.62
 49
4.7625
 74
    0
 49
-0.9525
 74
    0
 49
0.9525
 74
    0
 49
-0.9525
 74
    0
  0
LTYPE
  5
48
330
5
100
AcDbSymbolTableRecord
100
AcDbLinetypeTableRecord
  2
CENTER2
 70
    0
  3
Center (.5x) ___ _ ___ _ ___ _ ___ _ ___ _ ___
 72
   65
 73
    4
 40
28.575
 49
19.05
 74
    0
 49
-3.175
 74
    0
 49
3.175
 74
    0
 49
-3.175
 74
    0
  0
LTYPE
  5
49
330
5
100
AcDbSymbolTableRecord
100
AcDbLinetypeTableRecord
  2
CENTERX2
 70
    0
  3
Center (2x) ________  __  ________  __  _____
 72
   65
 73
    4
 40
101.6
 49
63.5
 74
    0
 49
-12.7
 74
    0
 49
12.7
 74
    0
 49
-12.7
 74
    0
  0
ENDTAB
  0
TABLE
  2
LAYER
  5
2
330
0
100
AcDbSymbolTable
 70
    1
  0
LAYER
  5
10
330
2
100
AcDbSymbolTableRecord
100
AcDbLayerTableRecord
  2
0
 70
    0
 62
    7
  6
CONTINUOUS
370
   -3
390
F
  0
ENDTAB
  0
TABLE
  2
STYLE
  5
3
330
0
100
AcDbSymbolTable
 70
    3
  0
STYLE
  5
4A
330
2
100
AcDbSymbolTableRecord
100
AcDbTextStyleTableRecord
  2
Standard
 70
    0
 40
0
 41
1
 50
0
 71
    0
 42
1
  3
txt
  4

  0
ENDTAB
  0
TABLE
  2
VIEW
  5
6
330
0
100
AcDbSymbolTable
 70
    0
  0
ENDTAB
  0
TABLE
  2
UCS
  5
7
330
0
100
AcDbSymbolTable
 70
    0
  0
ENDTAB
  0
TABLE
  2
APPID
  5
9
330
0
100
AcDbSymbolTable
 70
    1
  0
APPID
  5
12
330
9
100
AcDbSymbolTableRecord
100
AcDbRegAppTableRecord
  2
ACAD
 70
    0
  0
APPID
  5
4B
330
9
100
AcDbSymbolTableRecord
100
AcDbRegAppTableRecord
  2
LibreCad
 70
    0
  0
ENDTAB
  0
TABLE
  2
DIMSTYLE
  5
A
330
0
100
AcDbSymbolTable
 70
    1
100
AcDbDimStyleTable
 71
    1
  0
DIMSTYLE
105
4C
330
A
100
AcDbSymbolTableRecord
100
AcDbDimStyleTableRecord
  2
Standard
 70
    0
 40
1
 41
2.5
 42
0.625
 43
0.38
 44
1.25
 45
0
 46
0
 47
0
 48
0
 49
1
140
2.5
141
0.09
142
2.5
143
25.4
144
1
145
0
146
1
147
0.625
148
0
 71
    0
 72
    0
 73
    0
 74
    1
 75
    0
 76
    0
 77
    0
 78
    1
 79
    0
170
    0
171
    2
172
    0
173
    0
174
    0
175
    0
176
    0
177
    0
178
    0
179
    0
271
    2
272
    4
273
    2
274
    2
275
    0
276
    0
277
    2
278
    0
279
    0
280
    0
281
    0
282
    0
283
    1
284
    0
285
    0
286
    0
288
    0
289
    3
340
standard
341

371
   -2
372
   -2
  0
ENDTAB
  0
TABLE
  2
BLOCK_RECORD
  5
1
330
0
100
AcDbSymbolTable
 70
    2
  0
BLOCK_RECORD
  5
1F
330
1
100
AcDbSymbolTableRecord
100
AcDbBlockTableRecord
  2
*Model_Space
 70
    0
280
    1
281
    0
  0
BLOCK_RECORD
  5
1E
330
1
100
AcDbSymbolTableRecord
100
AcDbBlockTableRecord
  2
*Paper_Space
 70
    0
280
    1
281
    0
  0
BLOCK_RECORD
  5
4D
330
1
100
AcDbSymbolTableRecord
100
AcDbBlockTableRecord
  2
BODY
 70
    0
280
    1
281
    0
  0
ENDTAB
  0
ENDSEC
  0
SECTION
  2
BLOCKS
  0
BLOCK
  5
20
330
1F
100
AcDbEntity
  8
0
100
AcDbBlockBegin
  2
*Model_Space
 70
    0
 10
0
 20
0
 30
0
  3
*Model_Space
  1

  0
ENDBLK
  5
21
330
1F
100
AcDbEntity
  8
0
100
AcDbBlockEnd
  0
BLOCK
  5
1C
330
1B
100
AcDbEntity
  8
0
100
AcDbBlockBegin
  2
*Paper_Space
 70
    0
 10
0
 20
0
 30
0
  3
*Paper_Space
  1

  0
ENDBLK
  5
1D
330
1F
100
AcDbEntity
  8
0
100
AcDbBlockEnd
  0
BLOCK
  5
4E
330
4D
100
AcDbEntity
  8
0
100
AcDbBlockBegin
  2
BODY
 70
    0
 10
0
 20
0
  3
BODY
  1

  0
ARC
  5
50
100
AcDbEntity
  8
0
  6
ByLayer
 62
    0
370
   -1
100
AcDbCircle
 10
0
 20
0
 40
145
100
AcDbArc
 50
1.185451065199547
 51
43.81454893480056
  0
ARC
  5
51
100
AcDbEntity
  8
0
  6
ByLayer
 62
    0
370
   -1
100
AcDbCircle
 10
102.5304832720494
 20
102.5304832720494
 40
3
100
AcDbArc
 50
135.5927255325997
 51
-45.59272553259951
  0
ARC
  5
52
100
AcDbEntity
  8
0
  6
ByLayer
 62
    0
370
   -1
100
AcDbCircle
 10
0
 20
145
 40
3
100
AcDbArc
 50
-179.4072744674004
 51
-0.5927255325996351
  0
ARC
  5
53
100
AcDbEntity
  8
0
  6
ByLayer
 62
    0
370
   -1
100
AcDbCircle
 10
0
 20
0
 40
145
100
AcDbArc
 50
46.18545106519941
 51
88.81454893480048
  0
ARC
  5
54
100
AcDbEntity
  8
0
  6
ByLayer
 62
    0
370
   -1
100
AcDbCircle
 10
0
 20
0
 40
145
100
AcDbArc
 50
91.18545106519957
 51
133.8145489348003
  0
ARC
  5
55
100
AcDbEntity
  8
0
  6
ByLayer
 62
    0
370
   -1
100
AcDbCircle
 10
-102.5304832720494
 20
102.5304832720494
 40
3
100
AcDbArc
 50
-134.4072744674001
 51
44.40727446740011
  0
ARC
  5
56
100
AcDbEntity
  8
0
  6
ByLayer
 62
    0
370
   -1
100
AcDbCircle
 10
0
 20
0
 40
145
100
AcDbArc
 50
136.1854510651996
 51
178.8145489348005
  0
ARC
  5
57
100
AcDbEntity
  8
0
  6
ByLayer
 62
    0
370
   -1
100
AcDbCircle
 10
145
 20
-3.22e-14
 40
3
100
AcDbArc
 50
90.5927255325999
 51
-90.5927255325999
  0
ARC
  5
58
100
AcDbEntity
  8
0
  6
ByLayer
 62
    0
370
   -1
100
AcDbCircle
 10
-145
 20
1.61e-14
 40
3
100
AcDbArc
 50
-89.4072744674001
 51
89.4072744674001
  0
ARC
  5
59
100
AcDbEntity
  8
0
  6
ByLayer
 62
    0
370
   -1
100
AcDbCircle
 10
0
 20
0
 40
145
100
AcDbArc
 50
-43.81454893480039
 51
-1.185451065199547
  0
ARC
  5
5A
100
AcDbEntity
  8
0
  6
ByLayer
 62
    0
370
   -1
100
AcDbCircle
 10
0
 20
0
 40
145
100
AcDbArc
 50
-178.8145489348005
 51
-136.1854510651994
  0
ARC
  5
5B
100
AcDbEntity
  8
0
  6
ByLayer
 62
    0
370
   -1
100
AcDbCircle
 10
102.5304832720494
 20
-102.5304832720494
 40
3
100
AcDbArc
 50
45.59272553259989
 51
-135.5927255325999
  0
ARC
  5
5C
100
AcDbEntity
  8
0
  6
ByLayer
 62
    0
370
   -1
100
AcDbCircle
 10
-102.5304832720494
 20
-102.5304832720494
 40
3
100
AcDbArc
 50
-44.40727446740031
 51
134.4072744674003
  0
ARC
  5
5D
100
AcDbEntity
  8
0
  6
ByLayer
 62
    0
370
   -1
100
AcDbCircle
 10
0
 20
0
 40
145
100
AcDbArc
 50
-88.8145489348005
 51
-46.18545106519953
  0
ARC
  5
5E
100
AcDbEntity
  8
0
  6
ByLayer
 62
    0
370
   -1
100
AcDbCircle
 10
0
 20
0
 40
145
100
AcDbArc
 50
-133.8145489348005
 51
-91.18545106519959
  0
ARC
  5
5F
100
AcDbEntity
  8
0
  6
ByLayer
 62
    0
370
   -1
100
AcDbCircle
 10
-1.776e-14
 20
-145
 40
3
100
AcDbArc
 50
0.5927255325996351
 51
179.4072744674004
  0
CIRCLE
  5
60
100
AcDbEntity
  8
0
  6
ByLayer
 62
    0
370
   -1
100
AcDbCircle
 10
-77.13451316238474
 20
-91.92533317427734
 40
5
  0
ARC
  5
61
100
AcDbEntity
  8
0
  6
ByLayer
 62
    0
370
   -1
100
AcDbCircle
 10
0
 20
0
 40
115
100
AcDbArc
 50
-117.5
 51
-102.5
  0
ARC
  5
62
100
AcDbEntity
  8
0
  6
ByLayer
 62
    0
370
   -1
100
AcDbCircle
 10
-25.97275367257233
 20
-117.155520854392
 40
5
100
AcDbArc
 50
-102.4999999999999
 51
77.49999999999997
  0
ARC
  5
63
100
AcDbEntity
  8
0
  6
ByLayer
 62
    0
370
   -1
100
AcDbCircle
 10
-55.40983358820405
 20
-106.4412999813866
 40
5.000000000000004
100
AcDbArc
 50
62.50000000000014
 51
-117.4999999999999
  0
ARC
  5
64
100
AcDbEntity
  8
0
  6
ByLayer
 62
    0
370
   -1
100
AcDbCircle
 10
0
 20
0
 40
125
100
AcDbArc
 50
-117.5
 51
-102.5
  0
ARC
  5
65
100
AcDbEntity
  8
0
  6
ByLayer
 62
    0
370
   -1
100
AcDbCircle
 10
0
 20
0
 40
95
100
AcDbArc
 50
-117.5
 51
-102.5
  0
ARC
  5
66
100
AcDbEntity
  8
0
  6
ByLayer
 62
    0
370
   -1
100
AcDbCircle
 10
-19.47956525442925
 20
-87.86664064079402
 40
5
100
AcDbArc
 50
-102.5
 51
77.49999999999997
  0
ARC
  5
67
100
AcDbEntity
  8
0
  6
ByLayer
 62
    0
370
   -1
100
AcDbCircle
 10
-41.55737519115304
 20
-79.83097498603996
 40
5.000000000000005
100
AcDbArc
 50
62.50000000000014
 51
-117.4999999999999
  0
ARC
  5
68
100
AcDbEntity
  8
0
  6
ByLayer
 62
    0
370
   -1
100
AcDbCircle
 10
0
 20
0
 40
85
100
AcDbArc
 50
-117.5
 51
-102.5
  0
ARC
  5
69
100
AcDbEntity
  8
0
  6
ByLayer
 62
    0
370
   -1
100
AcDbCircle
 10
0
 20
0
 40
115
100
AcDbArc
 50
-157.5
 51
-142.5
  0
ARC
  5
6A
100
AcDbEntity
  8
0
  6
ByLayer
 62
    0
370
   -1
100
AcDbCircle
 10
-95.20240083494821
 20
-73.05137148104647
 40
5
100
AcDbArc
 50
-142.5000000000001
 51
37.49999999999995
  0
ARC
  5
6B
100
AcDbEntity
  8
0
  6
ByLayer
 62
    0
370
   -1
100
AcDbCircle
 10
-110.8655439013544
 20
-45.92201188381078
 40
5.000000000000004
100
AcDbArc
 50
22.49999999999999
 51
-157.5
  0
ARC
  5
6C
100
AcDbEntity
  8
0
  6
ByLayer
 62
    0
370
   -1
100
AcDbCircle
 10
0
 20
0
 40
125
100
AcDbArc
 50
-157.5
 51
-142.5
  0
ARC
  5
6D
100
AcDbEntity
  8
0
  6
ByLayer
 62
    0
370
   -1
100
AcDbCircle
 10
0
 20
0
 40
95
100
AcDbArc
 50
-157.5
 51
-142.4999999999999
  0
ARC
  5
6E
100
AcDbEntity
  8
0
  6
ByLayer
 62
    0
370
   -1
100
AcDbCircle
 10
-71.40180062621116
 20
-54.78852861078485
 40
5
100
AcDbArc
 50
-142.5000000000001
 51
37.49999999999995
  0
ARC
  5
6F
100
AcDbEntity
  8
0
  6
ByLayer
 62
    0
370
   -1
100
AcDbCircle
 10
-83.14915792601579
 20
-34.44150891285808
 40
5.000000000000005
100
AcDbArc
 50
22.49999999999999
 51
-157.5
  0
ARC
  5
70
100
AcDbEntity
  8
0
  6
ByLayer
 62
    0
370
   -1
100
AcDbCircle
 10
0
 20
0
 40
85
100
AcDbArc
 50
-157.5
 51
-142.5
  0
CIRCLE
  5
71
100
AcDbEntity
  8
0
  6
ByLayer
 62
    0
370
   -1
100
AcDbCircle
 10
-118.176930361465
 20
-20.83778132003164
 40
5
  0
CIRCLE
  5
72
100
AcDbEntity
  8
0
  6
ByLayer
 62
    0
370
   -1
100
AcDbCircle
 10
-68.93654271085457
 20
-12.15537243668512
 40
8
  0
CIRCLE
  5
73
100
AcDbEntity
  8
0
  6
ByLayer
 62
    0
370
   -1
100
AcDbCircle
 10
-44.99513267805776
 20
-53.62311101832845
 40
8
  0
CIRCLE
  5
74
100
AcDbEntity
  8
0
  6
ByLayer
 62
    0
370
   -1
100
AcDbCircle
 10
-15.3909064496551
 20
-42.28616793536588
 40
6
  0
CIRCLE
  5
75
100
AcDbEntity
  8
0
  6
ByLayer
 62
    0
370
   -1
100
AcDbCircle
 10
-38.97114317029974
 20
-22.49999999999999
 40
6
  0
CIRCLE
  5
76
100
AcDbEntity
  8
0
  6
ByLayer
 62
    0
370
   -1
100
AcDbCircle
 10
-7.110000000000001e-15
 20
-120
 40
5
  0
ARC
  5
77
100
AcDbEntity
  8
0
  6
ByLayer
 62
    0
370
   -1
100
AcDbCircle
 10
0
 20
0
 40
115
100
AcDbArc
 50
-77.49999999999999
 51
-62.49999999999996
  0
ARC
  5
78
100
AcDbEntity
  8
0
  6
ByLayer
 62
    0
370
   -1
100
AcDbCircle
 10
55.40983358820409
 20
-106.4412999813866
 40
5
100
AcDbArc
 50
-62.49999999999991
 51
117.5000000000001
  0
ARC
  5
79
100
AcDbEntity
  8
0
  6
ByLayer
 62
    0
370
   -1
100
AcDbCircle
 10
25.97275367257237
 20
-117.155520854392
 40
5.000000000000004
100
AcDbArc
 50
102.5000000000002
 51
-77.49999999999994
  0
ARC
  5
7A
100
AcDbEntity
  8
0
  6
ByLayer
 62
    0
370
   -1
100
AcDbCircle
 10
0
 20
0
 40
125
100
AcDbArc
 50
-77.49999999999999
 51
-62.49999999999996
  0
ARC
  5
7B
100
AcDbEntity
  8
0
  6
ByLayer
 62
    0
370
   -1
100
AcDbCircle
 10
0
 20
0
 40
95
100
AcDbArc
 50
-77.49999999999999
 51
-62.49999999999996
  0
ARC
  5
7C
100
AcDbEntity
  8
0
  6
ByLayer
 62
    0
370
   -1
100
AcDbCircle
 10
41.55737519115306
 20
-79.83097498603995
 40
5
100
AcDbArc
 50
-62.49999999999991
 51
117.5000000000001
  0
ARC
  5
7D
100
AcDbEntity
  8
0
  6
ByLayer
 62
    0
370
   -1
100
AcDbCircle
 10
19.47956525442928
 20
-87.866640640794
 40
5.000000000000005
100
AcDbArc
 50
102.5000000000002
 51
-77.50000000000006
  0
ARC
  5
7E
100
AcDbEntity
  8
0
  6
ByLayer
 62
    0
370
   -1
100
AcDbCircle
 10
0
 20
0
 40
85
100
AcDbArc
 50
-77.49999999999999
 51
-62.49999999999996
  0
CIRCLE
  5
7F
100
AcDbEntity
  8
0
  6
ByLayer
 62
    0
370
   -1
100
AcDbCircle
 10
-7.110000000000001e-15
 20
-70.00000000000001
 40
8
  0
CIRCLE
  5
80
100
AcDbEntity
  8
0
  6
ByLayer
 62
    0
370
   -1
100
AcDbCircle
 10
77.13451316238472
 20
-91.92533317427737
 40
5
  0
CIRCLE
  5
81
100
AcDbEntity
  8
0
  6
ByLayer
 62
    0
370
   -1
100
AcDbCircle
 10
15.39090644965509
 20
-42.28616793536588
 40
6
  0
CIRCLE
  5
82
100
AcDbEntity
  8
0
  6
ByLayer
 62
    0
370
   -1
100
AcDbCircle
 10
44.99513267805775
 20
-53.62311101832847
 40
8
  0
CIRCLE
  5
83
100
AcDbEntity
  8
0
  6
ByLayer
 62
    0
370
   -1
100
AcDbCircle
 10
1.78e-15
 20
-13
 40
0.6
  0
CIRCLE
  5
84
100
AcDbEntity
  8
0
  6
ByLayer
 62
    0
370
   -1
100
AcDbCircle
 10
38.97114317029973
 20
-22.50000000000002
 40
6
  0
ARC
  5
85
100
AcDbEntity
  8
0
  6
ByLayer
 62
    0
370
   -1
100
AcDbCircle
 10
0
 20
0
 40
95
100
AcDbArc
 50
-37.5
 51
-22.49999999999999
  0
ARC
  5
86
100
AcDbEntity
  8
0
  6
ByLayer
 62
    0
370
   -1
100
AcDbCircle
 10
83.1491579260158
 20
-34.4415089128581
 40
5
100
AcDbArc
 50
-22.49999999999999
 51
157.5
  0
ARC
  5
87
100
AcDbEntity
  8
0
  6
ByLayer
 62
    0
370
   -1
100
AcDbCircle
 10
71.40180062621116
 20
-54.78852861078487
 40
5.000000000000005
100
AcDbArc
 50
142.5
 51
-37.50000000000001
  0
ARC
  5
88
100
AcDbEntity
  8
0
  6
ByLayer
 62
    0
370
   -1
100
AcDbCircle
 10
0
 20
0
 40
85
100
AcDbArc
 50
-37.50000000000001
 51
-22.49999999999997
  0
ARC
  5
89
100
AcDbEntity
  8
0
  6
ByLayer
 62
    0
370
   -1
100
AcDbCircle
 10
0
 20
0
 40
115
100
AcDbArc
 50
-37.50000000000001
 51
-22.49999999999999
  0
ARC
  5
8A
100
AcDbEntity
  8
0
  6
ByLayer
 62
    0
370
   -1
100
AcDbCircle
 10
110.8655439013544
 20
-45.9220118838108
 40
5
100
AcDbArc
 50
-22.49999999999999
 51
157.5
  0
ARC
  5
8B
100
AcDbEntity
  8
0
  6
ByLayer
 62
    0
370
   -1
100
AcDbCircle
 10
95.20240083494821
 20
-73.05137148104649
 40
5.000000000000004
100
AcDbArc
 50
142.5000000000001
 51
-37.49999999999995
  0
ARC
  5
8C
100
AcDbEntity
  8
0
  6
ByLayer
 62
    0
370
   -1
100
AcDbCircle
 10
0
 20
0
 40
125
100
AcDbArc
 50
-37.50000000000001
 51
-22.49999999999997
  0
CIRCLE
  5
8D
100
AcDbEntity
  8
0
  6
ByLayer
 62
    0
370
   -1
100
AcDbCircle
 10
68.93654271085457
 20
-12.15537243668516
 40
8
  0
CIRCLE
  5
8E
100
AcDbEntity
  8
0
  6
ByLayer
 62
    0
370
   -1
100
AcDbCircle
 10
118.176930361465
 20
-20.8377813200317
 40
5
  0
ARC
  5
8F
100
AcDbEntity
  8
0
  6
ByLayer
 62
    0
370
   -1
100
AcDbCircle
 10
0
 20
0
 40
115
100
AcDbArc
 50
162.5
 51
177.5000000000001
  0
ARC
  5
90
100
AcDbEntity
  8
0
  6
ByLayer
 62
    0
370
   -1
100
AcDbCircle
 10
-119.8857865898229
 20
5.234326483840299
 40
5
100
AcDbArc
 50
177.4999999999999
 51
-2.500000000000099
  0
ARC
  5
91
100
AcDbEntity
  8
0
  6
ByLayer
 62
    0
370
   -1
100
AcDbCircle
 10
-114.4460340897872
 20
36.08469594051274
 40
5.000000000000004
100
AcDbArc
 50
-17.49999999999998
 51
162.5
  0
ARC
  5
92
100
AcDbEntity
  8
0
  6
ByLayer
 62
    0
370
   -1
100
AcDbCircle
 10
0
 20
0
 40
125
100
AcDbArc
 50
162.5
 51
177.5000000000001
  0
ARC
  5
93
100
AcDbEntity
  8
0
  6
ByLayer
 62
    0
370
   -1
100
AcDbCircle
 10
0
 20
0
 40
95
100
AcDbArc
 50
162.5
 51
177.5000000000002
  0
ARC
  5
94
100
AcDbEntity
  8
0
  6
ByLayer
 62
    0
370
   -1
100
AcDbCircle
 10
-89.91433994236719
 20
3.925744862880226
 40
5
100
AcDbArc
 50
177.4999999999999
 51
-2.500000000000099
  0
ARC
  5
95
100
AcDbEntity
  8
0
  6
ByLayer
 62
    0
370
   -1
100
AcDbCircle
 10
-85.83452556734042
 20
27.06352195538456
 40
5.000000000000005
100
AcDbArc
 50
-17.49999999999998
 51
162.5
  0
ARC
  5
96
100
AcDbEntity
  8
0
  6
ByLayer
 62
    0
370
   -1
100
AcDbCircle
 10
0
 20
0
 40
85
100
AcDbArc
 50
162.5
 51
177.5000000000001
  0
CIRCLE
  5
97
100
AcDbEntity
  8
0
  6
ByLayer
 62
    0
370
   -1
100
AcDbCircle
 10
-103.9230484541326
 20
60
 40
5
  0
CIRCLE
  5
98
100
AcDbEntity
  8
0
  6
ByLayer
 62
    0
370
   -1
100
AcDbCircle
 10
-44.31634888554936
 20
7.814167995011869
 40
6
  0
CIRCLE
  5
99
100
AcDbEntity
  8
0
  6
ByLayer
 62
    0
370
   -1
100
AcDbCircle
 10
-11.2583302491977
 20
6.5
 40
0.6
  0
CIRCLE
  5
9A
100
AcDbEntity
  8
0
  6
ByLayer
 62
    0
370
   -1
100
AcDbCircle
 10
-60.6217782649107
 20
35
 40
8
  0
CIRCLE
  5
9B
100
AcDbEntity
  8
0
  6
ByLayer
 62
    0
370
   -1
100
AcDbCircle
 10
-28.92544243589427
 20
34.47199994035401
 40
6
  0
ARC
  5
9C
100
AcDbEntity
  8
0
  6
ByLayer
 62
    0
370
   -1
100
AcDbCircle
 10
0
 20
0
 40
115
100
AcDbArc
 50
122.5
 51
137.5000000000001
  0
ARC
  5
9D
100
AcDbEntity
  8
0
  6
ByLayer
 62
    0
370
   -1
100
AcDbCircle
 10
-88.47328041721489
 20
81.07082491387921
 40
5
100
AcDbArc
 50
137.4999999999999
 51
-42.49999999999996
  0
ARC
  5
9E
100
AcDbEntity
  8
0
  6
ByLayer
 62
    0
370
   -1
100
AcDbCircle
 10
-64.47595300161888
 20
101.2069734975462
 40
5.000000000000004
100
AcDbArc
 50
-57.49999999999982
 51
122.5
  0
ARC
  5
9F
100
AcDbEntity
  8
0
  6
ByLayer
 62
    0
370
   -1
100
AcDbCircle
 10
0
 20
0
 40
125
100
AcDbArc
 50
122.5
 51
137.5000000000001
  0
ARC
  5
A0
100
AcDbEntity
  8
0
  6
ByLayer
 62
    0
370
   -1
100
AcDbCircle
 10
0
 20
0
 40
95
100
AcDbArc
 50
122.5
 51
137.5000000000001
  0
ARC
  5
A1
100
AcDbEntity
  8
0
  6
ByLayer
 62
    0
370
   -1
100
AcDbCircle
 10
-66.35496031291117
 20
60.80311868540941
 40
5
100
AcDbArc
 50
137.5
 51
-42.49999999999996
  0
ARC
  5
A2
100
AcDbEntity
  8
0
  6
ByLayer
 62
    0
370
   -1
100
AcDbCircle
 10
-48.35696475121416
 20
75.90523012315968
 40
5.000000000000005
100
AcDbArc
 50
-57.49999999999991
 51
122.5
  0
ARC
  5
A3
100
AcDbEntity
  8
0
  6
ByLayer
 62
    0
370
   -1
100
AcDbCircle
 10
0
 20
0
 40
85
100
AcDbArc
 50
122.5
 51
137.5
  0
CIRCLE
  5
A4
100
AcDbEntity
  8
0
  6
ByLayer
 62
    0
370
   -1
100
AcDbCircle
 10
-23.94141003279681
 20
65.77848345501359
 40
8
  0
CIRCLE
  5
A5
100
AcDbEntity
  8
0
  6
ByLayer
 62
    0
370
   -1
100
AcDbCircle
 10
-41.04241719908025
 20
112.763114494309
 40
5
  0
CIRCLE
  5
A6
100
AcDbEntity
  8
0
  6
ByLayer
 62
    0
370
   -1
100
AcDbCircle
 10
0
 20
0
 40
8
  0
CIRCLE
  5
A7
100
AcDbEntity
  8
0
  6
ByLayer
 62
    0
370
   -1
100
AcDbCircle
 10
11.2583302491977
 20
6.5
 40
0.6
  0
CIRCLE
  5
A8
100
AcDbEntity
  8
0
  6
ByLayer
 62
    0
370
   -1
100
AcDbCircle
 10
44.31634888554937
 20
7.814167995011848
 40
6
  0
CIRCLE
  5
A9
100
AcDbEntity
  8
0
  6
ByLayer
 62
    0
370
   -1
100
AcDbCircle
 10
0
 20
45
 40
6
  0
CIRCLE
  5
AA
100
AcDbEntity
  8
0
  6
ByLayer
 62
    0
370
   -1
100
AcDbCircle
 10
28.92544243589428
 20
34.471999940354
 40
6
  0
CIRCLE
  5
AB
100
AcDbEntity
  8
0
  6
ByLayer
 62
    0
370
   -1
100
AcDbCircle
 10
60.62177826491072
 20
34.99999999999998
 40
8
  0
ARC
  5
AC
100
AcDbEntity
  8
0
  6
ByLayer
 62
    0
370
   -1
100
AcDbCircle
 10
0
 20
0
 40
95
100
AcDbArc
 50
2.499999999999953
 51
17.50000000000002
  0
ARC
  5
AD
100
AcDbEntity
  8
0
  6
ByLayer
 62
    0
370
   -1
100
AcDbCircle
 10
85.83452556734042
 20
27.06352195538457
 40
5
100
AcDbArc
 50
17.49999999999998
 51
-162.5
  0
ARC
  5
AE
100
AcDbEntity
  8
0
  6
ByLayer
 62
    0
370
   -1
100
AcDbCircle
 10
89.91433994236719
 20
3.925744862880233
 40
5.000000000000005
100
AcDbArc
 50
-177.4999999999999
 51
2.500000000000099
  0
ARC
  5
AF
100
AcDbEntity
  8
0
  6
ByLayer
 62
    0
370
   -1
100
AcDbCircle
 10
0
 20
0
 40
85
100
AcDbArc
 50
2.499999999999953
 51
17.50000000000004
  0
ARC
  5
B0
100
AcDbEntity
  8
0
  6
ByLayer
 62
    0
370
   -1
100
AcDbCircle
 10
0
 20
0
 40
115
100
AcDbArc
 50
2.500000000000099
 51
17.50000000000002
  0
ARC
  5
B1
100
AcDbEntity
  8
0
  6
ByLayer
 62
    0
370
   -1
100
AcDbCircle
 10
114.4460340897872
 20
36.08469594051276
 40
5
100
AcDbArc
 50
17.49999999999998
 51
-162.5
  0
ARC
  5
B2
100
AcDbEntity
  8
0
  6
ByLayer
 62
    0
370
   -1
100
AcDbCircle
 10
119.8857865898229
 20
5.234326483840313
 40
5.000000000000004
100
AcDbArc
 50
-177.4999999999999
 51
2.500000000000099
  0
ARC
  5
B3
100
AcDbEntity
  8
0
  6
ByLayer
 62
    0
370
   -1
100
AcDbCircle
 10
0
 20
0
 40
125
100
AcDbArc
 50
2.499999999999953
 51
17.50000000000002
  0
CIRCLE
  5
B4
100
AcDbEntity
  8
0
  6
ByLayer
 62
    0
370
   -1
100
AcDbCircle
 10
103.9230484541327
 20
59.99999999999997
 40
5
  0
CIRCLE
  5
B5
100
AcDbEntity
  8
0
  6
ByLayer
 62
    0
370
   -1
100
AcDbCircle
 10
23.94141003279683
 20
65.77848345501359
 40
8
  0
ARC
  5
B6
100
AcDbEntity
  8
0
  6
ByLayer
 62
    0
370
   -1
100
AcDbCircle
 10
0
 20
0
 40
95
100
AcDbArc
 50
82.50000000000001
 51
97.50000000000006
  0
ARC
  5
B7
100
AcDbEntity
  8
0
  6
ByLayer
 62
    0
370
   -1
100
AcDbCircle
 10
-11.74735729980466
 20
89.23003752364293
 40
5
100
AcDbArc
 50
97.5
 51
-82.49999999999994
  0
ARC
  5
B8
100
AcDbEntity
  8
0
  6
ByLayer
 62
    0
370
   -1
100
AcDbCircle
 10
11.74735729980461
 20
89.23003752364293
 40
5.000000000000005
100
AcDbArc
 50
-97.49999999999987
 51
82.49999999999997
  0
ARC
  5
B9
100
AcDbEntity
  8
0
  6
ByLayer
 62
    0
370
   -1
100
AcDbCircle
 10
0
 20
0
 40
85
100
AcDbArc
 50
82.50000000000001
 51
97.50000000000006
  0
ARC
  5
BA
100
AcDbEntity
  8
0
  6
ByLayer
 62
    0
370
   -1
100
AcDbCircle
 10
0
 20
0
 40
95
100
AcDbArc
 50
42.49999999999999
 51
57.50000000000004
  0
ARC
  5
BB
100
AcDbEntity
  8
0
  6
ByLayer
 62
    0
370
   -1
100
AcDbCircle
 10
48.35696475121415
 20
75.90523012315971
 40
5
100
AcDbArc
 50
57.50000000000005
 51
-122.5
  0
ARC
  5
BC
100
AcDbEntity
  8
0
  6
ByLayer
 62
    0
370
   -1
100
AcDbCircle
 10
66.35496031291116
 20
60.80311868540942
 40
5.000000000000005
100
AcDbArc
 50
-137.4999999999999
 51
42.50000000000009
  0
ARC
  5
BD
100
AcDbEntity
  8
0
  6
ByLayer
 62
    0
370
   -1
100
AcDbCircle
 10
0
 20
0
 40
85
100
AcDbArc
 50
42.49999999999999
 51
57.50000000000002
  0
ARC
  5
BE
100
AcDbEntity
  8
0
  6
ByLayer
 62
    0
370
   -1
100
AcDbCircle
 10
0
 20
0
 40
115
100
AcDbArc
 50
82.50000000000001
 51
97.50000000000006
  0
ARC
  5
BF
100
AcDbEntity
  8
0
  6
ByLayer
 62
    0
370
   -1
100
AcDbCircle
 10
-15.66314306640622
 20
118.9733833648572
 40
5
100
AcDbArc
 50
97.50000000000006
 51
-82.49999999999994
  0
ARC
  5
C0
100
AcDbEntity
  8
0
  6
ByLayer
 62
    0
370
   -1
100
AcDbCircle
 10
15.66314306640615
 20
118.9733833648572
 40
5.000000000000004
100
AcDbArc
 50
-97.49999999999987
 51
82.50000000000004
  0
ARC
  5
C1
100
AcDbEntity
  8
0
  6
ByLayer
 62
    0
370
   -1
100
AcDbCircle
 10
0
 20
0
 40
125
100
AcDbArc
 50
82.50000000000001
 51
97.50000000000006
  0
CIRCLE
  5
C2
100
AcDbEntity
  8
0
  6
ByLayer
 62
    0
370
   -1
100
AcDbCircle
 10
41.04241719908029
 20
112.763114494309
 40
5
  0
ARC
  5
C3
100
AcDbEntity
  8
0
  6
ByLayer
 62
    0
370
   -1
100
AcDbCircle
 10
0
 20
0
 40
115
100
AcDbArc
 50
42.49999999999999
 51
57.50000000000004
  0
ARC
  5
C4
100
AcDbEntity
  8
0
  6
ByLayer
 62
    0
370
   -1
100
AcDbCircle
 10
64.47595300161886
 20
101.2069734975463
 40
5
100
AcDbArc
 50
57.49999999999997
 51
-122.5
  0
ARC
  5
C5
100
AcDbEntity
  8
0
  6
ByLayer
 62
    0
370
   -1
100
AcDbCircle
 10
88.47328041721487
 20
81.07082491387922
 40
5.000000000000004
100
AcDbArc
 50
-137.4999999999999
 51
42.50000000000009
  0
ARC
  5
C6
100
AcDbEntity
  8
0
  6
ByLayer
 62
    0
370
   -1
100
AcDbCircle
 10
0
 20
0
 40
125
100
AcDbArc
 50
42.49999999999999
 51
57.50000000000002
  0
ENDBLK
  5
4F
330
4D
100
AcDbEntity
  8
0
100
AcDbBlockEnd
  0
ENDSEC
  0
SECTION
  2
ENTITIES
  0
CIRCLE
  5
C7
100
AcDbEntity
  8
0
  6
ByLayer
 62
    7
370
   -1
100
AcDbCircle
 10
72.86548683761399
 20
58.07466682572286
 40
5
  0
CIRCLE
  5
C8
100
AcDbEntity
  8
0
  6
ByLayer
 62
    7
370
   -1
100
AcDbCircle
 10
31.82306963853375
 20
129.1622186799686
 40
5
  0
CIRCLE
  5
C9
100
AcDbEntity
  8
0
  6
ByLayer
 62
    7
370
   -1
100
AcDbCircle
 10
81.06345728914415
 20
137.8446275633151
 40
8
  0
CIRCLE
  5
CA
100
AcDbEntity
  8
0
  6
ByLayer
 62
    7
370
   -1
100
AcDbCircle
 10
105.004867321941
 20
96.37688898167175
 40
8
  0
CIRCLE
  5
CB
100
AcDbEntity
  8
0
  6
ByLayer
 62
    7
370
   -1
100
AcDbCircle
 10
134.6090935503436
 20
107.7138320646343
 40
6
  0
CIRCLE
  5
CC
100
AcDbEntity
  8
0
  6
ByLayer
 62
    7
370
   -1
100
AcDbCircle
 10
111.028856829699
 20
127.5000000000002
 40
6
  0
CIRCLE
  5
CD
100
AcDbEntity
  8
0
  6
ByLayer
 62
    7
370
   -1
100
AcDbCircle
 10
149.9999999999987
 20
30.00000000000018
 40
5
  0
CIRCLE
  5
CE
100
AcDbEntity
  8
0
  6
ByLayer
 62
    7
370
   -1
100
AcDbCircle
 10
149.9999999999987
 20
80.00000000000018
 40
8
  0
CIRCLE
  5
CF
100
AcDbEntity
  8
0
  6
ByLayer
 62
    7
370
   -1
100
AcDbCircle
 10
227.1345131623834
 20
58.07466682572283
 40
5
  0
CIRCLE
  5
D0
100
AcDbEntity
  8
0
  6
ByLayer
 62
    7
370
   -1
100
AcDbCircle
 10
165.3909064496538
 20
107.7138320646343
 40
6
  0
CIRCLE
  5
D1
100
AcDbEntity
  8
0
  6
ByLayer
 62
    7
370
   -1
100
AcDbCircle
 10
194.9951326780565
 20
96.37688898167173
 40
8
  0
CIRCLE
  5
D2
100
AcDbEntity
  8
0
  6
ByLayer
 62
    7
370
   -1
100
AcDbCircle
 10
149.9999999999987
 20
137.0000000000002
 40
0.6
  0
CIRCLE
  5
D3
100
AcDbEntity
  8
0
  6
ByLayer
 62
    7
370
   -1
100
AcDbCircle
 10
188.9711431702985
 20
127.5000000000002
 40
6
  0
CIRCLE
  5
D4
100
AcDbEntity
  8
0
  6
ByLayer
 62
    7
370
   -1
100
AcDbCircle
 10
218.9365427108533
 20
137.844627563315
 40
8
  0
CIRCLE
  5
D5
100
AcDbEntity
  8
0
  6
ByLayer
 62
    7
370
   -1
100
AcDbCircle
 10
268.1769303614637
 20
129.1622186799685
 40
5
  0
CIRCLE
  5
D6
100
AcDbEntity
  8
0
  6
ByLayer
 62
    7
370
   -1
100
AcDbCircle
 10
46.07695154586608
 20
210.0000000000002
 40
5
  0
CIRCLE
  5
D7
100
AcDbEntity
  8
0
  6
ByLayer
 62
    7
370
   -1
100
AcDbCircle
 10
105.6836511144494
 20
157.8141679950121
 40
6
  0
CIRCLE
  5
D8
100
AcDbEntity
  8
0
  6
ByLayer
 62
    7
370
   -1
100
AcDbCircle
 10
138.741669750801
 20
156.5000000000002
 40
0.6
  0
CIRCLE
  5
D9
100
AcDbEntity
  8
0
  6
ByLayer
 62
    7
370
   -1
100
AcDbCircle
 10
89.37822173508802
 20
185.0000000000002
 40
8
  0
CIRCLE
  5
DA
100
AcDbEntity
  8
0
  6
ByLayer
 62
    7
370
   -1
100
AcDbCircle
 10
121.0745575641045
 20
184.4719999403542
 40
6
  0
CIRCLE
  5
DB
100
AcDbEntity
  8
0
  6
ByLayer
 62
    7
370
   -1
100
AcDbCircle
 10
126.0585899672019
 20
215.7784834550138
 40
8
  0
CIRCLE
  5
DC
100
AcDbEntity
  8
0
  6
ByLayer
 62
    7
370
   -1
100
AcDbCircle
 10
108.9575828009185
 20
262.7631144943092
 40
5
  0
CIRCLE
  5
DD
100
AcDbEntity
  8
0
  6
ByLayer
 62
    7
370
   -1
100
AcDbCircle
 10
149.9999999999987
 20
150.0000000000002
 40
8
  0
CIRCLE
  5
DE
100
AcDbEntity
  8
0
  6
ByLayer
 62
    7
370
   -1
100
AcDbCircle
 10
161.2583302491964
 20
156.5000000000002
 40
0.6
  0
CIRCLE
  5
DF
100
AcDbEntity
  8
0
  6
ByLayer
 62
    7
370
   -1
100
AcDbCircle
 10
194.3163488855481
 20
157.814167995012
 40
6
  0
CIRCLE
  5
E0
100
AcDbEntity
  8
0
  6
ByLayer
 62
    7
370
   -1
100
AcDbCircle
 10
149.9999999999987
 20
195.0000000000002
 40
6
  0
CIRCLE
  5
E1
100
AcDbEntity
  8
0
  6
ByLayer
 62
    7
370
   -1
100
AcDbCircle
 10
178.925442435893
 20
184.4719999403542
 40
6
  0
CIRCLE
  5
E2
100
AcDbEntity
  8
0
  6
ByLayer
 62
    7
370
   -1
100
AcDbCircle
 10
210.6217782649094
 20
185.0000000000002
 40
8
  0
CIRCLE
  5
E3
100
AcDbEntity
  8
0
  6
ByLayer
 62
    7
370
   -1
100
AcDbCircle
 10
253.9230484541314
 20
210.0000000000002
 40
5
  0
CIRCLE
  5
E4
100
AcDbEntity
  8
0
  6
ByLayer
 62
    7
370
   -1
100
AcDbCircle
 10
173.9414100327955
 20
215.7784834550138
 40
8
  0
CIRCLE
  5
E5
100
AcDbEntity
  8
0
  6
ByLayer
 62
    7
370
   -1
100
AcDbCircle
 10
191.042417199079
 20
262.7631144943092
 40
5
  0
LWPOLYLINE
  5
E6
100
AcDbEntity
  8
0
  6
ByLayer
 62
  256
370
   -1
100
AcDbPolyline
 90
    5
 70
    0
 43
0
 10
131.60263281526
 20
67.01483939480586
 42
-0.06554346281523837
 10
110.7513678750208
 20
74.60407917985137
 42
1
 10
106.1338817426704
 20
65.73397084806919
 42
0.0655434628152386
 10
129.438236675879
 20
57.25187932360652
 42
0.9999999999999999
 10
131.6026328152601
 20
67.01483939480585
 42
0.9999999999999999
  0
LWPOLYLINE
  5
E7
100
AcDbEntity
  8
0
  6
ByLayer
 62
  256
370
   -1
100
AcDbPolyline
 90
    5
 70
    0
 43
0
 10
122.945048257736
 20
27.9629991100085
 42
-0.0655434628152386
 10
92.2814233456195
 20
39.12364585272248
 42
-0.9999999999999994
 10
96.8989094779698
 20
47.99375418450468
 42
0.0655434628152386
 10
125.1094443971169
 20
37.72595918120786
 42
-0.9999999999999999
 10
122.945048257736
 20
27.9629991100085
 42
-0.9999999999999999
  0
LWPOLYLINE
  5
E8
100
AcDbEntity
  8
0
  6
ByLayer
 62
  256
370
   -1
100
AcDbPolyline
 90
    5
 70
    0
 43
0
 10
207.718576654378
 20
39.12364585272248
 42
-0.06554346281523815
 10
177.0549517422616
 20
27.96299911000855
 42
-0.9999999999999999
 10
174.8905556028806
 20
37.72595918120787
 42
0.06554346281523815
 10
203.1010905220276
 20
47.99375418450471
 42
-1
 10
207.718576654378
 20
39.1236458527225
 42
-1
  0
LWPOLYLINE
  5
E9
100
AcDbEntity
  8
0
  6
ByLayer
 62
  256
370
   -1
100
AcDbPolyline
 90
    5
 70
    0
 43
0
 10
189.2486321249766
 20
74.60407917985138
 42
-0.06554346281523815
 10
168.3973671847375
 20
67.01483939480586
 42
1
 10
170.5617633241185
 20
57.25187932360654
 42
0.06554346281523815
 10
193.8661182573269
 20
65.73397084806915
 42
1.000000000000001
 10
189.2486321249766
 20
74.60407917985137
 42
1.000000000000001
  0
LWPOLYLINE
  5
EA
100
AcDbEntity
  8
0
  6
ByLayer
 62
  256
370
   -1
100
AcDbPolyline
 90
    5
 70
    0
 43
0
 10
228.5297602634581
 20
117.4719082489675
 42
-0.06554346281523837
 10
217.4350339247537
 20
98.25527853425893
 42
1.000000000000001
 10
225.3685673276659
 20
92.1676642441717
 42
0.06554346281523837
 10
237.768555588571
 20
113.6450739253166
 42
1.000000000000002
 10
228.5297602634581
 20
117.4719082489676
 42
1.000000000000002
  0
LWPOLYLINE
  5
EB
100
AcDbEntity
  8
0
  6
ByLayer
 62
  256
370
   -1
100
AcDbPolyline
 90
    5
 70
    0
 43
0
 10
265.4849415639096
 20
102.1645709543639
 42
-0.06554346281523837
 10
249.1691675364031
 20
73.90482137391011
 42
-0.9999999999999979
 10
241.2356341334906
 20
79.99243566399718
 42
0.06554346281523837
 10
256.2461462387967
 20
105.9914052780149
 42
-1.000000000000001
 10
265.4849415639096
 20
102.164570954364
 42
-1.000000000000001
  0
LWPOLYLINE
  5
EC
100
AcDbEntity
  8
0
  6
ByLayer
 62
  256
370
   -1
100
AcDbPolyline
 90
    5
 70
    0
 43
0
 10
269.2146188435271
 20
187.5882249380344
 42
-0.06554346281523851
 10
274.8810276977309
 20
155.4524234206672
 42
-0.9999999999999999
 10
264.8905454819124
 20
155.016229547014
 42
0.0655434628152379
 10
259.6774493360448
 20
184.5811669429916
 42
-1.000000000000001
 10
269.2146188435271
 20
187.5882249380344
 42
-1.000000000000001
  0
LWPOLYLINE
  5
ED
100
AcDbEntity
  8
0
  6
ByLayer
 62
  256
370
   -1
100
AcDbPolyline
 90
    5
 70
    0
 43
0
 10
231.065940813598
 20
175.5599929578635
 42
-0.06554346281523864
 10
234.9190988344566
 20
153.7076479260537
 42
0.9999999999999999
 10
244.9095810502752
 20
154.143841799707
 42
0.06554346281523851
 10
240.6031103210803
 20
178.5670509529061
 42
0.9999999999999997
 10
231.065940813598
 20
175.5599929578635
 42
0.9999999999999997
  0
LWPOLYLINE
  5
EE
100
AcDbEntity
  8
0
  6
ByLayer
 62
  256
370
   -1
100
AcDbPolyline
 90
    5
 70
    0
 43
0
 10
195.6704667094787
 20
221.6882728940955
 42
-0.06554346281523837
 10
212.6685736288593
 20
207.4251676473313
 42
0.9999999999999994
 10
220.0413469969605
 20
214.1810697234879
 42
0.0655434628152384
 10
201.043462792947
 20
230.1221873522243
 42
0.9999999999999994
 10
195.6704667094787
 20
221.6882728940955
 42
0.9999999999999994
  0
LWPOLYLINE
  5
EF
100
AcDbEntity
  8
0
  6
ByLayer
 62
  256
370
   -1
100
AcDbPolyline
 90
    5
 70
    0
 43
0
 10
217.1624510433517
 20
255.423930726611
 42
-0.06554346281523832
 10
242.1596671012642
 20
234.4487759519577
 42
-0.9999999999999999
 10
234.786893733163
 20
227.6928738758011
 42
0.0655434628152384
 10
211.7894549598835
 20
246.9900162684821
 42
-0.9999999999999994
 10
217.1624510433517
 20
255.423930726611
 42
-0.9999999999999994
  0
LWPOLYLINE
  5
F0
100
AcDbEntity
  8
0
  6
ByLayer
 62
  256
370
   -1
100
AcDbPolyline
 90
    5
 70
    0
 43
0
 10
133.6842259724922
 20
273.9306076717265
 42
-0.06554346281523843
 10
166.3157740275051
 20
273.9306076717265
 42
-1
 10
165.0105121053047
 20
264.0161590579884
 42
0.06554346281523843
 10
134.9894878946928
 20
264.0161590579884
 42
-0.9999999999999994
 10
133.6842259724922
 20
273.9306076717265
 42
-0.9999999999999994
  0
LWPOLYLINE
  5
F1
100
AcDbEntity
  8
0
  6
ByLayer
 62
  256
370
   -1
100
AcDbPolyline
 90
    5
 70
    0
 43
0
 10
138.9052736612942
 20
234.2728132167741
 42
-0.06554346281523843
 10
161.0947263387031
 20
234.2728132167741
 42
0.9999999999999999
 10
162.3999882609036
 20
244.1872618305122
 42
0.06554346281523843
 10
137.6000117390938
 20
244.1872618305122
 42
0.9999999999999999
 10
138.9052736612943
 20
234.2728132167741
 42
0.9999999999999999
  0
LWPOLYLINE
  5
F2
100
AcDbEntity
  8
0
  6
ByLayer
 62
  256
370
   -1
100
AcDbPolyline
 90
    5
 70
    0
 43
0
 10
87.33142637113819
 20
207.4251676473314
 42
-0.06554346281523815
 10
104.3295332905187
 20
221.6882728940954
 42
0.999999999999999
 10
98.95653720705045
 20
230.1221873522243
 42
0.06554346281523826
 10
79.95865300303693
 20
214.1810697234879
 42
0.9999999999999994
 10
87.33142637113819
 20
207.4251676473313
 42
0.9999999999999994
  0
LWPOLYLINE
  5
F3
100
AcDbEntity
  8
0
  6
ByLayer
 62
  256
370
   -1
100
AcDbPolyline
 90
    5
 70
    0
 43
0
 10
57.84033289873312
 20
234.4487759519577
 42
-0.06554346281523837
 10
82.83754895664572
 20
255.4239307266109
 42
-1.000000000000001
 10
88.21054504011394
 20
246.990016268482
 42
0.06554346281523837
 10
65.21310626683444
 20
227.6928738758011
 42
-0.999999999999999
 10
57.84033289873315
 20
234.4487759519577
 42
-0.999999999999999
  0
LWPOLYLINE
  5
F4
100
AcDbEntity
  8
0
  6
ByLayer
 62
  256
370
   -1
100
AcDbPolyline
 90
    5
 70
    0
 43
0
 10
25.1189723022665
 20
155.4524234206671
 42
-0.06554346281523837
 10
30.78538115647037
 20
187.5882249380343
 42
-1
 10
40.32255066395263
 20
184.5811669429916
 42
0.06554346281523837
 10
35.10945451808509
 20
155.0162295470138
 42
-0.9999999999999999
 10
25.1189723022665
 20
155.4524234206671
 42
-0.9999999999999999
  0
LWPOLYLINE
  5
F5
100
AcDbEntity
  8
0
  6
ByLayer
 62
  256
370
   -1
100
AcDbPolyline
 90
    5
 70
    0
 43
0
 10
65.08090116554081
 20
153.7076479260537
 42
-0.06554346281523837
 10
68.93405918639944
 20
175.5599929578634
 42
0.9999999999999997
 10
59.39688967891713
 20
178.5670509529061
 42
0.06554346281523904
 10
55.09041894972222
 20
154.1438417997071
 42
0.9999999999999997
 10
65.08090116554081
 20
153.7076479260537
 42
0.9999999999999997
  0
LWPOLYLINE
  5
F6
100
AcDbEntity
  8
0
  6
ByLayer
 62
  256
370
   -1
100
AcDbPolyline
 90
    5
 70
    0
 43
0
 10
82.56496607524372
 20
98.25527853425899
 42
-0.06554346281523804
 10
71.47023973653937
 20
117.4719082489676
 42
0.9999999999999999
 10
62.23144441142647
 20
113.6450739253167
 42
0.06554346281523848
 10
74.63143267233139
 20
92.16766424417175
 42
0.9999999999999992
 10
82.56496607524372
 20
98.25527853425898
 42
0.9999999999999992
  0
LWPOLYLINE
  5
F7
100
AcDbEntity
  8
0
  6
ByLayer
 62
  256
370
   -1
100
AcDbPolyline
 90
    5
 70
    0
 43
0
 10
50.83083246359425
 20
73.90482137391014
 42
-0.06554346281523815
 10
34.51505843608788
 20
102.164570954364
 42
-0.9999999999999997
 10
43.7538537612007
 20
105.991405278015
 42
0.06554346281523837
 10
58.76436586650669
 20
79.99243566399733
 42
-0.999999999999999
 10
50.83083246359428
 20
73.90482137391015
 42
-0.999999999999999
  0
LWPOLYLINE
  5
F8
100
AcDbEntity
  8
0
  6
ByLayer
 62
  256
370
   -1
100
AcDbPolyline
 90
   16
 70
    1
 43
0
 10
45.37025458766955
 20
250.3873317453513
 42
0.1881797453759368
 10
5.031034482757349
 20
152.9998394725187
 42
-0.9897081308650225
 10
5.031034482757434
 20
147.0001605274819
 42
0.1881797453759378
 10
45.37025458766968
 20
49.61266825464894
 42
-0.9897081308650241
 10
49.61266825464723
 20
45.37025458767141
 42
0.1881797453759374
 10
147.0001605274802
 20
5.031034482758827
 42
-0.989708130865027
 10
152.9998394725169
 20
5.031034482758855
 42
0.1881797453759378
 10
250.3873317453499
 20
45.37025458767114
 42
-0.989708130865023
 10
254.6297454123278
 20
49.61266825464905
 42
0.1881797453759367
 10
294.9689655172401
 20
147.0001605274817
 42
-0.9897081308650227
 10
294.9689655172401
 20
152.9998394725187
 42
0.1881797453759376
 10
254.6297454123278
 20
250.3873317453514
 42
-0.9897081308650238
 10
250.3873317453503
 20
254.629745412329
 42
0.1881797453759378
 10
152.9998394725172
 20
294.9689655172416
 42
-0.9897081308650227
 10
147.0001605274801
 20
294.9689655172415
 42
0.1881797453759365
 10
49.61266825464747
 20
254.6297454123292
 42
-0.989708130865028
  0
ENDSEC
  0
SECTION
  2
OBJECTS
  0
DICTIONARY
  5
C
330
0
100
AcDbDictionary
281
    1
  3
ACAD_GROUP
350
D
  0
DICTIONARY
  5
D
330
C
100
AcDbDictionary
281
    1
  0
PLOTSETTINGS
  5
F9
100
AcDbPlotSettings
  6
1x1
 40
0
 41
0
 42
0
 43
0
  0
ENDSEC
  0
EOF
