ISO-10303-21;
HEADER;
/* Generated by software containing ST-Developer
 * from STEP Tools, Inc. (www.steptools.com) 
 */

FILE_DESCRIPTION(
/* description */ (''),
/* implementation_level */ '2;1');

FILE_NAME(
/* name */ 
'C:/Users/chris/Desktop/carley final project/CarleyBracketMount v2.ste
p',
/* time_stamp */ '2019-08-09T15:54:31-07:00',
/* author */ (''),
/* organization */ (''),
/* preprocessor_version */ 'ST-DEVELOPER v18',
/* originating_system */ 'Autodesk Translation Framework v8.2.0.1029',
/* authorisation */ '');

FILE_SCHEMA (('AUTOMOTIVE_DESIGN { 1 0 10303 214 3 1 1 }'));
ENDSEC;

DATA;
#10=MECHANICAL_DESIGN_GEOMETRIC_PRESENTATION_REPRESENTATION('',(#21),#437);
#11=SHAPE_REPRESENTATION_RELATIONSHIP('SRR','None',#450,#12);
#12=ADVANCED_BREP_SHAPE_REPRESENTATION('',(#22),#434);
#13=ITEM_DEFINED_TRANSFORMATION($,$,#259,#290);
#14=ITEM_DEFINED_TRANSFORMATION($,$,#260,#291);
#15=(
REPRESENTATION_RELATIONSHIP($,$,#451,#450)
REPRESENTATION_RELATIONSHIP_WITH_TRANSFORMATION(#13)
SHAPE_REPRESENTATION_RELATIONSHIP()
);
#16=(
REPRESENTATION_RELATIONSHIP($,$,#452,#450)
REPRESENTATION_RELATIONSHIP_WITH_TRANSFORMATION(#14)
SHAPE_REPRESENTATION_RELATIONSHIP()
);
#17=CONTEXT_DEPENDENT_SHAPE_REPRESENTATION(#15,#448);
#18=CONTEXT_DEPENDENT_SHAPE_REPRESENTATION(#16,#449);
#19=NEXT_ASSEMBLY_USAGE_OCCURRENCE('B50:1','B50:1','B50:1',#454,#455,
'B50:1');
#20=NEXT_ASSEMBLY_USAGE_OCCURRENCE('STUD_CONFIGURATOR:1',
'STUD_CONFIGURATOR:1','STUD_CONFIGURATOR:1',#454,#456,
'STUD_CONFIGURATOR:1');
#21=STYLED_ITEM('',(#469),#22);
#22=MANIFOLD_SOLID_BREP('Body1',#234);
#23=FACE_BOUND('',#62,.T.);
#24=FACE_BOUND('',#63,.T.);
#25=FACE_BOUND('',#64,.T.);
#26=FACE_BOUND('',#65,.T.);
#27=FACE_BOUND('',#66,.T.);
#28=FACE_BOUND('',#67,.T.);
#29=FACE_BOUND('',#68,.T.);
#30=FACE_BOUND('',#69,.T.);
#31=FACE_BOUND('',#71,.T.);
#32=FACE_BOUND('',#72,.T.);
#33=FACE_BOUND('',#73,.T.);
#34=FACE_BOUND('',#74,.T.);
#35=FACE_BOUND('',#75,.T.);
#36=FACE_BOUND('',#76,.T.);
#37=FACE_BOUND('',#77,.T.);
#38=FACE_BOUND('',#78,.T.);
#39=PLANE('',#288);
#40=PLANE('',#289);
#41=FACE_OUTER_BOUND('',#52,.T.);
#42=FACE_OUTER_BOUND('',#53,.T.);
#43=FACE_OUTER_BOUND('',#54,.T.);
#44=FACE_OUTER_BOUND('',#55,.T.);
#45=FACE_OUTER_BOUND('',#56,.T.);
#46=FACE_OUTER_BOUND('',#57,.T.);
#47=FACE_OUTER_BOUND('',#58,.T.);
#48=FACE_OUTER_BOUND('',#59,.T.);
#49=FACE_OUTER_BOUND('',#60,.T.);
#50=FACE_OUTER_BOUND('',#61,.T.);
#51=FACE_OUTER_BOUND('',#70,.T.);
#52=EDGE_LOOP('',(#160,#161,#162,#163));
#53=EDGE_LOOP('',(#164,#165,#166,#167));
#54=EDGE_LOOP('',(#168,#169,#170,#171));
#55=EDGE_LOOP('',(#172,#173,#174,#175));
#56=EDGE_LOOP('',(#176,#177,#178,#179));
#57=EDGE_LOOP('',(#180,#181,#182,#183));
#58=EDGE_LOOP('',(#184,#185,#186,#187));
#59=EDGE_LOOP('',(#188,#189,#190,#191));
#60=EDGE_LOOP('',(#192,#193,#194,#195));
#61=EDGE_LOOP('',(#196));
#62=EDGE_LOOP('',(#197));
#63=EDGE_LOOP('',(#198));
#64=EDGE_LOOP('',(#199));
#65=EDGE_LOOP('',(#200));
#66=EDGE_LOOP('',(#201));
#67=EDGE_LOOP('',(#202));
#68=EDGE_LOOP('',(#203));
#69=EDGE_LOOP('',(#204));
#70=EDGE_LOOP('',(#205));
#71=EDGE_LOOP('',(#206));
#72=EDGE_LOOP('',(#207));
#73=EDGE_LOOP('',(#208));
#74=EDGE_LOOP('',(#209));
#75=EDGE_LOOP('',(#210));
#76=EDGE_LOOP('',(#211));
#77=EDGE_LOOP('',(#212));
#78=EDGE_LOOP('',(#213));
#79=LINE('',#376,#88);
#80=LINE('',#382,#89);
#81=LINE('',#388,#90);
#82=LINE('',#394,#91);
#83=LINE('',#400,#92);
#84=LINE('',#406,#93);
#85=LINE('',#412,#94);
#86=LINE('',#418,#95);
#87=LINE('',#424,#96);
#88=VECTOR('',#302,3.);
#89=VECTOR('',#309,3.);
#90=VECTOR('',#316,3.);
#91=VECTOR('',#323,3.);
#92=VECTOR('',#330,3.);
#93=VECTOR('',#337,3.);
#94=VECTOR('',#344,3.);
#95=VECTOR('',#351,3.);
#96=VECTOR('',#358,25.);
#97=CIRCLE('',#262,3.);
#98=CIRCLE('',#263,3.);
#99=CIRCLE('',#265,3.);
#100=CIRCLE('',#266,3.);
#101=CIRCLE('',#268,3.);
#102=CIRCLE('',#269,3.);
#103=CIRCLE('',#271,3.);
#104=CIRCLE('',#272,3.);
#105=CIRCLE('',#274,3.);
#106=CIRCLE('',#275,3.);
#107=CIRCLE('',#277,3.);
#108=CIRCLE('',#278,3.);
#109=CIRCLE('',#280,3.);
#110=CIRCLE('',#281,3.);
#111=CIRCLE('',#283,3.);
#112=CIRCLE('',#284,3.);
#113=CIRCLE('',#286,25.);
#114=CIRCLE('',#287,25.);
#115=VERTEX_POINT('',#373);
#116=VERTEX_POINT('',#375);
#117=VERTEX_POINT('',#379);
#118=VERTEX_POINT('',#381);
#119=VERTEX_POINT('',#385);
#120=VERTEX_POINT('',#387);
#121=VERTEX_POINT('',#391);
#122=VERTEX_POINT('',#393);
#123=VERTEX_POINT('',#397);
#124=VERTEX_POINT('',#399);
#125=VERTEX_POINT('',#403);
#126=VERTEX_POINT('',#405);
#127=VERTEX_POINT('',#409);
#128=VERTEX_POINT('',#411);
#129=VERTEX_POINT('',#415);
#130=VERTEX_POINT('',#417);
#131=VERTEX_POINT('',#421);
#132=VERTEX_POINT('',#423);
#133=EDGE_CURVE('',#115,#115,#97,.T.);
#134=EDGE_CURVE('',#115,#116,#79,.T.);
#135=EDGE_CURVE('',#116,#116,#98,.T.);
#136=EDGE_CURVE('',#117,#117,#99,.T.);
#137=EDGE_CURVE('',#117,#118,#80,.T.);
#138=EDGE_CURVE('',#118,#118,#100,.T.);
#139=EDGE_CURVE('',#119,#119,#101,.T.);
#140=EDGE_CURVE('',#119,#120,#81,.T.);
#141=EDGE_CURVE('',#120,#120,#102,.T.);
#142=EDGE_CURVE('',#121,#121,#103,.T.);
#143=EDGE_CURVE('',#121,#122,#82,.T.);
#144=EDGE_CURVE('',#122,#122,#104,.T.);
#145=EDGE_CURVE('',#123,#123,#105,.T.);
#146=EDGE_CURVE('',#123,#124,#83,.T.);
#147=EDGE_CURVE('',#124,#124,#106,.T.);
#148=EDGE_CURVE('',#125,#125,#107,.T.);
#149=EDGE_CURVE('',#125,#126,#84,.T.);
#150=EDGE_CURVE('',#126,#126,#108,.T.);
#151=EDGE_CURVE('',#127,#127,#109,.T.);
#152=EDGE_CURVE('',#127,#128,#85,.T.);
#153=EDGE_CURVE('',#128,#128,#110,.T.);
#154=EDGE_CURVE('',#129,#129,#111,.T.);
#155=EDGE_CURVE('',#129,#130,#86,.T.);
#156=EDGE_CURVE('',#130,#130,#112,.T.);
#157=EDGE_CURVE('',#131,#131,#113,.T.);
#158=EDGE_CURVE('',#131,#132,#87,.T.);
#159=EDGE_CURVE('',#132,#132,#114,.T.);
#160=ORIENTED_EDGE('',*,*,#133,.F.);
#161=ORIENTED_EDGE('',*,*,#134,.T.);
#162=ORIENTED_EDGE('',*,*,#135,.F.);
#163=ORIENTED_EDGE('',*,*,#134,.F.);
#164=ORIENTED_EDGE('',*,*,#136,.F.);
#165=ORIENTED_EDGE('',*,*,#137,.T.);
#166=ORIENTED_EDGE('',*,*,#138,.F.);
#167=ORIENTED_EDGE('',*,*,#137,.F.);
#168=ORIENTED_EDGE('',*,*,#139,.F.);
#169=ORIENTED_EDGE('',*,*,#140,.T.);
#170=ORIENTED_EDGE('',*,*,#141,.F.);
#171=ORIENTED_EDGE('',*,*,#140,.F.);
#172=ORIENTED_EDGE('',*,*,#142,.F.);
#173=ORIENTED_EDGE('',*,*,#143,.T.);
#174=ORIENTED_EDGE('',*,*,#144,.F.);
#175=ORIENTED_EDGE('',*,*,#143,.F.);
#176=ORIENTED_EDGE('',*,*,#145,.F.);
#177=ORIENTED_EDGE('',*,*,#146,.T.);
#178=ORIENTED_EDGE('',*,*,#147,.F.);
#179=ORIENTED_EDGE('',*,*,#146,.F.);
#180=ORIENTED_EDGE('',*,*,#148,.F.);
#181=ORIENTED_EDGE('',*,*,#149,.T.);
#182=ORIENTED_EDGE('',*,*,#150,.F.);
#183=ORIENTED_EDGE('',*,*,#149,.F.);
#184=ORIENTED_EDGE('',*,*,#151,.F.);
#185=ORIENTED_EDGE('',*,*,#152,.T.);
#186=ORIENTED_EDGE('',*,*,#153,.F.);
#187=ORIENTED_EDGE('',*,*,#152,.F.);
#188=ORIENTED_EDGE('',*,*,#154,.F.);
#189=ORIENTED_EDGE('',*,*,#155,.T.);
#190=ORIENTED_EDGE('',*,*,#156,.F.);
#191=ORIENTED_EDGE('',*,*,#155,.F.);
#192=ORIENTED_EDGE('',*,*,#157,.F.);
#193=ORIENTED_EDGE('',*,*,#158,.T.);
#194=ORIENTED_EDGE('',*,*,#159,.T.);
#195=ORIENTED_EDGE('',*,*,#158,.F.);
#196=ORIENTED_EDGE('',*,*,#157,.T.);
#197=ORIENTED_EDGE('',*,*,#154,.T.);
#198=ORIENTED_EDGE('',*,*,#151,.T.);
#199=ORIENTED_EDGE('',*,*,#148,.T.);
#200=ORIENTED_EDGE('',*,*,#145,.T.);
#201=ORIENTED_EDGE('',*,*,#142,.T.);
#202=ORIENTED_EDGE('',*,*,#139,.T.);
#203=ORIENTED_EDGE('',*,*,#136,.T.);
#204=ORIENTED_EDGE('',*,*,#133,.T.);
#205=ORIENTED_EDGE('',*,*,#159,.F.);
#206=ORIENTED_EDGE('',*,*,#156,.T.);
#207=ORIENTED_EDGE('',*,*,#153,.T.);
#208=ORIENTED_EDGE('',*,*,#150,.T.);
#209=ORIENTED_EDGE('',*,*,#147,.T.);
#210=ORIENTED_EDGE('',*,*,#144,.T.);
#211=ORIENTED_EDGE('',*,*,#141,.T.);
#212=ORIENTED_EDGE('',*,*,#138,.T.);
#213=ORIENTED_EDGE('',*,*,#135,.T.);
#214=CYLINDRICAL_SURFACE('',#261,3.);
#215=CYLINDRICAL_SURFACE('',#264,3.);
#216=CYLINDRICAL_SURFACE('',#267,3.);
#217=CYLINDRICAL_SURFACE('',#270,3.);
#218=CYLINDRICAL_SURFACE('',#273,3.);
#219=CYLINDRICAL_SURFACE('',#276,3.);
#220=CYLINDRICAL_SURFACE('',#279,3.);
#221=CYLINDRICAL_SURFACE('',#282,3.);
#222=CYLINDRICAL_SURFACE('',#285,25.);
#223=ADVANCED_FACE('',(#41),#214,.F.);
#224=ADVANCED_FACE('',(#42),#215,.F.);
#225=ADVANCED_FACE('',(#43),#216,.F.);
#226=ADVANCED_FACE('',(#44),#217,.F.);
#227=ADVANCED_FACE('',(#45),#218,.F.);
#228=ADVANCED_FACE('',(#46),#219,.F.);
#229=ADVANCED_FACE('',(#47),#220,.F.);
#230=ADVANCED_FACE('',(#48),#221,.F.);
#231=ADVANCED_FACE('',(#49),#222,.T.);
#232=ADVANCED_FACE('',(#50,#23,#24,#25,#26,#27,#28,#29,#30),#39,.T.);
#233=ADVANCED_FACE('',(#51,#31,#32,#33,#34,#35,#36,#37,#38),#40,.F.);
#234=CLOSED_SHELL('',(#223,#224,#225,#226,#227,#228,#229,#230,#231,#232,
#233));
#235=DERIVED_UNIT_ELEMENT(#239,1.);
#236=DERIVED_UNIT_ELEMENT(#439,3.);
#237=DERIVED_UNIT_ELEMENT(#239,1.);
#238=DERIVED_UNIT_ELEMENT(#439,3.);
#239=(
MASS_UNIT()
NAMED_UNIT(*)
SI_UNIT(.KILO.,.GRAM.)
);
#240=DERIVED_UNIT((#235,#236));
#241=DERIVED_UNIT((#237,#238));
#242=MEASURE_REPRESENTATION_ITEM('density measure',
POSITIVE_RATIO_MEASURE(1000.),#240);
#243=MEASURE_REPRESENTATION_ITEM('density measure',
POSITIVE_RATIO_MEASURE(1000.),#241);
#244=PROPERTY_DEFINITION_REPRESENTATION(#254,#248);
#245=PROPERTY_DEFINITION_REPRESENTATION(#255,#249);
#246=PROPERTY_DEFINITION_REPRESENTATION(#256,#250);
#247=PROPERTY_DEFINITION_REPRESENTATION(#257,#251);
#248=REPRESENTATION('material name',(#252),#435);
#249=REPRESENTATION('density',(#242),#435);
#250=REPRESENTATION('material name',(#253),#436);
#251=REPRESENTATION('density',(#243),#436);
#252=DESCRIPTIVE_REPRESENTATION_ITEM('Generic','Generic');
#253=DESCRIPTIVE_REPRESENTATION_ITEM('Generic','Generic');
#254=PROPERTY_DEFINITION('material property','material name',#455);
#255=PROPERTY_DEFINITION('material property','density of part',#455);
#256=PROPERTY_DEFINITION('material property','material name',#456);
#257=PROPERTY_DEFINITION('material property','density of part',#456);
#258=AXIS2_PLACEMENT_3D('placement',#369,#292,#293);
#259=AXIS2_PLACEMENT_3D('placement',#370,#294,#295);
#260=AXIS2_PLACEMENT_3D('placement',#371,#296,#297);
#261=AXIS2_PLACEMENT_3D('',#372,#298,#299);
#262=AXIS2_PLACEMENT_3D('',#374,#300,#301);
#263=AXIS2_PLACEMENT_3D('',#377,#303,#304);
#264=AXIS2_PLACEMENT_3D('',#378,#305,#306);
#265=AXIS2_PLACEMENT_3D('',#380,#307,#308);
#266=AXIS2_PLACEMENT_3D('',#383,#310,#311);
#267=AXIS2_PLACEMENT_3D('',#384,#312,#313);
#268=AXIS2_PLACEMENT_3D('',#386,#314,#315);
#269=AXIS2_PLACEMENT_3D('',#389,#317,#318);
#270=AXIS2_PLACEMENT_3D('',#390,#319,#320);
#271=AXIS2_PLACEMENT_3D('',#392,#321,#322);
#272=AXIS2_PLACEMENT_3D('',#395,#324,#325);
#273=AXIS2_PLACEMENT_3D('',#396,#326,#327);
#274=AXIS2_PLACEMENT_3D('',#398,#328,#329);
#275=AXIS2_PLACEMENT_3D('',#401,#331,#332);
#276=AXIS2_PLACEMENT_3D('',#402,#333,#334);
#277=AXIS2_PLACEMENT_3D('',#404,#335,#336);
#278=AXIS2_PLACEMENT_3D('',#407,#338,#339);
#279=AXIS2_PLACEMENT_3D('',#408,#340,#341);
#280=AXIS2_PLACEMENT_3D('',#410,#342,#343);
#281=AXIS2_PLACEMENT_3D('',#413,#345,#346);
#282=AXIS2_PLACEMENT_3D('',#414,#347,#348);
#283=AXIS2_PLACEMENT_3D('',#416,#349,#350);
#284=AXIS2_PLACEMENT_3D('',#419,#352,#353);
#285=AXIS2_PLACEMENT_3D('',#420,#354,#355);
#286=AXIS2_PLACEMENT_3D('',#422,#356,#357);
#287=AXIS2_PLACEMENT_3D('',#425,#359,#360);
#288=AXIS2_PLACEMENT_3D('',#426,#361,#362);
#289=AXIS2_PLACEMENT_3D('',#427,#363,#364);
#290=AXIS2_PLACEMENT_3D('',#428,#365,#366);
#291=AXIS2_PLACEMENT_3D('',#429,#367,#368);
#292=DIRECTION('axis',(0.,0.,1.));
#293=DIRECTION('refdir',(1.,0.,0.));
#294=DIRECTION('axis',(0.,0.,1.));
#295=DIRECTION('refdir',(1.,0.,0.));
#296=DIRECTION('axis',(0.,0.,1.));
#297=DIRECTION('refdir',(1.,0.,0.));
#298=DIRECTION('center_axis',(0.,1.,0.));
#299=DIRECTION('ref_axis',(1.,0.,0.));
#300=DIRECTION('center_axis',(0.,-1.,0.));
#301=DIRECTION('ref_axis',(1.,0.,0.));
#302=DIRECTION('',(0.,-1.,0.));
#303=DIRECTION('center_axis',(0.,1.,0.));
#304=DIRECTION('ref_axis',(1.,0.,0.));
#305=DIRECTION('center_axis',(0.,1.,0.));
#306=DIRECTION('ref_axis',(1.,0.,0.));
#307=DIRECTION('center_axis',(0.,-1.,0.));
#308=DIRECTION('ref_axis',(1.,0.,0.));
#309=DIRECTION('',(0.,-1.,0.));
#310=DIRECTION('center_axis',(0.,1.,0.));
#311=DIRECTION('ref_axis',(1.,0.,0.));
#312=DIRECTION('center_axis',(0.,1.,0.));
#313=DIRECTION('ref_axis',(1.,0.,0.));
#314=DIRECTION('center_axis',(0.,-1.,0.));
#315=DIRECTION('ref_axis',(1.,0.,0.));
#316=DIRECTION('',(0.,-1.,0.));
#317=DIRECTION('center_axis',(0.,1.,0.));
#318=DIRECTION('ref_axis',(1.,0.,0.));
#319=DIRECTION('center_axis',(0.,1.,0.));
#320=DIRECTION('ref_axis',(1.,0.,0.));
#321=DIRECTION('center_axis',(0.,-1.,0.));
#322=DIRECTION('ref_axis',(1.,0.,0.));
#323=DIRECTION('',(0.,-1.,0.));
#324=DIRECTION('center_axis',(0.,1.,0.));
#325=DIRECTION('ref_axis',(1.,0.,0.));
#326=DIRECTION('center_axis',(0.,1.,0.));
#327=DIRECTION('ref_axis',(1.,0.,0.));
#328=DIRECTION('center_axis',(0.,-1.,0.));
#329=DIRECTION('ref_axis',(1.,0.,0.));
#330=DIRECTION('',(0.,-1.,0.));
#331=DIRECTION('center_axis',(0.,1.,0.));
#332=DIRECTION('ref_axis',(1.,0.,0.));
#333=DIRECTION('center_axis',(0.,1.,0.));
#334=DIRECTION('ref_axis',(1.,0.,0.));
#335=DIRECTION('center_axis',(0.,-1.,0.));
#336=DIRECTION('ref_axis',(1.,0.,0.));
#337=DIRECTION('',(0.,-1.,0.));
#338=DIRECTION('center_axis',(0.,1.,0.));
#339=DIRECTION('ref_axis',(1.,0.,0.));
#340=DIRECTION('center_axis',(0.,1.,0.));
#341=DIRECTION('ref_axis',(1.,0.,0.));
#342=DIRECTION('center_axis',(0.,-1.,0.));
#343=DIRECTION('ref_axis',(1.,0.,0.));
#344=DIRECTION('',(0.,-1.,0.));
#345=DIRECTION('center_axis',(0.,1.,0.));
#346=DIRECTION('ref_axis',(1.,0.,0.));
#347=DIRECTION('center_axis',(0.,1.,0.));
#348=DIRECTION('ref_axis',(1.,0.,0.));
#349=DIRECTION('center_axis',(0.,-1.,0.));
#350=DIRECTION('ref_axis',(1.,0.,0.));
#351=DIRECTION('',(0.,-1.,0.));
#352=DIRECTION('center_axis',(0.,1.,0.));
#353=DIRECTION('ref_axis',(1.,0.,0.));
#354=DIRECTION('center_axis',(0.,1.,0.));
#355=DIRECTION('ref_axis',(1.,0.,0.));
#356=DIRECTION('center_axis',(0.,1.,0.));
#357=DIRECTION('ref_axis',(1.,0.,0.));
#358=DIRECTION('',(0.,-1.,0.));
#359=DIRECTION('center_axis',(0.,1.,0.));
#360=DIRECTION('ref_axis',(1.,0.,0.));
#361=DIRECTION('center_axis',(0.,1.,0.));
#362=DIRECTION('ref_axis',(1.,0.,0.));
#363=DIRECTION('center_axis',(0.,1.,0.));
#364=DIRECTION('ref_axis',(1.,0.,0.));
#365=DIRECTION('',(8.27116153345741E-15,2.46519032881566E-32,1.));
#366=DIRECTION('',(1.,1.18828558104411E-16,-8.27116153345741E-15));
#367=DIRECTION('',(0.,0.,1.));
#368=DIRECTION('',(1.,0.,0.));
#369=CARTESIAN_POINT('',(0.,0.,0.));
#370=CARTESIAN_POINT('',(0.,0.,0.));
#371=CARTESIAN_POINT('',(0.,0.,0.));
#372=CARTESIAN_POINT('Origin',(15.0000002235174,0.,0.));
#373=CARTESIAN_POINT('',(12.0000002235174,10.,3.67394039744206E-16));
#374=CARTESIAN_POINT('Origin',(15.0000002235174,10.,0.));
#375=CARTESIAN_POINT('',(12.0000002235174,0.,3.67394039744206E-16));
#376=CARTESIAN_POINT('',(12.0000002235174,0.,3.67394039744206E-16));
#377=CARTESIAN_POINT('Origin',(15.0000002235174,0.,0.));
#378=CARTESIAN_POINT('Origin',(14.0392030948748,0.,-14.1332096378839));
#379=CARTESIAN_POINT('',(11.0392030948748,10.,-14.1332096378839));
#380=CARTESIAN_POINT('Origin',(14.0392030948748,10.,-14.1332096378839));
#381=CARTESIAN_POINT('',(11.0392030948748,0.,-14.1332096378839));
#382=CARTESIAN_POINT('',(11.0392030948748,0.,-14.1332096378839));
#383=CARTESIAN_POINT('Origin',(14.0392030948748,0.,-14.1332096378839));
#384=CARTESIAN_POINT('Origin',(-0.0624571710710499,0.,-15.0097335079665));
#385=CARTESIAN_POINT('',(-3.06245717107105,10.,-15.0097335079665));
#386=CARTESIAN_POINT('Origin',(-0.0624571710710499,10.,-15.0097335079665));
#387=CARTESIAN_POINT('',(-3.06245717107105,0.,-15.0097335079665));
#388=CARTESIAN_POINT('',(-3.06245717107105,0.,-15.0097335079665));
#389=CARTESIAN_POINT('Origin',(-0.0624571710710499,0.,-15.0097335079665));
#390=CARTESIAN_POINT('Origin',(-14.2050833188524,0.,-14.1110650264144));
#391=CARTESIAN_POINT('',(-17.2050833188524,10.,-14.1110650264144));
#392=CARTESIAN_POINT('Origin',(-14.2050833188524,10.,-14.1110650264144));
#393=CARTESIAN_POINT('',(-17.2050833188524,0.,-14.1110650264144));
#394=CARTESIAN_POINT('',(-17.2050833188524,0.,-14.1110650264144));
#395=CARTESIAN_POINT('Origin',(-14.2050833188524,0.,-14.1110650264144));
#396=CARTESIAN_POINT('Origin',(-15.0875793638909,0.,-0.0136435234746219));
#397=CARTESIAN_POINT('',(-18.0875793638909,10.,-0.0136435234746215));
#398=CARTESIAN_POINT('Origin',(-15.0875793638909,10.,-0.0136435234746219));
#399=CARTESIAN_POINT('',(-18.0875793638909,0.,-0.0136435234746215));
#400=CARTESIAN_POINT('',(-18.0875793638909,0.,-0.0136435234746215));
#401=CARTESIAN_POINT('Origin',(-15.0875793638909,0.,-0.0136435234746219));
#402=CARTESIAN_POINT('Origin',(-14.2097583332399,0.,14.1482085212708));
#403=CARTESIAN_POINT('',(-17.2097583332399,10.,14.1482085212708));
#404=CARTESIAN_POINT('Origin',(-14.2097583332399,10.,14.1482085212708));
#405=CARTESIAN_POINT('',(-17.2097583332399,0.,14.1482085212708));
#406=CARTESIAN_POINT('',(-17.2097583332399,0.,14.1482085212708));
#407=CARTESIAN_POINT('Origin',(-14.2097583332399,0.,14.1482085212708));
#408=CARTESIAN_POINT('Origin',(0.,0.,15.0000002235174));
#409=CARTESIAN_POINT('',(-3.,10.,15.0000002235174));
#410=CARTESIAN_POINT('Origin',(0.,10.,15.0000002235174));
#411=CARTESIAN_POINT('',(-3.,0.,15.0000002235174));
#412=CARTESIAN_POINT('',(-3.,0.,15.0000002235174));
#413=CARTESIAN_POINT('Origin',(0.,0.,15.0000002235174));
#414=CARTESIAN_POINT('Origin',(14.1307257642146,0.,14.1078427069844));
#415=CARTESIAN_POINT('',(11.1307257642146,10.,14.1078427069844));
#416=CARTESIAN_POINT('Origin',(14.1307257642146,10.,14.1078427069844));
#417=CARTESIAN_POINT('',(11.1307257642146,0.,14.1078427069844));
#418=CARTESIAN_POINT('',(11.1307257642146,0.,14.1078427069844));
#419=CARTESIAN_POINT('Origin',(14.1307257642146,0.,14.1078427069844));
#420=CARTESIAN_POINT('Origin',(0.,0.,0.));
#421=CARTESIAN_POINT('',(-25.,10.,3.06161699786838E-15));
#422=CARTESIAN_POINT('Origin',(0.,10.,0.));
#423=CARTESIAN_POINT('',(-25.,0.,3.06161699786838E-15));
#424=CARTESIAN_POINT('',(-25.,0.,3.06161699786838E-15));
#425=CARTESIAN_POINT('Origin',(0.,0.,0.));
#426=CARTESIAN_POINT('Origin',(0.,10.,0.));
#427=CARTESIAN_POINT('Origin',(0.,0.,0.));
#428=CARTESIAN_POINT('',(1.8991598088809E-33,-2.00000000000003,-2.35637512226944E-47));
#429=CARTESIAN_POINT('',(0.,-0.8,0.));
#430=UNCERTAINTY_MEASURE_WITH_UNIT(LENGTH_MEASURE(0.01),#438,
'DISTANCE_ACCURACY_VALUE',
'Maximum model space distance between geometric entities at asserted c
onnectivities');
#431=UNCERTAINTY_MEASURE_WITH_UNIT(LENGTH_MEASURE(0.01),#438,
'DISTANCE_ACCURACY_VALUE',
'Maximum model space distance between geometric entities at asserted c
onnectivities');
#432=UNCERTAINTY_MEASURE_WITH_UNIT(LENGTH_MEASURE(0.01),#438,
'DISTANCE_ACCURACY_VALUE',
'Maximum model space distance between geometric entities at asserted c
onnectivities');
#433=UNCERTAINTY_MEASURE_WITH_UNIT(LENGTH_MEASURE(0.01),#438,
'DISTANCE_ACCURACY_VALUE',
'Maximum model space distance between geometric entities at asserted c
onnectivities');
#434=(
GEOMETRIC_REPRESENTATION_CONTEXT(3)
GLOBAL_UNCERTAINTY_ASSIGNED_CONTEXT((#430))
GLOBAL_UNIT_ASSIGNED_CONTEXT((#438,#440,#441))
REPRESENTATION_CONTEXT('','3D')
);
#435=(
GEOMETRIC_REPRESENTATION_CONTEXT(3)
GLOBAL_UNCERTAINTY_ASSIGNED_CONTEXT((#431))
GLOBAL_UNIT_ASSIGNED_CONTEXT((#438,#440,#441))
REPRESENTATION_CONTEXT('','3D')
);
#436=(
GEOMETRIC_REPRESENTATION_CONTEXT(3)
GLOBAL_UNCERTAINTY_ASSIGNED_CONTEXT((#432))
GLOBAL_UNIT_ASSIGNED_CONTEXT((#438,#440,#441))
REPRESENTATION_CONTEXT('','3D')
);
#437=(
GEOMETRIC_REPRESENTATION_CONTEXT(3)
GLOBAL_UNCERTAINTY_ASSIGNED_CONTEXT((#433))
GLOBAL_UNIT_ASSIGNED_CONTEXT((#438,#440,#441))
REPRESENTATION_CONTEXT('','3D')
);
#438=(
LENGTH_UNIT()
NAMED_UNIT(*)
SI_UNIT(.MILLI.,.METRE.)
);
#439=(
LENGTH_UNIT()
NAMED_UNIT(*)
SI_UNIT($,.METRE.)
);
#440=(
NAMED_UNIT(*)
PLANE_ANGLE_UNIT()
SI_UNIT($,.RADIAN.)
);
#441=(
NAMED_UNIT(*)
SI_UNIT($,.STERADIAN.)
SOLID_ANGLE_UNIT()
);
#442=SHAPE_DEFINITION_REPRESENTATION(#445,#450);
#443=SHAPE_DEFINITION_REPRESENTATION(#446,#451);
#444=SHAPE_DEFINITION_REPRESENTATION(#447,#452);
#445=PRODUCT_DEFINITION_SHAPE('',$,#454);
#446=PRODUCT_DEFINITION_SHAPE('',$,#455);
#447=PRODUCT_DEFINITION_SHAPE('',$,#456);
#448=PRODUCT_DEFINITION_SHAPE($,$,#19);
#449=PRODUCT_DEFINITION_SHAPE($,$,#20);
#450=SHAPE_REPRESENTATION('',(#258,#290,#291),#434);
#451=SHAPE_REPRESENTATION('',(#259),#435);
#452=SHAPE_REPRESENTATION('',(#260),#436);
#453=PRODUCT_DEFINITION_CONTEXT('part definition',#464,'design');
#454=PRODUCT_DEFINITION('CarleyBracketMount','CarleyBracketMount v2',#457,
#453);
#455=PRODUCT_DEFINITION('B50','B50',#458,#453);
#456=PRODUCT_DEFINITION('STUD_CONFIGURATOR','STUD_CONFIGURATOR',#459,#453);
#457=PRODUCT_DEFINITION_FORMATION('',$,#466);
#458=PRODUCT_DEFINITION_FORMATION('',$,#467);
#459=PRODUCT_DEFINITION_FORMATION('',$,#468);
#460=PRODUCT_RELATED_PRODUCT_CATEGORY('CarleyBracketMount v2',
'CarleyBracketMount v2',(#466));
#461=PRODUCT_RELATED_PRODUCT_CATEGORY('B50','B50',(#467));
#462=PRODUCT_RELATED_PRODUCT_CATEGORY('STUD_CONFIGURATOR',
'STUD_CONFIGURATOR',(#468));
#463=APPLICATION_PROTOCOL_DEFINITION('international standard',
'automotive_design',2009,#464);
#464=APPLICATION_CONTEXT(
'Core Data for Automotive Mechanical Design Process');
#465=PRODUCT_CONTEXT('part definition',#464,'mechanical');
#466=PRODUCT('CarleyBracketMount','CarleyBracketMount v2',$,(#465));
#467=PRODUCT('B50','B50',$,(#465));
#468=PRODUCT('STUD_CONFIGURATOR','STUD_CONFIGURATOR',$,(#465));
#469=PRESENTATION_STYLE_ASSIGNMENT((#470));
#470=SURFACE_STYLE_USAGE(.BOTH.,#471);
#471=SURFACE_SIDE_STYLE('',(#472));
#472=SURFACE_STYLE_FILL_AREA(#473);
#473=FILL_AREA_STYLE('Steel - Satin',(#474));
#474=FILL_AREA_STYLE_COLOUR('Steel - Satin',#475);
#475=COLOUR_RGB('Steel - Satin',0.627450980392157,0.627450980392157,0.627450980392157);
ENDSEC;
END-ISO-10303-21;
