  0
SECTION
  2
HEADER
  9
$ACADVER
  1
AC1009
  9
$ANGDIR
  70
0
  9
$CECOLOR
  62
256
  9
$CELTYPE
  6
BYLAYER
  9
$EXTMIN
  10
0.0
  20
0.0
  9
$EXTMAX
  10
5.4
  20
4.6
  9
$FILLMODE
  70
1
  9
$MIRRTEXT
  70
0
  0
ENDSEC
  0
SECTION
  2
TABLES
  0
TABLE
  2
LAYER
  70
7
  0
LAYER
  2
Shapes
  70
64
  62
252
  6
CONTINUOUS
  0
LAYER
  2
Element
  70
64
  62
253
  6
CONTINUOUS
  0
LAYER
  2
Bus
  70
64
  62
180
  6
CONTINUOUS
  0
LAYER
  2
Net
  70
64
  62
50
  6
CONTINUOUS
  0
LAYER
  2
Pin
  70
64
  62
50
  6
CONTINUOUS
  0
LAYER
  2
Tables
  70
64
  62
253
  6
CONTINUOUS
  0
LAYER
  2
Titles
  70
64
  62
253
  6
CONTINUOUS
  0
ENDTAB
  0
ENDSEC
  0
SECTION
  2
ENTITIES
  0
POLYLINE
  8
Element
  6
CONTINUOUS
  66
1
  70
0
  40
0.0098
  41
0.0098
  0
VERTEX
  8
Element
  10
4.8
  20
2.825
  42
0
  0
VERTEX
  8
Element
  10
4.85
  20
2.775
  42
0
  0
SEQEND
  0
POLYLINE
  8
Element
  6
CONTINUOUS
  66
1
  70
0
  40
0.0049
  41
0.0049
  0
VERTEX
  8
Element
  10
4.7975
  20
2.825
  42
1
  0
VERTEX
  8
Element
  10
4.8025
  20
2.825
  42
1
  0
VERTEX
  8
Element
  10
4.7975
  20
2.825
  42
1
  0
SEQEND
  0
POLYLINE
  8
Element
  6
CONTINUOUS
  66
1
  70
0
  40
0.0049
  41
0.0049
  0
VERTEX
  8
Element
  10
4.8475
  20
2.775
  42
1
  0
VERTEX
  8
Element
  10
4.8525
  20
2.775
  42
1
  0
VERTEX
  8
Element
  10
4.8475
  20
2.775
  42
1
  0
SEQEND
  0
POLYLINE
  8
Element
  6
CONTINUOUS
  66
1
  70
0
  40
0.0098
  41
0.0098
  0
VERTEX
  8
Element
  10
4.8
  20
2.825
  42
0
  0
VERTEX
  8
Element
  10
4.75
  20
2.775
  42
0
  0
SEQEND
  0
POLYLINE
  8
Element
  6
CONTINUOUS
  66
1
  70
0
  40
0.0049
  41
0.0049
  0
VERTEX
  8
Element
  10
4.7975
  20
2.825
  42
1
  0
VERTEX
  8
Element
  10
4.8025
  20
2.825
  42
1
  0
VERTEX
  8
Element
  10
4.7975
  20
2.825
  42
1
  0
SEQEND
  0
POLYLINE
  8
Element
  6
CONTINUOUS
  66
1
  70
0
  40
0.0049
  41
0.0049
  0
VERTEX
  8
Element
  10
4.7475
  20
2.775
  42
1
  0
VERTEX
  8
Element
  10
4.7525
  20
2.775
  42
1
  0
VERTEX
  8
Element
  10
4.7475
  20
2.775
  42
1
  0
SEQEND
  0
POLYLINE
  8
Element
  6
CONTINUOUS
  66
1
  70
0
  40
0.0098
  41
0.0098
  0
VERTEX
  8
Element
  10
4.85
  20
2.775
  42
0
  0
VERTEX
  8
Element
  10
4.85
  20
2.6
  42
0
  0
SEQEND
  0
POLYLINE
  8
Element
  6
CONTINUOUS
  66
1
  70
0
  40
0.0049
  41
0.0049
  0
VERTEX
  8
Element
  10
4.8475
  20
2.775
  42
1
  0
VERTEX
  8
Element
  10
4.8525
  20
2.775
  42
1
  0
VERTEX
  8
Element
  10
4.8475
  20
2.775
  42
1
  0
SEQEND
  0
POLYLINE
  8
Element
  6
CONTINUOUS
  66
1
  70
0
  40
0.0049
  41
0.0049
  0
VERTEX
  8
Element
  10
4.8475
  20
2.6
  42
1
  0
VERTEX
  8
Element
  10
4.8525
  20
2.6
  42
1
  0
VERTEX
  8
Element
  10
4.8475
  20
2.6
  42
1
  0
SEQEND
  0
POLYLINE
  8
Element
  6
CONTINUOUS
  66
1
  70
0
  40
0.0098
  41
0.0098
  0
VERTEX
  8
Element
  10
4.7
  20
2.825
  42
0
  0
VERTEX
  8
Element
  10
4.75
  20
2.775
  42
0
  0
SEQEND
  0
POLYLINE
  8
Element
  6
CONTINUOUS
  66
1
  70
0
  40
0.0049
  41
0.0049
  0
VERTEX
  8
Element
  10
4.6975
  20
2.825
  42
1
  0
VERTEX
  8
Element
  10
4.7025
  20
2.825
  42
1
  0
VERTEX
  8
Element
  10
4.6975
  20
2.825
  42
1
  0
SEQEND
  0
POLYLINE
  8
Element
  6
CONTINUOUS
  66
1
  70
0
  40
0.0049
  41
0.0049
  0
VERTEX
  8
Element
  10
4.7475
  20
2.775
  42
1
  0
VERTEX
  8
Element
  10
4.7525
  20
2.775
  42
1
  0
VERTEX
  8
Element
  10
4.7475
  20
2.775
  42
1
  0
SEQEND
  0
POLYLINE
  8
Element
  6
CONTINUOUS
  66
1
  70
0
  40
0.0098
  41
0.0098
  0
VERTEX
  8
Element
  10
4.75
  20
2.775
  42
0
  0
VERTEX
  8
Element
  10
4.75
  20
2.6
  42
0
  0
SEQEND
  0
POLYLINE
  8
Element
  6
CONTINUOUS
  66
1
  70
0
  40
0.0049
  41
0.0049
  0
VERTEX
  8
Element
  10
4.7475
  20
2.775
  42
1
  0
VERTEX
  8
Element
  10
4.7525
  20
2.775
  42
1
  0
VERTEX
  8
Element
  10
4.7475
  20
2.775
  42
1
  0
SEQEND
  0
POLYLINE
  8
Element
  6
CONTINUOUS
  66
1
  70
0
  40
0.0049
  41
0.0049
  0
VERTEX
  8
Element
  10
4.7475
  20
2.6
  42
1
  0
VERTEX
  8
Element
  10
4.7525
  20
2.6
  42
1
  0
VERTEX
  8
Element
  10
4.7475
  20
2.6
  42
1
  0
SEQEND
  0
POLYLINE
  8
Element
  6
CONTINUOUS
  66
1
  70
0
  40
0.0098
  41
0.0098
  0
VERTEX
  8
Element
  10
4.7
  20
3.0
  42
0
  0
VERTEX
  8
Element
  10
4.9
  20
3.0
  42
0
  0
VERTEX
  8
Element
  10
4.9
  20
2.6
  42
0
  0
VERTEX
  8
Element
  10
4.7
  20
2.6
  42
0
  0
VERTEX
  8
Element
  10
4.7
  20
3.0
  42
0
  0
SEQEND
  0
POLYLINE
  8
Element
  6
CONTINUOUS
  66
1
  70
0
  40
0.0098
  41
0.0098
  0
VERTEX
  8
Element
  10
4.9
  20
2.825
  42
0
  0
VERTEX
  8
Element
  10
4.85
  20
2.775
  42
0
  0
SEQEND
  0
POLYLINE
  8
Element
  6
CONTINUOUS
  66
1
  70
0
  40
0.0049
  41
0.0049
  0
VERTEX
  8
Element
  10
4.8975
  20
2.825
  42
1
  0
VERTEX
  8
Element
  10
4.9025
  20
2.825
  42
1
  0
VERTEX
  8
Element
  10
4.8975
  20
2.825
  42
1
  0
SEQEND
  0
POLYLINE
  8
Element
  6
CONTINUOUS
  66
1
  70
0
  40
0.0049
  41
0.0049
  0
VERTEX
  8
Element
  10
4.8475
  20
2.775
  42
1
  0
VERTEX
  8
Element
  10
4.8525
  20
2.775
  42
1
  0
VERTEX
  8
Element
  10
4.8475
  20
2.775
  42
1
  0
SEQEND
  0
POLYLINE
  8
Element
  6
CONTINUOUS
  66
1
  70
0
  40
0.0098
  41
0.0098
  0
VERTEX
  8
Element
  10
1.05
  20
4.0
  42
0
  0
VERTEX
  8
Element
  10
1.55
  20
4.0
  42
0
  0
VERTEX
  8
Element
  10
1.55
  20
3.4
  42
0
  0
VERTEX
  8
Element
  10
1.05
  20
3.4
  42
0
  0
VERTEX
  8
Element
  10
1.05
  20
4.0
  42
0
  0
SEQEND
  0
POLYLINE
  8
Element
  6
CONTINUOUS
  66
1
  70
0
  40
0.0098
  41
0.0098
  0
VERTEX
  8
Element
  10
3.85
  20
4.15
  42
0
  0
VERTEX
  8
Element
  10
4.35
  20
4.15
  42
0
  0
VERTEX
  8
Element
  10
4.35
  20
3.55
  42
0
  0
VERTEX
  8
Element
  10
3.85
  20
3.55
  42
0
  0
VERTEX
  8
Element
  10
3.85
  20
4.15
  42
0
  0
SEQEND
  0
POLYLINE
  8
Element
  6
CONTINUOUS
  66
1
  70
0
  40
0.0098
  41
0.0098
  0
VERTEX
  8
Element
  10
2.65
  20
1.1
  42
0
  0
VERTEX
  8
Element
  10
3.15
  20
1.1
  42
0
  0
VERTEX
  8
Element
  10
3.15
  20
0.5
  42
0
  0
VERTEX
  8
Element
  10
2.65
  20
0.5
  42
0
  0
VERTEX
  8
Element
  10
2.65
  20
1.1
  42
0
  0
SEQEND
  0
POLYLINE
  8
Element
  6
CONTINUOUS
  66
1
  70
0
  40
0.01
  41
0.01
  0
VERTEX
  8
Element
  10
1.2766
  20
2.0
  42
0
  0
VERTEX
  8
Element
  10
1.2766
  20
1.925
  42
0
  0
SEQEND
  0
POLYLINE
  8
Element
  6
CONTINUOUS
  66
1
  70
0
  40
0.005
  41
0.005
  0
VERTEX
  8
Element
  10
1.2741
  20
2.0
  42
1
  0
VERTEX
  8
Element
  10
1.2791
  20
2.0
  42
1
  0
VERTEX
  8
Element
  10
1.2741
  20
2.0
  42
1
  0
SEQEND
  0
POLYLINE
  8
Element
  6
CONTINUOUS
  66
1
  70
0
  40
0.005
  41
0.005
  0
VERTEX
  8
Element
  10
1.2741
  20
1.925
  42
1
  0
VERTEX
  8
Element
  10
1.2791
  20
1.925
  42
1
  0
VERTEX
  8
Element
  10
1.2741
  20
1.925
  42
1
  0
SEQEND
  0
POLYLINE
  8
Element
  6
CONTINUOUS
  66
1
  70
0
  40
0.01
  41
0.01
  0
VERTEX
  8
Element
  10
1.2766
  20
1.7
  42
0
  0
VERTEX
  8
Element
  10
1.4266
  20
1.7
  42
0
  0
SEQEND
  0
POLYLINE
  8
Element
  6
CONTINUOUS
  66
1
  70
0
  40
0.005
  41
0.005
  0
VERTEX
  8
Element
  10
1.2741
  20
1.7
  42
1
  0
VERTEX
  8
Element
  10
1.2791
  20
1.7
  42
1
  0
VERTEX
  8
Element
  10
1.2741
  20
1.7
  42
1
  0
SEQEND
  0
POLYLINE
  8
Element
  6
CONTINUOUS
  66
1
  70
0
  40
0.005
  41
0.005
  0
VERTEX
  8
Element
  10
1.4241
  20
1.7
  42
1
  0
VERTEX
  8
Element
  10
1.4291
  20
1.7
  42
1
  0
VERTEX
  8
Element
  10
1.4241
  20
1.7
  42
1
  0
SEQEND
  0
POLYLINE
  8
Element
  6
CONTINUOUS
  66
1
  70
0
  40
0.01
  41
0.01
  0
VERTEX
  8
Element
  10
1.4266
  20
1.7
  42
0
  0
VERTEX
  8
Element
  10
1.4266
  20
1.775
  42
0
  0
SEQEND
  0
POLYLINE
  8
Element
  6
CONTINUOUS
  66
1
  70
0
  40
0.005
  41
0.005
  0
VERTEX
  8
Element
  10
1.4241
  20
1.7
  42
1
  0
VERTEX
  8
Element
  10
1.4291
  20
1.7
  42
1
  0
VERTEX
  8
Element
  10
1.4241
  20
1.7
  42
1
  0
SEQEND
  0
POLYLINE
  8
Element
  6
CONTINUOUS
  66
1
  70
0
  40
0.005
  41
0.005
  0
VERTEX
  8
Element
  10
1.4241
  20
1.775
  42
1
  0
VERTEX
  8
Element
  10
1.4291
  20
1.775
  42
1
  0
VERTEX
  8
Element
  10
1.4241
  20
1.775
  42
1
  0
SEQEND
  0
POLYLINE
  8
Element
  6
CONTINUOUS
  66
1
  70
0
  40
0.01
  41
0.01
  0
VERTEX
  8
Element
  10
1.4266
  20
2.0
  42
0
  0
VERTEX
  8
Element
  10
1.2766
  20
2.0
  42
0
  0
SEQEND
  0
POLYLINE
  8
Element
  6
CONTINUOUS
  66
1
  70
0
  40
0.005
  41
0.005
  0
VERTEX
  8
Element
  10
1.4241
  20
2.0
  42
1
  0
VERTEX
  8
Element
  10
1.4291
  20
2.0
  42
1
  0
VERTEX
  8
Element
  10
1.4241
  20
2.0
  42
1
  0
SEQEND
  0
POLYLINE
  8
Element
  6
CONTINUOUS
  66
1
  70
0
  40
0.005
  41
0.005
  0
VERTEX
  8
Element
  10
1.2741
  20
2.0
  42
1
  0
VERTEX
  8
Element
  10
1.2791
  20
2.0
  42
1
  0
VERTEX
  8
Element
  10
1.2741
  20
2.0
  42
1
  0
SEQEND
  0
POLYLINE
  8
Element
  6
CONTINUOUS
  66
1
  70
0
  40
0.01
  41
0.01
  0
VERTEX
  8
Element
  10
1.2516
  20
1.85
  42
0
  0
VERTEX
  8
Element
  10
1.2766
  20
1.85
  42
0
  0
SEQEND
  0
POLYLINE
  8
Element
  6
CONTINUOUS
  66
1
  70
0
  40
0.005
  41
0.005
  0
VERTEX
  8
Element
  10
1.2491
  20
1.85
  42
1
  0
VERTEX
  8
Element
  10
1.2541
  20
1.85
  42
1
  0
VERTEX
  8
Element
  10
1.2491
  20
1.85
  42
1
  0
SEQEND
  0
POLYLINE
  8
Element
  6
CONTINUOUS
  66
1
  70
0
  40
0.005
  41
0.005
  0
VERTEX
  8
Element
  10
1.2741
  20
1.85
  42
1
  0
VERTEX
  8
Element
  10
1.2791
  20
1.85
  42
1
  0
VERTEX
  8
Element
  10
1.2741
  20
1.85
  42
1
  0
SEQEND
  0
POLYLINE
  8
Element
  6
CONTINUOUS
  66
1
  70
0
  40
0.01
  41
0.01
  0
VERTEX
  8
Element
  10
1.2766
  20
1.85
  42
0
  0
VERTEX
  8
Element
  10
1.2766
  20
1.7
  42
0
  0
SEQEND
  0
POLYLINE
  8
Element
  6
CONTINUOUS
  66
1
  70
0
  40
0.005
  41
0.005
  0
VERTEX
  8
Element
  10
1.2741
  20
1.85
  42
1
  0
VERTEX
  8
Element
  10
1.2791
  20
1.85
  42
1
  0
VERTEX
  8
Element
  10
1.2741
  20
1.85
  42
1
  0
SEQEND
  0
POLYLINE
  8
Element
  6
CONTINUOUS
  66
1
  70
0
  40
0.005
  41
0.005
  0
VERTEX
  8
Element
  10
1.2741
  20
1.7
  42
1
  0
VERTEX
  8
Element
  10
1.2791
  20
1.7
  42
1
  0
VERTEX
  8
Element
  10
1.2741
  20
1.7
  42
1
  0
SEQEND
  0
POLYLINE
  8
Element
  6
CONTINUOUS
  66
1
  70
0
  40
0.01
  41
0.01
  0
VERTEX
  8
Element
  10
1.4516
  20
1.85
  42
0
  0
VERTEX
  8
Element
  10
1.4266
  20
1.85
  42
0
  0
SEQEND
  0
POLYLINE
  8
Element
  6
CONTINUOUS
  66
1
  70
0
  40
0.005
  41
0.005
  0
VERTEX
  8
Element
  10
1.4491
  20
1.85
  42
1
  0
VERTEX
  8
Element
  10
1.4541
  20
1.85
  42
1
  0
VERTEX
  8
Element
  10
1.4491
  20
1.85
  42
1
  0
SEQEND
  0
POLYLINE
  8
Element
  6
CONTINUOUS
  66
1
  70
0
  40
0.005
  41
0.005
  0
VERTEX
  8
Element
  10
1.4241
  20
1.85
  42
1
  0
VERTEX
  8
Element
  10
1.4291
  20
1.85
  42
1
  0
VERTEX
  8
Element
  10
1.4241
  20
1.85
  42
1
  0
SEQEND
  0
POLYLINE
  8
Element
  6
CONTINUOUS
  66
1
  70
0
  40
0.01
  41
0.01
  0
VERTEX
  8
Element
  10
1.4266
  20
1.85
  42
0
  0
VERTEX
  8
Element
  10
1.4266
  20
2.0
  42
0
  0
SEQEND
  0
POLYLINE
  8
Element
  6
CONTINUOUS
  66
1
  70
0
  40
0.005
  41
0.005
  0
VERTEX
  8
Element
  10
1.4241
  20
1.85
  42
1
  0
VERTEX
  8
Element
  10
1.4291
  20
1.85
  42
1
  0
VERTEX
  8
Element
  10
1.4241
  20
1.85
  42
1
  0
SEQEND
  0
POLYLINE
  8
Element
  6
CONTINUOUS
  66
1
  70
0
  40
0.005
  41
0.005
  0
VERTEX
  8
Element
  10
1.4241
  20
2.0
  42
1
  0
VERTEX
  8
Element
  10
1.4291
  20
2.0
  42
1
  0
VERTEX
  8
Element
  10
1.4241
  20
2.0
  42
1
  0
SEQEND
  0
POLYLINE
  8
Element
  6
CONTINUOUS
  66
1
  70
0
  40
0.01
  41
0.01
  0
VERTEX
  8
Element
  10
1.2766
  20
1.925
  42
0
  0
VERTEX
  8
Element
  10
1.4266
  20
1.775
  42
0
  0
SEQEND
  0
POLYLINE
  8
Element
  6
CONTINUOUS
  66
1
  70
0
  40
0.005
  41
0.005
  0
VERTEX
  8
Element
  10
1.2741
  20
1.925
  42
1
  0
VERTEX
  8
Element
  10
1.2791
  20
1.925
  42
1
  0
VERTEX
  8
Element
  10
1.2741
  20
1.925
  42
1
  0
SEQEND
  0
POLYLINE
  8
Element
  6
CONTINUOUS
  66
1
  70
0
  40
0.005
  41
0.005
  0
VERTEX
  8
Element
  10
1.4241
  20
1.775
  42
1
  0
VERTEX
  8
Element
  10
1.4291
  20
1.775
  42
1
  0
VERTEX
  8
Element
  10
1.4241
  20
1.775
  42
1
  0
SEQEND
  0
POLYLINE
  8
Element
  6
CONTINUOUS
  66
1
  70
0
  40
0.01
  41
0.01
  0
VERTEX
  8
Element
  10
1.2766
  20
1.925
  42
0
  0
VERTEX
  8
Element
  10
1.2766
  20
1.85
  42
0
  0
SEQEND
  0
POLYLINE
  8
Element
  6
CONTINUOUS
  66
1
  70
0
  40
0.005
  41
0.005
  0
VERTEX
  8
Element
  10
1.2741
  20
1.925
  42
1
  0
VERTEX
  8
Element
  10
1.2791
  20
1.925
  42
1
  0
VERTEX
  8
Element
  10
1.2741
  20
1.925
  42
1
  0
SEQEND
  0
POLYLINE
  8
Element
  6
CONTINUOUS
  66
1
  70
0
  40
0.005
  41
0.005
  0
VERTEX
  8
Element
  10
1.2741
  20
1.85
  42
1
  0
VERTEX
  8
Element
  10
1.2791
  20
1.85
  42
1
  0
VERTEX
  8
Element
  10
1.2741
  20
1.85
  42
1
  0
SEQEND
  0
POLYLINE
  8
Element
  6
CONTINUOUS
  66
1
  70
0
  40
0.01
  41
0.01
  0
VERTEX
  8
Element
  10
1.4266
  20
1.775
  42
0
  0
VERTEX
  8
Element
  10
1.4266
  20
1.85
  42
0
  0
SEQEND
  0
POLYLINE
  8
Element
  6
CONTINUOUS
  66
1
  70
0
  40
0.005
  41
0.005
  0
VERTEX
  8
Element
  10
1.4241
  20
1.775
  42
1
  0
VERTEX
  8
Element
  10
1.4291
  20
1.775
  42
1
  0
VERTEX
  8
Element
  10
1.4241
  20
1.775
  42
1
  0
SEQEND
  0
POLYLINE
  8
Element
  6
CONTINUOUS
  66
1
  70
0
  40
0.005
  41
0.005
  0
VERTEX
  8
Element
  10
1.4241
  20
1.85
  42
1
  0
VERTEX
  8
Element
  10
1.4291
  20
1.85
  42
1
  0
VERTEX
  8
Element
  10
1.4241
  20
1.85
  42
1
  0
SEQEND
  0
POLYLINE
  8
Element
  6
CONTINUOUS
  66
1
  70
0
  40
0.0098
  41
0.0098
  0
VERTEX
  8
Element
  10
1.3031
  20
1.35
  42
0
  0
VERTEX
  8
Element
  10
1.2531
  20
1.35
  42
0
  0
SEQEND
  0
POLYLINE
  8
Element
  6
CONTINUOUS
  66
1
  70
0
  40
0.0049
  41
0.0049
  0
VERTEX
  8
Element
  10
1.3007
  20
1.35
  42
1
  0
VERTEX
  8
Element
  10
1.3056
  20
1.35
  42
1
  0
VERTEX
  8
Element
  10
1.3007
  20
1.35
  42
1
  0
SEQEND
  0
POLYLINE
  8
Element
  6
CONTINUOUS
  66
1
  70
0
  40
0.0049
  41
0.0049
  0
VERTEX
  8
Element
  10
1.2507
  20
1.35
  42
1
  0
VERTEX
  8
Element
  10
1.2556
  20
1.35
  42
1
  0
VERTEX
  8
Element
  10
1.2507
  20
1.35
  42
1
  0
SEQEND
  0
POLYLINE
  8
Element
  6
CONTINUOUS
  66
1
  70
0
  40
0.0098
  41
0.0098
  0
VERTEX
  8
Element
  10
1.4031
  20
1.35
  42
0
  0
VERTEX
  8
Element
  10
1.4531
  20
1.35
  42
0
  0
SEQEND
  0
POLYLINE
  8
Element
  6
CONTINUOUS
  66
1
  70
0
  40
0.0049
  41
0.0049
  0
VERTEX
  8
Element
  10
1.4007
  20
1.35
  42
1
  0
VERTEX
  8
Element
  10
1.4056
  20
1.35
  42
1
  0
VERTEX
  8
Element
  10
1.4007
  20
1.35
  42
1
  0
SEQEND
  0
POLYLINE
  8
Element
  6
CONTINUOUS
  66
1
  70
0
  40
0.0049
  41
0.0049
  0
VERTEX
  8
Element
  10
1.4507
  20
1.35
  42
1
  0
VERTEX
  8
Element
  10
1.4556
  20
1.35
  42
1
  0
VERTEX
  8
Element
  10
1.4507
  20
1.35
  42
1
  0
SEQEND
  0
POLYLINE
  8
Element
  6
CONTINUOUS
  66
1
  70
0
  40
0.01
  41
0.01
  0
VERTEX
  8
Element
  10
1.3531
  20
1.1883
  42
0
  0
VERTEX
  8
Element
  10
1.4031
  20
1.375
  42
0
  0
SEQEND
  0
POLYLINE
  8
Element
  6
CONTINUOUS
  66
1
  70
0
  40
0.005
  41
0.005
  0
VERTEX
  8
Element
  10
1.3506
  20
1.1883
  42
1
  0
VERTEX
  8
Element
  10
1.3556
  20
1.1883
  42
1
  0
VERTEX
  8
Element
  10
1.3506
  20
1.1883
  42
1
  0
SEQEND
  0
POLYLINE
  8
Element
  6
CONTINUOUS
  66
1
  70
0
  40
0.005
  41
0.005
  0
VERTEX
  8
Element
  10
1.4006
  20
1.375
  42
1
  0
VERTEX
  8
Element
  10
1.4056
  20
1.375
  42
1
  0
VERTEX
  8
Element
  10
1.4006
  20
1.375
  42
1
  0
SEQEND
  0
POLYLINE
  8
Element
  6
CONTINUOUS
  66
1
  70
0
  40
0.016
  41
0.016
  0
VERTEX
  8
Element
  10
1.3481
  20
1.1883
  42
0
  0
VERTEX
  8
Element
  10
1.3484
  20
1.1867
  42
0
  0
VERTEX
  8
Element
  10
1.3491
  20
1.1853
  42
0
  0
VERTEX
  8
Element
  10
1.3502
  20
1.1842
  42
0
  0
VERTEX
  8
Element
  10
1.3516
  20
1.1835
  42
0
  0
VERTEX
  8
Element
  10
1.3531
  20
1.1833
  42
0
  0
VERTEX
  8
Element
  10
1.3547
  20
1.1835
  42
0
  0
VERTEX
  8
Element
  10
1.3561
  20
1.1842
  42
0
  0
VERTEX
  8
Element
  10
1.3572
  20
1.1853
  42
0
  0
VERTEX
  8
Element
  10
1.3579
  20
1.1867
  42
0
  0
VERTEX
  8
Element
  10
1.3581
  20
1.1883
  42
0
  0
VERTEX
  8
Element
  10
1.3579
  20
1.1898
  42
0
  0
VERTEX
  8
Element
  10
1.3572
  20
1.1912
  42
0
  0
VERTEX
  8
Element
  10
1.3561
  20
1.1923
  42
0
  0
VERTEX
  8
Element
  10
1.3547
  20
1.193
  42
0
  0
VERTEX
  8
Element
  10
1.3531
  20
1.1933
  42
0
  0
VERTEX
  8
Element
  10
1.3516
  20
1.193
  42
0
  0
VERTEX
  8
Element
  10
1.3502
  20
1.1923
  42
0
  0
VERTEX
  8
Element
  10
1.3491
  20
1.1912
  42
0
  0
VERTEX
  8
Element
  10
1.3484
  20
1.1898
  42
0
  0
VERTEX
  8
Element
  10
1.3481
  20
1.1883
  42
0
  0
SEQEND
  0
POLYLINE
  8
Element
  6
CONTINUOUS
  66
1
  70
0
  40
0.008
  41
0.008
  0
VERTEX
  8
Element
  10
1.3441
  20
1.1883
  42
1
  0
VERTEX
  8
Element
  10
1.3521
  20
1.1883
  42
1
  0
VERTEX
  8
Element
  10
1.3441
  20
1.1883
  42
1
  0
SEQEND
  0
POLYLINE
  8
Element
  6
CONTINUOUS
  66
1
  70
0
  40
0.01
  41
0.01
  0
VERTEX
  8
Element
  10
1.3531
  20
1.1883
  42
0
  0
VERTEX
  8
Element
  10
1.3531
  20
1.1383
  42
0
  0
SEQEND
  0
POLYLINE
  8
Element
  6
CONTINUOUS
  66
1
  70
0
  40
0.005
  41
0.005
  0
VERTEX
  8
Element
  10
1.3506
  20
1.1883
  42
1
  0
VERTEX
  8
Element
  10
1.3556
  20
1.1883
  42
1
  0
VERTEX
  8
Element
  10
1.3506
  20
1.1883
  42
1
  0
SEQEND
  0
POLYLINE
  8
Element
  6
CONTINUOUS
  66
1
  70
0
  40
0.005
  41
0.005
  0
VERTEX
  8
Element
  10
1.3506
  20
1.1383
  42
1
  0
VERTEX
  8
Element
  10
1.3556
  20
1.1383
  42
1
  0
VERTEX
  8
Element
  10
1.3506
  20
1.1383
  42
1
  0
SEQEND
  0
POLYLINE
  8
Element
  6
CONTINUOUS
  66
1
  70
0
  40
0.0098
  41
0.0098
  0
VERTEX
  8
Element
  10
1.4031
  20
0.65
  42
0
  0
VERTEX
  8
Element
  10
1.4531
  20
0.65
  42
0
  0
SEQEND
  0
POLYLINE
  8
Element
  6
CONTINUOUS
  66
1
  70
0
  40
0.0049
  41
0.0049
  0
VERTEX
  8
Element
  10
1.4007
  20
0.65
  42
1
  0
VERTEX
  8
Element
  10
1.4056
  20
0.65
  42
1
  0
VERTEX
  8
Element
  10
1.4007
  20
0.65
  42
1
  0
SEQEND
  0
POLYLINE
  8
Element
  6
CONTINUOUS
  66
1
  70
0
  40
0.0049
  41
0.0049
  0
VERTEX
  8
Element
  10
1.4507
  20
0.65
  42
1
  0
VERTEX
  8
Element
  10
1.4556
  20
0.65
  42
1
  0
VERTEX
  8
Element
  10
1.4507
  20
0.65
  42
1
  0
SEQEND
  0
POLYLINE
  8
Element
  6
CONTINUOUS
  66
1
  70
0
  40
0.0098
  41
0.0098
  0
VERTEX
  8
Element
  10
1.3031
  20
0.65
  42
0
  0
VERTEX
  8
Element
  10
1.2531
  20
0.65
  42
0
  0
SEQEND
  0
POLYLINE
  8
Element
  6
CONTINUOUS
  66
1
  70
0
  40
0.0049
  41
0.0049
  0
VERTEX
  8
Element
  10
1.3007
  20
0.65
  42
1
  0
VERTEX
  8
Element
  10
1.3056
  20
0.65
  42
1
  0
VERTEX
  8
Element
  10
1.3007
  20
0.65
  42
1
  0
SEQEND
  0
POLYLINE
  8
Element
  6
CONTINUOUS
  66
1
  70
0
  40
0.0049
  41
0.0049
  0
VERTEX
  8
Element
  10
1.2507
  20
0.65
  42
1
  0
VERTEX
  8
Element
  10
1.2556
  20
0.65
  42
1
  0
VERTEX
  8
Element
  10
1.2507
  20
0.65
  42
1
  0
SEQEND
  0
POLYLINE
  8
Element
  6
CONTINUOUS
  66
1
  70
0
  40
0.01
  41
0.01
  0
VERTEX
  8
Element
  10
1.3531
  20
0.4883
  42
0
  0
VERTEX
  8
Element
  10
1.4031
  20
0.675
  42
0
  0
SEQEND
  0
POLYLINE
  8
Element
  6
CONTINUOUS
  66
1
  70
0
  40
0.005
  41
0.005
  0
VERTEX
  8
Element
  10
1.3506
  20
0.4883
  42
1
  0
VERTEX
  8
Element
  10
1.3556
  20
0.4883
  42
1
  0
VERTEX
  8
Element
  10
1.3506
  20
0.4883
  42
1
  0
SEQEND
  0
POLYLINE
  8
Element
  6
CONTINUOUS
  66
1
  70
0
  40
0.005
  41
0.005
  0
VERTEX
  8
Element
  10
1.4006
  20
0.675
  42
1
  0
VERTEX
  8
Element
  10
1.4056
  20
0.675
  42
1
  0
VERTEX
  8
Element
  10
1.4006
  20
0.675
  42
1
  0
SEQEND
  0
POLYLINE
  8
Element
  6
CONTINUOUS
  66
1
  70
0
  40
0.016
  41
0.016
  0
VERTEX
  8
Element
  10
1.3481
  20
0.4883
  42
0
  0
VERTEX
  8
Element
  10
1.3484
  20
0.4867
  42
0
  0
VERTEX
  8
Element
  10
1.3491
  20
0.4853
  42
0
  0
VERTEX
  8
Element
  10
1.3502
  20
0.4842
  42
0
  0
VERTEX
  8
Element
  10
1.3516
  20
0.4835
  42
0
  0
VERTEX
  8
Element
  10
1.3531
  20
0.4833
  42
0
  0
VERTEX
  8
Element
  10
1.3547
  20
0.4835
  42
0
  0
VERTEX
  8
Element
  10
1.3561
  20
0.4842
  42
0
  0
VERTEX
  8
Element
  10
1.3572
  20
0.4853
  42
0
  0
VERTEX
  8
Element
  10
1.3579
  20
0.4867
  42
0
  0
VERTEX
  8
Element
  10
1.3581
  20
0.4883
  42
0
  0
VERTEX
  8
Element
  10
1.3579
  20
0.4898
  42
0
  0
VERTEX
  8
Element
  10
1.3572
  20
0.4912
  42
0
  0
VERTEX
  8
Element
  10
1.3561
  20
0.4923
  42
0
  0
VERTEX
  8
Element
  10
1.3547
  20
0.493
  42
0
  0
VERTEX
  8
Element
  10
1.3531
  20
0.4933
  42
0
  0
VERTEX
  8
Element
  10
1.3516
  20
0.493
  42
0
  0
VERTEX
  8
Element
  10
1.3502
  20
0.4923
  42
0
  0
VERTEX
  8
Element
  10
1.3491
  20
0.4912
  42
0
  0
VERTEX
  8
Element
  10
1.3484
  20
0.4898
  42
0
  0
VERTEX
  8
Element
  10
1.3481
  20
0.4883
  42
0
  0
SEQEND
  0
POLYLINE
  8
Element
  6
CONTINUOUS
  66
1
  70
0
  40
0.008
  41
0.008
  0
VERTEX
  8
Element
  10
1.3441
  20
0.4883
  42
1
  0
VERTEX
  8
Element
  10
1.3521
  20
0.4883
  42
1
  0
VERTEX
  8
Element
  10
1.3441
  20
0.4883
  42
1
  0
SEQEND
  0
POLYLINE
  8
Element
  6
CONTINUOUS
  66
1
  70
0
  40
0.01
  41
0.01
  0
VERTEX
  8
Element
  10
1.3531
  20
0.4883
  42
0
  0
VERTEX
  8
Element
  10
1.3531
  20
0.4383
  42
0
  0
SEQEND
  0
POLYLINE
  8
Element
  6
CONTINUOUS
  66
1
  70
0
  40
0.005
  41
0.005
  0
VERTEX
  8
Element
  10
1.3506
  20
0.4883
  42
1
  0
VERTEX
  8
Element
  10
1.3556
  20
0.4883
  42
1
  0
VERTEX
  8
Element
  10
1.3506
  20
0.4883
  42
1
  0
SEQEND
  0
POLYLINE
  8
Element
  6
CONTINUOUS
  66
1
  70
0
  40
0.005
  41
0.005
  0
VERTEX
  8
Element
  10
1.3506
  20
0.4383
  42
1
  0
VERTEX
  8
Element
  10
1.3556
  20
0.4383
  42
1
  0
VERTEX
  8
Element
  10
1.3506
  20
0.4383
  42
1
  0
SEQEND
  0
POLYLINE
  8
Element
  6
CONTINUOUS
  66
1
  70
0
  40
0.01
  41
0.01
  0
VERTEX
  8
Element
  10
4.0266
  20
2.25
  42
0
  0
VERTEX
  8
Element
  10
4.0266
  20
2.175
  42
0
  0
SEQEND
  0
POLYLINE
  8
Element
  6
CONTINUOUS
  66
1
  70
0
  40
0.005
  41
0.005
  0
VERTEX
  8
Element
  10
4.0241
  20
2.25
  42
1
  0
VERTEX
  8
Element
  10
4.0291
  20
2.25
  42
1
  0
VERTEX
  8
Element
  10
4.0241
  20
2.25
  42
1
  0
SEQEND
  0
POLYLINE
  8
Element
  6
CONTINUOUS
  66
1
  70
0
  40
0.005
  41
0.005
  0
VERTEX
  8
Element
  10
4.0241
  20
2.175
  42
1
  0
VERTEX
  8
Element
  10
4.0291
  20
2.175
  42
1
  0
VERTEX
  8
Element
  10
4.0241
  20
2.175
  42
1
  0
SEQEND
  0
POLYLINE
  8
Element
  6
CONTINUOUS
  66
1
  70
0
  40
0.01
  41
0.01
  0
VERTEX
  8
Element
  10
4.0266
  20
1.95
  42
0
  0
VERTEX
  8
Element
  10
4.1766
  20
1.95
  42
0
  0
SEQEND
  0
POLYLINE
  8
Element
  6
CONTINUOUS
  66
1
  70
0
  40
0.005
  41
0.005
  0
VERTEX
  8
Element
  10
4.0241
  20
1.95
  42
1
  0
VERTEX
  8
Element
  10
4.0291
  20
1.95
  42
1
  0
VERTEX
  8
Element
  10
4.0241
  20
1.95
  42
1
  0
SEQEND
  0
POLYLINE
  8
Element
  6
CONTINUOUS
  66
1
  70
0
  40
0.005
  41
0.005
  0
VERTEX
  8
Element
  10
4.1741
  20
1.95
  42
1
  0
VERTEX
  8
Element
  10
4.1791
  20
1.95
  42
1
  0
VERTEX
  8
Element
  10
4.1741
  20
1.95
  42
1
  0
SEQEND
  0
POLYLINE
  8
Element
  6
CONTINUOUS
  66
1
  70
0
  40
0.01
  41
0.01
  0
VERTEX
  8
Element
  10
4.1766
  20
1.95
  42
0
  0
VERTEX
  8
Element
  10
4.1766
  20
2.025
  42
0
  0
SEQEND
  0
POLYLINE
  8
Element
  6
CONTINUOUS
  66
1
  70
0
  40
0.005
  41
0.005
  0
VERTEX
  8
Element
  10
4.1741
  20
1.95
  42
1
  0
VERTEX
  8
Element
  10
4.1791
  20
1.95
  42
1
  0
VERTEX
  8
Element
  10
4.1741
  20
1.95
  42
1
  0
SEQEND
  0
POLYLINE
  8
Element
  6
CONTINUOUS
  66
1
  70
0
  40
0.005
  41
0.005
  0
VERTEX
  8
Element
  10
4.1741
  20
2.025
  42
1
  0
VERTEX
  8
Element
  10
4.1791
  20
2.025
  42
1
  0
VERTEX
  8
Element
  10
4.1741
  20
2.025
  42
1
  0
SEQEND
  0
POLYLINE
  8
Element
  6
CONTINUOUS
  66
1
  70
0
  40
0.01
  41
0.01
  0
VERTEX
  8
Element
  10
4.1766
  20
2.25
  42
0
  0
VERTEX
  8
Element
  10
4.0266
  20
2.25
  42
0
  0
SEQEND
  0
POLYLINE
  8
Element
  6
CONTINUOUS
  66
1
  70
0
  40
0.005
  41
0.005
  0
VERTEX
  8
Element
  10
4.1741
  20
2.25
  42
1
  0
VERTEX
  8
Element
  10
4.1791
  20
2.25
  42
1
  0
VERTEX
  8
Element
  10
4.1741
  20
2.25
  42
1
  0
SEQEND
  0
POLYLINE
  8
Element
  6
CONTINUOUS
  66
1
  70
0
  40
0.005
  41
0.005
  0
VERTEX
  8
Element
  10
4.0241
  20
2.25
  42
1
  0
VERTEX
  8
Element
  10
4.0291
  20
2.25
  42
1
  0
VERTEX
  8
Element
  10
4.0241
  20
2.25
  42
1
  0
SEQEND
  0
POLYLINE
  8
Element
  6
CONTINUOUS
  66
1
  70
0
  40
0.01
  41
0.01
  0
VERTEX
  8
Element
  10
4.0016
  20
2.1
  42
0
  0
VERTEX
  8
Element
  10
4.0266
  20
2.1
  42
0
  0
SEQEND
  0
POLYLINE
  8
Element
  6
CONTINUOUS
  66
1
  70
0
  40
0.005
  41
0.005
  0
VERTEX
  8
Element
  10
3.9991
  20
2.1
  42
1
  0
VERTEX
  8
Element
  10
4.0041
  20
2.1
  42
1
  0
VERTEX
  8
Element
  10
3.9991
  20
2.1
  42
1
  0
SEQEND
  0
POLYLINE
  8
Element
  6
CONTINUOUS
  66
1
  70
0
  40
0.005
  41
0.005
  0
VERTEX
  8
Element
  10
4.0241
  20
2.1
  42
1
  0
VERTEX
  8
Element
  10
4.0291
  20
2.1
  42
1
  0
VERTEX
  8
Element
  10
4.0241
  20
2.1
  42
1
  0
SEQEND
  0
POLYLINE
  8
Element
  6
CONTINUOUS
  66
1
  70
0
  40
0.01
  41
0.01
  0
VERTEX
  8
Element
  10
4.0266
  20
2.1
  42
0
  0
VERTEX
  8
Element
  10
4.0266
  20
1.95
  42
0
  0
SEQEND
  0
POLYLINE
  8
Element
  6
CONTINUOUS
  66
1
  70
0
  40
0.005
  41
0.005
  0
VERTEX
  8
Element
  10
4.0241
  20
2.1
  42
1
  0
VERTEX
  8
Element
  10
4.0291
  20
2.1
  42
1
  0
VERTEX
  8
Element
  10
4.0241
  20
2.1
  42
1
  0
SEQEND
  0
POLYLINE
  8
Element
  6
CONTINUOUS
  66
1
  70
0
  40
0.005
  41
0.005
  0
VERTEX
  8
Element
  10
4.0241
  20
1.95
  42
1
  0
VERTEX
  8
Element
  10
4.0291
  20
1.95
  42
1
  0
VERTEX
  8
Element
  10
4.0241
  20
1.95
  42
1
  0
SEQEND
  0
POLYLINE
  8
Element
  6
CONTINUOUS
  66
1
  70
0
  40
0.01
  41
0.01
  0
VERTEX
  8
Element
  10
4.2016
  20
2.1
  42
0
  0
VERTEX
  8
Element
  10
4.1766
  20
2.1
  42
0
  0
SEQEND
  0
POLYLINE
  8
Element
  6
CONTINUOUS
  66
1
  70
0
  40
0.005
  41
0.005
  0
VERTEX
  8
Element
  10
4.1991
  20
2.1
  42
1
  0
VERTEX
  8
Element
  10
4.2041
  20
2.1
  42
1
  0
VERTEX
  8
Element
  10
4.1991
  20
2.1
  42
1
  0
SEQEND
  0
POLYLINE
  8
Element
  6
CONTINUOUS
  66
1
  70
0
  40
0.005
  41
0.005
  0
VERTEX
  8
Element
  10
4.1741
  20
2.1
  42
1
  0
VERTEX
  8
Element
  10
4.1791
  20
2.1
  42
1
  0
VERTEX
  8
Element
  10
4.1741
  20
2.1
  42
1
  0
SEQEND
  0
POLYLINE
  8
Element
  6
CONTINUOUS
  66
1
  70
0
  40
0.01
  41
0.01
  0
VERTEX
  8
Element
  10
4.1766
  20
2.1
  42
0
  0
VERTEX
  8
Element
  10
4.1766
  20
2.25
  42
0
  0
SEQEND
  0
POLYLINE
  8
Element
  6
CONTINUOUS
  66
1
  70
0
  40
0.005
  41
0.005
  0
VERTEX
  8
Element
  10
4.1741
  20
2.1
  42
1
  0
VERTEX
  8
Element
  10
4.1791
  20
2.1
  42
1
  0
VERTEX
  8
Element
  10
4.1741
  20
2.1
  42
1
  0
SEQEND
  0
POLYLINE
  8
Element
  6
CONTINUOUS
  66
1
  70
0
  40
0.005
  41
0.005
  0
VERTEX
  8
Element
  10
4.1741
  20
2.25
  42
1
  0
VERTEX
  8
Element
  10
4.1791
  20
2.25
  42
1
  0
VERTEX
  8
Element
  10
4.1741
  20
2.25
  42
1
  0
SEQEND
  0
POLYLINE
  8
Element
  6
CONTINUOUS
  66
1
  70
0
  40
0.01
  41
0.01
  0
VERTEX
  8
Element
  10
4.0266
  20
2.175
  42
0
  0
VERTEX
  8
Element
  10
4.1766
  20
2.025
  42
0
  0
SEQEND
  0
POLYLINE
  8
Element
  6
CONTINUOUS
  66
1
  70
0
  40
0.005
  41
0.005
  0
VERTEX
  8
Element
  10
4.0241
  20
2.175
  42
1
  0
VERTEX
  8
Element
  10
4.0291
  20
2.175
  42
1
  0
VERTEX
  8
Element
  10
4.0241
  20
2.175
  42
1
  0
SEQEND
  0
POLYLINE
  8
Element
  6
CONTINUOUS
  66
1
  70
0
  40
0.005
  41
0.005
  0
VERTEX
  8
Element
  10
4.1741
  20
2.025
  42
1
  0
VERTEX
  8
Element
  10
4.1791
  20
2.025
  42
1
  0
VERTEX
  8
Element
  10
4.1741
  20
2.025
  42
1
  0
SEQEND
  0
POLYLINE
  8
Element
  6
CONTINUOUS
  66
1
  70
0
  40
0.01
  41
0.01
  0
VERTEX
  8
Element
  10
4.0266
  20
2.175
  42
0
  0
VERTEX
  8
Element
  10
4.0266
  20
2.1
  42
0
  0
SEQEND
  0
POLYLINE
  8
Element
  6
CONTINUOUS
  66
1
  70
0
  40
0.005
  41
0.005
  0
VERTEX
  8
Element
  10
4.0241
  20
2.175
  42
1
  0
VERTEX
  8
Element
  10
4.0291
  20
2.175
  42
1
  0
VERTEX
  8
Element
  10
4.0241
  20
2.175
  42
1
  0
SEQEND
  0
POLYLINE
  8
Element
  6
CONTINUOUS
  66
1
  70
0
  40
0.005
  41
0.005
  0
VERTEX
  8
Element
  10
4.0241
  20
2.1
  42
1
  0
VERTEX
  8
Element
  10
4.0291
  20
2.1
  42
1
  0
VERTEX
  8
Element
  10
4.0241
  20
2.1
  42
1
  0
SEQEND
  0
POLYLINE
  8
Element
  6
CONTINUOUS
  66
1
  70
0
  40
0.01
  41
0.01
  0
VERTEX
  8
Element
  10
4.1766
  20
2.025
  42
0
  0
VERTEX
  8
Element
  10
4.1766
  20
2.1
  42
0
  0
SEQEND
  0
POLYLINE
  8
Element
  6
CONTINUOUS
  66
1
  70
0
  40
0.005
  41
0.005
  0
VERTEX
  8
Element
  10
4.1741
  20
2.025
  42
1
  0
VERTEX
  8
Element
  10
4.1791
  20
2.025
  42
1
  0
VERTEX
  8
Element
  10
4.1741
  20
2.025
  42
1
  0
SEQEND
  0
POLYLINE
  8
Element
  6
CONTINUOUS
  66
1
  70
0
  40
0.005
  41
0.005
  0
VERTEX
  8
Element
  10
4.1741
  20
2.1
  42
1
  0
VERTEX
  8
Element
  10
4.1791
  20
2.1
  42
1
  0
VERTEX
  8
Element
  10
4.1741
  20
2.1
  42
1
  0
SEQEND
  0
POLYLINE
  8
Element
  6
CONTINUOUS
  66
1
  70
0
  40
0.0098
  41
0.0098
  0
VERTEX
  8
Element
  10
4.1
  20
1.6
  42
0
  0
VERTEX
  8
Element
  10
4.05
  20
1.6
  42
0
  0
SEQEND
  0
POLYLINE
  8
Element
  6
CONTINUOUS
  66
1
  70
0
  40
0.0049
  41
0.0049
  0
VERTEX
  8
Element
  10
4.0975
  20
1.6
  42
1
  0
VERTEX
  8
Element
  10
4.1025
  20
1.6
  42
1
  0
VERTEX
  8
Element
  10
4.0975
  20
1.6
  42
1
  0
SEQEND
  0
POLYLINE
  8
Element
  6
CONTINUOUS
  66
1
  70
0
  40
0.0049
  41
0.0049
  0
VERTEX
  8
Element
  10
4.0475
  20
1.6
  42
1
  0
VERTEX
  8
Element
  10
4.0525
  20
1.6
  42
1
  0
VERTEX
  8
Element
  10
4.0475
  20
1.6
  42
1
  0
SEQEND
  0
POLYLINE
  8
Element
  6
CONTINUOUS
  66
1
  70
0
  40
0.0098
  41
0.0098
  0
VERTEX
  8
Element
  10
4.2
  20
1.6
  42
0
  0
VERTEX
  8
Element
  10
4.25
  20
1.6
  42
0
  0
SEQEND
  0
POLYLINE
  8
Element
  6
CONTINUOUS
  66
1
  70
0
  40
0.0049
  41
0.0049
  0
VERTEX
  8
Element
  10
4.1975
  20
1.6
  42
1
  0
VERTEX
  8
Element
  10
4.2025
  20
1.6
  42
1
  0
VERTEX
  8
Element
  10
4.1975
  20
1.6
  42
1
  0
SEQEND
  0
POLYLINE
  8
Element
  6
CONTINUOUS
  66
1
  70
0
  40
0.0049
  41
0.0049
  0
VERTEX
  8
Element
  10
4.2475
  20
1.6
  42
1
  0
VERTEX
  8
Element
  10
4.2525
  20
1.6
  42
1
  0
VERTEX
  8
Element
  10
4.2475
  20
1.6
  42
1
  0
SEQEND
  0
POLYLINE
  8
Element
  6
CONTINUOUS
  66
1
  70
0
  40
0.01
  41
0.01
  0
VERTEX
  8
Element
  10
4.15
  20
1.4383
  42
0
  0
VERTEX
  8
Element
  10
4.2
  20
1.625
  42
0
  0
SEQEND
  0
POLYLINE
  8
Element
  6
CONTINUOUS
  66
1
  70
0
  40
0.005
  41
0.005
  0
VERTEX
  8
Element
  10
4.1475
  20
1.4383
  42
1
  0
VERTEX
  8
Element
  10
4.1525
  20
1.4383
  42
1
  0
VERTEX
  8
Element
  10
4.1475
  20
1.4383
  42
1
  0
SEQEND
  0
POLYLINE
  8
Element
  6
CONTINUOUS
  66
1
  70
0
  40
0.005
  41
0.005
  0
VERTEX
  8
Element
  10
4.1975
  20
1.625
  42
1
  0
VERTEX
  8
Element
  10
4.2025
  20
1.625
  42
1
  0
VERTEX
  8
Element
  10
4.1975
  20
1.625
  42
1
  0
SEQEND
  0
POLYLINE
  8
Element
  6
CONTINUOUS
  66
1
  70
0
  40
0.016
  41
0.016
  0
VERTEX
  8
Element
  10
4.145
  20
1.4383
  42
0
  0
VERTEX
  8
Element
  10
4.1452
  20
1.4367
  42
0
  0
VERTEX
  8
Element
  10
4.146
  20
1.4353
  42
0
  0
VERTEX
  8
Element
  10
4.1471
  20
1.4342
  42
0
  0
VERTEX
  8
Element
  10
4.1485
  20
1.4335
  42
0
  0
VERTEX
  8
Element
  10
4.15
  20
1.4333
  42
0
  0
VERTEX
  8
Element
  10
4.1515
  20
1.4335
  42
0
  0
VERTEX
  8
Element
  10
4.1529
  20
1.4342
  42
0
  0
VERTEX
  8
Element
  10
4.154
  20
1.4353
  42
0
  0
VERTEX
  8
Element
  10
4.1548
  20
1.4367
  42
0
  0
VERTEX
  8
Element
  10
4.155
  20
1.4383
  42
0
  0
VERTEX
  8
Element
  10
4.1548
  20
1.4398
  42
0
  0
VERTEX
  8
Element
  10
4.154
  20
1.4412
  42
0
  0
VERTEX
  8
Element
  10
4.1529
  20
1.4423
  42
0
  0
VERTEX
  8
Element
  10
4.1515
  20
1.443
  42
0
  0
VERTEX
  8
Element
  10
4.15
  20
1.4433
  42
0
  0
VERTEX
  8
Element
  10
4.1485
  20
1.443
  42
0
  0
VERTEX
  8
Element
  10
4.1471
  20
1.4423
  42
0
  0
VERTEX
  8
Element
  10
4.146
  20
1.4412
  42
0
  0
VERTEX
  8
Element
  10
4.1452
  20
1.4398
  42
0
  0
VERTEX
  8
Element
  10
4.145
  20
1.4383
  42
0
  0
SEQEND
  0
POLYLINE
  8
Element
  6
CONTINUOUS
  66
1
  70
0
  40
0.008
  41
0.008
  0
VERTEX
  8
Element
  10
4.141
  20
1.4383
  42
1
  0
VERTEX
  8
Element
  10
4.149
  20
1.4383
  42
1
  0
VERTEX
  8
Element
  10
4.141
  20
1.4383
  42
1
  0
SEQEND
  0
POLYLINE
  8
Element
  6
CONTINUOUS
  66
1
  70
0
  40
0.01
  41
0.01
  0
VERTEX
  8
Element
  10
4.15
  20
1.4383
  42
0
  0
VERTEX
  8
Element
  10
4.15
  20
1.3883
  42
0
  0
SEQEND
  0
POLYLINE
  8
Element
  6
CONTINUOUS
  66
1
  70
0
  40
0.005
  41
0.005
  0
VERTEX
  8
Element
  10
4.1475
  20
1.4383
  42
1
  0
VERTEX
  8
Element
  10
4.1525
  20
1.4383
  42
1
  0
VERTEX
  8
Element
  10
4.1475
  20
1.4383
  42
1
  0
SEQEND
  0
POLYLINE
  8
Element
  6
CONTINUOUS
  66
1
  70
0
  40
0.005
  41
0.005
  0
VERTEX
  8
Element
  10
4.1475
  20
1.3883
  42
1
  0
VERTEX
  8
Element
  10
4.1525
  20
1.3883
  42
1
  0
VERTEX
  8
Element
  10
4.1475
  20
1.3883
  42
1
  0
SEQEND
  0
POLYLINE
  8
Element
  6
CONTINUOUS
  66
1
  70
0
  40
0.0098
  41
0.0098
  0
VERTEX
  8
Element
  10
4.2
  20
0.95
  42
0
  0
VERTEX
  8
Element
  10
4.25
  20
0.95
  42
0
  0
SEQEND
  0
POLYLINE
  8
Element
  6
CONTINUOUS
  66
1
  70
0
  40
0.0049
  41
0.0049
  0
VERTEX
  8
Element
  10
4.1975
  20
0.95
  42
1
  0
VERTEX
  8
Element
  10
4.2025
  20
0.95
  42
1
  0
VERTEX
  8
Element
  10
4.1975
  20
0.95
  42
1
  0
SEQEND
  0
POLYLINE
  8
Element
  6
CONTINUOUS
  66
1
  70
0
  40
0.0049
  41
0.0049
  0
VERTEX
  8
Element
  10
4.2475
  20
0.95
  42
1
  0
VERTEX
  8
Element
  10
4.2525
  20
0.95
  42
1
  0
VERTEX
  8
Element
  10
4.2475
  20
0.95
  42
1
  0
SEQEND
  0
POLYLINE
  8
Element
  6
CONTINUOUS
  66
1
  70
0
  40
0.0098
  41
0.0098
  0
VERTEX
  8
Element
  10
4.1
  20
0.95
  42
0
  0
VERTEX
  8
Element
  10
4.05
  20
0.95
  42
0
  0
SEQEND
  0
POLYLINE
  8
Element
  6
CONTINUOUS
  66
1
  70
0
  40
0.0049
  41
0.0049
  0
VERTEX
  8
Element
  10
4.0975
  20
0.95
  42
1
  0
VERTEX
  8
Element
  10
4.1025
  20
0.95
  42
1
  0
VERTEX
  8
Element
  10
4.0975
  20
0.95
  42
1
  0
SEQEND
  0
POLYLINE
  8
Element
  6
CONTINUOUS
  66
1
  70
0
  40
0.0049
  41
0.0049
  0
VERTEX
  8
Element
  10
4.0475
  20
0.95
  42
1
  0
VERTEX
  8
Element
  10
4.0525
  20
0.95
  42
1
  0
VERTEX
  8
Element
  10
4.0475
  20
0.95
  42
1
  0
SEQEND
  0
POLYLINE
  8
Element
  6
CONTINUOUS
  66
1
  70
0
  40
0.01
  41
0.01
  0
VERTEX
  8
Element
  10
4.15
  20
0.7883
  42
0
  0
VERTEX
  8
Element
  10
4.2
  20
0.975
  42
0
  0
SEQEND
  0
POLYLINE
  8
Element
  6
CONTINUOUS
  66
1
  70
0
  40
0.005
  41
0.005
  0
VERTEX
  8
Element
  10
4.1475
  20
0.7883
  42
1
  0
VERTEX
  8
Element
  10
4.1525
  20
0.7883
  42
1
  0
VERTEX
  8
Element
  10
4.1475
  20
0.7883
  42
1
  0
SEQEND
  0
POLYLINE
  8
Element
  6
CONTINUOUS
  66
1
  70
0
  40
0.005
  41
0.005
  0
VERTEX
  8
Element
  10
4.1975
  20
0.975
  42
1
  0
VERTEX
  8
Element
  10
4.2025
  20
0.975
  42
1
  0
VERTEX
  8
Element
  10
4.1975
  20
0.975
  42
1
  0
SEQEND
  0
POLYLINE
  8
Element
  6
CONTINUOUS
  66
1
  70
0
  40
0.016
  41
0.016
  0
VERTEX
  8
Element
  10
4.145
  20
0.7883
  42
0
  0
VERTEX
  8
Element
  10
4.1452
  20
0.7867
  42
0
  0
VERTEX
  8
Element
  10
4.146
  20
0.7853
  42
0
  0
VERTEX
  8
Element
  10
4.1471
  20
0.7842
  42
0
  0
VERTEX
  8
Element
  10
4.1485
  20
0.7835
  42
0
  0
VERTEX
  8
Element
  10
4.15
  20
0.7833
  42
0
  0
VERTEX
  8
Element
  10
4.1515
  20
0.7835
  42
0
  0
VERTEX
  8
Element
  10
4.1529
  20
0.7842
  42
0
  0
VERTEX
  8
Element
  10
4.154
  20
0.7853
  42
0
  0
VERTEX
  8
Element
  10
4.1548
  20
0.7867
  42
0
  0
VERTEX
  8
Element
  10
4.155
  20
0.7883
  42
0
  0
VERTEX
  8
Element
  10
4.1548
  20
0.7898
  42
0
  0
VERTEX
  8
Element
  10
4.154
  20
0.7912
  42
0
  0
VERTEX
  8
Element
  10
4.1529
  20
0.7923
  42
0
  0
VERTEX
  8
Element
  10
4.1515
  20
0.793
  42
0
  0
VERTEX
  8
Element
  10
4.15
  20
0.7933
  42
0
  0
VERTEX
  8
Element
  10
4.1485
  20
0.793
  42
0
  0
VERTEX
  8
Element
  10
4.1471
  20
0.7923
  42
0
  0
VERTEX
  8
Element
  10
4.146
  20
0.7912
  42
0
  0
VERTEX
  8
Element
  10
4.1452
  20
0.7898
  42
0
  0
VERTEX
  8
Element
  10
4.145
  20
0.7883
  42
0
  0
SEQEND
  0
POLYLINE
  8
Element
  6
CONTINUOUS
  66
1
  70
0
  40
0.008
  41
0.008
  0
VERTEX
  8
Element
  10
4.141
  20
0.7883
  42
1
  0
VERTEX
  8
Element
  10
4.149
  20
0.7883
  42
1
  0
VERTEX
  8
Element
  10
4.141
  20
0.7883
  42
1
  0
SEQEND
  0
POLYLINE
  8
Element
  6
CONTINUOUS
  66
1
  70
0
  40
0.01
  41
0.01
  0
VERTEX
  8
Element
  10
4.15
  20
0.7883
  42
0
  0
VERTEX
  8
Element
  10
4.15
  20
0.7383
  42
0
  0
SEQEND
  0
POLYLINE
  8
Element
  6
CONTINUOUS
  66
1
  70
0
  40
0.005
  41
0.005
  0
VERTEX
  8
Element
  10
4.1475
  20
0.7883
  42
1
  0
VERTEX
  8
Element
  10
4.1525
  20
0.7883
  42
1
  0
VERTEX
  8
Element
  10
4.1475
  20
0.7883
  42
1
  0
SEQEND
  0
POLYLINE
  8
Element
  6
CONTINUOUS
  66
1
  70
0
  40
0.005
  41
0.005
  0
VERTEX
  8
Element
  10
4.1475
  20
0.7383
  42
1
  0
VERTEX
  8
Element
  10
4.1525
  20
0.7383
  42
1
  0
VERTEX
  8
Element
  10
4.1475
  20
0.7383
  42
1
  0
SEQEND
  0
POLYLINE
  8
Element
  6
CONTINUOUS
  66
1
  70
0
  40
0.0098
  41
0.0098
  0
VERTEX
  8
Element
  10
4.139
  20
2.65
  42
0
  0
VERTEX
  8
Element
  10
4.225
  20
2.6499
  42
0
  0
SEQEND
  0
POLYLINE
  8
Element
  6
CONTINUOUS
  66
1
  70
0
  40
0.0049
  41
0.0049
  0
VERTEX
  8
Element
  10
4.1365
  20
2.65
  42
1
  0
VERTEX
  8
Element
  10
4.1415
  20
2.65
  42
1
  0
VERTEX
  8
Element
  10
4.1365
  20
2.65
  42
1
  0
SEQEND
  0
POLYLINE
  8
Element
  6
CONTINUOUS
  66
1
  70
0
  40
0.0049
  41
0.0049
  0
VERTEX
  8
Element
  10
4.2225
  20
2.6499
  42
1
  0
VERTEX
  8
Element
  10
4.2275
  20
2.6499
  42
1
  0
VERTEX
  8
Element
  10
4.2225
  20
2.6499
  42
1
  0
SEQEND
  0
POLYLINE
  8
Element
  6
CONTINUOUS
  66
1
  70
0
  40
0.0098
  41
0.0098
  0
VERTEX
  8
Element
  10
4.0625
  20
2.5938
  42
0
  0
VERTEX
  8
Element
  10
4.1375
  20
2.6501
  42
0
  0
SEQEND
  0
POLYLINE
  8
Element
  6
CONTINUOUS
  66
1
  70
0
  40
0.0049
  41
0.0049
  0
VERTEX
  8
Element
  10
4.06
  20
2.5938
  42
1
  0
VERTEX
  8
Element
  10
4.065
  20
2.5938
  42
1
  0
VERTEX
  8
Element
  10
4.06
  20
2.5938
  42
1
  0
SEQEND
  0
POLYLINE
  8
Element
  6
CONTINUOUS
  66
1
  70
0
  40
0.0049
  41
0.0049
  0
VERTEX
  8
Element
  10
4.135
  20
2.6501
  42
1
  0
VERTEX
  8
Element
  10
4.14
  20
2.6501
  42
1
  0
VERTEX
  8
Element
  10
4.135
  20
2.6501
  42
1
  0
SEQEND
  0
POLYLINE
  8
Element
  6
CONTINUOUS
  66
1
  70
0
  40
0.0098
  41
0.0098
  0
VERTEX
  8
Element
  10
4.1375
  20
2.7063
  42
0
  0
VERTEX
  8
Element
  10
4.1375
  20
2.5938
  42
0
  0
SEQEND
  0
POLYLINE
  8
Element
  6
CONTINUOUS
  66
1
  70
0
  40
0.0049
  41
0.0049
  0
VERTEX
  8
Element
  10
4.135
  20
2.7063
  42
1
  0
VERTEX
  8
Element
  10
4.14
  20
2.7063
  42
1
  0
VERTEX
  8
Element
  10
4.135
  20
2.7063
  42
1
  0
SEQEND
  0
POLYLINE
  8
Element
  6
CONTINUOUS
  66
1
  70
0
  40
0.0049
  41
0.0049
  0
VERTEX
  8
Element
  10
4.135
  20
2.5938
  42
1
  0
VERTEX
  8
Element
  10
4.14
  20
2.5938
  42
1
  0
VERTEX
  8
Element
  10
4.135
  20
2.5938
  42
1
  0
SEQEND
  0
POLYLINE
  8
Element
  6
CONTINUOUS
  66
1
  70
0
  40
0.0098
  41
0.0098
  0
VERTEX
  8
Element
  10
3.975
  20
2.6501
  42
0
  0
VERTEX
  8
Element
  10
4.062
  20
2.65
  42
0
  0
SEQEND
  0
POLYLINE
  8
Element
  6
CONTINUOUS
  66
1
  70
0
  40
0.0049
  41
0.0049
  0
VERTEX
  8
Element
  10
3.9725
  20
2.6501
  42
1
  0
VERTEX
  8
Element
  10
3.9775
  20
2.6501
  42
1
  0
VERTEX
  8
Element
  10
3.9725
  20
2.6501
  42
1
  0
SEQEND
  0
POLYLINE
  8
Element
  6
CONTINUOUS
  66
1
  70
0
  40
0.0049
  41
0.0049
  0
VERTEX
  8
Element
  10
4.0595
  20
2.65
  42
1
  0
VERTEX
  8
Element
  10
4.0645
  20
2.65
  42
1
  0
VERTEX
  8
Element
  10
4.0595
  20
2.65
  42
1
  0
SEQEND
  0
POLYLINE
  8
Element
  6
CONTINUOUS
  66
1
  70
0
  40
0.0098
  41
0.0098
  0
VERTEX
  8
Element
  10
4.1375
  20
2.6501
  42
0
  0
VERTEX
  8
Element
  10
4.0625
  20
2.7063
  42
0
  0
SEQEND
  0
POLYLINE
  8
Element
  6
CONTINUOUS
  66
1
  70
0
  40
0.0049
  41
0.0049
  0
VERTEX
  8
Element
  10
4.135
  20
2.6501
  42
1
  0
VERTEX
  8
Element
  10
4.14
  20
2.6501
  42
1
  0
VERTEX
  8
Element
  10
4.135
  20
2.6501
  42
1
  0
SEQEND
  0
POLYLINE
  8
Element
  6
CONTINUOUS
  66
1
  70
0
  40
0.0049
  41
0.0049
  0
VERTEX
  8
Element
  10
4.06
  20
2.7063
  42
1
  0
VERTEX
  8
Element
  10
4.065
  20
2.7063
  42
1
  0
VERTEX
  8
Element
  10
4.06
  20
2.7063
  42
1
  0
SEQEND
  0
POLYLINE
  8
Element
  6
CONTINUOUS
  66
1
  70
0
  40
0.0098
  41
0.0098
  0
VERTEX
  8
Element
  10
4.0625
  20
2.5938
  42
0
  0
VERTEX
  8
Element
  10
4.0625
  20
2.7063
  42
0
  0
SEQEND
  0
POLYLINE
  8
Element
  6
CONTINUOUS
  66
1
  70
0
  40
0.0049
  41
0.0049
  0
VERTEX
  8
Element
  10
4.06
  20
2.5938
  42
1
  0
VERTEX
  8
Element
  10
4.065
  20
2.5938
  42
1
  0
VERTEX
  8
Element
  10
4.06
  20
2.5938
  42
1
  0
SEQEND
  0
POLYLINE
  8
Element
  6
CONTINUOUS
  66
1
  70
0
  40
0.0049
  41
0.0049
  0
VERTEX
  8
Element
  10
4.06
  20
2.7063
  42
1
  0
VERTEX
  8
Element
  10
4.065
  20
2.7063
  42
1
  0
VERTEX
  8
Element
  10
4.06
  20
2.7063
  42
1
  0
SEQEND
  0
POLYLINE
  8
Element
  6
CONTINUOUS
  66
1
  70
0
  40
0.0098
  41
0.0098
  0
VERTEX
  8
Element
  10
4.1
  20
2.7313
  42
0
  0
VERTEX
  8
Element
  10
4.175
  20
2.8062
  42
0
  0
VERTEX
  8
Element
  10
4.1
  20
2.7313
  42
0
  0
SEQEND
  0
POLYLINE
  8
Element
  6
CONTINUOUS
  66
1
  70
0
  40
0.0049
  41
0.0049
  0
VERTEX
  8
Element
  10
4.0975
  20
2.7313
  42
1
  0
VERTEX
  8
Element
  10
4.1025
  20
2.7313
  42
1
  0
VERTEX
  8
Element
  10
4.0975
  20
2.7313
  42
1
  0
SEQEND
  0
POLYLINE
  8
Element
  6
CONTINUOUS
  66
1
  70
0
  40
0.0098
  41
0.0098
  0
VERTEX
  8
Element
  10
4.15
  20
2.7313
  42
0
  0
VERTEX
  8
Element
  10
4.225
  20
2.8062
  42
0
  0
VERTEX
  8
Element
  10
4.15
  20
2.7313
  42
0
  0
SEQEND
  0
POLYLINE
  8
Element
  6
CONTINUOUS
  66
1
  70
0
  40
0.0049
  41
0.0049
  0
VERTEX
  8
Element
  10
4.1475
  20
2.7313
  42
1
  0
VERTEX
  8
Element
  10
4.1525
  20
2.7313
  42
1
  0
VERTEX
  8
Element
  10
4.1475
  20
2.7313
  42
1
  0
SEQEND
  0
POLYLINE
  8
Element
  6
CONTINUOUS
  66
1
  70
0
  40
0.0098
  41
0.0098
  0
VERTEX
  8
Element
  10
0.789
  20
2.2
  42
0
  0
VERTEX
  8
Element
  10
0.875
  20
2.1999
  42
0
  0
SEQEND
  0
POLYLINE
  8
Element
  6
CONTINUOUS
  66
1
  70
0
  40
0.0049
  41
0.0049
  0
VERTEX
  8
Element
  10
0.7865
  20
2.2
  42
1
  0
VERTEX
  8
Element
  10
0.7915
  20
2.2
  42
1
  0
VERTEX
  8
Element
  10
0.7865
  20
2.2
  42
1
  0
SEQEND
  0
POLYLINE
  8
Element
  6
CONTINUOUS
  66
1
  70
0
  40
0.0049
  41
0.0049
  0
VERTEX
  8
Element
  10
0.8725
  20
2.1999
  42
1
  0
VERTEX
  8
Element
  10
0.8775
  20
2.1999
  42
1
  0
VERTEX
  8
Element
  10
0.8725
  20
2.1999
  42
1
  0
SEQEND
  0
POLYLINE
  8
Element
  6
CONTINUOUS
  66
1
  70
0
  40
0.0098
  41
0.0098
  0
VERTEX
  8
Element
  10
0.7125
  20
2.1438
  42
0
  0
VERTEX
  8
Element
  10
0.7875
  20
2.2001
  42
0
  0
SEQEND
  0
POLYLINE
  8
Element
  6
CONTINUOUS
  66
1
  70
0
  40
0.0049
  41
0.0049
  0
VERTEX
  8
Element
  10
0.71
  20
2.1438
  42
1
  0
VERTEX
  8
Element
  10
0.715
  20
2.1438
  42
1
  0
VERTEX
  8
Element
  10
0.71
  20
2.1438
  42
1
  0
SEQEND
  0
POLYLINE
  8
Element
  6
CONTINUOUS
  66
1
  70
0
  40
0.0049
  41
0.0049
  0
VERTEX
  8
Element
  10
0.785
  20
2.2001
  42
1
  0
VERTEX
  8
Element
  10
0.79
  20
2.2001
  42
1
  0
VERTEX
  8
Element
  10
0.785
  20
2.2001
  42
1
  0
SEQEND
  0
POLYLINE
  8
Element
  6
CONTINUOUS
  66
1
  70
0
  40
0.0098
  41
0.0098
  0
VERTEX
  8
Element
  10
0.7875
  20
2.2563
  42
0
  0
VERTEX
  8
Element
  10
0.7875
  20
2.1438
  42
0
  0
SEQEND
  0
POLYLINE
  8
Element
  6
CONTINUOUS
  66
1
  70
0
  40
0.0049
  41
0.0049
  0
VERTEX
  8
Element
  10
0.785
  20
2.2563
  42
1
  0
VERTEX
  8
Element
  10
0.79
  20
2.2563
  42
1
  0
VERTEX
  8
Element
  10
0.785
  20
2.2563
  42
1
  0
SEQEND
  0
POLYLINE
  8
Element
  6
CONTINUOUS
  66
1
  70
0
  40
0.0049
  41
0.0049
  0
VERTEX
  8
Element
  10
0.785
  20
2.1438
  42
1
  0
VERTEX
  8
Element
  10
0.79
  20
2.1438
  42
1
  0
VERTEX
  8
Element
  10
0.785
  20
2.1438
  42
1
  0
SEQEND
  0
POLYLINE
  8
Element
  6
CONTINUOUS
  66
1
  70
0
  40
0.0098
  41
0.0098
  0
VERTEX
  8
Element
  10
0.625
  20
2.2001
  42
0
  0
VERTEX
  8
Element
  10
0.712
  20
2.2
  42
0
  0
SEQEND
  0
POLYLINE
  8
Element
  6
CONTINUOUS
  66
1
  70
0
  40
0.0049
  41
0.0049
  0
VERTEX
  8
Element
  10
0.6225
  20
2.2001
  42
1
  0
VERTEX
  8
Element
  10
0.6275
  20
2.2001
  42
1
  0
VERTEX
  8
Element
  10
0.6225
  20
2.2001
  42
1
  0
SEQEND
  0
POLYLINE
  8
Element
  6
CONTINUOUS
  66
1
  70
0
  40
0.0049
  41
0.0049
  0
VERTEX
  8
Element
  10
0.7095
  20
2.2
  42
1
  0
VERTEX
  8
Element
  10
0.7145
  20
2.2
  42
1
  0
VERTEX
  8
Element
  10
0.7095
  20
2.2
  42
1
  0
SEQEND
  0
POLYLINE
  8
Element
  6
CONTINUOUS
  66
1
  70
0
  40
0.0098
  41
0.0098
  0
VERTEX
  8
Element
  10
0.7875
  20
2.2001
  42
0
  0
VERTEX
  8
Element
  10
0.7125
  20
2.2563
  42
0
  0
SEQEND
  0
POLYLINE
  8
Element
  6
CONTINUOUS
  66
1
  70
0
  40
0.0049
  41
0.0049
  0
VERTEX
  8
Element
  10
0.785
  20
2.2001
  42
1
  0
VERTEX
  8
Element
  10
0.79
  20
2.2001
  42
1
  0
VERTEX
  8
Element
  10
0.785
  20
2.2001
  42
1
  0
SEQEND
  0
POLYLINE
  8
Element
  6
CONTINUOUS
  66
1
  70
0
  40
0.0049
  41
0.0049
  0
VERTEX
  8
Element
  10
0.71
  20
2.2563
  42
1
  0
VERTEX
  8
Element
  10
0.715
  20
2.2563
  42
1
  0
VERTEX
  8
Element
  10
0.71
  20
2.2563
  42
1
  0
SEQEND
  0
POLYLINE
  8
Element
  6
CONTINUOUS
  66
1
  70
0
  40
0.0098
  41
0.0098
  0
VERTEX
  8
Element
  10
0.7125
  20
2.1438
  42
0
  0
VERTEX
  8
Element
  10
0.7125
  20
2.2563
  42
0
  0
SEQEND
  0
POLYLINE
  8
Element
  6
CONTINUOUS
  66
1
  70
0
  40
0.0049
  41
0.0049
  0
VERTEX
  8
Element
  10
0.71
  20
2.1438
  42
1
  0
VERTEX
  8
Element
  10
0.715
  20
2.1438
  42
1
  0
VERTEX
  8
Element
  10
0.71
  20
2.1438
  42
1
  0
SEQEND
  0
POLYLINE
  8
Element
  6
CONTINUOUS
  66
1
  70
0
  40
0.0049
  41
0.0049
  0
VERTEX
  8
Element
  10
0.71
  20
2.2563
  42
1
  0
VERTEX
  8
Element
  10
0.715
  20
2.2563
  42
1
  0
VERTEX
  8
Element
  10
0.71
  20
2.2563
  42
1
  0
SEQEND
  0
POLYLINE
  8
Element
  6
CONTINUOUS
  66
1
  70
0
  40
0.0098
  41
0.0098
  0
VERTEX
  8
Element
  10
0.75
  20
2.2813
  42
0
  0
VERTEX
  8
Element
  10
0.825
  20
2.3562
  42
0
  0
VERTEX
  8
Element
  10
0.75
  20
2.2813
  42
0
  0
SEQEND
  0
POLYLINE
  8
Element
  6
CONTINUOUS
  66
1
  70
0
  40
0.0049
  41
0.0049
  0
VERTEX
  8
Element
  10
0.7475
  20
2.2813
  42
1
  0
VERTEX
  8
Element
  10
0.7525
  20
2.2813
  42
1
  0
VERTEX
  8
Element
  10
0.7475
  20
2.2813
  42
1
  0
SEQEND
  0
POLYLINE
  8
Element
  6
CONTINUOUS
  66
1
  70
0
  40
0.0098
  41
0.0098
  0
VERTEX
  8
Element
  10
0.8
  20
2.2813
  42
0
  0
VERTEX
  8
Element
  10
0.875
  20
2.3562
  42
0
  0
VERTEX
  8
Element
  10
0.8
  20
2.2813
  42
0
  0
SEQEND
  0
POLYLINE
  8
Element
  6
CONTINUOUS
  66
1
  70
0
  40
0.0049
  41
0.0049
  0
VERTEX
  8
Element
  10
0.7975
  20
2.2813
  42
1
  0
VERTEX
  8
Element
  10
0.8025
  20
2.2813
  42
1
  0
VERTEX
  8
Element
  10
0.7975
  20
2.2813
  42
1
  0
SEQEND
  0
POLYLINE
  8
Element
  6
CONTINUOUS
  66
1
  70
0
  40
0.0098
  41
0.0098
  0
VERTEX
  8
Element
  10
2.7
  20
3.0
  42
0
  0
VERTEX
  8
Element
  10
2.775
  20
2.65
  42
0
  0
SEQEND
  0
POLYLINE
  8
Element
  6
CONTINUOUS
  66
1
  70
0
  40
0.0049
  41
0.0049
  0
VERTEX
  8
Element
  10
2.6975
  20
3.0
  42
1
  0
VERTEX
  8
Element
  10
2.7025
  20
3.0
  42
1
  0
VERTEX
  8
Element
  10
2.6975
  20
3.0
  42
1
  0
SEQEND
  0
POLYLINE
  8
Element
  6
CONTINUOUS
  66
1
  70
0
  40
0.0049
  41
0.0049
  0
VERTEX
  8
Element
  10
2.7725
  20
2.65
  42
1
  0
VERTEX
  8
Element
  10
2.7775
  20
2.65
  42
1
  0
VERTEX
  8
Element
  10
2.7725
  20
2.65
  42
1
  0
SEQEND
  0
POLYLINE
  8
Element
  6
CONTINUOUS
  66
1
  70
0
  40
0.01
  41
0.01
  0
VERTEX
  8
Element
  10
2.5746
  20
2.675
  42
0
  0
VERTEX
  8
Element
  10
2.5759
  20
2.6672
  42
0
  0
VERTEX
  8
Element
  10
2.5795
  20
2.6602
  42
0
  0
VERTEX
  8
Element
  10
2.585
  20
2.6546
  42
0
  0
VERTEX
  8
Element
  10
2.5921
  20
2.651
  42
0
  0
VERTEX
  8
Element
  10
2.5999
  20
2.6498
  42
0
  0
VERTEX
  8
Element
  10
2.6077
  20
2.651
  42
0
  0
VERTEX
  8
Element
  10
2.6147
  20
2.6546
  42
0
  0
VERTEX
  8
Element
  10
2.6203
  20
2.6602
  42
0
  0
VERTEX
  8
Element
  10
2.6239
  20
2.6672
  42
0
  0
VERTEX
  8
Element
  10
2.6251
  20
2.675
  42
0
  0
VERTEX
  8
Element
  10
2.6239
  20
2.6828
  42
0
  0
VERTEX
  8
Element
  10
2.6203
  20
2.6898
  42
0
  0
VERTEX
  8
Element
  10
2.6147
  20
2.6954
  42
0
  0
VERTEX
  8
Element
  10
2.6077
  20
2.699
  42
0
  0
VERTEX
  8
Element
  10
2.5999
  20
2.7002
  42
0
  0
VERTEX
  8
Element
  10
2.5921
  20
2.699
  42
0
  0
VERTEX
  8
Element
  10
2.585
  20
2.6954
  42
0
  0
VERTEX
  8
Element
  10
2.5795
  20
2.6898
  42
0
  0
VERTEX
  8
Element
  10
2.5759
  20
2.6828
  42
0
  0
VERTEX
  8
Element
  10
2.5746
  20
2.675
  42
0
  0
SEQEND
  0
POLYLINE
  8
Element
  6
CONTINUOUS
  66
1
  70
0
  40
0.005
  41
0.005
  0
VERTEX
  8
Element
  10
2.5721
  20
2.675
  42
1
  0
VERTEX
  8
Element
  10
2.5771
  20
2.675
  42
1
  0
VERTEX
  8
Element
  10
2.5721
  20
2.675
  42
1
  0
SEQEND
  0
POLYLINE
  8
Element
  6
CONTINUOUS
  66
1
  70
0
  40
0.01
  41
0.01
  0
VERTEX
  8
Element
  10
2.7746
  20
2.675
  42
0
  0
VERTEX
  8
Element
  10
2.7759
  20
2.6672
  42
0
  0
VERTEX
  8
Element
  10
2.7795
  20
2.6602
  42
0
  0
VERTEX
  8
Element
  10
2.785
  20
2.6546
  42
0
  0
VERTEX
  8
Element
  10
2.7921
  20
2.651
  42
0
  0
VERTEX
  8
Element
  10
2.7999
  20
2.6498
  42
0
  0
VERTEX
  8
Element
  10
2.8077
  20
2.651
  42
0
  0
VERTEX
  8
Element
  10
2.8147
  20
2.6546
  42
0
  0
VERTEX
  8
Element
  10
2.8203
  20
2.6602
  42
0
  0
VERTEX
  8
Element
  10
2.8239
  20
2.6672
  42
0
  0
VERTEX
  8
Element
  10
2.8251
  20
2.675
  42
0
  0
VERTEX
  8
Element
  10
2.8239
  20
2.6828
  42
0
  0
VERTEX
  8
Element
  10
2.8203
  20
2.6898
  42
0
  0
VERTEX
  8
Element
  10
2.8147
  20
2.6954
  42
0
  0
VERTEX
  8
Element
  10
2.8077
  20
2.699
  42
0
  0
VERTEX
  8
Element
  10
2.7999
  20
2.7002
  42
0
  0
VERTEX
  8
Element
  10
2.7921
  20
2.699
  42
0
  0
VERTEX
  8
Element
  10
2.785
  20
2.6954
  42
0
  0
VERTEX
  8
Element
  10
2.7795
  20
2.6898
  42
0
  0
VERTEX
  8
Element
  10
2.7759
  20
2.6828
  42
0
  0
VERTEX
  8
Element
  10
2.7746
  20
2.675
  42
0
  0
SEQEND
  0
POLYLINE
  8
Element
  6
CONTINUOUS
  66
1
  70
0
  40
0.005
  41
0.005
  0
VERTEX
  8
Element
  10
2.7721
  20
2.675
  42
1
  0
VERTEX
  8
Element
  10
2.7771
  20
2.675
  42
1
  0
VERTEX
  8
Element
  10
2.7721
  20
2.675
  42
1
  0
SEQEND
  0
POLYLINE
  8
Element
  6
CONTINUOUS
  66
1
  70
0
  40
0.01
  41
0.01
  0
VERTEX
  8
Element
  10
2.6746
  20
3.025
  42
0
  0
VERTEX
  8
Element
  10
2.6759
  20
3.0172
  42
0
  0
VERTEX
  8
Element
  10
2.6795
  20
3.0102
  42
0
  0
VERTEX
  8
Element
  10
2.685
  20
3.0046
  42
0
  0
VERTEX
  8
Element
  10
2.6921
  20
3.001
  42
0
  0
VERTEX
  8
Element
  10
2.6999
  20
2.9998
  42
0
  0
VERTEX
  8
Element
  10
2.7077
  20
3.001
  42
0
  0
VERTEX
  8
Element
  10
2.7147
  20
3.0046
  42
0
  0
VERTEX
  8
Element
  10
2.7203
  20
3.0102
  42
0
  0
VERTEX
  8
Element
  10
2.7239
  20
3.0172
  42
0
  0
VERTEX
  8
Element
  10
2.7251
  20
3.025
  42
0
  0
VERTEX
  8
Element
  10
2.7239
  20
3.0328
  42
0
  0
VERTEX
  8
Element
  10
2.7203
  20
3.0398
  42
0
  0
VERTEX
  8
Element
  10
2.7147
  20
3.0454
  42
0
  0
VERTEX
  8
Element
  10
2.7077
  20
3.049
  42
0
  0
VERTEX
  8
Element
  10
2.6999
  20
3.0502
  42
0
  0
VERTEX
  8
Element
  10
2.6921
  20
3.049
  42
0
  0
VERTEX
  8
Element
  10
2.685
  20
3.0454
  42
0
  0
VERTEX
  8
Element
  10
2.6795
  20
3.0398
  42
0
  0
VERTEX
  8
Element
  10
2.6759
  20
3.0328
  42
0
  0
VERTEX
  8
Element
  10
2.6746
  20
3.025
  42
0
  0
SEQEND
  0
POLYLINE
  8
Element
  6
CONTINUOUS
  66
1
  70
0
  40
0.005
  41
0.005
  0
VERTEX
  8
Element
  10
2.6721
  20
3.025
  42
1
  0
VERTEX
  8
Element
  10
2.6771
  20
3.025
  42
1
  0
VERTEX
  8
Element
  10
2.6721
  20
3.025
  42
1
  0
SEQEND
  0
POLYLINE
  8
Element
  6
CONTINUOUS
  66
1
  70
0
  40
0.0098
  41
0.0098
  0
VERTEX
  8
Element
  10
2.7001
  20
3.1
  42
0
  0
VERTEX
  8
Element
  10
2.7
  20
3.05
  42
0
  0
SEQEND
  0
POLYLINE
  8
Element
  6
CONTINUOUS
  66
1
  70
0
  40
0.0049
  41
0.0049
  0
VERTEX
  8
Element
  10
2.6977
  20
3.1
  42
1
  0
VERTEX
  8
Element
  10
2.7026
  20
3.1
  42
1
  0
VERTEX
  8
Element
  10
2.6977
  20
3.1
  42
1
  0
SEQEND
  0
POLYLINE
  8
Element
  6
CONTINUOUS
  66
1
  70
0
  40
0.0049
  41
0.0049
  0
VERTEX
  8
Element
  10
2.6975
  20
3.05
  42
1
  0
VERTEX
  8
Element
  10
2.7025
  20
3.05
  42
1
  0
VERTEX
  8
Element
  10
2.6975
  20
3.05
  42
1
  0
SEQEND
  0
POLYLINE
  8
Element
  6
CONTINUOUS
  66
1
  70
0
  40
0.0098
  41
0.0098
  0
VERTEX
  8
Element
  10
2.6001
  20
2.6
  42
0
  0
VERTEX
  8
Element
  10
2.6
  20
2.65
  42
0
  0
SEQEND
  0
POLYLINE
  8
Element
  6
CONTINUOUS
  66
1
  70
0
  40
0.0049
  41
0.0049
  0
VERTEX
  8
Element
  10
2.5977
  20
2.6
  42
1
  0
VERTEX
  8
Element
  10
2.6026
  20
2.6
  42
1
  0
VERTEX
  8
Element
  10
2.5977
  20
2.6
  42
1
  0
SEQEND
  0
POLYLINE
  8
Element
  6
CONTINUOUS
  66
1
  70
0
  40
0.0049
  41
0.0049
  0
VERTEX
  8
Element
  10
2.5975
  20
2.65
  42
1
  0
VERTEX
  8
Element
  10
2.6025
  20
2.65
  42
1
  0
VERTEX
  8
Element
  10
2.5975
  20
2.65
  42
1
  0
SEQEND
  0
POLYLINE
  8
Element
  6
CONTINUOUS
  66
1
  70
0
  40
0.0098
  41
0.0098
  0
VERTEX
  8
Element
  10
2.8001
  20
2.6
  42
0
  0
VERTEX
  8
Element
  10
2.8001
  20
2.65
  42
0
  0
SEQEND
  0
POLYLINE
  8
Element
  6
CONTINUOUS
  66
1
  70
0
  40
0.0049
  41
0.0049
  0
VERTEX
  8
Element
  10
2.7977
  20
2.6
  42
1
  0
VERTEX
  8
Element
  10
2.8026
  20
2.6
  42
1
  0
VERTEX
  8
Element
  10
2.7977
  20
2.6
  42
1
  0
SEQEND
  0
POLYLINE
  8
Element
  6
CONTINUOUS
  66
1
  70
0
  40
0.0049
  41
0.0049
  0
VERTEX
  8
Element
  10
2.7977
  20
2.65
  42
1
  0
VERTEX
  8
Element
  10
2.8026
  20
2.65
  42
1
  0
VERTEX
  8
Element
  10
2.7977
  20
2.65
  42
1
  0
SEQEND
  0
POLYLINE
  8
Element
  6
CONTINUOUS
  66
1
  70
0
  40
0.0098
  41
0.0098
  0
VERTEX
  8
Element
  10
2.4999
  20
3.1
  42
0
  0
VERTEX
  8
Element
  10
2.9999
  20
3.1
  42
0
  0
VERTEX
  8
Element
  10
2.9999
  20
2.6
  42
0
  0
VERTEX
  8
Element
  10
2.4999
  20
2.6
  42
0
  0
VERTEX
  8
Element
  10
2.4999
  20
3.1
  42
0
  0
SEQEND
  0
POLYLINE
  8
Element
  6
CONTINUOUS
  66
1
  70
0
  40
0.01
  41
0.01
  0
VERTEX
  8
Element
  10
3.0805
  20
2.7492
  42
0
  0
VERTEX
  8
Element
  10
3.0842
  20
2.7589
  42
0
  0
VERTEX
  8
Element
  10
3.0875
  20
2.7687
  42
0
  0
VERTEX
  8
Element
  10
3.0905
  20
2.7786
  42
0
  0
VERTEX
  8
Element
  10
3.093
  20
2.7886
  42
0
  0
VERTEX
  8
Element
  10
3.0952
  20
2.7987
  42
0
  0
VERTEX
  8
Element
  10
3.097
  20
2.8088
  42
0
  0
VERTEX
  8
Element
  10
3.0983
  20
2.8191
  42
0
  0
VERTEX
  8
Element
  10
3.0993
  20
2.8294
  42
0
  0
VERTEX
  8
Element
  10
3.0999
  20
2.8397
  42
0
  0
VERTEX
  8
Element
  10
3.1001
  20
2.85
  42
0
  0
VERTEX
  8
Element
  10
3.0999
  20
2.8603
  42
0
  0
VERTEX
  8
Element
  10
3.0993
  20
2.8706
  42
0
  0
VERTEX
  8
Element
  10
3.0983
  20
2.8809
  42
0
  0
VERTEX
  8
Element
  10
3.097
  20
2.8911
  42
0
  0
VERTEX
  8
Element
  10
3.0952
  20
2.9013
  42
0
  0
VERTEX
  8
Element
  10
3.093
  20
2.9114
  42
0
  0
VERTEX
  8
Element
  10
3.0905
  20
2.9214
  42
0
  0
VERTEX
  8
Element
  10
3.0875
  20
2.9313
  42
0
  0
VERTEX
  8
Element
  10
3.0842
  20
2.9411
  42
0
  0
VERTEX
  8
Element
  10
3.0805
  20
2.9508
  42
0
  0
SEQEND
  0
POLYLINE
  8
Element
  6
CONTINUOUS
  66
1
  70
0
  40
0.005
  41
0.005
  0
VERTEX
  8
Element
  10
3.078
  20
2.7492
  42
1
  0
VERTEX
  8
Element
  10
3.083
  20
2.7492
  42
1
  0
VERTEX
  8
Element
  10
3.078
  20
2.7492
  42
1
  0
SEQEND
  0
POLYLINE
  8
Element
  6
CONTINUOUS
  66
1
  70
0
  40
0.005
  41
0.005
  0
VERTEX
  8
Element
  10
3.078
  20
2.9508
  42
1
  0
VERTEX
  8
Element
  10
3.083
  20
2.9508
  42
1
  0
VERTEX
  8
Element
  10
3.078
  20
2.9508
  42
1
  0
SEQEND
  0
POLYLINE
  8
Element
  6
CONTINUOUS
  66
1
  70
0
  40
0.0098
  41
0.0098
  0
VERTEX
  8
Element
  10
2.7313
  20
2.85
  42
0
  0
VERTEX
  8
Element
  10
3.0999
  20
2.85
  42
0
  0
SEQEND
  0
POLYLINE
  8
Element
  6
CONTINUOUS
  66
1
  70
0
  40
0.0049
  41
0.0049
  0
VERTEX
  8
Element
  10
2.7288
  20
2.85
  42
1
  0
VERTEX
  8
Element
  10
2.7337
  20
2.85
  42
1
  0
VERTEX
  8
Element
  10
2.7288
  20
2.85
  42
1
  0
SEQEND
  0
POLYLINE
  8
Element
  6
CONTINUOUS
  66
1
  70
0
  40
0.0049
  41
0.0049
  0
VERTEX
  8
Element
  10
3.0974
  20
2.85
  42
1
  0
VERTEX
  8
Element
  10
3.1023
  20
2.85
  42
1
  0
VERTEX
  8
Element
  10
3.0974
  20
2.85
  42
1
  0
SEQEND
  0
POLYLINE
  8
Element
  6
CONTINUOUS
  66
1
  70
0
  40
0.0098
  41
0.0098
  0
VERTEX
  8
Element
  10
1.3
  20
2.675
  42
0
  0
VERTEX
  8
Element
  10
1.35
  20
2.625
  42
0
  0
SEQEND
  0
POLYLINE
  8
Element
  6
CONTINUOUS
  66
1
  70
0
  40
0.0049
  41
0.0049
  0
VERTEX
  8
Element
  10
1.2975
  20
2.675
  42
1
  0
VERTEX
  8
Element
  10
1.3025
  20
2.675
  42
1
  0
VERTEX
  8
Element
  10
1.2975
  20
2.675
  42
1
  0
SEQEND
  0
POLYLINE
  8
Element
  6
CONTINUOUS
  66
1
  70
0
  40
0.0049
  41
0.0049
  0
VERTEX
  8
Element
  10
1.3475
  20
2.625
  42
1
  0
VERTEX
  8
Element
  10
1.3525
  20
2.625
  42
1
  0
VERTEX
  8
Element
  10
1.3475
  20
2.625
  42
1
  0
SEQEND
  0
POLYLINE
  8
Element
  6
CONTINUOUS
  66
1
  70
0
  40
0.0098
  41
0.0098
  0
VERTEX
  8
Element
  10
1.3
  20
2.675
  42
0
  0
VERTEX
  8
Element
  10
1.25
  20
2.625
  42
0
  0
SEQEND
  0
POLYLINE
  8
Element
  6
CONTINUOUS
  66
1
  70
0
  40
0.0049
  41
0.0049
  0
VERTEX
  8
Element
  10
1.2975
  20
2.675
  42
1
  0
VERTEX
  8
Element
  10
1.3025
  20
2.675
  42
1
  0
VERTEX
  8
Element
  10
1.2975
  20
2.675
  42
1
  0
SEQEND
  0
POLYLINE
  8
Element
  6
CONTINUOUS
  66
1
  70
0
  40
0.0049
  41
0.0049
  0
VERTEX
  8
Element
  10
1.2475
  20
2.625
  42
1
  0
VERTEX
  8
Element
  10
1.2525
  20
2.625
  42
1
  0
VERTEX
  8
Element
  10
1.2475
  20
2.625
  42
1
  0
SEQEND
  0
POLYLINE
  8
Element
  6
CONTINUOUS
  66
1
  70
0
  40
0.0098
  41
0.0098
  0
VERTEX
  8
Element
  10
1.35
  20
2.625
  42
0
  0
VERTEX
  8
Element
  10
1.35
  20
2.45
  42
0
  0
SEQEND
  0
POLYLINE
  8
Element
  6
CONTINUOUS
  66
1
  70
0
  40
0.0049
  41
0.0049
  0
VERTEX
  8
Element
  10
1.3475
  20
2.625
  42
1
  0
VERTEX
  8
Element
  10
1.3525
  20
2.625
  42
1
  0
VERTEX
  8
Element
  10
1.3475
  20
2.625
  42
1
  0
SEQEND
  0
POLYLINE
  8
Element
  6
CONTINUOUS
  66
1
  70
0
  40
0.0049
  41
0.0049
  0
VERTEX
  8
Element
  10
1.3475
  20
2.45
  42
1
  0
VERTEX
  8
Element
  10
1.3525
  20
2.45
  42
1
  0
VERTEX
  8
Element
  10
1.3475
  20
2.45
  42
1
  0
SEQEND
  0
POLYLINE
  8
Element
  6
CONTINUOUS
  66
1
  70
0
  40
0.0098
  41
0.0098
  0
VERTEX
  8
Element
  10
1.2
  20
2.675
  42
0
  0
VERTEX
  8
Element
  10
1.25
  20
2.625
  42
0
  0
SEQEND
  0
POLYLINE
  8
Element
  6
CONTINUOUS
  66
1
  70
0
  40
0.0049
  41
0.0049
  0
VERTEX
  8
Element
  10
1.1975
  20
2.675
  42
1
  0
VERTEX
  8
Element
  10
1.2025
  20
2.675
  42
1
  0
VERTEX
  8
Element
  10
1.1975
  20
2.675
  42
1
  0
SEQEND
  0
POLYLINE
  8
Element
  6
CONTINUOUS
  66
1
  70
0
  40
0.0049
  41
0.0049
  0
VERTEX
  8
Element
  10
1.2475
  20
2.625
  42
1
  0
VERTEX
  8
Element
  10
1.2525
  20
2.625
  42
1
  0
VERTEX
  8
Element
  10
1.2475
  20
2.625
  42
1
  0
SEQEND
  0
POLYLINE
  8
Element
  6
CONTINUOUS
  66
1
  70
0
  40
0.0098
  41
0.0098
  0
VERTEX
  8
Element
  10
1.25
  20
2.625
  42
0
  0
VERTEX
  8
Element
  10
1.25
  20
2.45
  42
0
  0
SEQEND
  0
POLYLINE
  8
Element
  6
CONTINUOUS
  66
1
  70
0
  40
0.0049
  41
0.0049
  0
VERTEX
  8
Element
  10
1.2475
  20
2.625
  42
1
  0
VERTEX
  8
Element
  10
1.2525
  20
2.625
  42
1
  0
VERTEX
  8
Element
  10
1.2475
  20
2.625
  42
1
  0
SEQEND
  0
POLYLINE
  8
Element
  6
CONTINUOUS
  66
1
  70
0
  40
0.0049
  41
0.0049
  0
VERTEX
  8
Element
  10
1.2475
  20
2.45
  42
1
  0
VERTEX
  8
Element
  10
1.2525
  20
2.45
  42
1
  0
VERTEX
  8
Element
  10
1.2475
  20
2.45
  42
1
  0
SEQEND
  0
POLYLINE
  8
Element
  6
CONTINUOUS
  66
1
  70
0
  40
0.0098
  41
0.0098
  0
VERTEX
  8
Element
  10
1.2
  20
2.85
  42
0
  0
VERTEX
  8
Element
  10
1.4
  20
2.85
  42
0
  0
VERTEX
  8
Element
  10
1.4
  20
2.45
  42
0
  0
VERTEX
  8
Element
  10
1.2
  20
2.45
  42
0
  0
VERTEX
  8
Element
  10
1.2
  20
2.85
  42
0
  0
SEQEND
  0
POLYLINE
  8
Element
  6
CONTINUOUS
  66
1
  70
0
  40
0.0098
  41
0.0098
  0
VERTEX
  8
Element
  10
1.4
  20
2.675
  42
0
  0
VERTEX
  8
Element
  10
1.35
  20
2.625
  42
0
  0
SEQEND
  0
POLYLINE
  8
Element
  6
CONTINUOUS
  66
1
  70
0
  40
0.0049
  41
0.0049
  0
VERTEX
  8
Element
  10
1.3975
  20
2.675
  42
1
  0
VERTEX
  8
Element
  10
1.4025
  20
2.675
  42
1
  0
VERTEX
  8
Element
  10
1.3975
  20
2.675
  42
1
  0
SEQEND
  0
POLYLINE
  8
Element
  6
CONTINUOUS
  66
1
  70
0
  40
0.0049
  41
0.0049
  0
VERTEX
  8
Element
  10
1.3475
  20
2.625
  42
1
  0
VERTEX
  8
Element
  10
1.3525
  20
2.625
  42
1
  0
VERTEX
  8
Element
  10
1.3475
  20
2.625
  42
1
  0
SEQEND
  0
POLYLINE
  8
Element
  6
CONTINUOUS
  66
1
  70
0
  40
0.0098
  41
0.0098
  0
VERTEX
  8
Element
  10
2.3
  20
3.35
  42
0
  0
VERTEX
  8
Element
  10
2.337
  20
3.35
  42
0
  0
SEQEND
  0
POLYLINE
  8
Element
  6
CONTINUOUS
  66
1
  70
0
  40
0.0049
  41
0.0049
  0
VERTEX
  8
Element
  10
2.2975
  20
3.35
  42
1
  0
VERTEX
  8
Element
  10
2.3025
  20
3.35
  42
1
  0
VERTEX
  8
Element
  10
2.2975
  20
3.35
  42
1
  0
SEQEND
  0
POLYLINE
  8
Element
  6
CONTINUOUS
  66
1
  70
0
  40
0.0049
  41
0.0049
  0
VERTEX
  8
Element
  10
2.3345
  20
3.35
  42
1
  0
VERTEX
  8
Element
  10
2.3395
  20
3.35
  42
1
  0
VERTEX
  8
Element
  10
2.3345
  20
3.35
  42
1
  0
SEQEND
  0
POLYLINE
  8
Element
  6
CONTINUOUS
  66
1
  70
0
  40
0.0098
  41
0.0098
  0
VERTEX
  8
Element
  10
2.462
  20
3.35
  42
0
  0
VERTEX
  8
Element
  10
2.5
  20
3.35
  42
0
  0
SEQEND
  0
POLYLINE
  8
Element
  6
CONTINUOUS
  66
1
  70
0
  40
0.0049
  41
0.0049
  0
VERTEX
  8
Element
  10
2.4595
  20
3.35
  42
1
  0
VERTEX
  8
Element
  10
2.4645
  20
3.35
  42
1
  0
VERTEX
  8
Element
  10
2.4595
  20
3.35
  42
1
  0
SEQEND
  0
POLYLINE
  8
Element
  6
CONTINUOUS
  66
1
  70
0
  40
0.0049
  41
0.0049
  0
VERTEX
  8
Element
  10
2.4975
  20
3.35
  42
1
  0
VERTEX
  8
Element
  10
2.5025
  20
3.35
  42
1
  0
VERTEX
  8
Element
  10
2.4975
  20
3.35
  42
1
  0
SEQEND
  0
POLYLINE
  8
Element
  6
CONTINUOUS
  66
1
  70
0
  40
0.0098
  41
0.0098
  0
VERTEX
  8
Element
  10
2.462
  20
3.275
  42
0
  0
VERTEX
  8
Element
  10
2.462
  20
3.425
  42
0
  0
SEQEND
  0
POLYLINE
  8
Element
  6
CONTINUOUS
  66
1
  70
0
  40
0.0049
  41
0.0049
  0
VERTEX
  8
Element
  10
2.4595
  20
3.275
  42
1
  0
VERTEX
  8
Element
  10
2.4645
  20
3.275
  42
1
  0
VERTEX
  8
Element
  10
2.4595
  20
3.275
  42
1
  0
SEQEND
  0
POLYLINE
  8
Element
  6
CONTINUOUS
  66
1
  70
0
  40
0.0049
  41
0.0049
  0
VERTEX
  8
Element
  10
2.4595
  20
3.425
  42
1
  0
VERTEX
  8
Element
  10
2.4645
  20
3.425
  42
1
  0
VERTEX
  8
Element
  10
2.4595
  20
3.425
  42
1
  0
SEQEND
  0
POLYLINE
  8
Element
  6
CONTINUOUS
  66
1
  70
0
  40
0.0098
  41
0.0098
  0
VERTEX
  8
Element
  10
2.462
  20
3.35
  42
0
  0
VERTEX
  8
Element
  10
2.337
  20
3.425
  42
0
  0
VERTEX
  8
Element
  10
2.337
  20
3.275
  42
0
  0
VERTEX
  8
Element
  10
2.462
  20
3.35
  42
0
  0
SEQEND
  0
POLYLINE
  8
Element
  6
CONTINUOUS
  66
1
  70
0
  40
0.0049
  41
0.0049
  0
VERTEX
  8
Element
  10
2.4595
  20
3.35
  42
1
  0
VERTEX
  8
Element
  10
2.4645
  20
3.35
  42
1
  0
VERTEX
  8
Element
  10
2.4595
  20
3.35
  42
1
  0
SEQEND
  0
POLYLINE
  8
Element
  6
CONTINUOUS
  66
1
  70
0
  40
0.0098
  41
0.0098
  0
VERTEX
  8
Element
  10
3.1
  20
3.35
  42
0
  0
VERTEX
  8
Element
  10
3.063
  20
3.35
  42
0
  0
SEQEND
  0
POLYLINE
  8
Element
  6
CONTINUOUS
  66
1
  70
0
  40
0.0049
  41
0.0049
  0
VERTEX
  8
Element
  10
3.0975
  20
3.35
  42
1
  0
VERTEX
  8
Element
  10
3.1025
  20
3.35
  42
1
  0
VERTEX
  8
Element
  10
3.0975
  20
3.35
  42
1
  0
SEQEND
  0
POLYLINE
  8
Element
  6
CONTINUOUS
  66
1
  70
0
  40
0.0049
  41
0.0049
  0
VERTEX
  8
Element
  10
3.0605
  20
3.35
  42
1
  0
VERTEX
  8
Element
  10
3.0655
  20
3.35
  42
1
  0
VERTEX
  8
Element
  10
3.0605
  20
3.35
  42
1
  0
SEQEND
  0
POLYLINE
  8
Element
  6
CONTINUOUS
  66
1
  70
0
  40
0.0098
  41
0.0098
  0
VERTEX
  8
Element
  10
2.938
  20
3.35
  42
0
  0
VERTEX
  8
Element
  10
2.9
  20
3.35
  42
0
  0
SEQEND
  0
POLYLINE
  8
Element
  6
CONTINUOUS
  66
1
  70
0
  40
0.0049
  41
0.0049
  0
VERTEX
  8
Element
  10
2.9355
  20
3.35
  42
1
  0
VERTEX
  8
Element
  10
2.9405
  20
3.35
  42
1
  0
VERTEX
  8
Element
  10
2.9355
  20
3.35
  42
1
  0
SEQEND
  0
POLYLINE
  8
Element
  6
CONTINUOUS
  66
1
  70
0
  40
0.0049
  41
0.0049
  0
VERTEX
  8
Element
  10
2.8975
  20
3.35
  42
1
  0
VERTEX
  8
Element
  10
2.9025
  20
3.35
  42
1
  0
VERTEX
  8
Element
  10
2.8975
  20
3.35
  42
1
  0
SEQEND
  0
POLYLINE
  8
Element
  6
CONTINUOUS
  66
1
  70
0
  40
0.0098
  41
0.0098
  0
VERTEX
  8
Element
  10
2.938
  20
3.425
  42
0
  0
VERTEX
  8
Element
  10
2.938
  20
3.275
  42
0
  0
SEQEND
  0
POLYLINE
  8
Element
  6
CONTINUOUS
  66
1
  70
0
  40
0.0049
  41
0.0049
  0
VERTEX
  8
Element
  10
2.9355
  20
3.425
  42
1
  0
VERTEX
  8
Element
  10
2.9405
  20
3.425
  42
1
  0
VERTEX
  8
Element
  10
2.9355
  20
3.425
  42
1
  0
SEQEND
  0
POLYLINE
  8
Element
  6
CONTINUOUS
  66
1
  70
0
  40
0.0049
  41
0.0049
  0
VERTEX
  8
Element
  10
2.9355
  20
3.275
  42
1
  0
VERTEX
  8
Element
  10
2.9405
  20
3.275
  42
1
  0
VERTEX
  8
Element
  10
2.9355
  20
3.275
  42
1
  0
SEQEND
  0
POLYLINE
  8
Element
  6
CONTINUOUS
  66
1
  70
0
  40
0.0098
  41
0.0098
  0
VERTEX
  8
Element
  10
2.938
  20
3.35
  42
0
  0
VERTEX
  8
Element
  10
3.063
  20
3.275
  42
0
  0
VERTEX
  8
Element
  10
3.063
  20
3.425
  42
0
  0
VERTEX
  8
Element
  10
2.938
  20
3.35
  42
0
  0
SEQEND
  0
POLYLINE
  8
Element
  6
CONTINUOUS
  66
1
  70
0
  40
0.0049
  41
0.0049
  0
VERTEX
  8
Element
  10
2.9355
  20
3.35
  42
1
  0
VERTEX
  8
Element
  10
2.9405
  20
3.35
  42
1
  0
VERTEX
  8
Element
  10
2.9355
  20
3.35
  42
1
  0
SEQEND
  0
TEXT
  8
Element
  10
4.8
  20
3.0
  40
0.0583
  41
0.7
  1
R2
  50
0.0
  72
1
  73
1
  7
STANDARD
  71
0
  11
4.8
  21
3.0
  0
TEXT
  8
Element
  10
1.3
  20
4.0
  40
0.0583
  41
0.7
  1
USB-M-1
  50
0.0
  72
1
  73
1
  7
STANDARD
  71
0
  11
1.3
  21
4.0
  0
TEXT
  8
Element
  10
4.1
  20
4.15
  40
0.0583
  41
0.7
  1
USB-M-2
  50
0.0
  72
1
  73
1
  7
STANDARD
  71
0
  11
4.1
  21
4.15
  0
TEXT
  8
Element
  10
2.9
  20
1.1
  40
0.0583
  41
0.7
  1
USB-F
  50
0.0
  72
1
  73
1
  7
STANDARD
  71
0
  11
2.9
  21
1.1
  0
TEXT
  8
Element
  10
1.3518
  20
2.0
  40
0.0583
  41
0.7
  1
K1.1
  50
0.0
  72
1
  73
1
  7
STANDARD
  71
0
  11
1.3518
  21
2.0
  0
TEXT
  8
Element
  10
1.3531
  20
1.375
  40
0.0583
  41
0.7
  1
K1.2
  50
0.0
  72
1
  73
1
  7
STANDARD
  71
0
  11
1.3531
  21
1.375
  0
TEXT
  8
Element
  10
1.3531
  20
0.675
  40
0.0583
  41
0.7
  1
K1.3
  50
0.0
  72
1
  73
1
  7
STANDARD
  71
0
  11
1.3531
  21
0.675
  0
TEXT
  8
Element
  10
4.1018
  20
2.25
  40
0.0583
  41
0.7
  1
K2.1
  50
0.0
  72
1
  73
1
  7
STANDARD
  71
0
  11
4.1018
  21
2.25
  0
TEXT
  8
Element
  10
4.15
  20
1.625
  40
0.0583
  41
0.7
  1
K2.2
  50
0.0
  72
1
  73
1
  7
STANDARD
  71
0
  11
4.15
  21
1.625
  0
TEXT
  8
Element
  10
4.15
  20
0.975
  40
0.0583
  41
0.7
  1
K2.3
  50
0.0
  72
1
  73
1
  7
STANDARD
  71
0
  11
4.15
  21
0.975
  0
TEXT
  8
Element
  10
4.1
  20
2.8062
  40
0.0583
  41
0.7
  1
LED_White
  50
0.0
  72
1
  73
1
  7
STANDARD
  71
0
  11
4.1
  21
2.8062
  0
TEXT
  8
Element
  10
4.1
  20
2.5938
  40
0.0583
  41
0.7
  1
D1
  50
0.0
  72
1
  73
3
  7
STANDARD
  71
0
  11
4.1
  21
2.5938
  0
TEXT
  8
Element
  10
0.75
  20
2.3562
  40
0.0583
  41
0.7
  1
LED_Blue
  50
0.0
  72
1
  73
1
  7
STANDARD
  71
0
  11
0.75
  21
2.3562
  0
TEXT
  8
Element
  10
0.75
  20
2.1438
  40
0.0583
  41
0.7
  1
D2
  50
0.0
  72
1
  73
3
  7
STANDARD
  71
0
  11
0.75
  21
2.1438
  0
TEXT
  8
Element
  10
2.4999
  20
2.85
  40
0.0583
  41
0.7
  1
S2
  50
90.0
  72
1
  73
1
  7
STANDARD
  71
0
  11
2.4999
  21
2.85
  0
TEXT
  8
Element
  10
1.3
  20
2.85
  40
0.0583
  41
0.7
  1
R1
  50
0.0
  72
1
  73
1
  7
STANDARD
  71
0
  11
1.3
  21
2.85
  0
TEXT
  8
Element
  10
2.4
  20
3.425
  40
0.0583
  41
0.7
  1
D3
  50
0.0
  72
1
  73
1
  7
STANDARD
  71
0
  11
2.4
  21
3.425
  0
TEXT
  8
Element
  10
3.0
  20
3.425
  40
0.0583
  41
0.7
  1
D4
  50
0.0
  72
1
  73
1
  7
STANDARD
  71
0
  11
3.0
  21
3.425
  0
POLYLINE
  8
Net
  6
CONTINUOUS
  66
1
  70
0
  40
0.0039
  41
0.0039
  0
VERTEX
  8
Net
  10
3.25
  20
3.35
  42
0
  0
VERTEX
  8
Net
  10
4.6
  20
3.35
  42
0
  0
SEQEND
  0
POLYLINE
  8
Net
  6
CONTINUOUS
  66
1
  70
0
  40
0.002
  41
0.002
  0
VERTEX
  8
Net
  10
3.249
  20
3.35
  42
1
  0
VERTEX
  8
Net
  10
3.251
  20
3.35
  42
1
  0
VERTEX
  8
Net
  10
3.249
  20
3.35
  42
1
  0
SEQEND
  0
POLYLINE
  8
Net
  6
CONTINUOUS
  66
1
  70
0
  40
0.002
  41
0.002
  0
VERTEX
  8
Net
  10
4.599
  20
3.35
  42
1
  0
VERTEX
  8
Net
  10
4.601
  20
3.35
  42
1
  0
VERTEX
  8
Net
  10
4.599
  20
3.35
  42
1
  0
SEQEND
  0
POLYLINE
  8
Net
  6
CONTINUOUS
  66
1
  70
0
  40
0.0039
  41
0.0039
  0
VERTEX
  8
Net
  10
4.6
  20
3.35
  42
0
  0
VERTEX
  8
Net
  10
4.6
  20
3.85
  42
0
  0
SEQEND
  0
POLYLINE
  8
Net
  6
CONTINUOUS
  66
1
  70
0
  40
0.002
  41
0.002
  0
VERTEX
  8
Net
  10
4.599
  20
3.35
  42
1
  0
VERTEX
  8
Net
  10
4.601
  20
3.35
  42
1
  0
VERTEX
  8
Net
  10
4.599
  20
3.35
  42
1
  0
SEQEND
  0
POLYLINE
  8
Net
  6
CONTINUOUS
  66
1
  70
0
  40
0.002
  41
0.002
  0
VERTEX
  8
Net
  10
4.599
  20
3.85
  42
1
  0
VERTEX
  8
Net
  10
4.601
  20
3.85
  42
1
  0
VERTEX
  8
Net
  10
4.599
  20
3.85
  42
1
  0
SEQEND
  0
POLYLINE
  8
Net
  6
CONTINUOUS
  66
1
  70
0
  40
0.0039
  41
0.0039
  0
VERTEX
  8
Net
  10
4.6
  20
3.85
  42
0
  0
VERTEX
  8
Net
  10
4.5
  20
3.85
  42
0
  0
SEQEND
  0
POLYLINE
  8
Net
  6
CONTINUOUS
  66
1
  70
0
  40
0.002
  41
0.002
  0
VERTEX
  8
Net
  10
4.599
  20
3.85
  42
1
  0
VERTEX
  8
Net
  10
4.601
  20
3.85
  42
1
  0
VERTEX
  8
Net
  10
4.599
  20
3.85
  42
1
  0
SEQEND
  0
POLYLINE
  8
Net
  6
CONTINUOUS
  66
1
  70
0
  40
0.002
  41
0.002
  0
VERTEX
  8
Net
  10
4.499
  20
3.85
  42
1
  0
VERTEX
  8
Net
  10
4.501
  20
3.85
  42
1
  0
VERTEX
  8
Net
  10
4.499
  20
3.85
  42
1
  0
SEQEND
  0
POLYLINE
  8
Net
  6
CONTINUOUS
  66
1
  70
0
  40
0.0039
  41
0.0039
  0
VERTEX
  8
Net
  10
3.3843
  20
3.35
  42
0
  0
VERTEX
  8
Net
  10
3.385
  20
3.3451
  42
0
  0
VERTEX
  8
Net
  10
3.3873
  20
3.3407
  42
0
  0
VERTEX
  8
Net
  10
3.3907
  20
3.3373
  42
0
  0
VERTEX
  8
Net
  10
3.3951
  20
3.335
  42
0
  0
VERTEX
  8
Net
  10
3.4
  20
3.3343
  42
0
  0
VERTEX
  8
Net
  10
3.4049
  20
3.335
  42
0
  0
VERTEX
  8
Net
  10
3.4093
  20
3.3373
  42
0
  0
VERTEX
  8
Net
  10
3.4127
  20
3.3407
  42
0
  0
VERTEX
  8
Net
  10
3.415
  20
3.3451
  42
0
  0
VERTEX
  8
Net
  10
3.4157
  20
3.35
  42
0
  0
VERTEX
  8
Net
  10
3.415
  20
3.3549
  42
0
  0
VERTEX
  8
Net
  10
3.4127
  20
3.3593
  42
0
  0
VERTEX
  8
Net
  10
3.4093
  20
3.3627
  42
0
  0
VERTEX
  8
Net
  10
3.4049
  20
3.365
  42
0
  0
VERTEX
  8
Net
  10
3.4
  20
3.3657
  42
0
  0
VERTEX
  8
Net
  10
3.3951
  20
3.365
  42
0
  0
VERTEX
  8
Net
  10
3.3907
  20
3.3627
  42
0
  0
VERTEX
  8
Net
  10
3.3873
  20
3.3593
  42
0
  0
VERTEX
  8
Net
  10
3.385
  20
3.3549
  42
0
  0
VERTEX
  8
Net
  10
3.3843
  20
3.35
  42
0
  0
SEQEND
  0
POLYLINE
  8
Net
  6
CONTINUOUS
  66
1
  70
0
  40
0.002
  41
0.002
  0
VERTEX
  8
Net
  10
3.3833
  20
3.35
  42
1
  0
VERTEX
  8
Net
  10
3.3852
  20
3.35
  42
1
  0
VERTEX
  8
Net
  10
3.3833
  20
3.35
  42
1
  0
SEQEND
  0
POLYLINE
  8
Net
  6
CONTINUOUS
  66
1
  70
0
  40
0.0039
  41
0.0039
  0
VERTEX
  8
Net
  10
3.9
  20
0.95
  42
0
  0
VERTEX
  8
Net
  10
3.4
  20
0.95
  42
0
  0
SEQEND
  0
POLYLINE
  8
Net
  6
CONTINUOUS
  66
1
  70
0
  40
0.002
  41
0.002
  0
VERTEX
  8
Net
  10
3.899
  20
0.95
  42
1
  0
VERTEX
  8
Net
  10
3.901
  20
0.95
  42
1
  0
VERTEX
  8
Net
  10
3.899
  20
0.95
  42
1
  0
SEQEND
  0
POLYLINE
  8
Net
  6
CONTINUOUS
  66
1
  70
0
  40
0.002
  41
0.002
  0
VERTEX
  8
Net
  10
3.399
  20
0.95
  42
1
  0
VERTEX
  8
Net
  10
3.401
  20
0.95
  42
1
  0
VERTEX
  8
Net
  10
3.399
  20
0.95
  42
1
  0
SEQEND
  0
POLYLINE
  8
Net
  6
CONTINUOUS
  66
1
  70
0
  40
0.0039
  41
0.0039
  0
VERTEX
  8
Net
  10
3.4
  20
0.95
  42
0
  0
VERTEX
  8
Net
  10
3.4
  20
3.35
  42
0
  0
SEQEND
  0
POLYLINE
  8
Net
  6
CONTINUOUS
  66
1
  70
0
  40
0.002
  41
0.002
  0
VERTEX
  8
Net
  10
3.399
  20
0.95
  42
1
  0
VERTEX
  8
Net
  10
3.401
  20
0.95
  42
1
  0
VERTEX
  8
Net
  10
3.399
  20
0.95
  42
1
  0
SEQEND
  0
POLYLINE
  8
Net
  6
CONTINUOUS
  66
1
  70
0
  40
0.002
  41
0.002
  0
VERTEX
  8
Net
  10
3.399
  20
3.35
  42
1
  0
VERTEX
  8
Net
  10
3.401
  20
3.35
  42
1
  0
VERTEX
  8
Net
  10
3.399
  20
3.35
  42
1
  0
SEQEND
  0
POLYLINE
  8
Net
  6
CONTINUOUS
  66
1
  70
0
  40
0.0039
  41
0.0039
  0
VERTEX
  8
Net
  10
2.8
  20
2.45
  42
0
  0
VERTEX
  8
Net
  10
2.8
  20
2.1
  42
0
  0
SEQEND
  0
POLYLINE
  8
Net
  6
CONTINUOUS
  66
1
  70
0
  40
0.002
  41
0.002
  0
VERTEX
  8
Net
  10
2.799
  20
2.45
  42
1
  0
VERTEX
  8
Net
  10
2.801
  20
2.45
  42
1
  0
VERTEX
  8
Net
  10
2.799
  20
2.45
  42
1
  0
SEQEND
  0
POLYLINE
  8
Net
  6
CONTINUOUS
  66
1
  70
0
  40
0.002
  41
0.002
  0
VERTEX
  8
Net
  10
2.799
  20
2.1
  42
1
  0
VERTEX
  8
Net
  10
2.801
  20
2.1
  42
1
  0
VERTEX
  8
Net
  10
2.799
  20
2.1
  42
1
  0
SEQEND
  0
POLYLINE
  8
Net
  6
CONTINUOUS
  66
1
  70
0
  40
0.0039
  41
0.0039
  0
VERTEX
  8
Net
  10
2.8
  20
2.1
  42
0
  0
VERTEX
  8
Net
  10
3.85
  20
2.1
  42
0
  0
SEQEND
  0
POLYLINE
  8
Net
  6
CONTINUOUS
  66
1
  70
0
  40
0.002
  41
0.002
  0
VERTEX
  8
Net
  10
2.799
  20
2.1
  42
1
  0
VERTEX
  8
Net
  10
2.801
  20
2.1
  42
1
  0
VERTEX
  8
Net
  10
2.799
  20
2.1
  42
1
  0
SEQEND
  0
POLYLINE
  8
Net
  6
CONTINUOUS
  66
1
  70
0
  40
0.002
  41
0.002
  0
VERTEX
  8
Net
  10
3.849
  20
2.1
  42
1
  0
VERTEX
  8
Net
  10
3.851
  20
2.1
  42
1
  0
VERTEX
  8
Net
  10
3.849
  20
2.1
  42
1
  0
SEQEND
  0
POLYLINE
  8
Net
  6
CONTINUOUS
  66
1
  70
0
  40
0.0039
  41
0.0039
  0
VERTEX
  8
Net
  10
3.6843
  20
2.1
  42
0
  0
VERTEX
  8
Net
  10
3.685
  20
2.0951
  42
0
  0
VERTEX
  8
Net
  10
3.6873
  20
2.0907
  42
0
  0
VERTEX
  8
Net
  10
3.6907
  20
2.0873
  42
0
  0
VERTEX
  8
Net
  10
3.6951
  20
2.085
  42
0
  0
VERTEX
  8
Net
  10
3.7
  20
2.0843
  42
0
  0
VERTEX
  8
Net
  10
3.7049
  20
2.085
  42
0
  0
VERTEX
  8
Net
  10
3.7093
  20
2.0873
  42
0
  0
VERTEX
  8
Net
  10
3.7127
  20
2.0907
  42
0
  0
VERTEX
  8
Net
  10
3.715
  20
2.0951
  42
0
  0
VERTEX
  8
Net
  10
3.7157
  20
2.1
  42
0
  0
VERTEX
  8
Net
  10
3.715
  20
2.1049
  42
0
  0
VERTEX
  8
Net
  10
3.7127
  20
2.1093
  42
0
  0
VERTEX
  8
Net
  10
3.7093
  20
2.1127
  42
0
  0
VERTEX
  8
Net
  10
3.7049
  20
2.115
  42
0
  0
VERTEX
  8
Net
  10
3.7
  20
2.1157
  42
0
  0
VERTEX
  8
Net
  10
3.6951
  20
2.115
  42
0
  0
VERTEX
  8
Net
  10
3.6907
  20
2.1127
  42
0
  0
VERTEX
  8
Net
  10
3.6873
  20
2.1093
  42
0
  0
VERTEX
  8
Net
  10
3.685
  20
2.1049
  42
0
  0
VERTEX
  8
Net
  10
3.6843
  20
2.1
  42
0
  0
SEQEND
  0
POLYLINE
  8
Net
  6
CONTINUOUS
  66
1
  70
0
  40
0.002
  41
0.002
  0
VERTEX
  8
Net
  10
3.6833
  20
2.1
  42
1
  0
VERTEX
  8
Net
  10
3.6852
  20
2.1
  42
1
  0
VERTEX
  8
Net
  10
3.6833
  20
2.1
  42
1
  0
SEQEND
  0
POLYLINE
  8
Net
  6
CONTINUOUS
  66
1
  70
0
  40
0.0039
  41
0.0039
  0
VERTEX
  8
Net
  10
3.85
  20
2.65
  42
0
  0
VERTEX
  8
Net
  10
3.7
  20
2.65
  42
0
  0
SEQEND
  0
POLYLINE
  8
Net
  6
CONTINUOUS
  66
1
  70
0
  40
0.002
  41
0.002
  0
VERTEX
  8
Net
  10
3.849
  20
2.65
  42
1
  0
VERTEX
  8
Net
  10
3.851
  20
2.65
  42
1
  0
VERTEX
  8
Net
  10
3.849
  20
2.65
  42
1
  0
SEQEND
  0
POLYLINE
  8
Net
  6
CONTINUOUS
  66
1
  70
0
  40
0.002
  41
0.002
  0
VERTEX
  8
Net
  10
3.699
  20
2.65
  42
1
  0
VERTEX
  8
Net
  10
3.701
  20
2.65
  42
1
  0
VERTEX
  8
Net
  10
3.699
  20
2.65
  42
1
  0
SEQEND
  0
POLYLINE
  8
Net
  6
CONTINUOUS
  66
1
  70
0
  40
0.0039
  41
0.0039
  0
VERTEX
  8
Net
  10
3.7
  20
2.65
  42
0
  0
VERTEX
  8
Net
  10
3.7
  20
2.1
  42
0
  0
SEQEND
  0
POLYLINE
  8
Net
  6
CONTINUOUS
  66
1
  70
0
  40
0.002
  41
0.002
  0
VERTEX
  8
Net
  10
3.699
  20
2.65
  42
1
  0
VERTEX
  8
Net
  10
3.701
  20
2.65
  42
1
  0
VERTEX
  8
Net
  10
3.699
  20
2.65
  42
1
  0
SEQEND
  0
POLYLINE
  8
Net
  6
CONTINUOUS
  66
1
  70
0
  40
0.002
  41
0.002
  0
VERTEX
  8
Net
  10
3.699
  20
2.1
  42
1
  0
VERTEX
  8
Net
  10
3.701
  20
2.1
  42
1
  0
VERTEX
  8
Net
  10
3.699
  20
2.1
  42
1
  0
SEQEND
  0
POLYLINE
  8
Net
  6
CONTINUOUS
  66
1
  70
0
  40
0.0039
  41
0.0039
  0
VERTEX
  8
Net
  10
4.35
  20
2.65
  42
0
  0
VERTEX
  8
Net
  10
4.65
  20
2.65
  42
0
  0
SEQEND
  0
POLYLINE
  8
Net
  6
CONTINUOUS
  66
1
  70
0
  40
0.002
  41
0.002
  0
VERTEX
  8
Net
  10
4.349
  20
2.65
  42
1
  0
VERTEX
  8
Net
  10
4.351
  20
2.65
  42
1
  0
VERTEX
  8
Net
  10
4.349
  20
2.65
  42
1
  0
SEQEND
  0
POLYLINE
  8
Net
  6
CONTINUOUS
  66
1
  70
0
  40
0.002
  41
0.002
  0
VERTEX
  8
Net
  10
4.649
  20
2.65
  42
1
  0
VERTEX
  8
Net
  10
4.651
  20
2.65
  42
1
  0
VERTEX
  8
Net
  10
4.649
  20
2.65
  42
1
  0
SEQEND
  0
POLYLINE
  8
Net
  6
CONTINUOUS
  66
1
  70
0
  40
0.0039
  41
0.0039
  0
VERTEX
  8
Net
  10
4.65
  20
2.65
  42
0
  0
VERTEX
  8
Net
  10
4.65
  20
2.35
  42
0
  0
SEQEND
  0
POLYLINE
  8
Net
  6
CONTINUOUS
  66
1
  70
0
  40
0.002
  41
0.002
  0
VERTEX
  8
Net
  10
4.649
  20
2.65
  42
1
  0
VERTEX
  8
Net
  10
4.651
  20
2.65
  42
1
  0
VERTEX
  8
Net
  10
4.649
  20
2.65
  42
1
  0
SEQEND
  0
POLYLINE
  8
Net
  6
CONTINUOUS
  66
1
  70
0
  40
0.002
  41
0.002
  0
VERTEX
  8
Net
  10
4.649
  20
2.35
  42
1
  0
VERTEX
  8
Net
  10
4.651
  20
2.35
  42
1
  0
VERTEX
  8
Net
  10
4.649
  20
2.35
  42
1
  0
SEQEND
  0
POLYLINE
  8
Net
  6
CONTINUOUS
  66
1
  70
0
  40
0.0039
  41
0.0039
  0
VERTEX
  8
Net
  10
4.65
  20
2.35
  42
0
  0
VERTEX
  8
Net
  10
4.75
  20
2.35
  42
0
  0
SEQEND
  0
POLYLINE
  8
Net
  6
CONTINUOUS
  66
1
  70
0
  40
0.002
  41
0.002
  0
VERTEX
  8
Net
  10
4.649
  20
2.35
  42
1
  0
VERTEX
  8
Net
  10
4.651
  20
2.35
  42
1
  0
VERTEX
  8
Net
  10
4.649
  20
2.35
  42
1
  0
SEQEND
  0
POLYLINE
  8
Net
  6
CONTINUOUS
  66
1
  70
0
  40
0.002
  41
0.002
  0
VERTEX
  8
Net
  10
4.749
  20
2.35
  42
1
  0
VERTEX
  8
Net
  10
4.751
  20
2.35
  42
1
  0
VERTEX
  8
Net
  10
4.749
  20
2.35
  42
1
  0
SEQEND
  0
POLYLINE
  8
Net
  6
CONTINUOUS
  66
1
  70
0
  40
0.0039
  41
0.0039
  0
VERTEX
  8
Net
  10
4.75
  20
2.35
  42
0
  0
VERTEX
  8
Net
  10
4.75
  20
2.45
  42
0
  0
SEQEND
  0
POLYLINE
  8
Net
  6
CONTINUOUS
  66
1
  70
0
  40
0.002
  41
0.002
  0
VERTEX
  8
Net
  10
4.749
  20
2.35
  42
1
  0
VERTEX
  8
Net
  10
4.751
  20
2.35
  42
1
  0
VERTEX
  8
Net
  10
4.749
  20
2.35
  42
1
  0
SEQEND
  0
POLYLINE
  8
Net
  6
CONTINUOUS
  66
1
  70
0
  40
0.002
  41
0.002
  0
VERTEX
  8
Net
  10
4.749
  20
2.45
  42
1
  0
VERTEX
  8
Net
  10
4.751
  20
2.45
  42
1
  0
VERTEX
  8
Net
  10
4.749
  20
2.45
  42
1
  0
SEQEND
  0
POLYLINE
  8
Net
  6
CONTINUOUS
  66
1
  70
0
  40
0.0039
  41
0.0039
  0
VERTEX
  8
Net
  10
4.5
  20
4.05
  42
0
  0
VERTEX
  8
Net
  10
5.2
  20
4.05
  42
0
  0
SEQEND
  0
POLYLINE
  8
Net
  6
CONTINUOUS
  66
1
  70
0
  40
0.002
  41
0.002
  0
VERTEX
  8
Net
  10
4.499
  20
4.05
  42
1
  0
VERTEX
  8
Net
  10
4.501
  20
4.05
  42
1
  0
VERTEX
  8
Net
  10
4.499
  20
4.05
  42
1
  0
SEQEND
  0
POLYLINE
  8
Net
  6
CONTINUOUS
  66
1
  70
0
  40
0.002
  41
0.002
  0
VERTEX
  8
Net
  10
5.199
  20
4.05
  42
1
  0
VERTEX
  8
Net
  10
5.201
  20
4.05
  42
1
  0
VERTEX
  8
Net
  10
5.199
  20
4.05
  42
1
  0
SEQEND
  0
POLYLINE
  8
Net
  6
CONTINUOUS
  66
1
  70
0
  40
0.0039
  41
0.0039
  0
VERTEX
  8
Net
  10
5.2
  20
4.05
  42
0
  0
VERTEX
  8
Net
  10
5.2
  20
2.1
  42
0
  0
SEQEND
  0
POLYLINE
  8
Net
  6
CONTINUOUS
  66
1
  70
0
  40
0.002
  41
0.002
  0
VERTEX
  8
Net
  10
5.199
  20
4.05
  42
1
  0
VERTEX
  8
Net
  10
5.201
  20
4.05
  42
1
  0
VERTEX
  8
Net
  10
5.199
  20
4.05
  42
1
  0
SEQEND
  0
POLYLINE
  8
Net
  6
CONTINUOUS
  66
1
  70
0
  40
0.002
  41
0.002
  0
VERTEX
  8
Net
  10
5.199
  20
2.1
  42
1
  0
VERTEX
  8
Net
  10
5.201
  20
2.1
  42
1
  0
VERTEX
  8
Net
  10
5.199
  20
2.1
  42
1
  0
SEQEND
  0
POLYLINE
  8
Net
  6
CONTINUOUS
  66
1
  70
0
  40
0.0039
  41
0.0039
  0
VERTEX
  8
Net
  10
5.2
  20
2.1
  42
0
  0
VERTEX
  8
Net
  10
4.3536
  20
2.1
  42
0
  0
SEQEND
  0
POLYLINE
  8
Net
  6
CONTINUOUS
  66
1
  70
0
  40
0.002
  41
0.002
  0
VERTEX
  8
Net
  10
5.199
  20
2.1
  42
1
  0
VERTEX
  8
Net
  10
5.201
  20
2.1
  42
1
  0
VERTEX
  8
Net
  10
5.199
  20
2.1
  42
1
  0
SEQEND
  0
POLYLINE
  8
Net
  6
CONTINUOUS
  66
1
  70
0
  40
0.002
  41
0.002
  0
VERTEX
  8
Net
  10
4.3526
  20
2.1
  42
1
  0
VERTEX
  8
Net
  10
4.3546
  20
2.1
  42
1
  0
VERTEX
  8
Net
  10
4.3526
  20
2.1
  42
1
  0
SEQEND
  0
POLYLINE
  8
Net
  6
CONTINUOUS
  66
1
  70
0
  40
0.0039
  41
0.0039
  0
VERTEX
  8
Net
  10
4.8343
  20
2.1
  42
0
  0
VERTEX
  8
Net
  10
4.835
  20
2.0951
  42
0
  0
VERTEX
  8
Net
  10
4.8373
  20
2.0907
  42
0
  0
VERTEX
  8
Net
  10
4.8407
  20
2.0873
  42
0
  0
VERTEX
  8
Net
  10
4.8451
  20
2.085
  42
0
  0
VERTEX
  8
Net
  10
4.85
  20
2.0843
  42
0
  0
VERTEX
  8
Net
  10
4.8549
  20
2.085
  42
0
  0
VERTEX
  8
Net
  10
4.8593
  20
2.0873
  42
0
  0
VERTEX
  8
Net
  10
4.8627
  20
2.0907
  42
0
  0
VERTEX
  8
Net
  10
4.865
  20
2.0951
  42
0
  0
VERTEX
  8
Net
  10
4.8657
  20
2.1
  42
0
  0
VERTEX
  8
Net
  10
4.865
  20
2.1049
  42
0
  0
VERTEX
  8
Net
  10
4.8627
  20
2.1093
  42
0
  0
VERTEX
  8
Net
  10
4.8593
  20
2.1127
  42
0
  0
VERTEX
  8
Net
  10
4.8549
  20
2.115
  42
0
  0
VERTEX
  8
Net
  10
4.85
  20
2.1157
  42
0
  0
VERTEX
  8
Net
  10
4.8451
  20
2.115
  42
0
  0
VERTEX
  8
Net
  10
4.8407
  20
2.1127
  42
0
  0
VERTEX
  8
Net
  10
4.8373
  20
2.1093
  42
0
  0
VERTEX
  8
Net
  10
4.835
  20
2.1049
  42
0
  0
VERTEX
  8
Net
  10
4.8343
  20
2.1
  42
0
  0
SEQEND
  0
POLYLINE
  8
Net
  6
CONTINUOUS
  66
1
  70
0
  40
0.002
  41
0.002
  0
VERTEX
  8
Net
  10
4.8333
  20
2.1
  42
1
  0
VERTEX
  8
Net
  10
4.8352
  20
2.1
  42
1
  0
VERTEX
  8
Net
  10
4.8333
  20
2.1
  42
1
  0
SEQEND
  0
POLYLINE
  8
Net
  6
CONTINUOUS
  66
1
  70
0
  40
0.0039
  41
0.0039
  0
VERTEX
  8
Net
  10
4.85
  20
2.45
  42
0
  0
VERTEX
  8
Net
  10
4.85
  20
2.1
  42
0
  0
SEQEND
  0
POLYLINE
  8
Net
  6
CONTINUOUS
  66
1
  70
0
  40
0.002
  41
0.002
  0
VERTEX
  8
Net
  10
4.849
  20
2.45
  42
1
  0
VERTEX
  8
Net
  10
4.851
  20
2.45
  42
1
  0
VERTEX
  8
Net
  10
4.849
  20
2.45
  42
1
  0
SEQEND
  0
POLYLINE
  8
Net
  6
CONTINUOUS
  66
1
  70
0
  40
0.002
  41
0.002
  0
VERTEX
  8
Net
  10
4.849
  20
2.1
  42
1
  0
VERTEX
  8
Net
  10
4.851
  20
2.1
  42
1
  0
VERTEX
  8
Net
  10
4.849
  20
2.1
  42
1
  0
SEQEND
  0
POLYLINE
  8
Net
  6
CONTINUOUS
  66
1
  70
0
  40
0.0039
  41
0.0039
  0
VERTEX
  8
Net
  10
4.8343
  20
2.1
  42
0
  0
VERTEX
  8
Net
  10
4.835
  20
2.0951
  42
0
  0
VERTEX
  8
Net
  10
4.8373
  20
2.0907
  42
0
  0
VERTEX
  8
Net
  10
4.8407
  20
2.0873
  42
0
  0
VERTEX
  8
Net
  10
4.8451
  20
2.085
  42
0
  0
VERTEX
  8
Net
  10
4.85
  20
2.0843
  42
0
  0
VERTEX
  8
Net
  10
4.8549
  20
2.085
  42
0
  0
VERTEX
  8
Net
  10
4.8593
  20
2.0873
  42
0
  0
VERTEX
  8
Net
  10
4.8627
  20
2.0907
  42
0
  0
VERTEX
  8
Net
  10
4.865
  20
2.0951
  42
0
  0
VERTEX
  8
Net
  10
4.8657
  20
2.1
  42
0
  0
VERTEX
  8
Net
  10
4.865
  20
2.1049
  42
0
  0
VERTEX
  8
Net
  10
4.8627
  20
2.1093
  42
0
  0
VERTEX
  8
Net
  10
4.8593
  20
2.1127
  42
0
  0
VERTEX
  8
Net
  10
4.8549
  20
2.115
  42
0
  0
VERTEX
  8
Net
  10
4.85
  20
2.1157
  42
0
  0
VERTEX
  8
Net
  10
4.8451
  20
2.115
  42
0
  0
VERTEX
  8
Net
  10
4.8407
  20
2.1127
  42
0
  0
VERTEX
  8
Net
  10
4.8373
  20
2.1093
  42
0
  0
VERTEX
  8
Net
  10
4.835
  20
2.1049
  42
0
  0
VERTEX
  8
Net
  10
4.8343
  20
2.1
  42
0
  0
SEQEND
  0
POLYLINE
  8
Net
  6
CONTINUOUS
  66
1
  70
0
  40
0.002
  41
0.002
  0
VERTEX
  8
Net
  10
4.8333
  20
2.1
  42
1
  0
VERTEX
  8
Net
  10
4.8352
  20
2.1
  42
1
  0
VERTEX
  8
Net
  10
4.8333
  20
2.1
  42
1
  0
SEQEND
  0
POLYLINE
  8
Net
  6
CONTINUOUS
  66
1
  70
0
  40
0.0039
  41
0.0039
  0
VERTEX
  8
Net
  10
3.9
  20
1.6
  42
0
  0
VERTEX
  8
Net
  10
3.8
  20
1.6
  42
0
  0
SEQEND
  0
POLYLINE
  8
Net
  6
CONTINUOUS
  66
1
  70
0
  40
0.002
  41
0.002
  0
VERTEX
  8
Net
  10
3.899
  20
1.6
  42
1
  0
VERTEX
  8
Net
  10
3.901
  20
1.6
  42
1
  0
VERTEX
  8
Net
  10
3.899
  20
1.6
  42
1
  0
SEQEND
  0
POLYLINE
  8
Net
  6
CONTINUOUS
  66
1
  70
0
  40
0.002
  41
0.002
  0
VERTEX
  8
Net
  10
3.799
  20
1.6
  42
1
  0
VERTEX
  8
Net
  10
3.801
  20
1.6
  42
1
  0
VERTEX
  8
Net
  10
3.799
  20
1.6
  42
1
  0
SEQEND
  0
POLYLINE
  8
Net
  6
CONTINUOUS
  66
1
  70
0
  40
0.0039
  41
0.0039
  0
VERTEX
  8
Net
  10
3.8
  20
1.6
  42
0
  0
VERTEX
  8
Net
  10
3.8
  20
1.85
  42
0
  0
SEQEND
  0
POLYLINE
  8
Net
  6
CONTINUOUS
  66
1
  70
0
  40
0.002
  41
0.002
  0
VERTEX
  8
Net
  10
3.799
  20
1.6
  42
1
  0
VERTEX
  8
Net
  10
3.801
  20
1.6
  42
1
  0
VERTEX
  8
Net
  10
3.799
  20
1.6
  42
1
  0
SEQEND
  0
POLYLINE
  8
Net
  6
CONTINUOUS
  66
1
  70
0
  40
0.002
  41
0.002
  0
VERTEX
  8
Net
  10
3.799
  20
1.85
  42
1
  0
VERTEX
  8
Net
  10
3.801
  20
1.85
  42
1
  0
VERTEX
  8
Net
  10
3.799
  20
1.85
  42
1
  0
SEQEND
  0
POLYLINE
  8
Net
  6
CONTINUOUS
  66
1
  70
0
  40
0.0039
  41
0.0039
  0
VERTEX
  8
Net
  10
3.8
  20
1.85
  42
0
  0
VERTEX
  8
Net
  10
4.85
  20
1.85
  42
0
  0
SEQEND
  0
POLYLINE
  8
Net
  6
CONTINUOUS
  66
1
  70
0
  40
0.002
  41
0.002
  0
VERTEX
  8
Net
  10
3.799
  20
1.85
  42
1
  0
VERTEX
  8
Net
  10
3.801
  20
1.85
  42
1
  0
VERTEX
  8
Net
  10
3.799
  20
1.85
  42
1
  0
SEQEND
  0
POLYLINE
  8
Net
  6
CONTINUOUS
  66
1
  70
0
  40
0.002
  41
0.002
  0
VERTEX
  8
Net
  10
4.849
  20
1.85
  42
1
  0
VERTEX
  8
Net
  10
4.851
  20
1.85
  42
1
  0
VERTEX
  8
Net
  10
4.849
  20
1.85
  42
1
  0
SEQEND
  0
POLYLINE
  8
Net
  6
CONTINUOUS
  66
1
  70
0
  40
0.0039
  41
0.0039
  0
VERTEX
  8
Net
  10
4.85
  20
1.85
  42
0
  0
VERTEX
  8
Net
  10
4.85
  20
2.1
  42
0
  0
SEQEND
  0
POLYLINE
  8
Net
  6
CONTINUOUS
  66
1
  70
0
  40
0.002
  41
0.002
  0
VERTEX
  8
Net
  10
4.849
  20
1.85
  42
1
  0
VERTEX
  8
Net
  10
4.851
  20
1.85
  42
1
  0
VERTEX
  8
Net
  10
4.849
  20
1.85
  42
1
  0
SEQEND
  0
POLYLINE
  8
Net
  6
CONTINUOUS
  66
1
  70
0
  40
0.002
  41
0.002
  0
VERTEX
  8
Net
  10
4.849
  20
2.1
  42
1
  0
VERTEX
  8
Net
  10
4.851
  20
2.1
  42
1
  0
VERTEX
  8
Net
  10
4.849
  20
2.1
  42
1
  0
SEQEND
  0
POLYLINE
  8
Net
  6
CONTINUOUS
  66
1
  70
0
  40
0.0039
  41
0.0039
  0
VERTEX
  8
Net
  10
4.15
  20
1.25
  42
0
  0
VERTEX
  8
Net
  10
4.15
  20
1.15
  42
0
  0
SEQEND
  0
POLYLINE
  8
Net
  6
CONTINUOUS
  66
1
  70
0
  40
0.002
  41
0.002
  0
VERTEX
  8
Net
  10
4.149
  20
1.25
  42
1
  0
VERTEX
  8
Net
  10
4.151
  20
1.25
  42
1
  0
VERTEX
  8
Net
  10
4.149
  20
1.25
  42
1
  0
SEQEND
  0
POLYLINE
  8
Net
  6
CONTINUOUS
  66
1
  70
0
  40
0.002
  41
0.002
  0
VERTEX
  8
Net
  10
4.149
  20
1.15
  42
1
  0
VERTEX
  8
Net
  10
4.151
  20
1.15
  42
1
  0
VERTEX
  8
Net
  10
4.149
  20
1.15
  42
1
  0
SEQEND
  0
POLYLINE
  8
Net
  6
CONTINUOUS
  66
1
  70
0
  40
0.0039
  41
0.0039
  0
VERTEX
  8
Net
  10
4.15
  20
1.15
  42
0
  0
VERTEX
  8
Net
  10
3.6
  20
1.15
  42
0
  0
SEQEND
  0
POLYLINE
  8
Net
  6
CONTINUOUS
  66
1
  70
0
  40
0.002
  41
0.002
  0
VERTEX
  8
Net
  10
4.149
  20
1.15
  42
1
  0
VERTEX
  8
Net
  10
4.151
  20
1.15
  42
1
  0
VERTEX
  8
Net
  10
4.149
  20
1.15
  42
1
  0
SEQEND
  0
POLYLINE
  8
Net
  6
CONTINUOUS
  66
1
  70
0
  40
0.002
  41
0.002
  0
VERTEX
  8
Net
  10
3.599
  20
1.15
  42
1
  0
VERTEX
  8
Net
  10
3.601
  20
1.15
  42
1
  0
VERTEX
  8
Net
  10
3.599
  20
1.15
  42
1
  0
SEQEND
  0
POLYLINE
  8
Net
  6
CONTINUOUS
  66
1
  70
0
  40
0.0039
  41
0.0039
  0
VERTEX
  8
Net
  10
3.6
  20
1.15
  42
0
  0
VERTEX
  8
Net
  10
3.6
  20
1.0
  42
0
  0
SEQEND
  0
POLYLINE
  8
Net
  6
CONTINUOUS
  66
1
  70
0
  40
0.002
  41
0.002
  0
VERTEX
  8
Net
  10
3.599
  20
1.15
  42
1
  0
VERTEX
  8
Net
  10
3.601
  20
1.15
  42
1
  0
VERTEX
  8
Net
  10
3.599
  20
1.15
  42
1
  0
SEQEND
  0
POLYLINE
  8
Net
  6
CONTINUOUS
  66
1
  70
0
  40
0.002
  41
0.002
  0
VERTEX
  8
Net
  10
3.599
  20
1.0
  42
1
  0
VERTEX
  8
Net
  10
3.601
  20
1.0
  42
1
  0
VERTEX
  8
Net
  10
3.599
  20
1.0
  42
1
  0
SEQEND
  0
POLYLINE
  8
Net
  6
CONTINUOUS
  66
1
  70
0
  40
0.0039
  41
0.0039
  0
VERTEX
  8
Net
  10
3.6
  20
1.0
  42
0
  0
VERTEX
  8
Net
  10
3.3
  20
1.0
  42
0
  0
SEQEND
  0
POLYLINE
  8
Net
  6
CONTINUOUS
  66
1
  70
0
  40
0.002
  41
0.002
  0
VERTEX
  8
Net
  10
3.599
  20
1.0
  42
1
  0
VERTEX
  8
Net
  10
3.601
  20
1.0
  42
1
  0
VERTEX
  8
Net
  10
3.599
  20
1.0
  42
1
  0
SEQEND
  0
POLYLINE
  8
Net
  6
CONTINUOUS
  66
1
  70
0
  40
0.002
  41
0.002
  0
VERTEX
  8
Net
  10
3.299
  20
1.0
  42
1
  0
VERTEX
  8
Net
  10
3.301
  20
1.0
  42
1
  0
VERTEX
  8
Net
  10
3.299
  20
1.0
  42
1
  0
SEQEND
  0
POLYLINE
  8
Net
  6
CONTINUOUS
  66
1
  70
0
  40
0.0039
  41
0.0039
  0
VERTEX
  8
Net
  10
4.15
  20
0.6
  42
0
  0
VERTEX
  8
Net
  10
4.15
  20
0.5
  42
0
  0
SEQEND
  0
POLYLINE
  8
Net
  6
CONTINUOUS
  66
1
  70
0
  40
0.002
  41
0.002
  0
VERTEX
  8
Net
  10
4.149
  20
0.6
  42
1
  0
VERTEX
  8
Net
  10
4.151
  20
0.6
  42
1
  0
VERTEX
  8
Net
  10
4.149
  20
0.6
  42
1
  0
SEQEND
  0
POLYLINE
  8
Net
  6
CONTINUOUS
  66
1
  70
0
  40
0.002
  41
0.002
  0
VERTEX
  8
Net
  10
4.149
  20
0.5
  42
1
  0
VERTEX
  8
Net
  10
4.151
  20
0.5
  42
1
  0
VERTEX
  8
Net
  10
4.149
  20
0.5
  42
1
  0
SEQEND
  0
POLYLINE
  8
Net
  6
CONTINUOUS
  66
1
  70
0
  40
0.0039
  41
0.0039
  0
VERTEX
  8
Net
  10
4.15
  20
0.5
  42
0
  0
VERTEX
  8
Net
  10
3.4
  20
0.5
  42
0
  0
SEQEND
  0
POLYLINE
  8
Net
  6
CONTINUOUS
  66
1
  70
0
  40
0.002
  41
0.002
  0
VERTEX
  8
Net
  10
4.149
  20
0.5
  42
1
  0
VERTEX
  8
Net
  10
4.151
  20
0.5
  42
1
  0
VERTEX
  8
Net
  10
4.149
  20
0.5
  42
1
  0
SEQEND
  0
POLYLINE
  8
Net
  6
CONTINUOUS
  66
1
  70
0
  40
0.002
  41
0.002
  0
VERTEX
  8
Net
  10
3.399
  20
0.5
  42
1
  0
VERTEX
  8
Net
  10
3.401
  20
0.5
  42
1
  0
VERTEX
  8
Net
  10
3.399
  20
0.5
  42
1
  0
SEQEND
  0
POLYLINE
  8
Net
  6
CONTINUOUS
  66
1
  70
0
  40
0.0039
  41
0.0039
  0
VERTEX
  8
Net
  10
3.4
  20
0.5
  42
0
  0
VERTEX
  8
Net
  10
3.4
  20
0.8
  42
0
  0
SEQEND
  0
POLYLINE
  8
Net
  6
CONTINUOUS
  66
1
  70
0
  40
0.002
  41
0.002
  0
VERTEX
  8
Net
  10
3.399
  20
0.5
  42
1
  0
VERTEX
  8
Net
  10
3.401
  20
0.5
  42
1
  0
VERTEX
  8
Net
  10
3.399
  20
0.5
  42
1
  0
SEQEND
  0
POLYLINE
  8
Net
  6
CONTINUOUS
  66
1
  70
0
  40
0.002
  41
0.002
  0
VERTEX
  8
Net
  10
3.399
  20
0.8
  42
1
  0
VERTEX
  8
Net
  10
3.401
  20
0.8
  42
1
  0
VERTEX
  8
Net
  10
3.399
  20
0.8
  42
1
  0
SEQEND
  0
POLYLINE
  8
Net
  6
CONTINUOUS
  66
1
  70
0
  40
0.0039
  41
0.0039
  0
VERTEX
  8
Net
  10
3.4
  20
0.8
  42
0
  0
VERTEX
  8
Net
  10
3.3
  20
0.8
  42
0
  0
SEQEND
  0
POLYLINE
  8
Net
  6
CONTINUOUS
  66
1
  70
0
  40
0.002
  41
0.002
  0
VERTEX
  8
Net
  10
3.399
  20
0.8
  42
1
  0
VERTEX
  8
Net
  10
3.401
  20
0.8
  42
1
  0
VERTEX
  8
Net
  10
3.399
  20
0.8
  42
1
  0
SEQEND
  0
POLYLINE
  8
Net
  6
CONTINUOUS
  66
1
  70
0
  40
0.002
  41
0.002
  0
VERTEX
  8
Net
  10
3.299
  20
0.8
  42
1
  0
VERTEX
  8
Net
  10
3.301
  20
0.8
  42
1
  0
VERTEX
  8
Net
  10
3.299
  20
0.8
  42
1
  0
SEQEND
  0
POLYLINE
  8
Net
  6
CONTINUOUS
  66
1
  70
0
  40
0.0039
  41
0.0039
  0
VERTEX
  8
Net
  10
3.7
  20
3.95
  42
0
  0
VERTEX
  8
Net
  10
2.05
  20
3.95
  42
0
  0
SEQEND
  0
POLYLINE
  8
Net
  6
CONTINUOUS
  66
1
  70
0
  40
0.002
  41
0.002
  0
VERTEX
  8
Net
  10
3.699
  20
3.95
  42
1
  0
VERTEX
  8
Net
  10
3.701
  20
3.95
  42
1
  0
VERTEX
  8
Net
  10
3.699
  20
3.95
  42
1
  0
SEQEND
  0
POLYLINE
  8
Net
  6
CONTINUOUS
  66
1
  70
0
  40
0.002
  41
0.002
  0
VERTEX
  8
Net
  10
2.049
  20
3.95
  42
1
  0
VERTEX
  8
Net
  10
2.051
  20
3.95
  42
1
  0
VERTEX
  8
Net
  10
2.049
  20
3.95
  42
1
  0
SEQEND
  0
POLYLINE
  8
Net
  6
CONTINUOUS
  66
1
  70
0
  40
0.0039
  41
0.0039
  0
VERTEX
  8
Net
  10
2.05
  20
3.95
  42
0
  0
VERTEX
  8
Net
  10
2.05
  20
1.35
  42
0
  0
SEQEND
  0
POLYLINE
  8
Net
  6
CONTINUOUS
  66
1
  70
0
  40
0.002
  41
0.002
  0
VERTEX
  8
Net
  10
2.049
  20
3.95
  42
1
  0
VERTEX
  8
Net
  10
2.051
  20
3.95
  42
1
  0
VERTEX
  8
Net
  10
2.049
  20
3.95
  42
1
  0
SEQEND
  0
POLYLINE
  8
Net
  6
CONTINUOUS
  66
1
  70
0
  40
0.002
  41
0.002
  0
VERTEX
  8
Net
  10
2.049
  20
1.35
  42
1
  0
VERTEX
  8
Net
  10
2.051
  20
1.35
  42
1
  0
VERTEX
  8
Net
  10
2.049
  20
1.35
  42
1
  0
SEQEND
  0
POLYLINE
  8
Net
  6
CONTINUOUS
  66
1
  70
0
  40
0.0039
  41
0.0039
  0
VERTEX
  8
Net
  10
2.05
  20
1.35
  42
0
  0
VERTEX
  8
Net
  10
1.6031
  20
1.35
  42
0
  0
SEQEND
  0
POLYLINE
  8
Net
  6
CONTINUOUS
  66
1
  70
0
  40
0.002
  41
0.002
  0
VERTEX
  8
Net
  10
2.049
  20
1.35
  42
1
  0
VERTEX
  8
Net
  10
2.051
  20
1.35
  42
1
  0
VERTEX
  8
Net
  10
2.049
  20
1.35
  42
1
  0
SEQEND
  0
POLYLINE
  8
Net
  6
CONTINUOUS
  66
1
  70
0
  40
0.002
  41
0.002
  0
VERTEX
  8
Net
  10
1.6022
  20
1.35
  42
1
  0
VERTEX
  8
Net
  10
1.6041
  20
1.35
  42
1
  0
VERTEX
  8
Net
  10
1.6022
  20
1.35
  42
1
  0
SEQEND
  0
POLYLINE
  8
Net
  6
CONTINUOUS
  66
1
  70
0
  40
0.0039
  41
0.0039
  0
VERTEX
  8
Net
  10
1.3531
  20
1.0
  42
0
  0
VERTEX
  8
Net
  10
1.3531
  20
0.9
  42
0
  0
SEQEND
  0
POLYLINE
  8
Net
  6
CONTINUOUS
  66
1
  70
0
  40
0.002
  41
0.002
  0
VERTEX
  8
Net
  10
1.3522
  20
1.0
  42
1
  0
VERTEX
  8
Net
  10
1.3541
  20
1.0
  42
1
  0
VERTEX
  8
Net
  10
1.3522
  20
1.0
  42
1
  0
SEQEND
  0
POLYLINE
  8
Net
  6
CONTINUOUS
  66
1
  70
0
  40
0.002
  41
0.002
  0
VERTEX
  8
Net
  10
1.3522
  20
0.9
  42
1
  0
VERTEX
  8
Net
  10
1.3541
  20
0.9
  42
1
  0
VERTEX
  8
Net
  10
1.3522
  20
0.9
  42
1
  0
SEQEND
  0
POLYLINE
  8
Net
  6
CONTINUOUS
  66
1
  70
0
  40
0.0039
  41
0.0039
  0
VERTEX
  8
Net
  10
1.3531
  20
0.9
  42
0
  0
VERTEX
  8
Net
  10
2.5
  20
0.9
  42
0
  0
SEQEND
  0
POLYLINE
  8
Net
  6
CONTINUOUS
  66
1
  70
0
  40
0.002
  41
0.002
  0
VERTEX
  8
Net
  10
1.3522
  20
0.9
  42
1
  0
VERTEX
  8
Net
  10
1.3541
  20
0.9
  42
1
  0
VERTEX
  8
Net
  10
1.3522
  20
0.9
  42
1
  0
SEQEND
  0
POLYLINE
  8
Net
  6
CONTINUOUS
  66
1
  70
0
  40
0.002
  41
0.002
  0
VERTEX
  8
Net
  10
2.499
  20
0.9
  42
1
  0
VERTEX
  8
Net
  10
2.501
  20
0.9
  42
1
  0
VERTEX
  8
Net
  10
2.499
  20
0.9
  42
1
  0
SEQEND
  0
POLYLINE
  8
Net
  6
CONTINUOUS
  66
1
  70
0
  40
0.0039
  41
0.0039
  0
VERTEX
  8
Net
  10
2.5
  20
0.7
  42
0
  0
VERTEX
  8
Net
  10
2.5
  20
0.2
  42
0
  0
SEQEND
  0
POLYLINE
  8
Net
  6
CONTINUOUS
  66
1
  70
0
  40
0.002
  41
0.002
  0
VERTEX
  8
Net
  10
2.499
  20
0.7
  42
1
  0
VERTEX
  8
Net
  10
2.501
  20
0.7
  42
1
  0
VERTEX
  8
Net
  10
2.499
  20
0.7
  42
1
  0
SEQEND
  0
POLYLINE
  8
Net
  6
CONTINUOUS
  66
1
  70
0
  40
0.002
  41
0.002
  0
VERTEX
  8
Net
  10
2.499
  20
0.2
  42
1
  0
VERTEX
  8
Net
  10
2.501
  20
0.2
  42
1
  0
VERTEX
  8
Net
  10
2.499
  20
0.2
  42
1
  0
SEQEND
  0
POLYLINE
  8
Net
  6
CONTINUOUS
  66
1
  70
0
  40
0.0039
  41
0.0039
  0
VERTEX
  8
Net
  10
2.5
  20
0.2
  42
0
  0
VERTEX
  8
Net
  10
1.3531
  20
0.2
  42
0
  0
SEQEND
  0
POLYLINE
  8
Net
  6
CONTINUOUS
  66
1
  70
0
  40
0.002
  41
0.002
  0
VERTEX
  8
Net
  10
2.499
  20
0.2
  42
1
  0
VERTEX
  8
Net
  10
2.501
  20
0.2
  42
1
  0
VERTEX
  8
Net
  10
2.499
  20
0.2
  42
1
  0
SEQEND
  0
POLYLINE
  8
Net
  6
CONTINUOUS
  66
1
  70
0
  40
0.002
  41
0.002
  0
VERTEX
  8
Net
  10
1.3522
  20
0.2
  42
1
  0
VERTEX
  8
Net
  10
1.3541
  20
0.2
  42
1
  0
VERTEX
  8
Net
  10
1.3522
  20
0.2
  42
1
  0
SEQEND
  0
POLYLINE
  8
Net
  6
CONTINUOUS
  66
1
  70
0
  40
0.0039
  41
0.0039
  0
VERTEX
  8
Net
  10
1.3531
  20
0.2
  42
0
  0
VERTEX
  8
Net
  10
1.3531
  20
0.3
  42
0
  0
SEQEND
  0
POLYLINE
  8
Net
  6
CONTINUOUS
  66
1
  70
0
  40
0.002
  41
0.002
  0
VERTEX
  8
Net
  10
1.3522
  20
0.2
  42
1
  0
VERTEX
  8
Net
  10
1.3541
  20
0.2
  42
1
  0
VERTEX
  8
Net
  10
1.3522
  20
0.2
  42
1
  0
SEQEND
  0
POLYLINE
  8
Net
  6
CONTINUOUS
  66
1
  70
0
  40
0.002
  41
0.002
  0
VERTEX
  8
Net
  10
1.3522
  20
0.3
  42
1
  0
VERTEX
  8
Net
  10
1.3541
  20
0.3
  42
1
  0
VERTEX
  8
Net
  10
1.3522
  20
0.3
  42
1
  0
SEQEND
  0
POLYLINE
  8
Net
  6
CONTINUOUS
  66
1
  70
0
  40
0.0039
  41
0.0039
  0
VERTEX
  8
Net
  10
1.6031
  20
0.65
  42
0
  0
VERTEX
  8
Net
  10
1.6031
  20
0.5
  42
0
  0
SEQEND
  0
POLYLINE
  8
Net
  6
CONTINUOUS
  66
1
  70
0
  40
0.002
  41
0.002
  0
VERTEX
  8
Net
  10
1.6022
  20
0.65
  42
1
  0
VERTEX
  8
Net
  10
1.6041
  20
0.65
  42
1
  0
VERTEX
  8
Net
  10
1.6022
  20
0.65
  42
1
  0
SEQEND
  0
POLYLINE
  8
Net
  6
CONTINUOUS
  66
1
  70
0
  40
0.002
  41
0.002
  0
VERTEX
  8
Net
  10
1.6022
  20
0.5
  42
1
  0
VERTEX
  8
Net
  10
1.6041
  20
0.5
  42
1
  0
VERTEX
  8
Net
  10
1.6022
  20
0.5
  42
1
  0
SEQEND
  0
POLYLINE
  8
Net
  6
CONTINUOUS
  66
1
  70
0
  40
0.0039
  41
0.0039
  0
VERTEX
  8
Net
  10
1.6031
  20
0.5
  42
0
  0
VERTEX
  8
Net
  10
2.15
  20
0.5
  42
0
  0
SEQEND
  0
POLYLINE
  8
Net
  6
CONTINUOUS
  66
1
  70
0
  40
0.002
  41
0.002
  0
VERTEX
  8
Net
  10
1.6022
  20
0.5
  42
1
  0
VERTEX
  8
Net
  10
1.6041
  20
0.5
  42
1
  0
VERTEX
  8
Net
  10
1.6022
  20
0.5
  42
1
  0
SEQEND
  0
POLYLINE
  8
Net
  6
CONTINUOUS
  66
1
  70
0
  40
0.002
  41
0.002
  0
VERTEX
  8
Net
  10
2.149
  20
0.5
  42
1
  0
VERTEX
  8
Net
  10
2.151
  20
0.5
  42
1
  0
VERTEX
  8
Net
  10
2.149
  20
0.5
  42
1
  0
SEQEND
  0
POLYLINE
  8
Net
  6
CONTINUOUS
  66
1
  70
0
  40
0.0039
  41
0.0039
  0
VERTEX
  8
Net
  10
2.15
  20
0.5
  42
0
  0
VERTEX
  8
Net
  10
2.15
  20
3.75
  42
0
  0
SEQEND
  0
POLYLINE
  8
Net
  6
CONTINUOUS
  66
1
  70
0
  40
0.002
  41
0.002
  0
VERTEX
  8
Net
  10
2.149
  20
0.5
  42
1
  0
VERTEX
  8
Net
  10
2.151
  20
0.5
  42
1
  0
VERTEX
  8
Net
  10
2.149
  20
0.5
  42
1
  0
SEQEND
  0
POLYLINE
  8
Net
  6
CONTINUOUS
  66
1
  70
0
  40
0.002
  41
0.002
  0
VERTEX
  8
Net
  10
2.149
  20
3.75
  42
1
  0
VERTEX
  8
Net
  10
2.151
  20
3.75
  42
1
  0
VERTEX
  8
Net
  10
2.149
  20
3.75
  42
1
  0
SEQEND
  0
POLYLINE
  8
Net
  6
CONTINUOUS
  66
1
  70
0
  40
0.0039
  41
0.0039
  0
VERTEX
  8
Net
  10
2.15
  20
3.75
  42
0
  0
VERTEX
  8
Net
  10
3.7
  20
3.75
  42
0
  0
SEQEND
  0
POLYLINE
  8
Net
  6
CONTINUOUS
  66
1
  70
0
  40
0.002
  41
0.002
  0
VERTEX
  8
Net
  10
2.149
  20
3.75
  42
1
  0
VERTEX
  8
Net
  10
2.151
  20
3.75
  42
1
  0
VERTEX
  8
Net
  10
2.149
  20
3.75
  42
1
  0
SEQEND
  0
POLYLINE
  8
Net
  6
CONTINUOUS
  66
1
  70
0
  40
0.002
  41
0.002
  0
VERTEX
  8
Net
  10
3.699
  20
3.75
  42
1
  0
VERTEX
  8
Net
  10
3.701
  20
3.75
  42
1
  0
VERTEX
  8
Net
  10
3.699
  20
3.75
  42
1
  0
SEQEND
  0
POLYLINE
  8
Net
  6
CONTINUOUS
  66
1
  70
0
  40
0.0039
  41
0.0039
  0
VERTEX
  8
Net
  10
1.0
  20
2.2
  42
0
  0
VERTEX
  8
Net
  10
1.25
  20
2.2
  42
0
  0
SEQEND
  0
POLYLINE
  8
Net
  6
CONTINUOUS
  66
1
  70
0
  40
0.002
  41
0.002
  0
VERTEX
  8
Net
  10
0.999
  20
2.2
  42
1
  0
VERTEX
  8
Net
  10
1.001
  20
2.2
  42
1
  0
VERTEX
  8
Net
  10
0.999
  20
2.2
  42
1
  0
SEQEND
  0
POLYLINE
  8
Net
  6
CONTINUOUS
  66
1
  70
0
  40
0.002
  41
0.002
  0
VERTEX
  8
Net
  10
1.249
  20
2.2
  42
1
  0
VERTEX
  8
Net
  10
1.251
  20
2.2
  42
1
  0
VERTEX
  8
Net
  10
1.249
  20
2.2
  42
1
  0
SEQEND
  0
POLYLINE
  8
Net
  6
CONTINUOUS
  66
1
  70
0
  40
0.0039
  41
0.0039
  0
VERTEX
  8
Net
  10
1.25
  20
2.2
  42
0
  0
VERTEX
  8
Net
  10
1.25
  20
2.3
  42
0
  0
SEQEND
  0
POLYLINE
  8
Net
  6
CONTINUOUS
  66
1
  70
0
  40
0.002
  41
0.002
  0
VERTEX
  8
Net
  10
1.249
  20
2.2
  42
1
  0
VERTEX
  8
Net
  10
1.251
  20
2.2
  42
1
  0
VERTEX
  8
Net
  10
1.249
  20
2.2
  42
1
  0
SEQEND
  0
POLYLINE
  8
Net
  6
CONTINUOUS
  66
1
  70
0
  40
0.002
  41
0.002
  0
VERTEX
  8
Net
  10
1.249
  20
2.3
  42
1
  0
VERTEX
  8
Net
  10
1.251
  20
2.3
  42
1
  0
VERTEX
  8
Net
  10
1.249
  20
2.3
  42
1
  0
SEQEND
  0
POLYLINE
  8
Net
  6
CONTINUOUS
  66
1
  70
0
  40
0.0039
  41
0.0039
  0
VERTEX
  8
Net
  10
1.35
  20
2.3
  42
0
  0
VERTEX
  8
Net
  10
1.35
  20
2.2
  42
0
  0
SEQEND
  0
POLYLINE
  8
Net
  6
CONTINUOUS
  66
1
  70
0
  40
0.002
  41
0.002
  0
VERTEX
  8
Net
  10
1.349
  20
2.3
  42
1
  0
VERTEX
  8
Net
  10
1.351
  20
2.3
  42
1
  0
VERTEX
  8
Net
  10
1.349
  20
2.3
  42
1
  0
SEQEND
  0
POLYLINE
  8
Net
  6
CONTINUOUS
  66
1
  70
0
  40
0.002
  41
0.002
  0
VERTEX
  8
Net
  10
1.349
  20
2.2
  42
1
  0
VERTEX
  8
Net
  10
1.351
  20
2.2
  42
1
  0
VERTEX
  8
Net
  10
1.349
  20
2.2
  42
1
  0
SEQEND
  0
POLYLINE
  8
Net
  6
CONTINUOUS
  66
1
  70
0
  40
0.0039
  41
0.0039
  0
VERTEX
  8
Net
  10
1.35
  20
2.2
  42
0
  0
VERTEX
  8
Net
  10
1.7
  20
2.2
  42
0
  0
SEQEND
  0
POLYLINE
  8
Net
  6
CONTINUOUS
  66
1
  70
0
  40
0.002
  41
0.002
  0
VERTEX
  8
Net
  10
1.349
  20
2.2
  42
1
  0
VERTEX
  8
Net
  10
1.351
  20
2.2
  42
1
  0
VERTEX
  8
Net
  10
1.349
  20
2.2
  42
1
  0
SEQEND
  0
POLYLINE
  8
Net
  6
CONTINUOUS
  66
1
  70
0
  40
0.002
  41
0.002
  0
VERTEX
  8
Net
  10
1.699
  20
2.2
  42
1
  0
VERTEX
  8
Net
  10
1.701
  20
2.2
  42
1
  0
VERTEX
  8
Net
  10
1.699
  20
2.2
  42
1
  0
SEQEND
  0
POLYLINE
  8
Net
  6
CONTINUOUS
  66
1
  70
0
  40
0.0039
  41
0.0039
  0
VERTEX
  8
Net
  10
1.7
  20
2.2
  42
0
  0
VERTEX
  8
Net
  10
1.7
  20
1.85
  42
0
  0
SEQEND
  0
POLYLINE
  8
Net
  6
CONTINUOUS
  66
1
  70
0
  40
0.002
  41
0.002
  0
VERTEX
  8
Net
  10
1.699
  20
2.2
  42
1
  0
VERTEX
  8
Net
  10
1.701
  20
2.2
  42
1
  0
VERTEX
  8
Net
  10
1.699
  20
2.2
  42
1
  0
SEQEND
  0
POLYLINE
  8
Net
  6
CONTINUOUS
  66
1
  70
0
  40
0.002
  41
0.002
  0
VERTEX
  8
Net
  10
1.699
  20
1.85
  42
1
  0
VERTEX
  8
Net
  10
1.701
  20
1.85
  42
1
  0
VERTEX
  8
Net
  10
1.699
  20
1.85
  42
1
  0
SEQEND
  0
POLYLINE
  8
Net
  6
CONTINUOUS
  66
1
  70
0
  40
0.0039
  41
0.0039
  0
VERTEX
  8
Net
  10
1.7
  20
1.85
  42
0
  0
VERTEX
  8
Net
  10
1.6036
  20
1.85
  42
0
  0
SEQEND
  0
POLYLINE
  8
Net
  6
CONTINUOUS
  66
1
  70
0
  40
0.002
  41
0.002
  0
VERTEX
  8
Net
  10
1.699
  20
1.85
  42
1
  0
VERTEX
  8
Net
  10
1.701
  20
1.85
  42
1
  0
VERTEX
  8
Net
  10
1.699
  20
1.85
  42
1
  0
SEQEND
  0
POLYLINE
  8
Net
  6
CONTINUOUS
  66
1
  70
0
  40
0.002
  41
0.002
  0
VERTEX
  8
Net
  10
1.6026
  20
1.85
  42
1
  0
VERTEX
  8
Net
  10
1.6046
  20
1.85
  42
1
  0
VERTEX
  8
Net
  10
1.6026
  20
1.85
  42
1
  0
SEQEND
  0
POLYLINE
  8
Net
  6
CONTINUOUS
  66
1
  70
0
  40
0.0039
  41
0.0039
  0
VERTEX
  8
Net
  10
1.6843
  20
2.2
  42
0
  0
VERTEX
  8
Net
  10
1.685
  20
2.1951
  42
0
  0
VERTEX
  8
Net
  10
1.6873
  20
2.1907
  42
0
  0
VERTEX
  8
Net
  10
1.6907
  20
2.1873
  42
0
  0
VERTEX
  8
Net
  10
1.6951
  20
2.185
  42
0
  0
VERTEX
  8
Net
  10
1.7
  20
2.1843
  42
0
  0
VERTEX
  8
Net
  10
1.7049
  20
2.185
  42
0
  0
VERTEX
  8
Net
  10
1.7093
  20
2.1873
  42
0
  0
VERTEX
  8
Net
  10
1.7127
  20
2.1907
  42
0
  0
VERTEX
  8
Net
  10
1.715
  20
2.1951
  42
0
  0
VERTEX
  8
Net
  10
1.7157
  20
2.2
  42
0
  0
VERTEX
  8
Net
  10
1.715
  20
2.2049
  42
0
  0
VERTEX
  8
Net
  10
1.7127
  20
2.2093
  42
0
  0
VERTEX
  8
Net
  10
1.7093
  20
2.2127
  42
0
  0
VERTEX
  8
Net
  10
1.7049
  20
2.215
  42
0
  0
VERTEX
  8
Net
  10
1.7
  20
2.2157
  42
0
  0
VERTEX
  8
Net
  10
1.6951
  20
2.215
  42
0
  0
VERTEX
  8
Net
  10
1.6907
  20
2.2127
  42
0
  0
VERTEX
  8
Net
  10
1.6873
  20
2.2093
  42
0
  0
VERTEX
  8
Net
  10
1.685
  20
2.2049
  42
0
  0
VERTEX
  8
Net
  10
1.6843
  20
2.2
  42
0
  0
SEQEND
  0
POLYLINE
  8
Net
  6
CONTINUOUS
  66
1
  70
0
  40
0.002
  41
0.002
  0
VERTEX
  8
Net
  10
1.6833
  20
2.2
  42
1
  0
VERTEX
  8
Net
  10
1.6852
  20
2.2
  42
1
  0
VERTEX
  8
Net
  10
1.6833
  20
2.2
  42
1
  0
SEQEND
  0
POLYLINE
  8
Net
  6
CONTINUOUS
  66
1
  70
0
  40
0.0039
  41
0.0039
  0
VERTEX
  8
Net
  10
1.7
  20
3.9
  42
0
  0
VERTEX
  8
Net
  10
1.95
  20
3.9
  42
0
  0
SEQEND
  0
POLYLINE
  8
Net
  6
CONTINUOUS
  66
1
  70
0
  40
0.002
  41
0.002
  0
VERTEX
  8
Net
  10
1.699
  20
3.9
  42
1
  0
VERTEX
  8
Net
  10
1.701
  20
3.9
  42
1
  0
VERTEX
  8
Net
  10
1.699
  20
3.9
  42
1
  0
SEQEND
  0
POLYLINE
  8
Net
  6
CONTINUOUS
  66
1
  70
0
  40
0.002
  41
0.002
  0
VERTEX
  8
Net
  10
1.949
  20
3.9
  42
1
  0
VERTEX
  8
Net
  10
1.951
  20
3.9
  42
1
  0
VERTEX
  8
Net
  10
1.949
  20
3.9
  42
1
  0
SEQEND
  0
POLYLINE
  8
Net
  6
CONTINUOUS
  66
1
  70
0
  40
0.0039
  41
0.0039
  0
VERTEX
  8
Net
  10
1.95
  20
3.9
  42
0
  0
VERTEX
  8
Net
  10
1.95
  20
2.2
  42
0
  0
SEQEND
  0
POLYLINE
  8
Net
  6
CONTINUOUS
  66
1
  70
0
  40
0.002
  41
0.002
  0
VERTEX
  8
Net
  10
1.949
  20
3.9
  42
1
  0
VERTEX
  8
Net
  10
1.951
  20
3.9
  42
1
  0
VERTEX
  8
Net
  10
1.949
  20
3.9
  42
1
  0
SEQEND
  0
POLYLINE
  8
Net
  6
CONTINUOUS
  66
1
  70
0
  40
0.002
  41
0.002
  0
VERTEX
  8
Net
  10
1.949
  20
2.2
  42
1
  0
VERTEX
  8
Net
  10
1.951
  20
2.2
  42
1
  0
VERTEX
  8
Net
  10
1.949
  20
2.2
  42
1
  0
SEQEND
  0
POLYLINE
  8
Net
  6
CONTINUOUS
  66
1
  70
0
  40
0.0039
  41
0.0039
  0
VERTEX
  8
Net
  10
1.95
  20
2.2
  42
0
  0
VERTEX
  8
Net
  10
1.7
  20
2.2
  42
0
  0
SEQEND
  0
POLYLINE
  8
Net
  6
CONTINUOUS
  66
1
  70
0
  40
0.002
  41
0.002
  0
VERTEX
  8
Net
  10
1.949
  20
2.2
  42
1
  0
VERTEX
  8
Net
  10
1.951
  20
2.2
  42
1
  0
VERTEX
  8
Net
  10
1.949
  20
2.2
  42
1
  0
SEQEND
  0
POLYLINE
  8
Net
  6
CONTINUOUS
  66
1
  70
0
  40
0.002
  41
0.002
  0
VERTEX
  8
Net
  10
1.699
  20
2.2
  42
1
  0
VERTEX
  8
Net
  10
1.701
  20
2.2
  42
1
  0
VERTEX
  8
Net
  10
1.699
  20
2.2
  42
1
  0
SEQEND
  0
POLYLINE
  8
Net
  6
CONTINUOUS
  66
1
  70
0
  40
0.0039
  41
0.0039
  0
VERTEX
  8
Net
  10
1.7
  20
2.2
  42
0
  0
VERTEX
  8
Net
  10
1.7
  20
2.2
  42
0
  0
SEQEND
  0
POLYLINE
  8
Net
  6
CONTINUOUS
  66
1
  70
0
  40
0.002
  41
0.002
  0
VERTEX
  8
Net
  10
1.699
  20
2.2
  42
1
  0
VERTEX
  8
Net
  10
1.701
  20
2.2
  42
1
  0
VERTEX
  8
Net
  10
1.699
  20
2.2
  42
1
  0
SEQEND
  0
POLYLINE
  8
Net
  6
CONTINUOUS
  66
1
  70
0
  40
0.0039
  41
0.0039
  0
VERTEX
  8
Net
  10
1.7
  20
2.2
  42
0
  0
VERTEX
  8
Net
  10
1.7
  20
2.2
  42
0
  0
SEQEND
  0
POLYLINE
  8
Net
  6
CONTINUOUS
  66
1
  70
0
  40
0.002
  41
0.002
  0
VERTEX
  8
Net
  10
1.699
  20
2.2
  42
1
  0
VERTEX
  8
Net
  10
1.701
  20
2.2
  42
1
  0
VERTEX
  8
Net
  10
1.699
  20
2.2
  42
1
  0
SEQEND
  0
POLYLINE
  8
Net
  6
CONTINUOUS
  66
1
  70
0
  40
0.0039
  41
0.0039
  0
VERTEX
  8
Net
  10
1.9343
  20
3.9
  42
0
  0
VERTEX
  8
Net
  10
1.935
  20
3.8951
  42
0
  0
VERTEX
  8
Net
  10
1.9373
  20
3.8907
  42
0
  0
VERTEX
  8
Net
  10
1.9407
  20
3.8873
  42
0
  0
VERTEX
  8
Net
  10
1.9451
  20
3.885
  42
0
  0
VERTEX
  8
Net
  10
1.95
  20
3.8843
  42
0
  0
VERTEX
  8
Net
  10
1.9549
  20
3.885
  42
0
  0
VERTEX
  8
Net
  10
1.9593
  20
3.8873
  42
0
  0
VERTEX
  8
Net
  10
1.9627
  20
3.8907
  42
0
  0
VERTEX
  8
Net
  10
1.965
  20
3.8951
  42
0
  0
VERTEX
  8
Net
  10
1.9657
  20
3.9
  42
0
  0
VERTEX
  8
Net
  10
1.965
  20
3.9049
  42
0
  0
VERTEX
  8
Net
  10
1.9627
  20
3.9093
  42
0
  0
VERTEX
  8
Net
  10
1.9593
  20
3.9127
  42
0
  0
VERTEX
  8
Net
  10
1.9549
  20
3.915
  42
0
  0
VERTEX
  8
Net
  10
1.95
  20
3.9157
  42
0
  0
VERTEX
  8
Net
  10
1.9451
  20
3.915
  42
0
  0
VERTEX
  8
Net
  10
1.9407
  20
3.9127
  42
0
  0
VERTEX
  8
Net
  10
1.9373
  20
3.9093
  42
0
  0
VERTEX
  8
Net
  10
1.935
  20
3.9049
  42
0
  0
VERTEX
  8
Net
  10
1.9343
  20
3.9
  42
0
  0
SEQEND
  0
POLYLINE
  8
Net
  6
CONTINUOUS
  66
1
  70
0
  40
0.002
  41
0.002
  0
VERTEX
  8
Net
  10
1.9333
  20
3.9
  42
1
  0
VERTEX
  8
Net
  10
1.9352
  20
3.9
  42
1
  0
VERTEX
  8
Net
  10
1.9333
  20
3.9
  42
1
  0
SEQEND
  0
POLYLINE
  8
Net
  6
CONTINUOUS
  66
1
  70
0
  40
0.0039
  41
0.0039
  0
VERTEX
  8
Net
  10
4.4
  20
1.6
  42
0
  0
VERTEX
  8
Net
  10
5.4
  20
1.6
  42
0
  0
SEQEND
  0
POLYLINE
  8
Net
  6
CONTINUOUS
  66
1
  70
0
  40
0.002
  41
0.002
  0
VERTEX
  8
Net
  10
4.399
  20
1.6
  42
1
  0
VERTEX
  8
Net
  10
4.401
  20
1.6
  42
1
  0
VERTEX
  8
Net
  10
4.399
  20
1.6
  42
1
  0
SEQEND
  0
POLYLINE
  8
Net
  6
CONTINUOUS
  66
1
  70
0
  40
0.002
  41
0.002
  0
VERTEX
  8
Net
  10
5.399
  20
1.6
  42
1
  0
VERTEX
  8
Net
  10
5.401
  20
1.6
  42
1
  0
VERTEX
  8
Net
  10
5.399
  20
1.6
  42
1
  0
SEQEND
  0
POLYLINE
  8
Net
  6
CONTINUOUS
  66
1
  70
0
  40
0.0039
  41
0.0039
  0
VERTEX
  8
Net
  10
5.4
  20
1.6
  42
0
  0
VERTEX
  8
Net
  10
5.4
  20
4.6
  42
0
  0
SEQEND
  0
POLYLINE
  8
Net
  6
CONTINUOUS
  66
1
  70
0
  40
0.002
  41
0.002
  0
VERTEX
  8
Net
  10
5.399
  20
1.6
  42
1
  0
VERTEX
  8
Net
  10
5.401
  20
1.6
  42
1
  0
VERTEX
  8
Net
  10
5.399
  20
1.6
  42
1
  0
SEQEND
  0
POLYLINE
  8
Net
  6
CONTINUOUS
  66
1
  70
0
  40
0.002
  41
0.002
  0
VERTEX
  8
Net
  10
5.399
  20
4.6
  42
1
  0
VERTEX
  8
Net
  10
5.401
  20
4.6
  42
1
  0
VERTEX
  8
Net
  10
5.399
  20
4.6
  42
1
  0
SEQEND
  0
POLYLINE
  8
Net
  6
CONTINUOUS
  66
1
  70
0
  40
0.0039
  41
0.0039
  0
VERTEX
  8
Net
  10
5.4
  20
4.6
  42
0
  0
VERTEX
  8
Net
  10
1.95
  20
4.6
  42
0
  0
SEQEND
  0
POLYLINE
  8
Net
  6
CONTINUOUS
  66
1
  70
0
  40
0.002
  41
0.002
  0
VERTEX
  8
Net
  10
5.399
  20
4.6
  42
1
  0
VERTEX
  8
Net
  10
5.401
  20
4.6
  42
1
  0
VERTEX
  8
Net
  10
5.399
  20
4.6
  42
1
  0
SEQEND
  0
POLYLINE
  8
Net
  6
CONTINUOUS
  66
1
  70
0
  40
0.002
  41
0.002
  0
VERTEX
  8
Net
  10
1.949
  20
4.6
  42
1
  0
VERTEX
  8
Net
  10
1.951
  20
4.6
  42
1
  0
VERTEX
  8
Net
  10
1.949
  20
4.6
  42
1
  0
SEQEND
  0
POLYLINE
  8
Net
  6
CONTINUOUS
  66
1
  70
0
  40
0.0039
  41
0.0039
  0
VERTEX
  8
Net
  10
1.95
  20
4.6
  42
0
  0
VERTEX
  8
Net
  10
1.95
  20
3.9
  42
0
  0
SEQEND
  0
POLYLINE
  8
Net
  6
CONTINUOUS
  66
1
  70
0
  40
0.002
  41
0.002
  0
VERTEX
  8
Net
  10
1.949
  20
4.6
  42
1
  0
VERTEX
  8
Net
  10
1.951
  20
4.6
  42
1
  0
VERTEX
  8
Net
  10
1.949
  20
4.6
  42
1
  0
SEQEND
  0
POLYLINE
  8
Net
  6
CONTINUOUS
  66
1
  70
0
  40
0.002
  41
0.002
  0
VERTEX
  8
Net
  10
1.949
  20
3.9
  42
1
  0
VERTEX
  8
Net
  10
1.951
  20
3.9
  42
1
  0
VERTEX
  8
Net
  10
1.949
  20
3.9
  42
1
  0
SEQEND
  0
POLYLINE
  8
Net
  6
CONTINUOUS
  66
1
  70
0
  40
0.0039
  41
0.0039
  0
VERTEX
  8
Net
  10
1.1
  20
1.85
  42
0
  0
VERTEX
  8
Net
  10
0.45
  20
1.85
  42
0
  0
SEQEND
  0
POLYLINE
  8
Net
  6
CONTINUOUS
  66
1
  70
0
  40
0.002
  41
0.002
  0
VERTEX
  8
Net
  10
1.099
  20
1.85
  42
1
  0
VERTEX
  8
Net
  10
1.101
  20
1.85
  42
1
  0
VERTEX
  8
Net
  10
1.099
  20
1.85
  42
1
  0
SEQEND
  0
POLYLINE
  8
Net
  6
CONTINUOUS
  66
1
  70
0
  40
0.002
  41
0.002
  0
VERTEX
  8
Net
  10
0.449
  20
1.85
  42
1
  0
VERTEX
  8
Net
  10
0.451
  20
1.85
  42
1
  0
VERTEX
  8
Net
  10
0.449
  20
1.85
  42
1
  0
SEQEND
  0
POLYLINE
  8
Net
  6
CONTINUOUS
  66
1
  70
0
  40
0.0039
  41
0.0039
  0
VERTEX
  8
Net
  10
0.45
  20
1.85
  42
0
  0
VERTEX
  8
Net
  10
0.45
  20
1.6
  42
0
  0
SEQEND
  0
POLYLINE
  8
Net
  6
CONTINUOUS
  66
1
  70
0
  40
0.002
  41
0.002
  0
VERTEX
  8
Net
  10
0.449
  20
1.85
  42
1
  0
VERTEX
  8
Net
  10
0.451
  20
1.85
  42
1
  0
VERTEX
  8
Net
  10
0.449
  20
1.85
  42
1
  0
SEQEND
  0
POLYLINE
  8
Net
  6
CONTINUOUS
  66
1
  70
0
  40
0.002
  41
0.002
  0
VERTEX
  8
Net
  10
0.449
  20
1.6
  42
1
  0
VERTEX
  8
Net
  10
0.451
  20
1.6
  42
1
  0
VERTEX
  8
Net
  10
0.449
  20
1.6
  42
1
  0
SEQEND
  0
POLYLINE
  8
Net
  6
CONTINUOUS
  66
1
  70
0
  40
0.0039
  41
0.0039
  0
VERTEX
  8
Net
  10
0.45
  20
1.6
  42
0
  0
VERTEX
  8
Net
  10
2.6
  20
1.6
  42
0
  0
SEQEND
  0
POLYLINE
  8
Net
  6
CONTINUOUS
  66
1
  70
0
  40
0.002
  41
0.002
  0
VERTEX
  8
Net
  10
0.449
  20
1.6
  42
1
  0
VERTEX
  8
Net
  10
0.451
  20
1.6
  42
1
  0
VERTEX
  8
Net
  10
0.449
  20
1.6
  42
1
  0
SEQEND
  0
POLYLINE
  8
Net
  6
CONTINUOUS
  66
1
  70
0
  40
0.002
  41
0.002
  0
VERTEX
  8
Net
  10
2.599
  20
1.6
  42
1
  0
VERTEX
  8
Net
  10
2.601
  20
1.6
  42
1
  0
VERTEX
  8
Net
  10
2.599
  20
1.6
  42
1
  0
SEQEND
  0
POLYLINE
  8
Net
  6
CONTINUOUS
  66
1
  70
0
  40
0.0039
  41
0.0039
  0
VERTEX
  8
Net
  10
2.6
  20
1.6
  42
0
  0
VERTEX
  8
Net
  10
2.6
  20
2.45
  42
0
  0
SEQEND
  0
POLYLINE
  8
Net
  6
CONTINUOUS
  66
1
  70
0
  40
0.002
  41
0.002
  0
VERTEX
  8
Net
  10
2.599
  20
1.6
  42
1
  0
VERTEX
  8
Net
  10
2.601
  20
1.6
  42
1
  0
VERTEX
  8
Net
  10
2.599
  20
1.6
  42
1
  0
SEQEND
  0
POLYLINE
  8
Net
  6
CONTINUOUS
  66
1
  70
0
  40
0.002
  41
0.002
  0
VERTEX
  8
Net
  10
2.599
  20
2.45
  42
1
  0
VERTEX
  8
Net
  10
2.601
  20
2.45
  42
1
  0
VERTEX
  8
Net
  10
2.599
  20
2.45
  42
1
  0
SEQEND
  0
POLYLINE
  8
Net
  6
CONTINUOUS
  66
1
  70
0
  40
0.0039
  41
0.0039
  0
VERTEX
  8
Net
  10
0.4343
  20
1.85
  42
0
  0
VERTEX
  8
Net
  10
0.435
  20
1.8451
  42
0
  0
VERTEX
  8
Net
  10
0.4373
  20
1.8407
  42
0
  0
VERTEX
  8
Net
  10
0.4407
  20
1.8373
  42
0
  0
VERTEX
  8
Net
  10
0.4451
  20
1.835
  42
0
  0
VERTEX
  8
Net
  10
0.45
  20
1.8343
  42
0
  0
VERTEX
  8
Net
  10
0.4549
  20
1.835
  42
0
  0
VERTEX
  8
Net
  10
0.4593
  20
1.8373
  42
0
  0
VERTEX
  8
Net
  10
0.4627
  20
1.8407
  42
0
  0
VERTEX
  8
Net
  10
0.465
  20
1.8451
  42
0
  0
VERTEX
  8
Net
  10
0.4657
  20
1.85
  42
0
  0
VERTEX
  8
Net
  10
0.465
  20
1.8549
  42
0
  0
VERTEX
  8
Net
  10
0.4627
  20
1.8593
  42
0
  0
VERTEX
  8
Net
  10
0.4593
  20
1.8627
  42
0
  0
VERTEX
  8
Net
  10
0.4549
  20
1.865
  42
0
  0
VERTEX
  8
Net
  10
0.45
  20
1.8657
  42
0
  0
VERTEX
  8
Net
  10
0.4451
  20
1.865
  42
0
  0
VERTEX
  8
Net
  10
0.4407
  20
1.8627
  42
0
  0
VERTEX
  8
Net
  10
0.4373
  20
1.8593
  42
0
  0
VERTEX
  8
Net
  10
0.435
  20
1.8549
  42
0
  0
VERTEX
  8
Net
  10
0.4343
  20
1.85
  42
0
  0
SEQEND
  0
POLYLINE
  8
Net
  6
CONTINUOUS
  66
1
  70
0
  40
0.002
  41
0.002
  0
VERTEX
  8
Net
  10
0.4333
  20
1.85
  42
1
  0
VERTEX
  8
Net
  10
0.4352
  20
1.85
  42
1
  0
VERTEX
  8
Net
  10
0.4333
  20
1.85
  42
1
  0
SEQEND
  0
POLYLINE
  8
Net
  6
CONTINUOUS
  66
1
  70
0
  40
0.0039
  41
0.0039
  0
VERTEX
  8
Net
  10
0.5
  20
2.2
  42
0
  0
VERTEX
  8
Net
  10
0.45
  20
2.2
  42
0
  0
SEQEND
  0
POLYLINE
  8
Net
  6
CONTINUOUS
  66
1
  70
0
  40
0.002
  41
0.002
  0
VERTEX
  8
Net
  10
0.499
  20
2.2
  42
1
  0
VERTEX
  8
Net
  10
0.501
  20
2.2
  42
1
  0
VERTEX
  8
Net
  10
0.499
  20
2.2
  42
1
  0
SEQEND
  0
POLYLINE
  8
Net
  6
CONTINUOUS
  66
1
  70
0
  40
0.002
  41
0.002
  0
VERTEX
  8
Net
  10
0.449
  20
2.2
  42
1
  0
VERTEX
  8
Net
  10
0.451
  20
2.2
  42
1
  0
VERTEX
  8
Net
  10
0.449
  20
2.2
  42
1
  0
SEQEND
  0
POLYLINE
  8
Net
  6
CONTINUOUS
  66
1
  70
0
  40
0.0039
  41
0.0039
  0
VERTEX
  8
Net
  10
0.45
  20
2.2
  42
0
  0
VERTEX
  8
Net
  10
0.45
  20
1.85
  42
0
  0
SEQEND
  0
POLYLINE
  8
Net
  6
CONTINUOUS
  66
1
  70
0
  40
0.002
  41
0.002
  0
VERTEX
  8
Net
  10
0.449
  20
2.2
  42
1
  0
VERTEX
  8
Net
  10
0.451
  20
2.2
  42
1
  0
VERTEX
  8
Net
  10
0.449
  20
2.2
  42
1
  0
SEQEND
  0
POLYLINE
  8
Net
  6
CONTINUOUS
  66
1
  70
0
  40
0.002
  41
0.002
  0
VERTEX
  8
Net
  10
0.449
  20
1.85
  42
1
  0
VERTEX
  8
Net
  10
0.451
  20
1.85
  42
1
  0
VERTEX
  8
Net
  10
0.449
  20
1.85
  42
1
  0
SEQEND
  0
POLYLINE
  8
Net
  6
CONTINUOUS
  66
1
  70
0
  40
0.0039
  41
0.0039
  0
VERTEX
  8
Net
  10
1.1031
  20
1.35
  42
0
  0
VERTEX
  8
Net
  10
0.1
  20
1.35
  42
0
  0
SEQEND
  0
POLYLINE
  8
Net
  6
CONTINUOUS
  66
1
  70
0
  40
0.002
  41
0.002
  0
VERTEX
  8
Net
  10
1.1022
  20
1.35
  42
1
  0
VERTEX
  8
Net
  10
1.1041
  20
1.35
  42
1
  0
VERTEX
  8
Net
  10
1.1022
  20
1.35
  42
1
  0
SEQEND
  0
POLYLINE
  8
Net
  6
CONTINUOUS
  66
1
  70
0
  40
0.002
  41
0.002
  0
VERTEX
  8
Net
  10
0.099
  20
1.35
  42
1
  0
VERTEX
  8
Net
  10
0.101
  20
1.35
  42
1
  0
VERTEX
  8
Net
  10
0.099
  20
1.35
  42
1
  0
SEQEND
  0
POLYLINE
  8
Net
  6
CONTINUOUS
  66
1
  70
0
  40
0.0039
  41
0.0039
  0
VERTEX
  8
Net
  10
0.1
  20
1.35
  42
0
  0
VERTEX
  8
Net
  10
0.1
  20
3.8
  42
0
  0
SEQEND
  0
POLYLINE
  8
Net
  6
CONTINUOUS
  66
1
  70
0
  40
0.002
  41
0.002
  0
VERTEX
  8
Net
  10
0.099
  20
1.35
  42
1
  0
VERTEX
  8
Net
  10
0.101
  20
1.35
  42
1
  0
VERTEX
  8
Net
  10
0.099
  20
1.35
  42
1
  0
SEQEND
  0
POLYLINE
  8
Net
  6
CONTINUOUS
  66
1
  70
0
  40
0.002
  41
0.002
  0
VERTEX
  8
Net
  10
0.099
  20
3.8
  42
1
  0
VERTEX
  8
Net
  10
0.101
  20
3.8
  42
1
  0
VERTEX
  8
Net
  10
0.099
  20
3.8
  42
1
  0
SEQEND
  0
POLYLINE
  8
Net
  6
CONTINUOUS
  66
1
  70
0
  40
0.0039
  41
0.0039
  0
VERTEX
  8
Net
  10
0.1
  20
3.8
  42
0
  0
VERTEX
  8
Net
  10
0.9
  20
3.8
  42
0
  0
SEQEND
  0
POLYLINE
  8
Net
  6
CONTINUOUS
  66
1
  70
0
  40
0.002
  41
0.002
  0
VERTEX
  8
Net
  10
0.099
  20
3.8
  42
1
  0
VERTEX
  8
Net
  10
0.101
  20
3.8
  42
1
  0
VERTEX
  8
Net
  10
0.099
  20
3.8
  42
1
  0
SEQEND
  0
POLYLINE
  8
Net
  6
CONTINUOUS
  66
1
  70
0
  40
0.002
  41
0.002
  0
VERTEX
  8
Net
  10
0.899
  20
3.8
  42
1
  0
VERTEX
  8
Net
  10
0.901
  20
3.8
  42
1
  0
VERTEX
  8
Net
  10
0.899
  20
3.8
  42
1
  0
SEQEND
  0
POLYLINE
  8
Net
  6
CONTINUOUS
  66
1
  70
0
  40
0.0039
  41
0.0039
  0
VERTEX
  8
Net
  10
1.1031
  20
0.65
  42
0
  0
VERTEX
  8
Net
  10
0.0
  20
0.65
  42
0
  0
SEQEND
  0
POLYLINE
  8
Net
  6
CONTINUOUS
  66
1
  70
0
  40
0.002
  41
0.002
  0
VERTEX
  8
Net
  10
1.1022
  20
0.65
  42
1
  0
VERTEX
  8
Net
  10
1.1041
  20
0.65
  42
1
  0
VERTEX
  8
Net
  10
1.1022
  20
0.65
  42
1
  0
SEQEND
  0
POLYLINE
  8
Net
  6
CONTINUOUS
  66
1
  70
0
  40
0.002
  41
0.002
  0
VERTEX
  8
Net
  10
-0.001
  20
0.65
  42
1
  0
VERTEX
  8
Net
  10
0.001
  20
0.65
  42
1
  0
VERTEX
  8
Net
  10
-0.001
  20
0.65
  42
1
  0
SEQEND
  0
POLYLINE
  8
Net
  6
CONTINUOUS
  66
1
  70
0
  40
0.0039
  41
0.0039
  0
VERTEX
  8
Net
  10
0.0
  20
0.65
  42
0
  0
VERTEX
  8
Net
  10
0.0
  20
3.6
  42
0
  0
SEQEND
  0
POLYLINE
  8
Net
  6
CONTINUOUS
  66
1
  70
0
  40
0.002
  41
0.002
  0
VERTEX
  8
Net
  10
-0.001
  20
0.65
  42
1
  0
VERTEX
  8
Net
  10
0.001
  20
0.65
  42
1
  0
VERTEX
  8
Net
  10
-0.001
  20
0.65
  42
1
  0
SEQEND
  0
POLYLINE
  8
Net
  6
CONTINUOUS
  66
1
  70
0
  40
0.002
  41
0.002
  0
VERTEX
  8
Net
  10
-0.001
  20
3.6
  42
1
  0
VERTEX
  8
Net
  10
0.001
  20
3.6
  42
1
  0
VERTEX
  8
Net
  10
-0.001
  20
3.6
  42
1
  0
SEQEND
  0
POLYLINE
  8
Net
  6
CONTINUOUS
  66
1
  70
0
  40
0.0039
  41
0.0039
  0
VERTEX
  8
Net
  10
0.0
  20
3.6
  42
0
  0
VERTEX
  8
Net
  10
0.9
  20
3.6
  42
0
  0
SEQEND
  0
POLYLINE
  8
Net
  6
CONTINUOUS
  66
1
  70
0
  40
0.002
  41
0.002
  0
VERTEX
  8
Net
  10
-0.001
  20
3.6
  42
1
  0
VERTEX
  8
Net
  10
0.001
  20
3.6
  42
1
  0
VERTEX
  8
Net
  10
-0.001
  20
3.6
  42
1
  0
SEQEND
  0
POLYLINE
  8
Net
  6
CONTINUOUS
  66
1
  70
0
  40
0.002
  41
0.002
  0
VERTEX
  8
Net
  10
0.899
  20
3.6
  42
1
  0
VERTEX
  8
Net
  10
0.901
  20
3.6
  42
1
  0
VERTEX
  8
Net
  10
0.899
  20
3.6
  42
1
  0
SEQEND
  0
POLYLINE
  8
Net
  6
CONTINUOUS
  66
1
  70
0
  40
0.0039
  41
0.0039
  0
VERTEX
  8
Net
  10
1.7
  20
3.7
  42
0
  0
VERTEX
  8
Net
  10
1.8
  20
3.7
  42
0
  0
SEQEND
  0
POLYLINE
  8
Net
  6
CONTINUOUS
  66
1
  70
0
  40
0.002
  41
0.002
  0
VERTEX
  8
Net
  10
1.699
  20
3.7
  42
1
  0
VERTEX
  8
Net
  10
1.701
  20
3.7
  42
1
  0
VERTEX
  8
Net
  10
1.699
  20
3.7
  42
1
  0
SEQEND
  0
POLYLINE
  8
Net
  6
CONTINUOUS
  66
1
  70
0
  40
0.002
  41
0.002
  0
VERTEX
  8
Net
  10
1.799
  20
3.7
  42
1
  0
VERTEX
  8
Net
  10
1.801
  20
3.7
  42
1
  0
VERTEX
  8
Net
  10
1.799
  20
3.7
  42
1
  0
SEQEND
  0
POLYLINE
  8
Net
  6
CONTINUOUS
  66
1
  70
0
  40
0.0039
  41
0.0039
  0
VERTEX
  8
Net
  10
1.8
  20
3.7
  42
0
  0
VERTEX
  8
Net
  10
1.8
  20
3.35
  42
0
  0
SEQEND
  0
POLYLINE
  8
Net
  6
CONTINUOUS
  66
1
  70
0
  40
0.002
  41
0.002
  0
VERTEX
  8
Net
  10
1.799
  20
3.7
  42
1
  0
VERTEX
  8
Net
  10
1.801
  20
3.7
  42
1
  0
VERTEX
  8
Net
  10
1.799
  20
3.7
  42
1
  0
SEQEND
  0
POLYLINE
  8
Net
  6
CONTINUOUS
  66
1
  70
0
  40
0.002
  41
0.002
  0
VERTEX
  8
Net
  10
1.799
  20
3.35
  42
1
  0
VERTEX
  8
Net
  10
1.801
  20
3.35
  42
1
  0
VERTEX
  8
Net
  10
1.799
  20
3.35
  42
1
  0
SEQEND
  0
POLYLINE
  8
Net
  6
CONTINUOUS
  66
1
  70
0
  40
0.0039
  41
0.0039
  0
VERTEX
  8
Net
  10
1.8
  20
3.35
  42
0
  0
VERTEX
  8
Net
  10
2.15
  20
3.35
  42
0
  0
SEQEND
  0
POLYLINE
  8
Net
  6
CONTINUOUS
  66
1
  70
0
  40
0.002
  41
0.002
  0
VERTEX
  8
Net
  10
1.799
  20
3.35
  42
1
  0
VERTEX
  8
Net
  10
1.801
  20
3.35
  42
1
  0
VERTEX
  8
Net
  10
1.799
  20
3.35
  42
1
  0
SEQEND
  0
POLYLINE
  8
Net
  6
CONTINUOUS
  66
1
  70
0
  40
0.002
  41
0.002
  0
VERTEX
  8
Net
  10
2.149
  20
3.35
  42
1
  0
VERTEX
  8
Net
  10
2.151
  20
3.35
  42
1
  0
VERTEX
  8
Net
  10
2.149
  20
3.35
  42
1
  0
SEQEND
  0
POLYLINE
  8
Net
  6
CONTINUOUS
  66
1
  70
0
  40
0.0039
  41
0.0039
  0
VERTEX
  8
Net
  10
1.7843
  20
3.35
  42
0
  0
VERTEX
  8
Net
  10
1.785
  20
3.3451
  42
0
  0
VERTEX
  8
Net
  10
1.7873
  20
3.3407
  42
0
  0
VERTEX
  8
Net
  10
1.7907
  20
3.3373
  42
0
  0
VERTEX
  8
Net
  10
1.7951
  20
3.335
  42
0
  0
VERTEX
  8
Net
  10
1.8
  20
3.3343
  42
0
  0
VERTEX
  8
Net
  10
1.8049
  20
3.335
  42
0
  0
VERTEX
  8
Net
  10
1.8093
  20
3.3373
  42
0
  0
VERTEX
  8
Net
  10
1.8127
  20
3.3407
  42
0
  0
VERTEX
  8
Net
  10
1.815
  20
3.3451
  42
0
  0
VERTEX
  8
Net
  10
1.8157
  20
3.35
  42
0
  0
VERTEX
  8
Net
  10
1.815
  20
3.3549
  42
0
  0
VERTEX
  8
Net
  10
1.8127
  20
3.3593
  42
0
  0
VERTEX
  8
Net
  10
1.8093
  20
3.3627
  42
0
  0
VERTEX
  8
Net
  10
1.8049
  20
3.365
  42
0
  0
VERTEX
  8
Net
  10
1.8
  20
3.3657
  42
0
  0
VERTEX
  8
Net
  10
1.7951
  20
3.365
  42
0
  0
VERTEX
  8
Net
  10
1.7907
  20
3.3627
  42
0
  0
VERTEX
  8
Net
  10
1.7873
  20
3.3593
  42
0
  0
VERTEX
  8
Net
  10
1.785
  20
3.3549
  42
0
  0
VERTEX
  8
Net
  10
1.7843
  20
3.35
  42
0
  0
SEQEND
  0
POLYLINE
  8
Net
  6
CONTINUOUS
  66
1
  70
0
  40
0.002
  41
0.002
  0
VERTEX
  8
Net
  10
1.7833
  20
3.35
  42
1
  0
VERTEX
  8
Net
  10
1.7852
  20
3.35
  42
1
  0
VERTEX
  8
Net
  10
1.7833
  20
3.35
  42
1
  0
SEQEND
  0
POLYLINE
  8
Net
  6
CONTINUOUS
  66
1
  70
0
  40
0.0039
  41
0.0039
  0
VERTEX
  8
Net
  10
4.4
  20
0.95
  42
0
  0
VERTEX
  8
Net
  10
4.5
  20
0.95
  42
0
  0
SEQEND
  0
POLYLINE
  8
Net
  6
CONTINUOUS
  66
1
  70
0
  40
0.002
  41
0.002
  0
VERTEX
  8
Net
  10
4.399
  20
0.95
  42
1
  0
VERTEX
  8
Net
  10
4.401
  20
0.95
  42
1
  0
VERTEX
  8
Net
  10
4.399
  20
0.95
  42
1
  0
SEQEND
  0
POLYLINE
  8
Net
  6
CONTINUOUS
  66
1
  70
0
  40
0.002
  41
0.002
  0
VERTEX
  8
Net
  10
4.499
  20
0.95
  42
1
  0
VERTEX
  8
Net
  10
4.501
  20
0.95
  42
1
  0
VERTEX
  8
Net
  10
4.499
  20
0.95
  42
1
  0
SEQEND
  0
POLYLINE
  8
Net
  6
CONTINUOUS
  66
1
  70
0
  40
0.0039
  41
0.0039
  0
VERTEX
  8
Net
  10
4.5
  20
0.95
  42
0
  0
VERTEX
  8
Net
  10
4.5
  20
0.0
  42
0
  0
SEQEND
  0
POLYLINE
  8
Net
  6
CONTINUOUS
  66
1
  70
0
  40
0.002
  41
0.002
  0
VERTEX
  8
Net
  10
4.499
  20
0.95
  42
1
  0
VERTEX
  8
Net
  10
4.501
  20
0.95
  42
1
  0
VERTEX
  8
Net
  10
4.499
  20
0.95
  42
1
  0
SEQEND
  0
POLYLINE
  8
Net
  6
CONTINUOUS
  66
1
  70
0
  40
0.002
  41
0.002
  0
VERTEX
  8
Net
  10
4.499
  20
0.0
  42
1
  0
VERTEX
  8
Net
  10
4.501
  20
0.0
  42
1
  0
VERTEX
  8
Net
  10
4.499
  20
0.0
  42
1
  0
SEQEND
  0
POLYLINE
  8
Net
  6
CONTINUOUS
  66
1
  70
0
  40
0.0039
  41
0.0039
  0
VERTEX
  8
Net
  10
4.5
  20
0.0
  42
0
  0
VERTEX
  8
Net
  10
1.8
  20
0.0
  42
0
  0
SEQEND
  0
POLYLINE
  8
Net
  6
CONTINUOUS
  66
1
  70
0
  40
0.002
  41
0.002
  0
VERTEX
  8
Net
  10
4.499
  20
0.0
  42
1
  0
VERTEX
  8
Net
  10
4.501
  20
0.0
  42
1
  0
VERTEX
  8
Net
  10
4.499
  20
0.0
  42
1
  0
SEQEND
  0
POLYLINE
  8
Net
  6
CONTINUOUS
  66
1
  70
0
  40
0.002
  41
0.002
  0
VERTEX
  8
Net
  10
1.799
  20
0.0
  42
1
  0
VERTEX
  8
Net
  10
1.801
  20
0.0
  42
1
  0
VERTEX
  8
Net
  10
1.799
  20
0.0
  42
1
  0
SEQEND
  0
POLYLINE
  8
Net
  6
CONTINUOUS
  66
1
  70
0
  40
0.0039
  41
0.0039
  0
VERTEX
  8
Net
  10
1.8
  20
0.0
  42
0
  0
VERTEX
  8
Net
  10
1.8
  20
3.35
  42
0
  0
SEQEND
  0
POLYLINE
  8
Net
  6
CONTINUOUS
  66
1
  70
0
  40
0.002
  41
0.002
  0
VERTEX
  8
Net
  10
1.799
  20
0.0
  42
1
  0
VERTEX
  8
Net
  10
1.801
  20
0.0
  42
1
  0
VERTEX
  8
Net
  10
1.799
  20
0.0
  42
1
  0
SEQEND
  0
POLYLINE
  8
Net
  6
CONTINUOUS
  66
1
  70
0
  40
0.002
  41
0.002
  0
VERTEX
  8
Net
  10
1.799
  20
3.35
  42
1
  0
VERTEX
  8
Net
  10
1.801
  20
3.35
  42
1
  0
VERTEX
  8
Net
  10
1.799
  20
3.35
  42
1
  0
SEQEND
  0
POLYLINE
  8
Net
  6
CONTINUOUS
  66
1
  70
0
  40
0.0039
  41
0.0039
  0
VERTEX
  8
Net
  10
1.8
  20
3.35
  42
0
  0
VERTEX
  8
Net
  10
1.8
  20
3.35
  42
0
  0
SEQEND
  0
POLYLINE
  8
Net
  6
CONTINUOUS
  66
1
  70
0
  40
0.002
  41
0.002
  0
VERTEX
  8
Net
  10
1.799
  20
3.35
  42
1
  0
VERTEX
  8
Net
  10
1.801
  20
3.35
  42
1
  0
VERTEX
  8
Net
  10
1.799
  20
3.35
  42
1
  0
SEQEND
  0
POLYLINE
  8
Net
  6
CONTINUOUS
  66
1
  70
0
  40
0.0039
  41
0.0039
  0
VERTEX
  8
Net
  10
2.75
  20
3.35
  42
0
  0
VERTEX
  8
Net
  10
2.65
  20
3.35
  42
0
  0
SEQEND
  0
POLYLINE
  8
Net
  6
CONTINUOUS
  66
1
  70
0
  40
0.002
  41
0.002
  0
VERTEX
  8
Net
  10
2.749
  20
3.35
  42
1
  0
VERTEX
  8
Net
  10
2.751
  20
3.35
  42
1
  0
VERTEX
  8
Net
  10
2.749
  20
3.35
  42
1
  0
SEQEND
  0
POLYLINE
  8
Net
  6
CONTINUOUS
  66
1
  70
0
  40
0.002
  41
0.002
  0
VERTEX
  8
Net
  10
2.649
  20
3.35
  42
1
  0
VERTEX
  8
Net
  10
2.651
  20
3.35
  42
1
  0
VERTEX
  8
Net
  10
2.649
  20
3.35
  42
1
  0
SEQEND
  0
POLYLINE
  8
Net
  6
CONTINUOUS
  66
1
  70
0
  40
0.0039
  41
0.0039
  0
VERTEX
  8
Net
  10
2.7
  20
3.35
  42
0
  0
VERTEX
  8
Net
  10
2.7
  20
3.25
  42
0
  0
SEQEND
  0
POLYLINE
  8
Net
  6
CONTINUOUS
  66
1
  70
0
  40
0.002
  41
0.002
  0
VERTEX
  8
Net
  10
2.699
  20
3.35
  42
1
  0
VERTEX
  8
Net
  10
2.701
  20
3.35
  42
1
  0
VERTEX
  8
Net
  10
2.699
  20
3.35
  42
1
  0
SEQEND
  0
POLYLINE
  8
Net
  6
CONTINUOUS
  66
1
  70
0
  40
0.002
  41
0.002
  0
VERTEX
  8
Net
  10
2.699
  20
3.25
  42
1
  0
VERTEX
  8
Net
  10
2.701
  20
3.25
  42
1
  0
VERTEX
  8
Net
  10
2.699
  20
3.25
  42
1
  0
SEQEND
  0
TEXT
  8
Pin
  10
4.8008
  20
2.5573
  40
0.0292
  41
0.7
  1
1
  50
90.0
  72
0
  73
3
  7
STANDARD
  71
0
  11
4.8008
  21
2.5573
  0
POLYLINE
  8
Pin
  6
CONTINUOUS
  66
1
  70
0
  40
0.0039
  41
0.0039
  0
VERTEX
  8
Pin
  10
4.85
  20
2.6
  42
0
  0
VERTEX
  8
Pin
  10
4.85
  20
2.45
  42
0
  0
SEQEND
  0
POLYLINE
  8
Pin
  6
CONTINUOUS
  66
1
  70
0
  40
0.002
  41
0.002
  0
VERTEX
  8
Pin
  10
4.849
  20
2.6
  42
1
  0
VERTEX
  8
Pin
  10
4.851
  20
2.6
  42
1
  0
VERTEX
  8
Pin
  10
4.849
  20
2.6
  42
1
  0
SEQEND
  0
POLYLINE
  8
Pin
  6
CONTINUOUS
  66
1
  70
0
  40
0.002
  41
0.002
  0
VERTEX
  8
Pin
  10
4.849
  20
2.45
  42
1
  0
VERTEX
  8
Pin
  10
4.851
  20
2.45
  42
1
  0
VERTEX
  8
Pin
  10
4.849
  20
2.45
  42
1
  0
SEQEND
  0
TEXT
  8
Pin
  10
4.7008
  20
2.5573
  40
0.0292
  41
0.7
  1
2
  50
90.0
  72
0
  73
3
  7
STANDARD
  71
0
  11
4.7008
  21
2.5573
  0
POLYLINE
  8
Pin
  6
CONTINUOUS
  66
1
  70
0
  40
0.0039
  41
0.0039
  0
VERTEX
  8
Pin
  10
4.75
  20
2.6
  42
0
  0
VERTEX
  8
Pin
  10
4.75
  20
2.45
  42
0
  0
SEQEND
  0
POLYLINE
  8
Pin
  6
CONTINUOUS
  66
1
  70
0
  40
0.002
  41
0.002
  0
VERTEX
  8
Pin
  10
4.749
  20
2.6
  42
1
  0
VERTEX
  8
Pin
  10
4.751
  20
2.6
  42
1
  0
VERTEX
  8
Pin
  10
4.749
  20
2.6
  42
1
  0
SEQEND
  0
POLYLINE
  8
Pin
  6
CONTINUOUS
  66
1
  70
0
  40
0.002
  41
0.002
  0
VERTEX
  8
Pin
  10
4.749
  20
2.45
  42
1
  0
VERTEX
  8
Pin
  10
4.751
  20
2.45
  42
1
  0
VERTEX
  8
Pin
  10
4.749
  20
2.45
  42
1
  0
SEQEND
  0
TEXT
  8
Pin
  10
1.4242
  20
3.9219
  40
0.0365
  41
0.7
  1
VBUS
  50
0.0
  72
0
  73
3
  7
STANDARD
  71
0
  11
1.4242
  21
3.9219
  0
TEXT
  8
Pin
  10
1.5762
  20
3.9492
  40
0.0292
  41
0.7
  1
1
  50
0.0
  72
0
  73
3
  7
STANDARD
  71
0
  11
1.5762
  21
3.9492
  0
POLYLINE
  8
Pin
  6
CONTINUOUS
  66
1
  70
0
  40
0.0039
  41
0.0039
  0
VERTEX
  8
Pin
  10
1.55
  20
3.9
  42
0
  0
VERTEX
  8
Pin
  10
1.7
  20
3.9
  42
0
  0
SEQEND
  0
POLYLINE
  8
Pin
  6
CONTINUOUS
  66
1
  70
0
  40
0.002
  41
0.002
  0
VERTEX
  8
Pin
  10
1.549
  20
3.9
  42
1
  0
VERTEX
  8
Pin
  10
1.551
  20
3.9
  42
1
  0
VERTEX
  8
Pin
  10
1.549
  20
3.9
  42
1
  0
SEQEND
  0
POLYLINE
  8
Pin
  6
CONTINUOUS
  66
1
  70
0
  40
0.002
  41
0.002
  0
VERTEX
  8
Pin
  10
1.699
  20
3.9
  42
1
  0
VERTEX
  8
Pin
  10
1.701
  20
3.9
  42
1
  0
VERTEX
  8
Pin
  10
1.699
  20
3.9
  42
1
  0
SEQEND
  0
TEXT
  8
Pin
  10
1.0894
  20
3.6219
  40
0.0365
  41
0.7
  1
D-
  50
0.0
  72
0
  73
3
  7
STANDARD
  71
0
  11
1.0894
  21
3.6219
  0
TEXT
  8
Pin
  10
1.0024
  20
3.6492
  40
0.0292
  41
0.7
  1
2
  50
0.0
  72
0
  73
3
  7
STANDARD
  71
0
  11
1.0024
  21
3.6492
  0
POLYLINE
  8
Pin
  6
CONTINUOUS
  66
1
  70
0
  40
0.0039
  41
0.0039
  0
VERTEX
  8
Pin
  10
1.05
  20
3.6
  42
0
  0
VERTEX
  8
Pin
  10
0.9
  20
3.6
  42
0
  0
SEQEND
  0
POLYLINE
  8
Pin
  6
CONTINUOUS
  66
1
  70
0
  40
0.002
  41
0.002
  0
VERTEX
  8
Pin
  10
1.049
  20
3.6
  42
1
  0
VERTEX
  8
Pin
  10
1.051
  20
3.6
  42
1
  0
VERTEX
  8
Pin
  10
1.049
  20
3.6
  42
1
  0
SEQEND
  0
POLYLINE
  8
Pin
  6
CONTINUOUS
  66
1
  70
0
  40
0.002
  41
0.002
  0
VERTEX
  8
Pin
  10
0.899
  20
3.6
  42
1
  0
VERTEX
  8
Pin
  10
0.901
  20
3.6
  42
1
  0
VERTEX
  8
Pin
  10
0.899
  20
3.6
  42
1
  0
SEQEND
  0
TEXT
  8
Pin
  10
1.0894
  20
3.8219
  40
0.0365
  41
0.7
  1
D+
  50
0.0
  72
0
  73
3
  7
STANDARD
  71
0
  11
1.0894
  21
3.8219
  0
TEXT
  8
Pin
  10
1.0024
  20
3.8492
  40
0.0292
  41
0.7
  1
3
  50
0.0
  72
0
  73
3
  7
STANDARD
  71
0
  11
1.0024
  21
3.8492
  0
POLYLINE
  8
Pin
  6
CONTINUOUS
  66
1
  70
0
  40
0.0039
  41
0.0039
  0
VERTEX
  8
Pin
  10
1.05
  20
3.8
  42
0
  0
VERTEX
  8
Pin
  10
0.9
  20
3.8
  42
0
  0
SEQEND
  0
POLYLINE
  8
Pin
  6
CONTINUOUS
  66
1
  70
0
  40
0.002
  41
0.002
  0
VERTEX
  8
Pin
  10
1.049
  20
3.8
  42
1
  0
VERTEX
  8
Pin
  10
1.051
  20
3.8
  42
1
  0
VERTEX
  8
Pin
  10
1.049
  20
3.8
  42
1
  0
SEQEND
  0
POLYLINE
  8
Pin
  6
CONTINUOUS
  66
1
  70
0
  40
0.002
  41
0.002
  0
VERTEX
  8
Pin
  10
0.899
  20
3.8
  42
1
  0
VERTEX
  8
Pin
  10
0.901
  20
3.8
  42
1
  0
VERTEX
  8
Pin
  10
0.899
  20
3.8
  42
1
  0
SEQEND
  0
TEXT
  8
Pin
  10
1.4264
  20
3.5219
  40
0.0365
  41
0.7
  1
CASE
  50
0.0
  72
0
  73
3
  7
STANDARD
  71
0
  11
1.4264
  21
3.5219
  0
TEXT
  8
Pin
  10
1.5762
  20
3.5492
  40
0.0292
  41
0.7
  1
5
  50
0.0
  72
0
  73
3
  7
STANDARD
  71
0
  11
1.5762
  21
3.5492
  0
POLYLINE
  8
Pin
  6
CONTINUOUS
  66
1
  70
0
  40
0.0039
  41
0.0039
  0
VERTEX
  8
Pin
  10
1.55
  20
3.5
  42
0
  0
VERTEX
  8
Pin
  10
1.7
  20
3.5
  42
0
  0
SEQEND
  0
POLYLINE
  8
Pin
  6
CONTINUOUS
  66
1
  70
0
  40
0.002
  41
0.002
  0
VERTEX
  8
Pin
  10
1.549
  20
3.5
  42
1
  0
VERTEX
  8
Pin
  10
1.551
  20
3.5
  42
1
  0
VERTEX
  8
Pin
  10
1.549
  20
3.5
  42
1
  0
SEQEND
  0
POLYLINE
  8
Pin
  6
CONTINUOUS
  66
1
  70
0
  40
0.002
  41
0.002
  0
VERTEX
  8
Pin
  10
1.699
  20
3.5
  42
1
  0
VERTEX
  8
Pin
  10
1.701
  20
3.5
  42
1
  0
VERTEX
  8
Pin
  10
1.699
  20
3.5
  42
1
  0
SEQEND
  0
POLYLINE
  8
Pin
  6
CONTINUOUS
  66
1
  70
0
  40
0.0039
  41
0.0039
  0
VERTEX
  8
Pin
  10
1.6843
  20
3.5157
  42
0
  0
VERTEX
  8
Pin
  10
1.7157
  20
3.5157
  42
0
  0
VERTEX
  8
Pin
  10
1.7157
  20
3.4843
  42
0
  0
VERTEX
  8
Pin
  10
1.6843
  20
3.4843
  42
0
  0
VERTEX
  8
Pin
  10
1.6843
  20
3.5157
  42
0
  0
SEQEND
  0
TEXT
  8
Pin
  10
1.4385
  20
3.7219
  40
0.0365
  41
0.7
  1
GND
  50
0.0
  72
0
  73
3
  7
STANDARD
  71
0
  11
1.4385
  21
3.7219
  0
TEXT
  8
Pin
  10
1.5762
  20
3.7492
  40
0.0292
  41
0.7
  1
4
  50
0.0
  72
0
  73
3
  7
STANDARD
  71
0
  11
1.5762
  21
3.7492
  0
POLYLINE
  8
Pin
  6
CONTINUOUS
  66
1
  70
0
  40
0.0039
  41
0.0039
  0
VERTEX
  8
Pin
  10
1.55
  20
3.7
  42
0
  0
VERTEX
  8
Pin
  10
1.7
  20
3.7
  42
0
  0
SEQEND
  0
POLYLINE
  8
Pin
  6
CONTINUOUS
  66
1
  70
0
  40
0.002
  41
0.002
  0
VERTEX
  8
Pin
  10
1.549
  20
3.7
  42
1
  0
VERTEX
  8
Pin
  10
1.551
  20
3.7
  42
1
  0
VERTEX
  8
Pin
  10
1.549
  20
3.7
  42
1
  0
SEQEND
  0
POLYLINE
  8
Pin
  6
CONTINUOUS
  66
1
  70
0
  40
0.002
  41
0.002
  0
VERTEX
  8
Pin
  10
1.699
  20
3.7
  42
1
  0
VERTEX
  8
Pin
  10
1.701
  20
3.7
  42
1
  0
VERTEX
  8
Pin
  10
1.699
  20
3.7
  42
1
  0
SEQEND
  0
TEXT
  8
Pin
  10
4.2242
  20
4.0719
  40
0.0365
  41
0.7
  1
VBUS
  50
0.0
  72
0
  73
3
  7
STANDARD
  71
0
  11
4.2242
  21
4.0719
  0
TEXT
  8
Pin
  10
4.3762
  20
4.0992
  40
0.0292
  41
0.7
  1
1
  50
0.0
  72
0
  73
3
  7
STANDARD
  71
0
  11
4.3762
  21
4.0992
  0
POLYLINE
  8
Pin
  6
CONTINUOUS
  66
1
  70
0
  40
0.0039
  41
0.0039
  0
VERTEX
  8
Pin
  10
4.35
  20
4.05
  42
0
  0
VERTEX
  8
Pin
  10
4.5
  20
4.05
  42
0
  0
SEQEND
  0
POLYLINE
  8
Pin
  6
CONTINUOUS
  66
1
  70
0
  40
0.002
  41
0.002
  0
VERTEX
  8
Pin
  10
4.349
  20
4.05
  42
1
  0
VERTEX
  8
Pin
  10
4.351
  20
4.05
  42
1
  0
VERTEX
  8
Pin
  10
4.349
  20
4.05
  42
1
  0
SEQEND
  0
POLYLINE
  8
Pin
  6
CONTINUOUS
  66
1
  70
0
  40
0.002
  41
0.002
  0
VERTEX
  8
Pin
  10
4.499
  20
4.05
  42
1
  0
VERTEX
  8
Pin
  10
4.501
  20
4.05
  42
1
  0
VERTEX
  8
Pin
  10
4.499
  20
4.05
  42
1
  0
SEQEND
  0
TEXT
  8
Pin
  10
3.8894
  20
3.7719
  40
0.0365
  41
0.7
  1
D-
  50
0.0
  72
0
  73
3
  7
STANDARD
  71
0
  11
3.8894
  21
3.7719
  0
TEXT
  8
Pin
  10
3.8024
  20
3.7992
  40
0.0292
  41
0.7
  1
2
  50
0.0
  72
0
  73
3
  7
STANDARD
  71
0
  11
3.8024
  21
3.7992
  0
POLYLINE
  8
Pin
  6
CONTINUOUS
  66
1
  70
0
  40
0.0039
  41
0.0039
  0
VERTEX
  8
Pin
  10
3.85
  20
3.75
  42
0
  0
VERTEX
  8
Pin
  10
3.7
  20
3.75
  42
0
  0
SEQEND
  0
POLYLINE
  8
Pin
  6
CONTINUOUS
  66
1
  70
0
  40
0.002
  41
0.002
  0
VERTEX
  8
Pin
  10
3.849
  20
3.75
  42
1
  0
VERTEX
  8
Pin
  10
3.851
  20
3.75
  42
1
  0
VERTEX
  8
Pin
  10
3.849
  20
3.75
  42
1
  0
SEQEND
  0
POLYLINE
  8
Pin
  6
CONTINUOUS
  66
1
  70
0
  40
0.002
  41
0.002
  0
VERTEX
  8
Pin
  10
3.699
  20
3.75
  42
1
  0
VERTEX
  8
Pin
  10
3.701
  20
3.75
  42
1
  0
VERTEX
  8
Pin
  10
3.699
  20
3.75
  42
1
  0
SEQEND
  0
TEXT
  8
Pin
  10
3.8894
  20
3.9719
  40
0.0365
  41
0.7
  1
D+
  50
0.0
  72
0
  73
3
  7
STANDARD
  71
0
  11
3.8894
  21
3.9719
  0
TEXT
  8
Pin
  10
3.8024
  20
3.9992
  40
0.0292
  41
0.7
  1
3
  50
0.0
  72
0
  73
3
  7
STANDARD
  71
0
  11
3.8024
  21
3.9992
  0
POLYLINE
  8
Pin
  6
CONTINUOUS
  66
1
  70
0
  40
0.0039
  41
0.0039
  0
VERTEX
  8
Pin
  10
3.85
  20
3.95
  42
0
  0
VERTEX
  8
Pin
  10
3.7
  20
3.95
  42
0
  0
SEQEND
  0
POLYLINE
  8
Pin
  6
CONTINUOUS
  66
1
  70
0
  40
0.002
  41
0.002
  0
VERTEX
  8
Pin
  10
3.849
  20
3.95
  42
1
  0
VERTEX
  8
Pin
  10
3.851
  20
3.95
  42
1
  0
VERTEX
  8
Pin
  10
3.849
  20
3.95
  42
1
  0
SEQEND
  0
POLYLINE
  8
Pin
  6
CONTINUOUS
  66
1
  70
0
  40
0.002
  41
0.002
  0
VERTEX
  8
Pin
  10
3.699
  20
3.95
  42
1
  0
VERTEX
  8
Pin
  10
3.701
  20
3.95
  42
1
  0
VERTEX
  8
Pin
  10
3.699
  20
3.95
  42
1
  0
SEQEND
  0
TEXT
  8
Pin
  10
4.2264
  20
3.6719
  40
0.0365
  41
0.7
  1
CASE
  50
0.0
  72
0
  73
3
  7
STANDARD
  71
0
  11
4.2264
  21
3.6719
  0
TEXT
  8
Pin
  10
4.3762
  20
3.6992
  40
0.0292
  41
0.7
  1
5
  50
0.0
  72
0
  73
3
  7
STANDARD
  71
0
  11
4.3762
  21
3.6992
  0
POLYLINE
  8
Pin
  6
CONTINUOUS
  66
1
  70
0
  40
0.0039
  41
0.0039
  0
VERTEX
  8
Pin
  10
4.35
  20
3.65
  42
0
  0
VERTEX
  8
Pin
  10
4.5
  20
3.65
  42
0
  0
SEQEND
  0
POLYLINE
  8
Pin
  6
CONTINUOUS
  66
1
  70
0
  40
0.002
  41
0.002
  0
VERTEX
  8
Pin
  10
4.349
  20
3.65
  42
1
  0
VERTEX
  8
Pin
  10
4.351
  20
3.65
  42
1
  0
VERTEX
  8
Pin
  10
4.349
  20
3.65
  42
1
  0
SEQEND
  0
POLYLINE
  8
Pin
  6
CONTINUOUS
  66
1
  70
0
  40
0.002
  41
0.002
  0
VERTEX
  8
Pin
  10
4.499
  20
3.65
  42
1
  0
VERTEX
  8
Pin
  10
4.501
  20
3.65
  42
1
  0
VERTEX
  8
Pin
  10
4.499
  20
3.65
  42
1
  0
SEQEND
  0
POLYLINE
  8
Pin
  6
CONTINUOUS
  66
1
  70
0
  40
0.0039
  41
0.0039
  0
VERTEX
  8
Pin
  10
4.4843
  20
3.6657
  42
0
  0
VERTEX
  8
Pin
  10
4.5157
  20
3.6657
  42
0
  0
VERTEX
  8
Pin
  10
4.5157
  20
3.6343
  42
0
  0
VERTEX
  8
Pin
  10
4.4843
  20
3.6343
  42
0
  0
VERTEX
  8
Pin
  10
4.4843
  20
3.6657
  42
0
  0
SEQEND
  0
TEXT
  8
Pin
  10
4.2385
  20
3.8719
  40
0.0365
  41
0.7
  1
GND
  50
0.0
  72
0
  73
3
  7
STANDARD
  71
0
  11
4.2385
  21
3.8719
  0
TEXT
  8
Pin
  10
4.3762
  20
3.8992
  40
0.0292
  41
0.7
  1
4
  50
0.0
  72
0
  73
3
  7
STANDARD
  71
0
  11
4.3762
  21
3.8992
  0
POLYLINE
  8
Pin
  6
CONTINUOUS
  66
1
  70
0
  40
0.0039
  41
0.0039
  0
VERTEX
  8
Pin
  10
4.35
  20
3.85
  42
0
  0
VERTEX
  8
Pin
  10
4.5
  20
3.85
  42
0
  0
SEQEND
  0
POLYLINE
  8
Pin
  6
CONTINUOUS
  66
1
  70
0
  40
0.002
  41
0.002
  0
VERTEX
  8
Pin
  10
4.349
  20
3.85
  42
1
  0
VERTEX
  8
Pin
  10
4.351
  20
3.85
  42
1
  0
VERTEX
  8
Pin
  10
4.349
  20
3.85
  42
1
  0
SEQEND
  0
POLYLINE
  8
Pin
  6
CONTINUOUS
  66
1
  70
0
  40
0.002
  41
0.002
  0
VERTEX
  8
Pin
  10
4.499
  20
3.85
  42
1
  0
VERTEX
  8
Pin
  10
4.501
  20
3.85
  42
1
  0
VERTEX
  8
Pin
  10
4.499
  20
3.85
  42
1
  0
SEQEND
  0
TEXT
  8
Pin
  10
3.0242
  20
1.0219
  40
0.0365
  41
0.7
  1
VBUS
  50
0.0
  72
0
  73
3
  7
STANDARD
  71
0
  11
3.0242
  21
1.0219
  0
TEXT
  8
Pin
  10
3.1762
  20
1.0492
  40
0.0292
  41
0.7
  1
1
  50
0.0
  72
0
  73
3
  7
STANDARD
  71
0
  11
3.1762
  21
1.0492
  0
POLYLINE
  8
Pin
  6
CONTINUOUS
  66
1
  70
0
  40
0.0039
  41
0.0039
  0
VERTEX
  8
Pin
  10
3.15
  20
1.0
  42
0
  0
VERTEX
  8
Pin
  10
3.3
  20
1.0
  42
0
  0
SEQEND
  0
POLYLINE
  8
Pin
  6
CONTINUOUS
  66
1
  70
0
  40
0.002
  41
0.002
  0
VERTEX
  8
Pin
  10
3.149
  20
1.0
  42
1
  0
VERTEX
  8
Pin
  10
3.151
  20
1.0
  42
1
  0
VERTEX
  8
Pin
  10
3.149
  20
1.0
  42
1
  0
SEQEND
  0
POLYLINE
  8
Pin
  6
CONTINUOUS
  66
1
  70
0
  40
0.002
  41
0.002
  0
VERTEX
  8
Pin
  10
3.299
  20
1.0
  42
1
  0
VERTEX
  8
Pin
  10
3.301
  20
1.0
  42
1
  0
VERTEX
  8
Pin
  10
3.299
  20
1.0
  42
1
  0
SEQEND
  0
TEXT
  8
Pin
  10
2.6894
  20
0.7219
  40
0.0365
  41
0.7
  1
D-
  50
0.0
  72
0
  73
3
  7
STANDARD
  71
0
  11
2.6894
  21
0.7219
  0
TEXT
  8
Pin
  10
2.6024
  20
0.7492
  40
0.0292
  41
0.7
  1
2
  50
0.0
  72
0
  73
3
  7
STANDARD
  71
0
  11
2.6024
  21
0.7492
  0
POLYLINE
  8
Pin
  6
CONTINUOUS
  66
1
  70
0
  40
0.0039
  41
0.0039
  0
VERTEX
  8
Pin
  10
2.65
  20
0.7
  42
0
  0
VERTEX
  8
Pin
  10
2.5
  20
0.7
  42
0
  0
SEQEND
  0
POLYLINE
  8
Pin
  6
CONTINUOUS
  66
1
  70
0
  40
0.002
  41
0.002
  0
VERTEX
  8
Pin
  10
2.649
  20
0.7
  42
1
  0
VERTEX
  8
Pin
  10
2.651
  20
0.7
  42
1
  0
VERTEX
  8
Pin
  10
2.649
  20
0.7
  42
1
  0
SEQEND
  0
POLYLINE
  8
Pin
  6
CONTINUOUS
  66
1
  70
0
  40
0.002
  41
0.002
  0
VERTEX
  8
Pin
  10
2.499
  20
0.7
  42
1
  0
VERTEX
  8
Pin
  10
2.501
  20
0.7
  42
1
  0
VERTEX
  8
Pin
  10
2.499
  20
0.7
  42
1
  0
SEQEND
  0
TEXT
  8
Pin
  10
2.6894
  20
0.9219
  40
0.0365
  41
0.7
  1
D+
  50
0.0
  72
0
  73
3
  7
STANDARD
  71
0
  11
2.6894
  21
0.9219
  0
TEXT
  8
Pin
  10
2.6024
  20
0.9492
  40
0.0292
  41
0.7
  1
3
  50
0.0
  72
0
  73
3
  7
STANDARD
  71
0
  11
2.6024
  21
0.9492
  0
POLYLINE
  8
Pin
  6
CONTINUOUS
  66
1
  70
0
  40
0.0039
  41
0.0039
  0
VERTEX
  8
Pin
  10
2.65
  20
0.9
  42
0
  0
VERTEX
  8
Pin
  10
2.5
  20
0.9
  42
0
  0
SEQEND
  0
POLYLINE
  8
Pin
  6
CONTINUOUS
  66
1
  70
0
  40
0.002
  41
0.002
  0
VERTEX
  8
Pin
  10
2.649
  20
0.9
  42
1
  0
VERTEX
  8
Pin
  10
2.651
  20
0.9
  42
1
  0
VERTEX
  8
Pin
  10
2.649
  20
0.9
  42
1
  0
SEQEND
  0
POLYLINE
  8
Pin
  6
CONTINUOUS
  66
1
  70
0
  40
0.002
  41
0.002
  0
VERTEX
  8
Pin
  10
2.499
  20
0.9
  42
1
  0
VERTEX
  8
Pin
  10
2.501
  20
0.9
  42
1
  0
VERTEX
  8
Pin
  10
2.499
  20
0.9
  42
1
  0
SEQEND
  0
TEXT
  8
Pin
  10
3.0264
  20
0.6219
  40
0.0365
  41
0.7
  1
CASE
  50
0.0
  72
0
  73
3
  7
STANDARD
  71
0
  11
3.0264
  21
0.6219
  0
TEXT
  8
Pin
  10
3.1762
  20
0.6492
  40
0.0292
  41
0.7
  1
5
  50
0.0
  72
0
  73
3
  7
STANDARD
  71
0
  11
3.1762
  21
0.6492
  0
POLYLINE
  8
Pin
  6
CONTINUOUS
  66
1
  70
0
  40
0.0039
  41
0.0039
  0
VERTEX
  8
Pin
  10
3.15
  20
0.6
  42
0
  0
VERTEX
  8
Pin
  10
3.3
  20
0.6
  42
0
  0
SEQEND
  0
POLYLINE
  8
Pin
  6
CONTINUOUS
  66
1
  70
0
  40
0.002
  41
0.002
  0
VERTEX
  8
Pin
  10
3.149
  20
0.6
  42
1
  0
VERTEX
  8
Pin
  10
3.151
  20
0.6
  42
1
  0
VERTEX
  8
Pin
  10
3.149
  20
0.6
  42
1
  0
SEQEND
  0
POLYLINE
  8
Pin
  6
CONTINUOUS
  66
1
  70
0
  40
0.002
  41
0.002
  0
VERTEX
  8
Pin
  10
3.299
  20
0.6
  42
1
  0
VERTEX
  8
Pin
  10
3.301
  20
0.6
  42
1
  0
VERTEX
  8
Pin
  10
3.299
  20
0.6
  42
1
  0
SEQEND
  0
POLYLINE
  8
Pin
  6
CONTINUOUS
  66
1
  70
0
  40
0.0039
  41
0.0039
  0
VERTEX
  8
Pin
  10
3.2843
  20
0.6157
  42
0
  0
VERTEX
  8
Pin
  10
3.3157
  20
0.6157
  42
0
  0
VERTEX
  8
Pin
  10
3.3157
  20
0.5843
  42
0
  0
VERTEX
  8
Pin
  10
3.2843
  20
0.5843
  42
0
  0
VERTEX
  8
Pin
  10
3.2843
  20
0.6157
  42
0
  0
SEQEND
  0
TEXT
  8
Pin
  10
3.0385
  20
0.8219
  40
0.0365
  41
0.7
  1
GND
  50
0.0
  72
0
  73
3
  7
STANDARD
  71
0
  11
3.0385
  21
0.8219
  0
TEXT
  8
Pin
  10
3.1762
  20
0.8492
  40
0.0292
  41
0.7
  1
4
  50
0.0
  72
0
  73
3
  7
STANDARD
  71
0
  11
3.1762
  21
0.8492
  0
POLYLINE
  8
Pin
  6
CONTINUOUS
  66
1
  70
0
  40
0.0039
  41
0.0039
  0
VERTEX
  8
Pin
  10
3.15
  20
0.8
  42
0
  0
VERTEX
  8
Pin
  10
3.3
  20
0.8
  42
0
  0
SEQEND
  0
POLYLINE
  8
Pin
  6
CONTINUOUS
  66
1
  70
0
  40
0.002
  41
0.002
  0
VERTEX
  8
Pin
  10
3.149
  20
0.8
  42
1
  0
VERTEX
  8
Pin
  10
3.151
  20
0.8
  42
1
  0
VERTEX
  8
Pin
  10
3.149
  20
0.8
  42
1
  0
SEQEND
  0
POLYLINE
  8
Pin
  6
CONTINUOUS
  66
1
  70
0
  40
0.002
  41
0.002
  0
VERTEX
  8
Pin
  10
3.299
  20
0.8
  42
1
  0
VERTEX
  8
Pin
  10
3.301
  20
0.8
  42
1
  0
VERTEX
  8
Pin
  10
3.299
  20
0.8
  42
1
  0
SEQEND
  0
TEXT
  8
Pin
  10
1.1942
  20
1.8992
  40
0.0292
  41
0.7
  1
10
  50
0.0
  72
0
  73
3
  7
STANDARD
  71
0
  11
1.1942
  21
1.8992
  0
POLYLINE
  8
Pin
  6
CONTINUOUS
  66
1
  70
0
  40
0.0039
  41
0.0039
  0
VERTEX
  8
Pin
  10
1.25
  20
1.85
  42
0
  0
VERTEX
  8
Pin
  10
1.1
  20
1.85
  42
0
  0
SEQEND
  0
POLYLINE
  8
Pin
  6
CONTINUOUS
  66
1
  70
0
  40
0.002
  41
0.002
  0
VERTEX
  8
Pin
  10
1.249
  20
1.85
  42
1
  0
VERTEX
  8
Pin
  10
1.251
  20
1.85
  42
1
  0
VERTEX
  8
Pin
  10
1.249
  20
1.85
  42
1
  0
SEQEND
  0
POLYLINE
  8
Pin
  6
CONTINUOUS
  66
1
  70
0
  40
0.002
  41
0.002
  0
VERTEX
  8
Pin
  10
1.099
  20
1.85
  42
1
  0
VERTEX
  8
Pin
  10
1.101
  20
1.85
  42
1
  0
VERTEX
  8
Pin
  10
1.099
  20
1.85
  42
1
  0
SEQEND
  0
TEXT
  8
Pin
  10
1.4798
  20
1.8992
  40
0.0292
  41
0.7
  1
1
  50
0.0
  72
0
  73
3
  7
STANDARD
  71
0
  11
1.4798
  21
1.8992
  0
POLYLINE
  8
Pin
  6
CONTINUOUS
  66
1
  70
0
  40
0.0039
  41
0.0039
  0
VERTEX
  8
Pin
  10
1.4536
  20
1.85
  42
0
  0
VERTEX
  8
Pin
  10
1.6036
  20
1.85
  42
0
  0
SEQEND
  0
POLYLINE
  8
Pin
  6
CONTINUOUS
  66
1
  70
0
  40
0.002
  41
0.002
  0
VERTEX
  8
Pin
  10
1.4526
  20
1.85
  42
1
  0
VERTEX
  8
Pin
  10
1.4546
  20
1.85
  42
1
  0
VERTEX
  8
Pin
  10
1.4526
  20
1.85
  42
1
  0
SEQEND
  0
POLYLINE
  8
Pin
  6
CONTINUOUS
  66
1
  70
0
  40
0.002
  41
0.002
  0
VERTEX
  8
Pin
  10
1.6026
  20
1.85
  42
1
  0
VERTEX
  8
Pin
  10
1.6046
  20
1.85
  42
1
  0
VERTEX
  8
Pin
  10
1.6026
  20
1.85
  42
1
  0
SEQEND
  0
TEXT
  8
Pin
  10
1.4794
  20
1.3992
  40
0.0292
  41
0.7
  1
O1
  50
0.0
  72
0
  73
3
  7
STANDARD
  71
0
  11
1.4794
  21
1.3992
  0
POLYLINE
  8
Pin
  6
CONTINUOUS
  66
1
  70
0
  40
0.0039
  41
0.0039
  0
VERTEX
  8
Pin
  10
1.4531
  20
1.35
  42
0
  0
VERTEX
  8
Pin
  10
1.6031
  20
1.35
  42
0
  0
SEQEND
  0
POLYLINE
  8
Pin
  6
CONTINUOUS
  66
1
  70
0
  40
0.002
  41
0.002
  0
VERTEX
  8
Pin
  10
1.4522
  20
1.35
  42
1
  0
VERTEX
  8
Pin
  10
1.4541
  20
1.35
  42
1
  0
VERTEX
  8
Pin
  10
1.4522
  20
1.35
  42
1
  0
SEQEND
  0
POLYLINE
  8
Pin
  6
CONTINUOUS
  66
1
  70
0
  40
0.002
  41
0.002
  0
VERTEX
  8
Pin
  10
1.6022
  20
1.35
  42
1
  0
VERTEX
  8
Pin
  10
1.6041
  20
1.35
  42
1
  0
VERTEX
  8
Pin
  10
1.6022
  20
1.35
  42
1
  0
SEQEND
  0
TEXT
  8
Pin
  10
1.1974
  20
1.3992
  40
0.0292
  41
0.7
  1
S1
  50
0.0
  72
0
  73
3
  7
STANDARD
  71
0
  11
1.1974
  21
1.3992
  0
POLYLINE
  8
Pin
  6
CONTINUOUS
  66
1
  70
0
  40
0.0039
  41
0.0039
  0
VERTEX
  8
Pin
  10
1.2531
  20
1.35
  42
0
  0
VERTEX
  8
Pin
  10
1.1031
  20
1.35
  42
0
  0
SEQEND
  0
POLYLINE
  8
Pin
  6
CONTINUOUS
  66
1
  70
0
  40
0.002
  41
0.002
  0
VERTEX
  8
Pin
  10
1.2522
  20
1.35
  42
1
  0
VERTEX
  8
Pin
  10
1.2541
  20
1.35
  42
1
  0
VERTEX
  8
Pin
  10
1.2522
  20
1.35
  42
1
  0
SEQEND
  0
POLYLINE
  8
Pin
  6
CONTINUOUS
  66
1
  70
0
  40
0.002
  41
0.002
  0
VERTEX
  8
Pin
  10
1.1022
  20
1.35
  42
1
  0
VERTEX
  8
Pin
  10
1.1041
  20
1.35
  42
1
  0
VERTEX
  8
Pin
  10
1.1022
  20
1.35
  42
1
  0
SEQEND
  0
TEXT
  8
Pin
  10
1.3039
  20
1.0909
  40
0.0292
  41
0.7
  1
P1
  50
90.0
  72
0
  73
3
  7
STANDARD
  71
0
  11
1.3039
  21
1.0909
  0
POLYLINE
  8
Pin
  6
CONTINUOUS
  66
1
  70
0
  40
0.0039
  41
0.0039
  0
VERTEX
  8
Pin
  10
1.3531
  20
1.15
  42
0
  0
VERTEX
  8
Pin
  10
1.3531
  20
1.0
  42
0
  0
SEQEND
  0
POLYLINE
  8
Pin
  6
CONTINUOUS
  66
1
  70
0
  40
0.002
  41
0.002
  0
VERTEX
  8
Pin
  10
1.3522
  20
1.15
  42
1
  0
VERTEX
  8
Pin
  10
1.3541
  20
1.15
  42
1
  0
VERTEX
  8
Pin
  10
1.3522
  20
1.15
  42
1
  0
SEQEND
  0
POLYLINE
  8
Pin
  6
CONTINUOUS
  66
1
  70
0
  40
0.002
  41
0.002
  0
VERTEX
  8
Pin
  10
1.3522
  20
1.0
  42
1
  0
VERTEX
  8
Pin
  10
1.3541
  20
1.0
  42
1
  0
VERTEX
  8
Pin
  10
1.3522
  20
1.0
  42
1
  0
SEQEND
  0
TEXT
  8
Pin
  10
1.4794
  20
0.6992
  40
0.0292
  41
0.7
  1
O2
  50
0.0
  72
0
  73
3
  7
STANDARD
  71
0
  11
1.4794
  21
0.6992
  0
POLYLINE
  8
Pin
  6
CONTINUOUS
  66
1
  70
0
  40
0.0039
  41
0.0039
  0
VERTEX
  8
Pin
  10
1.4531
  20
0.65
  42
0
  0
VERTEX
  8
Pin
  10
1.6031
  20
0.65
  42
0
  0
SEQEND
  0
POLYLINE
  8
Pin
  6
CONTINUOUS
  66
1
  70
0
  40
0.002
  41
0.002
  0
VERTEX
  8
Pin
  10
1.4522
  20
0.65
  42
1
  0
VERTEX
  8
Pin
  10
1.4541
  20
0.65
  42
1
  0
VERTEX
  8
Pin
  10
1.4522
  20
0.65
  42
1
  0
SEQEND
  0
POLYLINE
  8
Pin
  6
CONTINUOUS
  66
1
  70
0
  40
0.002
  41
0.002
  0
VERTEX
  8
Pin
  10
1.6022
  20
0.65
  42
1
  0
VERTEX
  8
Pin
  10
1.6041
  20
0.65
  42
1
  0
VERTEX
  8
Pin
  10
1.6022
  20
0.65
  42
1
  0
SEQEND
  0
TEXT
  8
Pin
  10
1.1974
  20
0.6992
  40
0.0292
  41
0.7
  1
S2
  50
0.0
  72
0
  73
3
  7
STANDARD
  71
0
  11
1.1974
  21
0.6992
  0
POLYLINE
  8
Pin
  6
CONTINUOUS
  66
1
  70
0
  40
0.0039
  41
0.0039
  0
VERTEX
  8
Pin
  10
1.2531
  20
0.65
  42
0
  0
VERTEX
  8
Pin
  10
1.1031
  20
0.65
  42
0
  0
SEQEND
  0
POLYLINE
  8
Pin
  6
CONTINUOUS
  66
1
  70
0
  40
0.002
  41
0.002
  0
VERTEX
  8
Pin
  10
1.2522
  20
0.65
  42
1
  0
VERTEX
  8
Pin
  10
1.2541
  20
0.65
  42
1
  0
VERTEX
  8
Pin
  10
1.2522
  20
0.65
  42
1
  0
SEQEND
  0
POLYLINE
  8
Pin
  6
CONTINUOUS
  66
1
  70
0
  40
0.002
  41
0.002
  0
VERTEX
  8
Pin
  10
1.1022
  20
0.65
  42
1
  0
VERTEX
  8
Pin
  10
1.1041
  20
0.65
  42
1
  0
VERTEX
  8
Pin
  10
1.1022
  20
0.65
  42
1
  0
SEQEND
  0
TEXT
  8
Pin
  10
1.3039
  20
0.3909
  40
0.0292
  41
0.7
  1
P2
  50
90.0
  72
0
  73
3
  7
STANDARD
  71
0
  11
1.3039
  21
0.3909
  0
POLYLINE
  8
Pin
  6
CONTINUOUS
  66
1
  70
0
  40
0.0039
  41
0.0039
  0
VERTEX
  8
Pin
  10
1.3531
  20
0.45
  42
0
  0
VERTEX
  8
Pin
  10
1.3531
  20
0.3
  42
0
  0
SEQEND
  0
POLYLINE
  8
Pin
  6
CONTINUOUS
  66
1
  70
0
  40
0.002
  41
0.002
  0
VERTEX
  8
Pin
  10
1.3522
  20
0.45
  42
1
  0
VERTEX
  8
Pin
  10
1.3541
  20
0.45
  42
1
  0
VERTEX
  8
Pin
  10
1.3522
  20
0.45
  42
1
  0
SEQEND
  0
POLYLINE
  8
Pin
  6
CONTINUOUS
  66
1
  70
0
  40
0.002
  41
0.002
  0
VERTEX
  8
Pin
  10
1.3522
  20
0.3
  42
1
  0
VERTEX
  8
Pin
  10
1.3541
  20
0.3
  42
1
  0
VERTEX
  8
Pin
  10
1.3522
  20
0.3
  42
1
  0
SEQEND
  0
TEXT
  8
Pin
  10
3.9442
  20
2.1492
  40
0.0292
  41
0.7
  1
10
  50
0.0
  72
0
  73
3
  7
STANDARD
  71
0
  11
3.9442
  21
2.1492
  0
POLYLINE
  8
Pin
  6
CONTINUOUS
  66
1
  70
0
  40
0.0039
  41
0.0039
  0
VERTEX
  8
Pin
  10
4.0
  20
2.1
  42
0
  0
VERTEX
  8
Pin
  10
3.85
  20
2.1
  42
0
  0
SEQEND
  0
POLYLINE
  8
Pin
  6
CONTINUOUS
  66
1
  70
0
  40
0.002
  41
0.002
  0
VERTEX
  8
Pin
  10
3.999
  20
2.1
  42
1
  0
VERTEX
  8
Pin
  10
4.001
  20
2.1
  42
1
  0
VERTEX
  8
Pin
  10
3.999
  20
2.1
  42
1
  0
SEQEND
  0
POLYLINE
  8
Pin
  6
CONTINUOUS
  66
1
  70
0
  40
0.002
  41
0.002
  0
VERTEX
  8
Pin
  10
3.849
  20
2.1
  42
1
  0
VERTEX
  8
Pin
  10
3.851
  20
2.1
  42
1
  0
VERTEX
  8
Pin
  10
3.849
  20
2.1
  42
1
  0
SEQEND
  0
TEXT
  8
Pin
  10
4.2298
  20
2.1492
  40
0.0292
  41
0.7
  1
1
  50
0.0
  72
0
  73
3
  7
STANDARD
  71
0
  11
4.2298
  21
2.1492
  0
POLYLINE
  8
Pin
  6
CONTINUOUS
  66
1
  70
0
  40
0.0039
  41
0.0039
  0
VERTEX
  8
Pin
  10
4.2036
  20
2.1
  42
0
  0
VERTEX
  8
Pin
  10
4.3536
  20
2.1
  42
0
  0
SEQEND
  0
POLYLINE
  8
Pin
  6
CONTINUOUS
  66
1
  70
0
  40
0.002
  41
0.002
  0
VERTEX
  8
Pin
  10
4.2026
  20
2.1
  42
1
  0
VERTEX
  8
Pin
  10
4.2046
  20
2.1
  42
1
  0
VERTEX
  8
Pin
  10
4.2026
  20
2.1
  42
1
  0
SEQEND
  0
POLYLINE
  8
Pin
  6
CONTINUOUS
  66
1
  70
0
  40
0.002
  41
0.002
  0
VERTEX
  8
Pin
  10
4.3526
  20
2.1
  42
1
  0
VERTEX
  8
Pin
  10
4.3546
  20
2.1
  42
1
  0
VERTEX
  8
Pin
  10
4.3526
  20
2.1
  42
1
  0
SEQEND
  0
TEXT
  8
Pin
  10
4.2762
  20
1.6492
  40
0.0292
  41
0.7
  1
O1
  50
0.0
  72
0
  73
3
  7
STANDARD
  71
0
  11
4.2762
  21
1.6492
  0
POLYLINE
  8
Pin
  6
CONTINUOUS
  66
1
  70
0
  40
0.0039
  41
0.0039
  0
VERTEX
  8
Pin
  10
4.25
  20
1.6
  42
0
  0
VERTEX
  8
Pin
  10
4.4
  20
1.6
  42
0
  0
SEQEND
  0
POLYLINE
  8
Pin
  6
CONTINUOUS
  66
1
  70
0
  40
0.002
  41
0.002
  0
VERTEX
  8
Pin
  10
4.249
  20
1.6
  42
1
  0
VERTEX
  8
Pin
  10
4.251
  20
1.6
  42
1
  0
VERTEX
  8
Pin
  10
4.249
  20
1.6
  42
1
  0
SEQEND
  0
POLYLINE
  8
Pin
  6
CONTINUOUS
  66
1
  70
0
  40
0.002
  41
0.002
  0
VERTEX
  8
Pin
  10
4.399
  20
1.6
  42
1
  0
VERTEX
  8
Pin
  10
4.401
  20
1.6
  42
1
  0
VERTEX
  8
Pin
  10
4.399
  20
1.6
  42
1
  0
SEQEND
  0
TEXT
  8
Pin
  10
3.9942
  20
1.6492
  40
0.0292
  41
0.7
  1
S1
  50
0.0
  72
0
  73
3
  7
STANDARD
  71
0
  11
3.9942
  21
1.6492
  0
POLYLINE
  8
Pin
  6
CONTINUOUS
  66
1
  70
0
  40
0.0039
  41
0.0039
  0
VERTEX
  8
Pin
  10
4.05
  20
1.6
  42
0
  0
VERTEX
  8
Pin
  10
3.9
  20
1.6
  42
0
  0
SEQEND
  0
POLYLINE
  8
Pin
  6
CONTINUOUS
  66
1
  70
0
  40
0.002
  41
0.002
  0
VERTEX
  8
Pin
  10
4.049
  20
1.6
  42
1
  0
VERTEX
  8
Pin
  10
4.051
  20
1.6
  42
1
  0
VERTEX
  8
Pin
  10
4.049
  20
1.6
  42
1
  0
SEQEND
  0
POLYLINE
  8
Pin
  6
CONTINUOUS
  66
1
  70
0
  40
0.002
  41
0.002
  0
VERTEX
  8
Pin
  10
3.899
  20
1.6
  42
1
  0
VERTEX
  8
Pin
  10
3.901
  20
1.6
  42
1
  0
VERTEX
  8
Pin
  10
3.899
  20
1.6
  42
1
  0
SEQEND
  0
TEXT
  8
Pin
  10
4.1008
  20
1.3409
  40
0.0292
  41
0.7
  1
P1
  50
90.0
  72
0
  73
3
  7
STANDARD
  71
0
  11
4.1008
  21
1.3409
  0
POLYLINE
  8
Pin
  6
CONTINUOUS
  66
1
  70
0
  40
0.0039
  41
0.0039
  0
VERTEX
  8
Pin
  10
4.15
  20
1.4
  42
0
  0
VERTEX
  8
Pin
  10
4.15
  20
1.25
  42
0
  0
SEQEND
  0
POLYLINE
  8
Pin
  6
CONTINUOUS
  66
1
  70
0
  40
0.002
  41
0.002
  0
VERTEX
  8
Pin
  10
4.149
  20
1.4
  42
1
  0
VERTEX
  8
Pin
  10
4.151
  20
1.4
  42
1
  0
VERTEX
  8
Pin
  10
4.149
  20
1.4
  42
1
  0
SEQEND
  0
POLYLINE
  8
Pin
  6
CONTINUOUS
  66
1
  70
0
  40
0.002
  41
0.002
  0
VERTEX
  8
Pin
  10
4.149
  20
1.25
  42
1
  0
VERTEX
  8
Pin
  10
4.151
  20
1.25
  42
1
  0
VERTEX
  8
Pin
  10
4.149
  20
1.25
  42
1
  0
SEQEND
  0
TEXT
  8
Pin
  10
4.2762
  20
0.9992
  40
0.0292
  41
0.7
  1
O2
  50
0.0
  72
0
  73
3
  7
STANDARD
  71
0
  11
4.2762
  21
0.9992
  0
POLYLINE
  8
Pin
  6
CONTINUOUS
  66
1
  70
0
  40
0.0039
  41
0.0039
  0
VERTEX
  8
Pin
  10
4.25
  20
0.95
  42
0
  0
VERTEX
  8
Pin
  10
4.4
  20
0.95
  42
0
  0
SEQEND
  0
POLYLINE
  8
Pin
  6
CONTINUOUS
  66
1
  70
0
  40
0.002
  41
0.002
  0
VERTEX
  8
Pin
  10
4.249
  20
0.95
  42
1
  0
VERTEX
  8
Pin
  10
4.251
  20
0.95
  42
1
  0
VERTEX
  8
Pin
  10
4.249
  20
0.95
  42
1
  0
SEQEND
  0
POLYLINE
  8
Pin
  6
CONTINUOUS
  66
1
  70
0
  40
0.002
  41
0.002
  0
VERTEX
  8
Pin
  10
4.399
  20
0.95
  42
1
  0
VERTEX
  8
Pin
  10
4.401
  20
0.95
  42
1
  0
VERTEX
  8
Pin
  10
4.399
  20
0.95
  42
1
  0
SEQEND
  0
TEXT
  8
Pin
  10
3.9942
  20
0.9992
  40
0.0292
  41
0.7
  1
S2
  50
0.0
  72
0
  73
3
  7
STANDARD
  71
0
  11
3.9942
  21
0.9992
  0
POLYLINE
  8
Pin
  6
CONTINUOUS
  66
1
  70
0
  40
0.0039
  41
0.0039
  0
VERTEX
  8
Pin
  10
4.05
  20
0.95
  42
0
  0
VERTEX
  8
Pin
  10
3.9
  20
0.95
  42
0
  0
SEQEND
  0
POLYLINE
  8
Pin
  6
CONTINUOUS
  66
1
  70
0
  40
0.002
  41
0.002
  0
VERTEX
  8
Pin
  10
4.049
  20
0.95
  42
1
  0
VERTEX
  8
Pin
  10
4.051
  20
0.95
  42
1
  0
VERTEX
  8
Pin
  10
4.049
  20
0.95
  42
1
  0
SEQEND
  0
POLYLINE
  8
Pin
  6
CONTINUOUS
  66
1
  70
0
  40
0.002
  41
0.002
  0
VERTEX
  8
Pin
  10
3.899
  20
0.95
  42
1
  0
VERTEX
  8
Pin
  10
3.901
  20
0.95
  42
1
  0
VERTEX
  8
Pin
  10
3.899
  20
0.95
  42
1
  0
SEQEND
  0
TEXT
  8
Pin
  10
4.1008
  20
0.6909
  40
0.0292
  41
0.7
  1
P2
  50
90.0
  72
0
  73
3
  7
STANDARD
  71
0
  11
4.1008
  21
0.6909
  0
POLYLINE
  8
Pin
  6
CONTINUOUS
  66
1
  70
0
  40
0.0039
  41
0.0039
  0
VERTEX
  8
Pin
  10
4.15
  20
0.75
  42
0
  0
VERTEX
  8
Pin
  10
4.15
  20
0.6
  42
0
  0
SEQEND
  0
POLYLINE
  8
Pin
  6
CONTINUOUS
  66
1
  70
0
  40
0.002
  41
0.002
  0
VERTEX
  8
Pin
  10
4.149
  20
0.75
  42
1
  0
VERTEX
  8
Pin
  10
4.151
  20
0.75
  42
1
  0
VERTEX
  8
Pin
  10
4.149
  20
0.75
  42
1
  0
SEQEND
  0
POLYLINE
  8
Pin
  6
CONTINUOUS
  66
1
  70
0
  40
0.002
  41
0.002
  0
VERTEX
  8
Pin
  10
4.149
  20
0.6
  42
1
  0
VERTEX
  8
Pin
  10
4.151
  20
0.6
  42
1
  0
VERTEX
  8
Pin
  10
4.149
  20
0.6
  42
1
  0
SEQEND
  0
TEXT
  8
Pin
  10
3.9524
  20
2.6992
  40
0.0292
  41
0.7
  1
2
  50
0.0
  72
0
  73
3
  7
STANDARD
  71
0
  11
3.9524
  21
2.6992
  0
POLYLINE
  8
Pin
  6
CONTINUOUS
  66
1
  70
0
  40
0.0039
  41
0.0039
  0
VERTEX
  8
Pin
  10
4.0
  20
2.65
  42
0
  0
VERTEX
  8
Pin
  10
3.85
  20
2.65
  42
0
  0
SEQEND
  0
POLYLINE
  8
Pin
  6
CONTINUOUS
  66
1
  70
0
  40
0.002
  41
0.002
  0
VERTEX
  8
Pin
  10
3.999
  20
2.65
  42
1
  0
VERTEX
  8
Pin
  10
4.001
  20
2.65
  42
1
  0
VERTEX
  8
Pin
  10
3.999
  20
2.65
  42
1
  0
SEQEND
  0
POLYLINE
  8
Pin
  6
CONTINUOUS
  66
1
  70
0
  40
0.002
  41
0.002
  0
VERTEX
  8
Pin
  10
3.849
  20
2.65
  42
1
  0
VERTEX
  8
Pin
  10
3.851
  20
2.65
  42
1
  0
VERTEX
  8
Pin
  10
3.849
  20
2.65
  42
1
  0
SEQEND
  0
TEXT
  8
Pin
  10
4.2262
  20
2.6992
  40
0.0292
  41
0.7
  1
1
  50
0.0
  72
0
  73
3
  7
STANDARD
  71
0
  11
4.2262
  21
2.6992
  0
POLYLINE
  8
Pin
  6
CONTINUOUS
  66
1
  70
0
  40
0.0039
  41
0.0039
  0
VERTEX
  8
Pin
  10
4.2
  20
2.65
  42
0
  0
VERTEX
  8
Pin
  10
4.35
  20
2.65
  42
0
  0
SEQEND
  0
POLYLINE
  8
Pin
  6
CONTINUOUS
  66
1
  70
0
  40
0.002
  41
0.002
  0
VERTEX
  8
Pin
  10
4.199
  20
2.65
  42
1
  0
VERTEX
  8
Pin
  10
4.201
  20
2.65
  42
1
  0
VERTEX
  8
Pin
  10
4.199
  20
2.65
  42
1
  0
SEQEND
  0
POLYLINE
  8
Pin
  6
CONTINUOUS
  66
1
  70
0
  40
0.002
  41
0.002
  0
VERTEX
  8
Pin
  10
4.349
  20
2.65
  42
1
  0
VERTEX
  8
Pin
  10
4.351
  20
2.65
  42
1
  0
VERTEX
  8
Pin
  10
4.349
  20
2.65
  42
1
  0
SEQEND
  0
TEXT
  8
Pin
  10
0.6024
  20
2.2492
  40
0.0292
  41
0.7
  1
2
  50
0.0
  72
0
  73
3
  7
STANDARD
  71
0
  11
0.6024
  21
2.2492
  0
POLYLINE
  8
Pin
  6
CONTINUOUS
  66
1
  70
0
  40
0.0039
  41
0.0039
  0
VERTEX
  8
Pin
  10
0.65
  20
2.2
  42
0
  0
VERTEX
  8
Pin
  10
0.5
  20
2.2
  42
0
  0
SEQEND
  0
POLYLINE
  8
Pin
  6
CONTINUOUS
  66
1
  70
0
  40
0.002
  41
0.002
  0
VERTEX
  8
Pin
  10
0.649
  20
2.2
  42
1
  0
VERTEX
  8
Pin
  10
0.651
  20
2.2
  42
1
  0
VERTEX
  8
Pin
  10
0.649
  20
2.2
  42
1
  0
SEQEND
  0
POLYLINE
  8
Pin
  6
CONTINUOUS
  66
1
  70
0
  40
0.002
  41
0.002
  0
VERTEX
  8
Pin
  10
0.499
  20
2.2
  42
1
  0
VERTEX
  8
Pin
  10
0.501
  20
2.2
  42
1
  0
VERTEX
  8
Pin
  10
0.499
  20
2.2
  42
1
  0
SEQEND
  0
TEXT
  8
Pin
  10
0.8762
  20
2.2492
  40
0.0292
  41
0.7
  1
1
  50
0.0
  72
0
  73
3
  7
STANDARD
  71
0
  11
0.8762
  21
2.2492
  0
POLYLINE
  8
Pin
  6
CONTINUOUS
  66
1
  70
0
  40
0.0039
  41
0.0039
  0
VERTEX
  8
Pin
  10
0.85
  20
2.2
  42
0
  0
VERTEX
  8
Pin
  10
1.0
  20
2.2
  42
0
  0
SEQEND
  0
POLYLINE
  8
Pin
  6
CONTINUOUS
  66
1
  70
0
  40
0.002
  41
0.002
  0
VERTEX
  8
Pin
  10
0.849
  20
2.2
  42
1
  0
VERTEX
  8
Pin
  10
0.851
  20
2.2
  42
1
  0
VERTEX
  8
Pin
  10
0.849
  20
2.2
  42
1
  0
SEQEND
  0
POLYLINE
  8
Pin
  6
CONTINUOUS
  66
1
  70
0
  40
0.002
  41
0.002
  0
VERTEX
  8
Pin
  10
0.999
  20
2.2
  42
1
  0
VERTEX
  8
Pin
  10
1.001
  20
2.2
  42
1
  0
VERTEX
  8
Pin
  10
0.999
  20
2.2
  42
1
  0
SEQEND
  0
TEXT
  8
Pin
  10
2.7508
  20
2.5573
  40
0.0292
  41
0.7
  1
1
  50
90.0
  72
0
  73
3
  7
STANDARD
  71
0
  11
2.7508
  21
2.5573
  0
POLYLINE
  8
Pin
  6
CONTINUOUS
  66
1
  70
0
  40
0.0039
  41
0.0039
  0
VERTEX
  8
Pin
  10
2.8
  20
2.6
  42
0
  0
VERTEX
  8
Pin
  10
2.8
  20
2.45
  42
0
  0
SEQEND
  0
POLYLINE
  8
Pin
  6
CONTINUOUS
  66
1
  70
0
  40
0.002
  41
0.002
  0
VERTEX
  8
Pin
  10
2.799
  20
2.6
  42
1
  0
VERTEX
  8
Pin
  10
2.801
  20
2.6
  42
1
  0
VERTEX
  8
Pin
  10
2.799
  20
2.6
  42
1
  0
SEQEND
  0
POLYLINE
  8
Pin
  6
CONTINUOUS
  66
1
  70
0
  40
0.002
  41
0.002
  0
VERTEX
  8
Pin
  10
2.799
  20
2.45
  42
1
  0
VERTEX
  8
Pin
  10
2.801
  20
2.45
  42
1
  0
VERTEX
  8
Pin
  10
2.799
  20
2.45
  42
1
  0
SEQEND
  0
TEXT
  8
Pin
  10
2.5508
  20
2.5573
  40
0.0292
  41
0.7
  1
3
  50
90.0
  72
0
  73
3
  7
STANDARD
  71
0
  11
2.5508
  21
2.5573
  0
POLYLINE
  8
Pin
  6
CONTINUOUS
  66
1
  70
0
  40
0.0039
  41
0.0039
  0
VERTEX
  8
Pin
  10
2.6
  20
2.6
  42
0
  0
VERTEX
  8
Pin
  10
2.6
  20
2.45
  42
0
  0
SEQEND
  0
POLYLINE
  8
Pin
  6
CONTINUOUS
  66
1
  70
0
  40
0.002
  41
0.002
  0
VERTEX
  8
Pin
  10
2.599
  20
2.6
  42
1
  0
VERTEX
  8
Pin
  10
2.601
  20
2.6
  42
1
  0
VERTEX
  8
Pin
  10
2.599
  20
2.6
  42
1
  0
SEQEND
  0
POLYLINE
  8
Pin
  6
CONTINUOUS
  66
1
  70
0
  40
0.002
  41
0.002
  0
VERTEX
  8
Pin
  10
2.599
  20
2.45
  42
1
  0
VERTEX
  8
Pin
  10
2.601
  20
2.45
  42
1
  0
VERTEX
  8
Pin
  10
2.599
  20
2.45
  42
1
  0
SEQEND
  0
TEXT
  8
Pin
  10
2.6508
  20
3.1262
  40
0.0292
  41
0.7
  1
2
  50
90.0
  72
0
  73
3
  7
STANDARD
  71
0
  11
2.6508
  21
3.1262
  0
POLYLINE
  8
Pin
  6
CONTINUOUS
  66
1
  70
0
  40
0.0039
  41
0.0039
  0
VERTEX
  8
Pin
  10
2.7
  20
3.1
  42
0
  0
VERTEX
  8
Pin
  10
2.7
  20
3.25
  42
0
  0
SEQEND
  0
POLYLINE
  8
Pin
  6
CONTINUOUS
  66
1
  70
0
  40
0.002
  41
0.002
  0
VERTEX
  8
Pin
  10
2.699
  20
3.1
  42
1
  0
VERTEX
  8
Pin
  10
2.701
  20
3.1
  42
1
  0
VERTEX
  8
Pin
  10
2.699
  20
3.1
  42
1
  0
SEQEND
  0
POLYLINE
  8
Pin
  6
CONTINUOUS
  66
1
  70
0
  40
0.002
  41
0.002
  0
VERTEX
  8
Pin
  10
2.699
  20
3.25
  42
1
  0
VERTEX
  8
Pin
  10
2.701
  20
3.25
  42
1
  0
VERTEX
  8
Pin
  10
2.699
  20
3.25
  42
1
  0
SEQEND
  0
TEXT
  8
Pin
  10
1.3008
  20
2.4073
  40
0.0292
  41
0.7
  1
1
  50
90.0
  72
0
  73
3
  7
STANDARD
  71
0
  11
1.3008
  21
2.4073
  0
POLYLINE
  8
Pin
  6
CONTINUOUS
  66
1
  70
0
  40
0.0039
  41
0.0039
  0
VERTEX
  8
Pin
  10
1.35
  20
2.45
  42
0
  0
VERTEX
  8
Pin
  10
1.35
  20
2.3
  42
0
  0
SEQEND
  0
POLYLINE
  8
Pin
  6
CONTINUOUS
  66
1
  70
0
  40
0.002
  41
0.002
  0
VERTEX
  8
Pin
  10
1.349
  20
2.45
  42
1
  0
VERTEX
  8
Pin
  10
1.351
  20
2.45
  42
1
  0
VERTEX
  8
Pin
  10
1.349
  20
2.45
  42
1
  0
SEQEND
  0
POLYLINE
  8
Pin
  6
CONTINUOUS
  66
1
  70
0
  40
0.002
  41
0.002
  0
VERTEX
  8
Pin
  10
1.349
  20
2.3
  42
1
  0
VERTEX
  8
Pin
  10
1.351
  20
2.3
  42
1
  0
VERTEX
  8
Pin
  10
1.349
  20
2.3
  42
1
  0
SEQEND
  0
TEXT
  8
Pin
  10
1.2008
  20
2.4073
  40
0.0292
  41
0.7
  1
2
  50
90.0
  72
0
  73
3
  7
STANDARD
  71
0
  11
1.2008
  21
2.4073
  0
POLYLINE
  8
Pin
  6
CONTINUOUS
  66
1
  70
0
  40
0.0039
  41
0.0039
  0
VERTEX
  8
Pin
  10
1.25
  20
2.45
  42
0
  0
VERTEX
  8
Pin
  10
1.25
  20
2.3
  42
0
  0
SEQEND
  0
POLYLINE
  8
Pin
  6
CONTINUOUS
  66
1
  70
0
  40
0.002
  41
0.002
  0
VERTEX
  8
Pin
  10
1.249
  20
2.45
  42
1
  0
VERTEX
  8
Pin
  10
1.251
  20
2.45
  42
1
  0
VERTEX
  8
Pin
  10
1.249
  20
2.45
  42
1
  0
SEQEND
  0
POLYLINE
  8
Pin
  6
CONTINUOUS
  66
1
  70
0
  40
0.002
  41
0.002
  0
VERTEX
  8
Pin
  10
1.249
  20
2.3
  42
1
  0
VERTEX
  8
Pin
  10
1.251
  20
2.3
  42
1
  0
VERTEX
  8
Pin
  10
1.249
  20
2.3
  42
1
  0
SEQEND
  0
TEXT
  8
Pin
  10
2.5262
  20
3.3992
  40
0.0292
  41
0.7
  1
1
  50
0.0
  72
0
  73
3
  7
STANDARD
  71
0
  11
2.5262
  21
3.3992
  0
POLYLINE
  8
Pin
  6
CONTINUOUS
  66
1
  70
0
  40
0.0039
  41
0.0039
  0
VERTEX
  8
Pin
  10
2.5
  20
3.35
  42
0
  0
VERTEX
  8
Pin
  10
2.65
  20
3.35
  42
0
  0
SEQEND
  0
POLYLINE
  8
Pin
  6
CONTINUOUS
  66
1
  70
0
  40
0.002
  41
0.002
  0
VERTEX
  8
Pin
  10
2.499
  20
3.35
  42
1
  0
VERTEX
  8
Pin
  10
2.501
  20
3.35
  42
1
  0
VERTEX
  8
Pin
  10
2.499
  20
3.35
  42
1
  0
SEQEND
  0
POLYLINE
  8
Pin
  6
CONTINUOUS
  66
1
  70
0
  40
0.002
  41
0.002
  0
VERTEX
  8
Pin
  10
2.649
  20
3.35
  42
1
  0
VERTEX
  8
Pin
  10
2.651
  20
3.35
  42
1
  0
VERTEX
  8
Pin
  10
2.649
  20
3.35
  42
1
  0
SEQEND
  0
TEXT
  8
Pin
  10
2.2524
  20
3.3992
  40
0.0292
  41
0.7
  1
2
  50
0.0
  72
0
  73
3
  7
STANDARD
  71
0
  11
2.2524
  21
3.3992
  0
POLYLINE
  8
Pin
  6
CONTINUOUS
  66
1
  70
0
  40
0.0039
  41
0.0039
  0
VERTEX
  8
Pin
  10
2.3
  20
3.35
  42
0
  0
VERTEX
  8
Pin
  10
2.15
  20
3.35
  42
0
  0
SEQEND
  0
POLYLINE
  8
Pin
  6
CONTINUOUS
  66
1
  70
0
  40
0.002
  41
0.002
  0
VERTEX
  8
Pin
  10
2.299
  20
3.35
  42
1
  0
VERTEX
  8
Pin
  10
2.301
  20
3.35
  42
1
  0
VERTEX
  8
Pin
  10
2.299
  20
3.35
  42
1
  0
SEQEND
  0
POLYLINE
  8
Pin
  6
CONTINUOUS
  66
1
  70
0
  40
0.002
  41
0.002
  0
VERTEX
  8
Pin
  10
2.149
  20
3.35
  42
1
  0
VERTEX
  8
Pin
  10
2.151
  20
3.35
  42
1
  0
VERTEX
  8
Pin
  10
2.149
  20
3.35
  42
1
  0
SEQEND
  0
TEXT
  8
Pin
  10
2.8524
  20
3.3992
  40
0.0292
  41
0.7
  1
1
  50
0.0
  72
0
  73
3
  7
STANDARD
  71
0
  11
2.8524
  21
3.3992
  0
POLYLINE
  8
Pin
  6
CONTINUOUS
  66
1
  70
0
  40
0.0039
  41
0.0039
  0
VERTEX
  8
Pin
  10
2.9
  20
3.35
  42
0
  0
VERTEX
  8
Pin
  10
2.75
  20
3.35
  42
0
  0
SEQEND
  0
POLYLINE
  8
Pin
  6
CONTINUOUS
  66
1
  70
0
  40
0.002
  41
0.002
  0
VERTEX
  8
Pin
  10
2.899
  20
3.35
  42
1
  0
VERTEX
  8
Pin
  10
2.901
  20
3.35
  42
1
  0
VERTEX
  8
Pin
  10
2.899
  20
3.35
  42
1
  0
SEQEND
  0
POLYLINE
  8
Pin
  6
CONTINUOUS
  66
1
  70
0
  40
0.002
  41
0.002
  0
VERTEX
  8
Pin
  10
2.749
  20
3.35
  42
1
  0
VERTEX
  8
Pin
  10
2.751
  20
3.35
  42
1
  0
VERTEX
  8
Pin
  10
2.749
  20
3.35
  42
1
  0
SEQEND
  0
TEXT
  8
Pin
  10
3.1262
  20
3.3992
  40
0.0292
  41
0.7
  1
2
  50
0.0
  72
0
  73
3
  7
STANDARD
  71
0
  11
3.1262
  21
3.3992
  0
POLYLINE
  8
Pin
  6
CONTINUOUS
  66
1
  70
0
  40
0.0039
  41
0.0039
  0
VERTEX
  8
Pin
  10
3.1
  20
3.35
  42
0
  0
VERTEX
  8
Pin
  10
3.25
  20
3.35
  42
0
  0
SEQEND
  0
POLYLINE
  8
Pin
  6
CONTINUOUS
  66
1
  70
0
  40
0.002
  41
0.002
  0
VERTEX
  8
Pin
  10
3.099
  20
3.35
  42
1
  0
VERTEX
  8
Pin
  10
3.101
  20
3.35
  42
1
  0
VERTEX
  8
Pin
  10
3.099
  20
3.35
  42
1
  0
SEQEND
  0
POLYLINE
  8
Pin
  6
CONTINUOUS
  66
1
  70
0
  40
0.002
  41
0.002
  0
VERTEX
  8
Pin
  10
3.249
  20
3.35
  42
1
  0
VERTEX
  8
Pin
  10
3.251
  20
3.35
  42
1
  0
VERTEX
  8
Pin
  10
3.249
  20
3.35
  42
1
  0
SEQEND
  0
ENDSEC
  0
EOF
