  0
SECTION
  2
HEADER
  9
$ACADVER
  1
AC1009
  0
ENDSEC
  0
SECTION
  2
TABLES
  0
TABLE
  2
LAYER
  70
1
  0
LAYER
  2
Layer_0
  70
0
  62
7
  6
CONTINUOUS
  0
ENDTAB
  0
ENDSEC
  0
SECTION
  2
ENTITIES
  0
POLYLINE
  5
90
  8
Layer_0
  62
7
  70
1
  66
1
  10
0
  20
0
  30
0
  0
VERTEX
  5
90
  8
Layer_0
  10
260.74957
  20
119.99774
  42
-0.41421356
  0
VERTEX
  5
91
  8
Layer_0
  10
256.99954
  20
116.24774
  42
-0.41421356
  0
VERTEX
  5
92
  8
Layer_0
  10
253.24951
  20
119.99774
  42
-0.41421356
  0
VERTEX
  5
93
  8
Layer_0
  10
256.99954
  20
123.7478
  42
-0.41421356
  0
SEQEND
  0
POLYLINE
  5
95
  8
Layer_0
  62
7
  70
1
  66
1
  10
0
  20
0
  30
0
  0
VERTEX
  5
95
  8
Layer_0
  10
254.08206
  20
157.38873
  42
0.066074377
  0
VERTEX
  5
96
  8
Layer_0
  10
244.53943
  20
155.37787
  0
VERTEX
  5
97
  8
Layer_0
  10
238.02716
  20
171.1012
  42
0.22330292
  0
VERTEX
  5
98
  8
Layer_0
  10
240.5213
  20
176.40698
  42
0.41421356
  0
VERTEX
  5
99
  8
Layer_0
  10
233.63507
  20
183.29675
  42
0.41421356
  0
VERTEX
  5
9a
  8
Layer_0
  10
226.7453
  20
176.40698
  42
0.41421356
  0
VERTEX
  5
9b
  8
Layer_0
  10
233.63507
  20
169.52075
  42
0.020856928
  0
VERTEX
  5
9c
  8
Layer_0
  10
234.28067
  20
169.54901
  0
VERTEX
  5
9d
  8
Layer_0
  10
240.79291
  20
153.82916
  42
0.065358721
  0
VERTEX
  5
9e
  8
Layer_0
  10
232.62964
  20
148.49524
  0
VERTEX
  5
9f
  8
Layer_0
  10
230.1282
  20
150.79812
  0
VERTEX
  5
a0
  8
Layer_0
  10
227.67223
  20
153.03446
  0
VERTEX
  5
a1
  8
Layer_0
  10
226.4874
  20
154.10666
  0
VERTEX
  5
a2
  8
Layer_0
  10
225.34525
  20
155.13702
  0
VERTEX
  5
a3
  8
Layer_0
  10
224.25622
  20
156.11714
  0
VERTEX
  5
a4
  8
Layer_0
  10
223.23076
  20
157.0386
  0
VERTEX
  5
a5
  8
Layer_0
  10
222.74513
  20
157.47471
  0
VERTEX
  5
a6
  8
Layer_0
  10
222.2793
  20
157.893
  0
VERTEX
  5
a7
  8
Layer_0
  10
221.83458
  20
158.29244
  0
VERTEX
  5
a8
  8
Layer_0
  10
221.41228
  20
158.67195
  0
VERTEX
  5
a9
  8
Layer_0
  10
221.01369
  20
159.03051
  0
VERTEX
  5
aa
  8
Layer_0
  10
220.64013
  20
159.36704
  0
VERTEX
  5
ab
  8
Layer_0
  10
220.2929
  20
159.68051
  0
VERTEX
  5
ac
  8
Layer_0
  10
219.97331
  20
159.96987
  0
VERTEX
  5
ad
  8
Layer_0
  10
219.68265
  20
160.23405
  0
VERTEX
  5
ae
  8
Layer_0
  10
219.42223
  20
160.47202
  0
VERTEX
  5
af
  8
Layer_0
  10
219.19337
  20
160.68273
  0
VERTEX
  5
b0
  8
Layer_0
  10
218.99736
  20
160.86511
  0
VERTEX
  5
b1
  8
Layer_0
  10
218.8355
  20
161.01813
  0
VERTEX
  5
b2
  8
Layer_0
  10
218.70911
  20
161.14073
  0
VERTEX
  5
b3
  8
Layer_0
  10
218.61948
  20
161.23186
  0
VERTEX
  5
b4
  8
Layer_0
  10
218.56793
  20
161.29047
  0
VERTEX
  5
b5
  8
Layer_0
  10
215.30584
  20
165.32959
  0
VERTEX
  5
b6
  8
Layer_0
  10
212.05565
  20
169.3254
  0
VERTEX
  5
b7
  8
Layer_0
  10
211.28976
  20
170.34754
  0
VERTEX
  5
b8
  8
Layer_0
  10
210.55449
  20
171.38695
  0
VERTEX
  5
b9
  8
Layer_0
  10
209.85581
  20
172.44763
  0
VERTEX
  5
ba
  8
Layer_0
  10
209.19968
  20
173.53355
  0
VERTEX
  5
bb
  8
Layer_0
  10
208.59209
  20
174.64873
  0
VERTEX
  5
bc
  8
Layer_0
  10
208.03901
  20
175.79715
  0
VERTEX
  5
bd
  8
Layer_0
  10
207.54641
  20
176.98282
  0
VERTEX
  5
be
  8
Layer_0
  10
207.12027
  20
178.20972
  0
VERTEX
  5
bf
  8
Layer_0
  10
206.98209
  20
178.79213
  0
VERTEX
  5
c0
  8
Layer_0
  10
206.84345
  20
179.41941
  0
VERTEX
  5
c1
  8
Layer_0
  10
206.70942
  20
180.08442
  0
VERTEX
  5
c2
  8
Layer_0
  10
206.5851
  20
180.78001
  0
VERTEX
  5
c3
  8
Layer_0
  10
206.47556
  20
181.49904
  0
VERTEX
  5
c4
  8
Layer_0
  10
206.38587
  20
182.23436
  0
VERTEX
  5
c5
  8
Layer_0
  10
206.32113
  20
182.97885
  0
VERTEX
  5
c6
  8
Layer_0
  10
206.2864
  20
183.72535
  0
VERTEX
  5
c7
  8
Layer_0
  10
206.28678
  20
184.46672
  0
VERTEX
  5
c8
  8
Layer_0
  10
206.32733
  20
185.19583
  0
VERTEX
  5
c9
  8
Layer_0
  10
206.41314
  20
185.90553
  0
VERTEX
  5
ca
  8
Layer_0
  10
206.54929
  20
186.58867
  0
VERTEX
  5
cb
  8
Layer_0
  10
206.74085
  20
187.23812
  0
VERTEX
  5
cc
  8
Layer_0
  10
206.99291
  20
187.84674
  0
VERTEX
  5
cd
  8
Layer_0
  10
207.31055
  20
188.40738
  0
VERTEX
  5
ce
  8
Layer_0
  10
207.69885
  20
188.9129
  0
VERTEX
  5
cf
  8
Layer_0
  10
208.48661
  20
189.69276
  0
VERTEX
  5
d0
  8
Layer_0
  10
209.31588
  20
190.39108
  0
VERTEX
  5
d1
  8
Layer_0
  10
210.18749
  20
191.00671
  0
VERTEX
  5
d2
  8
Layer_0
  10
211.10226
  20
191.5385
  0
VERTEX
  5
d3
  8
Layer_0
  10
212.06102
  20
191.98528
  0
VERTEX
  5
d4
  8
Layer_0
  10
213.0646
  20
192.34591
  0
VERTEX
  5
d5
  8
Layer_0
  10
214.11382
  20
192.61922
  0
VERTEX
  5
d6
  8
Layer_0
  10
215.2095
  20
192.80408
  42
-0.050180529
  0
VERTEX
  5
d7
  8
Layer_0
  10
219.31229
  20
192.88519
  0
VERTEX
  5
d8
  8
Layer_0
  10
220.60213
  20
192.73882
  0
VERTEX
  5
d9
  8
Layer_0
  10
221.88403
  20
192.58179
  0
VERTEX
  5
da
  8
Layer_0
  10
221.99692
  20
192.57129
  0
VERTEX
  5
db
  8
Layer_0
  10
222.59688
  20
192.57203
  0
VERTEX
  5
dc
  8
Layer_0
  10
223.16853
  20
192.62019
  0
VERTEX
  5
dd
  8
Layer_0
  10
223.71893
  20
192.70927
  0
VERTEX
  5
de
  8
Layer_0
  10
224.25515
  20
192.83279
  0
VERTEX
  5
df
  8
Layer_0
  10
225.31332
  20
193.15716
  0
VERTEX
  5
e0
  8
Layer_0
  10
226.3996
  20
193.54138
  42
0.025598935
  0
VERTEX
  5
e1
  8
Layer_0
  10
226.51953
  20
193.58722
  42
0.028474446
  0
VERTEX
  5
e2
  8
Layer_0
  10
226.63242
  20
193.63666
  0
VERTEX
  5
e3
  8
Layer_0
  10
227.67405
  20
194.13501
  0
VERTEX
  5
e4
  8
Layer_0
  10
228.65252
  20
194.65485
  0
VERTEX
  5
e5
  8
Layer_0
  10
229.11899
  20
194.94691
  0
VERTEX
  5
e6
  8
Layer_0
  10
229.57079
  20
195.27324
  0
VERTEX
  5
e7
  8
Layer_0
  10
230.00829
  20
195.64348
  0
VERTEX
  5
e8
  8
Layer_0
  10
230.43185
  20
196.06726
  42
0.030578087
  0
VERTEX
  5
e9
  8
Layer_0
  10
230.50592
  20
196.15192
  0
VERTEX
  5
ea
  8
Layer_0
  10
231.30188
  20
197.16927
  0
VERTEX
  5
eb
  8
Layer_0
  10
232.11105
  20
198.18396
  42
-0.051060981
  0
VERTEX
  5
ec
  8
Layer_0
  10
235.06735
  20
201.02734
  0
VERTEX
  5
ed
  8
Layer_0
  10
235.51685
  20
201.36183
  0
VERTEX
  5
ee
  8
Layer_0
  10
235.97369
  20
201.6722
  0
VERTEX
  5
ef
  8
Layer_0
  10
236.43786
  20
201.95864
  0
VERTEX
  5
f0
  8
Layer_0
  10
236.90934
  20
202.22134
  0
VERTEX
  5
f1
  8
Layer_0
  10
237.87418
  20
202.67631
  0
VERTEX
  5
f2
  8
Layer_0
  10
238.86808
  20
203.03864
  0
VERTEX
  5
f3
  8
Layer_0
  10
239.89092
  20
203.30984
  0
VERTEX
  5
f4
  8
Layer_0
  10
240.94257
  20
203.49146
  0
VERTEX
  5
f5
  8
Layer_0
  10
242.02292
  20
203.58501
  0
VERTEX
  5
f6
  8
Layer_0
  10
243.13184
  20
203.59204
  0
VERTEX
  5
f7
  8
Layer_0
  10
243.76378
  20
203.50898
  0
VERTEX
  5
f8
  8
Layer_0
  10
244.38469
  20
203.33699
  0
VERTEX
  5
f9
  8
Layer_0
  10
244.99312
  20
203.08472
  0
VERTEX
  5
fa
  8
Layer_0
  10
245.58761
  20
202.76081
  0
VERTEX
  5
fb
  8
Layer_0
  10
246.16672
  20
202.37389
  0
VERTEX
  5
fc
  8
Layer_0
  10
246.72901
  20
201.9326
  0
VERTEX
  5
fd
  8
Layer_0
  10
247.27303
  20
201.44559
  0
VERTEX
  5
fe
  8
Layer_0
  10
247.79733
  20
200.9215
  0
VERTEX
  5
ff
  8
Layer_0
  10
248.30045
  20
200.36897
  0
VERTEX
  5
100
  8
Layer_0
  10
248.78097
  20
199.79663
  0
VERTEX
  5
101
  8
Layer_0
  10
249.23743
  20
199.21314
  0
VERTEX
  5
102
  8
Layer_0
  10
249.66838
  20
198.62712
  0
VERTEX
  5
103
  8
Layer_0
  10
250.07237
  20
198.04723
  0
VERTEX
  5
104
  8
Layer_0
  10
250.44796
  20
197.48209
  0
VERTEX
  5
105
  8
Layer_0
  10
250.79371
  20
196.94036
  0
VERTEX
  5
106
  8
Layer_0
  10
251.10815
  20
196.43066
  0
VERTEX
  5
107
  8
Layer_0
  10
251.67429
  20
195.26177
  0
VERTEX
  5
108
  8
Layer_0
  10
252.1643
  20
194.07508
  0
VERTEX
  5
109
  8
Layer_0
  10
252.58521
  20
192.87199
  0
VERTEX
  5
10a
  8
Layer_0
  10
252.94408
  20
191.65388
  0
VERTEX
  5
10b
  8
Layer_0
  10
253.24795
  20
190.42216
  0
VERTEX
  5
10c
  8
Layer_0
  10
253.50385
  20
189.17821
  0
VERTEX
  5
10d
  8
Layer_0
  10
253.71884
  20
187.92341
  0
VERTEX
  5
10e
  8
Layer_0
  10
253.89995
  20
186.65916
  0
VERTEX
  5
10f
  8
Layer_0
  10
254.42652
  20
181.53547
  0
VERTEX
  5
110
  8
Layer_0
  10
254.97458
  20
176.37177
  0
VERTEX
  5
111
  8
Layer_0
  10
254.97982
  20
176.294
  0
VERTEX
  5
112
  8
Layer_0
  10
254.9811
  20
176.16632
  0
VERTEX
  5
113
  8
Layer_0
  10
254.97862
  20
175.9904
  0
VERTEX
  5
114
  8
Layer_0
  10
254.97254
  20
175.76791
  0
VERTEX
  5
115
  8
Layer_0
  10
254.96306
  20
175.5005
  0
VERTEX
  5
116
  8
Layer_0
  10
254.95035
  20
175.18985
  0
VERTEX
  5
117
  8
Layer_0
  10
254.9346
  20
174.83761
  0
VERTEX
  5
118
  8
Layer_0
  10
254.91598
  20
174.44546
  0
VERTEX
  5
119
  8
Layer_0
  10
254.89468
  20
174.01506
  0
VERTEX
  5
11a
  8
Layer_0
  10
254.87088
  20
173.54807
  0
VERTEX
  5
11b
  8
Layer_0
  10
254.84476
  20
173.04617
  0
VERTEX
  5
11c
  8
Layer_0
  10
254.8165
  20
172.51101
  0
VERTEX
  5
11d
  8
Layer_0
  10
254.78629
  20
171.94425
  0
VERTEX
  5
11e
  8
Layer_0
  10
254.7543
  20
171.34758
  0
VERTEX
  5
11f
  8
Layer_0
  10
254.72072
  20
170.72264
  0
VERTEX
  5
120
  8
Layer_0
  10
254.68573
  20
170.07111
  0
VERTEX
  5
121
  8
Layer_0
  10
254.61224
  20
168.69493
  0
VERTEX
  5
122
  8
Layer_0
  10
254.53529
  20
167.23236
  0
VERTEX
  5
123
  8
Layer_0
  10
254.45632
  20
165.69672
  0
VERTEX
  5
124
  8
Layer_0
  10
254.37678
  20
164.10133
  0
VERTEX
  5
125
  8
Layer_0
  10
254.22183
  20
160.7846
  0
SEQEND
  0
POLYLINE
  5
127
  8
Layer_0
  62
7
  70
1
  66
1
  10
0
  20
0
  30
0
  0
VERTEX
  5
127
  8
Layer_0
  10
306.30377
  20
51.086182
  0
VERTEX
  5
128
  8
Layer_0
  10
305.51482
  20
50.30636
  0
VERTEX
  5
129
  8
Layer_0
  10
304.68466
  20
49.608061
  0
VERTEX
  5
12a
  8
Layer_0
  10
303.81242
  20
48.992443
  0
VERTEX
  5
12b
  8
Layer_0
  10
302.89722
  20
48.460663
  0
VERTEX
  5
12c
  8
Layer_0
  10
301.93821
  20
48.013878
  0
VERTEX
  5
12d
  8
Layer_0
  10
300.93451
  20
47.653246
  0
VERTEX
  5
12e
  8
Layer_0
  10
299.88526
  20
47.379924
  0
VERTEX
  5
12f
  8
Layer_0
  10
298.78958
  20
47.195068
  42
-0.0502716
  0
VERTEX
  5
130
  8
Layer_0
  10
294.6868
  20
47.113892
  0
VERTEX
  5
131
  8
Layer_0
  10
293.39694
  20
47.260292
  0
VERTEX
  5
132
  8
Layer_0
  10
292.11505
  20
47.417358
  0
VERTEX
  5
133
  8
Layer_0
  10
292.00214
  20
47.424377
  0
VERTEX
  5
134
  8
Layer_0
  10
291.40334
  20
47.424803
  0
VERTEX
  5
135
  8
Layer_0
  10
290.83253
  20
47.377516
  0
VERTEX
  5
136
  8
Layer_0
  10
290.28263
  20
47.28905
  0
VERTEX
  5
137
  8
Layer_0
  10
289.74658
  20
47.165939
  0
VERTEX
  5
138
  8
Layer_0
  10
288.68775
  20
46.841913
  0
VERTEX
  5
139
  8
Layer_0
  10
287.59949
  20
46.457703
  0
VERTEX
  5
13a
  8
Layer_0
  10
287.47955
  20
46.411865
  0
VERTEX
  5
13b
  8
Layer_0
  10
287.36667
  20
46.359009
  0
VERTEX
  5
13c
  8
Layer_0
  10
286.32503
  20
45.862662
  0
VERTEX
  5
13d
  8
Layer_0
  10
285.34656
  20
45.343834
  0
VERTEX
  5
13e
  8
Layer_0
  10
284.88009
  20
45.052012
  0
VERTEX
  5
13f
  8
Layer_0
  10
284.42829
  20
44.725797
  0
VERTEX
  5
140
  8
Layer_0
  10
283.99081
  20
44.355598
  0
VERTEX
  5
141
  8
Layer_0
  10
283.56726
  20
43.931824
  42
0.032006633
  0
VERTEX
  5
142
  8
Layer_0
  10
283.49316
  20
43.847168
  0
VERTEX
  5
143
  8
Layer_0
  10
282.6972
  20
42.828125
  0
VERTEX
  5
144
  8
Layer_0
  10
281.88803
  20
41.811646
  42
-0.050554653
  0
VERTEX
  5
145
  8
Layer_0
  10
278.9317
  20
38.968262
  0
VERTEX
  5
146
  8
Layer_0
  10
278.02638
  20
38.324581
  0
VERTEX
  5
147
  8
Layer_0
  10
277.09121
  20
37.77632
  0
VERTEX
  5
148
  8
Layer_0
  10
276.12644
  20
37.321988
  0
VERTEX
  5
149
  8
Layer_0
  10
275.13232
  20
36.960098
  0
VERTEX
  5
14a
  8
Layer_0
  10
274.10909
  20
36.68916
  0
VERTEX
  5
14b
  8
Layer_0
  10
273.057
  20
36.507685
  0
VERTEX
  5
14c
  8
Layer_0
  10
271.97631
  20
36.414183
  0
VERTEX
  5
14d
  8
Layer_0
  10
270.86725
  20
36.407166
  0
VERTEX
  5
14e
  8
Layer_0
  10
270.23529
  20
36.490213
  0
VERTEX
  5
14f
  8
Layer_0
  10
269.61437
  20
36.662182
  0
VERTEX
  5
150
  8
Layer_0
  10
269.00594
  20
36.914427
  0
VERTEX
  5
151
  8
Layer_0
  10
268.41144
  20
37.238301
  0
VERTEX
  5
152
  8
Layer_0
  10
267.83233
  20
37.62516
  0
VERTEX
  5
153
  8
Layer_0
  10
267.27004
  20
38.066357
  0
VERTEX
  5
154
  8
Layer_0
  10
266.72602
  20
38.553248
  0
VERTEX
  5
155
  8
Layer_0
  10
266.20172
  20
39.077187
  0
VERTEX
  5
156
  8
Layer_0
  10
265.69859
  20
39.629527
  0
VERTEX
  5
157
  8
Layer_0
  10
265.21808
  20
40.201624
  0
VERTEX
  5
158
  8
Layer_0
  10
264.76162
  20
40.784832
  0
VERTEX
  5
159
  8
Layer_0
  10
264.33068
  20
41.370505
  0
VERTEX
  5
15a
  8
Layer_0
  10
263.92668
  20
41.949999
  0
VERTEX
  5
15b
  8
Layer_0
  10
263.55109
  20
42.514666
  0
VERTEX
  5
15c
  8
Layer_0
  10
263.20535
  20
43.055862
  0
VERTEX
  5
15d
  8
Layer_0
  10
262.8909
  20
43.564941
  0
VERTEX
  5
15e
  8
Layer_0
  10
262.32476
  20
44.733878
  0
VERTEX
  5
15f
  8
Layer_0
  10
261.83475
  20
45.920676
  0
VERTEX
  5
160
  8
Layer_0
  10
261.41384
  20
47.123928
  0
VERTEX
  5
161
  8
Layer_0
  10
261.05497
  20
48.342228
  0
VERTEX
  5
162
  8
Layer_0
  10
260.75111
  20
49.574171
  0
VERTEX
  5
163
  8
Layer_0
  10
260.4952
  20
50.818351
  0
VERTEX
  5
164
  8
Layer_0
  10
260.28022
  20
52.073363
  0
VERTEX
  5
165
  8
Layer_0
  10
260.09911
  20
53.337799
  0
VERTEX
  5
166
  8
Layer_0
  10
259.57253
  20
58.461681
  0
VERTEX
  5
167
  8
Layer_0
  10
259.02448
  20
63.623901
  0
VERTEX
  5
168
  8
Layer_0
  10
259.01924
  20
63.701986
  0
VERTEX
  5
169
  8
Layer_0
  10
259.01795
  20
63.829959
  0
VERTEX
  5
16a
  8
Layer_0
  10
259.02044
  20
64.006156
  0
VERTEX
  5
16b
  8
Layer_0
  10
259.02651
  20
64.228914
  0
VERTEX
  5
16c
  8
Layer_0
  10
259.03599
  20
64.496569
  0
VERTEX
  5
16d
  8
Layer_0
  10
259.0487
  20
64.807456
  0
VERTEX
  5
16e
  8
Layer_0
  10
259.06446
  20
65.159911
  0
VERTEX
  5
16f
  8
Layer_0
  10
259.08307
  20
65.552272
  0
VERTEX
  5
170
  8
Layer_0
  10
259.10437
  20
65.982873
  0
VERTEX
  5
171
  8
Layer_0
  10
259.12818
  20
66.450051
  0
VERTEX
  5
172
  8
Layer_0
  10
259.15429
  20
66.952141
  0
VERTEX
  5
173
  8
Layer_0
  10
259.18255
  20
67.487481
  0
VERTEX
  5
174
  8
Layer_0
  10
259.21276
  20
68.054405
  0
VERTEX
  5
175
  8
Layer_0
  10
259.24475
  20
68.65125
  0
VERTEX
  5
176
  8
Layer_0
  10
259.27833
  20
69.276352
  0
VERTEX
  5
177
  8
Layer_0
  10
259.31332
  20
69.928047
  0
VERTEX
  5
178
  8
Layer_0
  10
259.38682
  20
71.30456
  0
VERTEX
  5
179
  8
Layer_0
  10
259.46377
  20
72.767477
  0
VERTEX
  5
17a
  8
Layer_0
  10
259.54275
  20
74.303487
  0
VERTEX
  5
17b
  8
Layer_0
  10
259.62229
  20
75.899278
  0
VERTEX
  5
17c
  8
Layer_0
  10
259.77724
  20
79.216954
  0
VERTEX
  5
17d
  8
Layer_0
  10
259.91702
  20
82.614014
  42
0.065975044
  0
VERTEX
  5
17e
  8
Layer_0
  10
269.45966
  20
84.624817
  0
VERTEX
  5
17f
  8
Layer_0
  10
275.97546
  20
68.897949
  42
0.22359841
  0
VERTEX
  5
180
  8
Layer_0
  10
273.47778
  20
63.588623
  42
0.41421356
  0
VERTEX
  5
181
  8
Layer_0
  10
280.36398
  20
56.702393
  42
0.41421356
  0
VERTEX
  5
182
  8
Layer_0
  10
287.25375
  20
63.588623
  42
0.41421356
  0
VERTEX
  5
183
  8
Layer_0
  10
280.36398
  20
70.478394
  42
0.024940178
  0
VERTEX
  5
184
  8
Layer_0
  10
279.71844
  20
70.446594
  0
VERTEX
  5
185
  8
Layer_0
  10
273.20261
  20
86.173462
  42
0.06551501
  0
VERTEX
  5
186
  8
Layer_0
  10
281.37299
  20
91.500427
  0
VERTEX
  5
187
  8
Layer_0
  10
283.87426
  20
89.197675
  0
VERTEX
  5
188
  8
Layer_0
  10
286.32981
  20
86.961683
  0
VERTEX
  5
189
  8
Layer_0
  10
287.51437
  20
85.889691
  0
VERTEX
  5
18a
  8
Layer_0
  10
288.65622
  20
84.85955
  0
VERTEX
  5
18b
  8
Layer_0
  10
289.74492
  20
83.879649
  0
VERTEX
  5
18c
  8
Layer_0
  10
290.77005
  20
82.958374
  0
VERTEX
  5
18d
  8
Layer_0
  10
291.25552
  20
82.522343
  0
VERTEX
  5
18e
  8
Layer_0
  10
291.72119
  20
82.104113
  0
VERTEX
  5
18f
  8
Layer_0
  10
292.16574
  20
81.704734
  0
VERTEX
  5
190
  8
Layer_0
  10
292.58789
  20
81.325253
  0
VERTEX
  5
191
  8
Layer_0
  10
292.98632
  20
80.966719
  0
VERTEX
  5
192
  8
Layer_0
  10
293.35973
  20
80.630181
  0
VERTEX
  5
193
  8
Layer_0
  10
293.70683
  20
80.316687
  0
VERTEX
  5
194
  8
Layer_0
  10
294.0263
  20
80.027285
  0
VERTEX
  5
195
  8
Layer_0
  10
294.31684
  20
79.763023
  0
VERTEX
  5
196
  8
Layer_0
  10
294.57714
  20
79.524951
  0
VERTEX
  5
197
  8
Layer_0
  10
294.80592
  20
79.314116
  0
VERTEX
  5
198
  8
Layer_0
  10
295.00185
  20
79.131568
  0
VERTEX
  5
199
  8
Layer_0
  10
295.16364
  20
78.978353
  0
VERTEX
  5
19a
  8
Layer_0
  10
295.28999
  20
78.855522
  0
VERTEX
  5
19b
  8
Layer_0
  10
295.37958
  20
78.764121
  0
VERTEX
  5
19c
  8
Layer_0
  10
295.43112
  20
78.7052
  0
VERTEX
  5
19d
  8
Layer_0
  10
298.69478
  20
74.666055
  0
VERTEX
  5
19e
  8
Layer_0
  10
301.94519
  20
70.670219
  0
VERTEX
  5
19f
  8
Layer_0
  10
302.71107
  20
69.648071
  0
VERTEX
  5
1a0
  8
Layer_0
  10
303.44637
  20
68.608658
  0
VERTEX
  5
1a1
  8
Layer_0
  10
304.14512
  20
67.547986
  0
VERTEX
  5
1a2
  8
Layer_0
  10
304.80137
  20
66.462062
  0
VERTEX
  5
1a3
  8
Layer_0
  10
305.40916
  20
65.34689
  0
VERTEX
  5
1a4
  8
Layer_0
  10
305.96256
  20
64.198477
  0
VERTEX
  5
1a5
  8
Layer_0
  10
306.4556
  20
63.012828
  0
VERTEX
  5
1a6
  8
Layer_0
  10
306.88232
  20
61.78595
  0
VERTEX
  5
1a7
  8
Layer_0
  10
307.01988
  20
61.203563
  0
VERTEX
  5
1a8
  8
Layer_0
  10
307.15799
  20
60.576382
  0
VERTEX
  5
1a9
  8
Layer_0
  10
307.29155
  20
59.91154
  0
VERTEX
  5
1aa
  8
Layer_0
  10
307.4155
  20
59.216167
  0
VERTEX
  5
1ab
  8
Layer_0
  10
307.52476
  20
58.497396
  0
VERTEX
  5
1ac
  8
Layer_0
  10
307.61423
  20
57.762357
  0
VERTEX
  5
1ad
  8
Layer_0
  10
307.67885
  20
57.018182
  0
VERTEX
  5
1ae
  8
Layer_0
  10
307.71354
  20
56.272003
  0
VERTEX
  5
1af
  8
Layer_0
  10
307.71321
  20
55.530951
  0
VERTEX
  5
1b0
  8
Layer_0
  10
307.67278
  20
54.802157
  0
VERTEX
  5
1b1
  8
Layer_0
  10
307.58718
  20
54.092753
  0
VERTEX
  5
1b2
  8
Layer_0
  10
307.45133
  20
53.40987
  0
VERTEX
  5
1b3
  8
Layer_0
  10
307.26014
  20
52.76064
  0
VERTEX
  5
1b4
  8
Layer_0
  10
307.00854
  20
52.152194
  0
VERTEX
  5
1b5
  8
Layer_0
  10
306.69144
  20
51.591664
  0
SEQEND
  0
POLYLINE
  5
1b7
  8
Layer_0
  62
7
  70
1
  66
1
  10
0
  20
0
  30
0
  0
VERTEX
  5
1b7
  8
Layer_0
  10
138.73431
  20
83.538208
  0
VERTEX
  5
1b8
  8
Layer_0
  10
137.79876
  20
83.689564
  0
VERTEX
  5
1b9
  8
Layer_0
  10
136.80366
  20
83.866648
  0
VERTEX
  5
1ba
  8
Layer_0
  10
135.76165
  20
84.072701
  0
VERTEX
  5
1bb
  8
Layer_0
  10
134.68536
  20
84.310962
  0
VERTEX
  5
1bc
  8
Layer_0
  10
133.58743
  20
84.584672
  0
VERTEX
  5
1bd
  8
Layer_0
  10
132.48049
  20
84.897072
  0
VERTEX
  5
1be
  8
Layer_0
  10
131.37718
  20
85.251402
  0
VERTEX
  5
1bf
  8
Layer_0
  10
130.29013
  20
85.650902
  0
VERTEX
  5
1c0
  8
Layer_0
  10
129.23198
  20
86.098813
  0
VERTEX
  5
1c1
  8
Layer_0
  10
128.21537
  20
86.598374
  0
VERTEX
  5
1c2
  8
Layer_0
  10
127.25292
  20
87.152827
  0
VERTEX
  5
1c3
  8
Layer_0
  10
126.35727
  20
87.765412
  0
VERTEX
  5
1c4
  8
Layer_0
  10
125.93844
  20
88.094517
  0
VERTEX
  5
1c5
  8
Layer_0
  10
125.54105
  20
88.439369
  0
VERTEX
  5
1c6
  8
Layer_0
  10
125.16669
  20
88.800375
  0
VERTEX
  5
1c7
  8
Layer_0
  10
124.81691
  20
89.177939
  0
VERTEX
  5
1c8
  8
Layer_0
  10
124.49332
  20
89.572466
  0
VERTEX
  5
1c9
  8
Layer_0
  10
124.19748
  20
89.984362
  0
VERTEX
  5
1ca
  8
Layer_0
  10
123.93098
  20
90.41403
  0
VERTEX
  5
1cb
  8
Layer_0
  10
123.69539
  20
90.861877
  0
VERTEX
  5
1cc
  8
Layer_0
  10
123.35297
  20
91.658408
  0
VERTEX
  5
1cd
  8
Layer_0
  10
123.04555
  20
92.457863
  0
VERTEX
  5
1ce
  8
Layer_0
  10
122.77344
  20
93.260274
  0
VERTEX
  5
1cf
  8
Layer_0
  10
122.5369
  20
94.065671
  0
VERTEX
  5
1d0
  8
Layer_0
  10
122.33623
  20
94.874086
  0
VERTEX
  5
1d1
  8
Layer_0
  10
122.1717
  20
95.685548
  0
VERTEX
  5
1d2
  8
Layer_0
  10
122.04361
  20
96.50009
  0
VERTEX
  5
1d3
  8
Layer_0
  10
121.95223
  20
97.317741
  0
VERTEX
  5
1d4
  8
Layer_0
  10
121.89785
  20
98.138534
  0
VERTEX
  5
1d5
  8
Layer_0
  10
121.88076
  20
98.962497
  0
VERTEX
  5
1d6
  8
Layer_0
  10
121.90124
  20
99.789663
  0
VERTEX
  5
1d7
  8
Layer_0
  10
121.95957
  20
100.62006
  0
VERTEX
  5
1d8
  8
Layer_0
  10
122.05603
  20
101.45373
  0
VERTEX
  5
1d9
  8
Layer_0
  10
122.19092
  20
102.29068
  0
VERTEX
  5
1da
  8
Layer_0
  10
122.36452
  20
103.13097
  0
VERTEX
  5
1db
  8
Layer_0
  10
122.5771
  20
103.97461
  42
-0.050414642
  0
VERTEX
  5
1dc
  8
Layer_0
  10
124.87369
  20
109.84491
  0
VERTEX
  5
1dd
  8
Layer_0
  10
125.82574
  20
111.56158
  0
VERTEX
  5
1de
  8
Layer_0
  10
126.78574
  20
113.25977
  0
VERTEX
  5
1df
  8
Layer_0
  10
126.8457
  20
113.38318
  0
VERTEX
  5
1e0
  8
Layer_0
  10
127.17709
  20
114.18571
  0
VERTEX
  5
1e1
  8
Layer_0
  10
127.42845
  20
114.97996
  0
VERTEX
  5
1e2
  8
Layer_0
  10
127.61266
  20
115.77091
  0
VERTEX
  5
1e3
  8
Layer_0
  10
127.74264
  20
116.5635
  0
VERTEX
  5
1e4
  8
Layer_0
  10
127.89147
  20
118.17348
  0
VERTEX
  5
1e5
  8
Layer_0
  10
127.97812
  20
119.84961
  0
VERTEX
  5
1e6
  8
Layer_0
  10
127.98518
  20
120.00134
  0
VERTEX
  5
1e7
  8
Layer_0
  10
127.97812
  20
120.14954
  0
VERTEX
  5
1e8
  8
Layer_0
  10
127.89147
  20
121.82566
  0
VERTEX
  5
1e9
  8
Layer_0
  10
127.74264
  20
123.43565
  0
VERTEX
  5
1ea
  8
Layer_0
  10
127.61266
  20
124.22824
  0
VERTEX
  5
1eb
  8
Layer_0
  10
127.42845
  20
125.01918
  0
VERTEX
  5
1ec
  8
Layer_0
  10
127.17709
  20
125.81344
  0
VERTEX
  5
1ed
  8
Layer_0
  10
126.8457
  20
126.61597
  0
VERTEX
  5
1ee
  8
Layer_0
  10
126.78574
  20
126.73938
  0
VERTEX
  5
1ef
  8
Layer_0
  10
125.82574
  20
128.43889
  0
VERTEX
  5
1f0
  8
Layer_0
  10
124.87369
  20
130.15424
  42
-0.050419853
  0
VERTEX
  5
1f1
  8
Layer_0
  10
122.5771
  20
136.02454
  0
VERTEX
  5
1f2
  8
Layer_0
  10
122.36452
  20
136.86819
  0
VERTEX
  5
1f3
  8
Layer_0
  10
122.19092
  20
137.70849
  0
VERTEX
  5
1f4
  8
Layer_0
  10
122.05603
  20
138.54546
  0
VERTEX
  5
1f5
  8
Layer_0
  10
121.95957
  20
139.37916
  0
VERTEX
  5
1f6
  8
Layer_0
  10
121.90124
  20
140.20962
  0
VERTEX
  5
1f7
  8
Layer_0
  10
121.88076
  20
141.03686
  0
VERTEX
  5
1f8
  8
Layer_0
  10
121.89785
  20
141.86093
  0
VERTEX
  5
1f9
  8
Layer_0
  10
121.95223
  20
142.68186
  0
VERTEX
  5
1fa
  8
Layer_0
  10
122.04361
  20
143.49969
  0
VERTEX
  5
1fb
  8
Layer_0
  10
122.1717
  20
144.31446
  0
VERTEX
  5
1fc
  8
Layer_0
  10
122.33623
  20
145.1262
  0
VERTEX
  5
1fd
  8
Layer_0
  10
122.5369
  20
145.93495
  0
VERTEX
  5
1fe
  8
Layer_0
  10
122.77344
  20
146.74074
  0
VERTEX
  5
1ff
  8
Layer_0
  10
123.04555
  20
147.54362
  0
VERTEX
  5
200
  8
Layer_0
  10
123.35297
  20
148.3436
  0
VERTEX
  5
201
  8
Layer_0
  10
123.69539
  20
149.14075
  0
VERTEX
  5
202
  8
Layer_0
  10
123.93098
  20
149.58827
  0
VERTEX
  5
203
  8
Layer_0
  10
124.19748
  20
150.01764
  0
VERTEX
  5
204
  8
Layer_0
  10
124.49332
  20
150.42925
  0
VERTEX
  5
205
  8
Layer_0
  10
124.81691
  20
150.82352
  0
VERTEX
  5
206
  8
Layer_0
  10
125.16669
  20
151.20084
  0
VERTEX
  5
207
  8
Layer_0
  10
125.54105
  20
151.56161
  0
VERTEX
  5
208
  8
Layer_0
  10
125.93844
  20
151.90626
  0
VERTEX
  5
209
  8
Layer_0
  10
126.35727
  20
152.23517
  0
VERTEX
  5
20a
  8
Layer_0
  10
127.25292
  20
152.84741
  0
VERTEX
  5
20b
  8
Layer_0
  10
128.21537
  20
153.40157
  0
VERTEX
  5
20c
  8
Layer_0
  10
129.23198
  20
153.9009
  0
VERTEX
  5
20d
  8
Layer_0
  10
130.29013
  20
154.34863
  0
VERTEX
  5
20e
  8
Layer_0
  10
131.37718
  20
154.74798
  0
VERTEX
  5
20f
  8
Layer_0
  10
132.48049
  20
155.1022
  0
VERTEX
  5
210
  8
Layer_0
  10
133.58743
  20
155.41452
  0
VERTEX
  5
211
  8
Layer_0
  10
134.68536
  20
155.68818
  0
VERTEX
  5
212
  8
Layer_0
  10
135.76165
  20
155.92641
  0
VERTEX
  5
213
  8
Layer_0
  10
136.80366
  20
156.13244
  0
VERTEX
  5
214
  8
Layer_0
  10
137.79876
  20
156.30952
  0
VERTEX
  5
215
  8
Layer_0
  10
138.73431
  20
156.46088
  0
VERTEX
  5
216
  8
Layer_0
  10
139.7362
  20
156.53128
  0
VERTEX
  5
217
  8
Layer_0
  10
140.78451
  20
156.56822
  0
VERTEX
  5
218
  8
Layer_0
  10
141.87611
  20
156.5732
  0
VERTEX
  5
219
  8
Layer_0
  10
143.00788
  20
156.54777
  0
VERTEX
  5
21a
  8
Layer_0
  10
144.1767
  20
156.49343
  0
VERTEX
  5
21b
  8
Layer_0
  10
145.37942
  20
156.41171
  0
VERTEX
  5
21c
  8
Layer_0
  10
146.61294
  20
156.30415
  0
VERTEX
  5
21d
  8
Layer_0
  10
147.87412
  20
156.17225
  0
VERTEX
  5
21e
  8
Layer_0
  10
149.15984
  20
156.01755
  0
VERTEX
  5
21f
  8
Layer_0
  10
150.46696
  20
155.84156
  0
VERTEX
  5
220
  8
Layer_0
  10
151.79237
  20
155.64582
  0
VERTEX
  5
221
  8
Layer_0
  10
153.13294
  20
155.43185
  0
VERTEX
  5
222
  8
Layer_0
  10
155.84703
  20
154.95529
  0
VERTEX
  5
223
  8
Layer_0
  10
158.58424
  20
154.42409
  0
VERTEX
  5
224
  8
Layer_0
  10
161.31954
  20
153.85042
  0
VERTEX
  5
225
  8
Layer_0
  10
164.02793
  20
153.24649
  0
VERTEX
  5
226
  8
Layer_0
  10
166.68439
  20
152.62448
  0
VERTEX
  5
227
  8
Layer_0
  10
169.26392
  20
151.99658
  0
VERTEX
  5
228
  8
Layer_0
  10
170.51701
  20
151.68423
  0
VERTEX
  5
229
  8
Layer_0
  10
171.7415
  20
151.37499
  0
VERTEX
  5
22a
  8
Layer_0
  10
172.93424
  20
151.07036
  0
VERTEX
  5
22b
  8
Layer_0
  10
174.09212
  20
150.77188
  0
VERTEX
  5
22c
  8
Layer_0
  10
175.212
  20
150.48108
  0
VERTEX
  5
22d
  8
Layer_0
  10
176.29077
  20
150.19947
  0
VERTEX
  5
22e
  8
Layer_0
  10
177.32528
  20
149.92857
  0
VERTEX
  5
22f
  8
Layer_0
  10
178.31243
  20
149.66992
  42
-0.045874523
  0
VERTEX
  5
230
  8
Layer_0
  10
178.22427
  20
149.58527
  0
VERTEX
  5
231
  8
Layer_0
  10
177.20297
  20
148.78535
  0
VERTEX
  5
232
  8
Layer_0
  10
176.18167
  20
147.96954
  42
0.05085216
  0
VERTEX
  5
233
  8
Layer_0
  10
172.77029
  20
144.41711
  0
VERTEX
  5
234
  8
Layer_0
  10
172.32996
  20
143.82515
  0
VERTEX
  5
235
  8
Layer_0
  10
171.92037
  20
143.22156
  0
VERTEX
  5
236
  8
Layer_0
  10
171.54141
  20
142.60665
  0
VERTEX
  5
237
  8
Layer_0
  10
171.19301
  20
141.98071
  0
VERTEX
  5
238
  8
Layer_0
  10
170.87505
  20
141.34402
  0
VERTEX
  5
239
  8
Layer_0
  10
170.58744
  20
140.69686
  0
VERTEX
  5
23a
  8
Layer_0
  10
170.33008
  20
140.03954
  0
VERTEX
  5
23b
  8
Layer_0
  10
170.10287
  20
139.37234
  0
VERTEX
  5
23c
  8
Layer_0
  10
169.90572
  20
138.69556
  0
VERTEX
  5
23d
  8
Layer_0
  10
169.73852
  20
138.00946
  0
VERTEX
  5
23e
  8
Layer_0
  10
169.60119
  20
137.31436
  0
VERTEX
  5
23f
  8
Layer_0
  10
169.49361
  20
136.61054
  0
VERTEX
  5
240
  8
Layer_0
  10
169.41569
  20
135.89828
  0
VERTEX
  5
241
  8
Layer_0
  10
169.36735
  20
135.17788
  0
VERTEX
  5
242
  8
Layer_0
  10
169.34846
  20
134.44963
  0
VERTEX
  5
243
  8
Layer_0
  10
169.35895
  20
133.71381
  0
VERTEX
  5
244
  8
Layer_0
  10
169.35895
  20
133.67493
  0
VERTEX
  5
245
  8
Layer_0
  10
169.39742
  20
133.1982
  0
VERTEX
  5
246
  8
Layer_0
  10
169.46188
  20
132.72973
  0
VERTEX
  5
247
  8
Layer_0
  10
169.55133
  20
132.2695
  0
VERTEX
  5
248
  8
Layer_0
  10
169.66478
  20
131.81749
  0
VERTEX
  5
249
  8
Layer_0
  10
169.95965
  20
130.93799
  0
VERTEX
  5
24a
  8
Layer_0
  10
170.33847
  20
130.09104
  0
VERTEX
  5
24b
  8
Layer_0
  10
170.79323
  20
129.27644
  0
VERTEX
  5
24c
  8
Layer_0
  10
171.31593
  20
128.49398
  0
VERTEX
  5
24d
  8
Layer_0
  10
171.89855
  20
127.74347
  0
VERTEX
  5
24e
  8
Layer_0
  10
172.53308
  20
127.0247
  0
VERTEX
  5
24f
  8
Layer_0
  10
173.21152
  20
126.33748
  0
VERTEX
  5
250
  8
Layer_0
  10
173.92585
  20
125.68159
  0
VERTEX
  5
251
  8
Layer_0
  10
174.66806
  20
125.05684
  0
VERTEX
  5
252
  8
Layer_0
  10
175.43015
  20
124.46303
  0
VERTEX
  5
253
  8
Layer_0
  10
176.20411
  20
123.89995
  0
VERTEX
  5
254
  8
Layer_0
  10
176.98191
  20
123.36741
  0
VERTEX
  5
255
  8
Layer_0
  10
177.75557
  20
122.8652
  0
VERTEX
  5
256
  8
Layer_0
  10
178.51705
  20
122.39313
  42
0.017915145
  0
VERTEX
  5
257
  8
Layer_0
  10
178.62643
  20
122.33319
  42
0.0068705549
  0
VERTEX
  5
258
  8
Layer_0
  10
179.23318
  20
122.02625
  0
VERTEX
  5
259
  8
Layer_0
  10
150.84872
  20
122.02625
  42
0.22370226
  0
VERTEX
  5
25a
  8
Layer_0
  10
146.90112
  20
126.36188
  42
0.41446873
  0
VERTEX
  5
25b
  8
Layer_0
  10
137.90176
  20
122.6366
  42
0.41446802
  0
VERTEX
  5
25c
  8
Layer_0
  10
141.62709
  20
113.63727
  42
0.41411583
  0
VERTEX
  5
25d
  8
Layer_0
  10
150.62997
  20
117.36261
  42
0.019168931
  0
VERTEX
  5
25e
  8
Layer_0
  10
150.84872
  20
117.9729
  0
VERTEX
  5
25f
  8
Layer_0
  10
179.23318
  20
117.9729
  42
0.0069316734
  0
VERTEX
  5
260
  8
Layer_0
  10
178.62643
  20
117.66595
  42
0.017892602
  0
VERTEX
  5
261
  8
Layer_0
  10
178.51706
  20
117.60602
  0
VERTEX
  5
262
  8
Layer_0
  10
177.75557
  20
117.13394
  0
VERTEX
  5
263
  8
Layer_0
  10
176.98191
  20
116.63174
  0
VERTEX
  5
264
  8
Layer_0
  10
176.20411
  20
116.0992
  0
VERTEX
  5
265
  8
Layer_0
  10
175.43015
  20
115.53613
  0
VERTEX
  5
266
  8
Layer_0
  10
174.66806
  20
114.94232
  0
VERTEX
  5
267
  8
Layer_0
  10
173.92585
  20
114.31757
  0
VERTEX
  5
268
  8
Layer_0
  10
173.21152
  20
113.66168
  0
VERTEX
  5
269
  8
Layer_0
  10
172.53308
  20
112.97446
  0
VERTEX
  5
26a
  8
Layer_0
  10
171.89855
  20
112.25569
  0
VERTEX
  5
26b
  8
Layer_0
  10
171.31593
  20
111.50517
  0
VERTEX
  5
26c
  8
Layer_0
  10
170.79323
  20
110.72271
  0
VERTEX
  5
26d
  8
Layer_0
  10
170.33847
  20
109.9081
  0
VERTEX
  5
26e
  8
Layer_0
  10
169.95965
  20
109.06115
  0
VERTEX
  5
26f
  8
Layer_0
  10
169.66478
  20
108.18164
  0
VERTEX
  5
270
  8
Layer_0
  10
169.55133
  20
107.72961
  0
VERTEX
  5
271
  8
Layer_0
  10
169.46188
  20
107.26937
  0
VERTEX
  5
272
  8
Layer_0
  10
169.39742
  20
106.8009
  0
VERTEX
  5
273
  8
Layer_0
  10
169.35895
  20
106.32416
  0
VERTEX
  5
274
  8
Layer_0
  10
169.35895
  20
106.28888
  0
VERTEX
  5
275
  8
Layer_0
  10
169.34846
  20
105.55244
  0
VERTEX
  5
276
  8
Layer_0
  10
169.36735
  20
104.82363
  0
VERTEX
  5
277
  8
Layer_0
  10
169.41569
  20
104.10276
  0
VERTEX
  5
278
  8
Layer_0
  10
169.49361
  20
103.39009
  0
VERTEX
  5
279
  8
Layer_0
  10
169.60119
  20
102.68592
  0
VERTEX
  5
27a
  8
Layer_0
  10
169.73852
  20
101.99053
  0
VERTEX
  5
27b
  8
Layer_0
  10
169.90572
  20
101.3042
  0
VERTEX
  5
27c
  8
Layer_0
  10
170.10287
  20
100.62722
  0
VERTEX
  5
27d
  8
Layer_0
  10
170.33008
  20
99.959872
  0
VERTEX
  5
27e
  8
Layer_0
  10
170.58744
  20
99.302441
  0
VERTEX
  5
27f
  8
Layer_0
  10
170.87505
  20
98.655211
  0
VERTEX
  5
280
  8
Layer_0
  10
171.19301
  20
98.018466
  0
VERTEX
  5
281
  8
Layer_0
  10
171.54141
  20
97.392491
  0
VERTEX
  5
282
  8
Layer_0
  10
171.92037
  20
96.777571
  0
VERTEX
  5
283
  8
Layer_0
  10
172.32996
  20
96.17399
  0
VERTEX
  5
284
  8
Layer_0
  10
172.77029
  20
95.582031
  42
0.050857855
  0
VERTEX
  5
285
  8
Layer_0
  10
176.18167
  20
92.029602
  0
VERTEX
  5
286
  8
Layer_0
  10
177.20297
  20
91.214233
  0
VERTEX
  5
287
  8
Layer_0
  10
178.22427
  20
90.417358
  42
-0.029677326
  0
VERTEX
  5
288
  8
Layer_0
  10
178.31244
  20
90.329163
  0
VERTEX
  5
289
  8
Layer_0
  10
177.32528
  20
90.070523
  0
VERTEX
  5
28a
  8
Layer_0
  10
176.29077
  20
89.799639
  0
VERTEX
  5
28b
  8
Layer_0
  10
175.212
  20
89.518036
  0
VERTEX
  5
28c
  8
Layer_0
  10
174.09212
  20
89.227238
  0
VERTEX
  5
28d
  8
Layer_0
  10
172.93424
  20
88.928767
  0
VERTEX
  5
28e
  8
Layer_0
  10
171.7415
  20
88.624148
  0
VERTEX
  5
28f
  8
Layer_0
  10
170.51701
  20
88.314906
  0
VERTEX
  5
290
  8
Layer_0
  10
169.26392
  20
88.002563
  0
VERTEX
  5
291
  8
Layer_0
  10
166.68439
  20
87.374671
  0
VERTEX
  5
292
  8
Layer_0
  10
164.02793
  20
86.752663
  0
VERTEX
  5
293
  8
Layer_0
  10
161.31954
  20
86.148731
  0
VERTEX
  5
294
  8
Layer_0
  10
158.58424
  20
85.575066
  0
VERTEX
  5
295
  8
Layer_0
  10
155.84703
  20
85.043857
  0
VERTEX
  5
296
  8
Layer_0
  10
153.13294
  20
84.567295
  0
VERTEX
  5
297
  8
Layer_0
  10
151.79237
  20
84.353317
  0
VERTEX
  5
298
  8
Layer_0
  10
150.46696
  20
84.157572
  0
VERTEX
  5
299
  8
Layer_0
  10
149.15984
  20
83.981585
  0
VERTEX
  5
29a
  8
Layer_0
  10
147.87412
  20
83.826879
  0
VERTEX
  5
29b
  8
Layer_0
  10
146.61294
  20
83.694977
  0
VERTEX
  5
29c
  8
Layer_0
  10
145.37942
  20
83.587404
  0
VERTEX
  5
29d
  8
Layer_0
  10
144.1767
  20
83.505684
  0
VERTEX
  5
29e
  8
Layer_0
  10
143.00788
  20
83.451341
  0
VERTEX
  5
29f
  8
Layer_0
  10
141.87611
  20
83.425898
  0
VERTEX
  5
2a0
  8
Layer_0
  10
140.78451
  20
83.430878
  0
VERTEX
  5
2a1
  8
Layer_0
  10
139.7362
  20
83.467807
  0
SEQEND
  0
POLYLINE
  5
2a3
  8
Layer_0
  62
7
  70
1
  66
1
  10
0
  20
0
  30
0
  0
VERTEX
  5
2a3
  8
Layer_0
  10
222.33911
  20
43.377991
  0
VERTEX
  5
2a4
  8
Layer_0
  10
221.82394
  20
42.497236
  0
VERTEX
  5
2a5
  8
Layer_0
  10
221.28394
  20
41.574316
  0
VERTEX
  5
2a6
  8
Layer_0
  10
220.72024
  20
40.612518
  0
VERTEX
  5
2a7
  8
Layer_0
  10
220.13398
  20
39.615132
  0
VERTEX
  5
2a8
  8
Layer_0
  10
219.52628
  20
38.585446
  0
VERTEX
  5
2a9
  8
Layer_0
  10
218.89829
  20
37.526748
  0
VERTEX
  5
2aa
  8
Layer_0
  10
218.25112
  20
36.442328
  0
VERTEX
  5
2ab
  8
Layer_0
  10
217.58592
  20
35.335473
  0
VERTEX
  5
2ac
  8
Layer_0
  10
216.20594
  20
33.067614
  0
VERTEX
  5
2ad
  8
Layer_0
  10
214.76741
  20
30.74948
  0
VERTEX
  5
2ae
  8
Layer_0
  10
213.27939
  20
28.407379
  0
VERTEX
  5
2af
  8
Layer_0
  10
211.75092
  20
26.067619
  0
VERTEX
  5
2b0
  8
Layer_0
  10
210.19108
  20
23.756509
  0
VERTEX
  5
2b1
  8
Layer_0
  10
208.60892
  20
21.500357
  0
VERTEX
  5
2b2
  8
Layer_0
  10
207.8123
  20
20.401111
  0
VERTEX
  5
2b3
  8
Layer_0
  10
207.0135
  20
19.325471
  0
VERTEX
  5
2b4
  8
Layer_0
  10
206.21365
  20
18.276724
  0
VERTEX
  5
2b5
  8
Layer_0
  10
205.41388
  20
17.258159
  0
VERTEX
  5
2b6
  8
Layer_0
  10
204.61533
  20
16.273064
  0
VERTEX
  5
2b7
  8
Layer_0
  10
203.81912
  20
15.324729
  0
VERTEX
  5
2b8
  8
Layer_0
  10
203.02639
  20
14.416442
  0
VERTEX
  5
2b9
  8
Layer_0
  10
202.23828
  20
13.551491
  0
VERTEX
  5
2ba
  8
Layer_0
  10
201.4559
  20
12.733165
  0
VERTEX
  5
2bb
  8
Layer_0
  10
200.68041
  20
11.964752
  0
VERTEX
  5
2bc
  8
Layer_0
  10
199.91292
  20
11.249541
  0
VERTEX
  5
2bd
  8
Layer_0
  10
199.15457
  20
10.59082
  0
VERTEX
  5
2be
  8
Layer_0
  10
198.38599
  20
10.036658
  0
VERTEX
  5
2bf
  8
Layer_0
  10
197.55709
  20
9.4585
  0
VERTEX
  5
2c0
  8
Layer_0
  10
196.67451
  20
8.8675765
  0
VERTEX
  5
2c1
  8
Layer_0
  10
195.74491
  20
8.2751169
  0
VERTEX
  5
2c2
  8
Layer_0
  10
194.77495
  20
7.6923508
  0
VERTEX
  5
2c3
  8
Layer_0
  10
193.77126
  20
7.1305078
  0
VERTEX
  5
2c4
  8
Layer_0
  10
192.74051
  20
6.6008175
  0
VERTEX
  5
2c5
  8
Layer_0
  10
191.68934
  20
6.1145096
  0
VERTEX
  5
2c6
  8
Layer_0
  10
190.62441
  20
5.6828135
  0
VERTEX
  5
2c7
  8
Layer_0
  10
189.55235
  20
5.316959
  0
VERTEX
  5
2c8
  8
Layer_0
  10
188.47984
  20
5.0281756
  0
VERTEX
  5
2c9
  8
Layer_0
  10
187.41351
  20
4.827693
  0
VERTEX
  5
2ca
  8
Layer_0
  10
186.88474
  20
4.7640737
  0
VERTEX
  5
2cb
  8
Layer_0
  10
186.36002
  20
4.7267407
  0
VERTEX
  5
2cc
  8
Layer_0
  10
185.84016
  20
4.7170976
  0
VERTEX
  5
2cd
  8
Layer_0
  10
185.32601
  20
4.7365483
  0
VERTEX
  5
2ce
  8
Layer_0
  10
184.8184
  20
4.7864964
  0
VERTEX
  5
2cf
  8
Layer_0
  10
184.31815
  20
4.8683455
  0
VERTEX
  5
2d0
  8
Layer_0
  10
183.82609
  20
4.9834994
  0
VERTEX
  5
2d1
  8
Layer_0
  10
183.34307
  20
5.1333618
  0
VERTEX
  5
2d2
  8
Layer_0
  10
182.53748
  20
5.4549057
  0
VERTEX
  5
2d3
  8
Layer_0
  10
181.75464
  20
5.8032187
  0
VERTEX
  5
2d4
  8
Layer_0
  10
180.99472
  20
6.1785281
  0
VERTEX
  5
2d5
  8
Layer_0
  10
180.2579
  20
6.5810614
  0
VERTEX
  5
2d6
  8
Layer_0
  10
179.54436
  20
7.0110457
  0
VERTEX
  5
2d7
  8
Layer_0
  10
178.85427
  20
7.4687086
  0
VERTEX
  5
2d8
  8
Layer_0
  10
178.18781
  20
7.9542774
  0
VERTEX
  5
2d9
  8
Layer_0
  10
177.54515
  20
8.4679794
  0
VERTEX
  5
2da
  8
Layer_0
  10
176.92647
  20
9.0100421
  0
VERTEX
  5
2db
  8
Layer_0
  10
176.33194
  20
9.5806926
  0
VERTEX
  5
2dc
  8
Layer_0
  10
175.76174
  20
10.180159
  0
VERTEX
  5
2dd
  8
Layer_0
  10
175.21605
  20
10.808667
  0
VERTEX
  5
2de
  8
Layer_0
  10
174.69503
  20
11.466446
  0
VERTEX
  5
2df
  8
Layer_0
  10
174.19888
  20
12.153722
  0
VERTEX
  5
2e0
  8
Layer_0
  10
173.72775
  20
12.870723
  0
VERTEX
  5
2e1
  8
Layer_0
  10
173.28184
  20
13.617676
  42
-0.05122823
  0
VERTEX
  5
2e2
  8
Layer_0
  10
170.75595
  20
19.392639
  0
VERTEX
  5
2e3
  8
Layer_0
  10
170.46992
  20
20.335041
  0
VERTEX
  5
2e4
  8
Layer_0
  10
170.21134
  20
21.277786
  0
VERTEX
  5
2e5
  8
Layer_0
  10
169.95872
  20
22.219868
  0
VERTEX
  5
2e6
  8
Layer_0
  10
169.69055
  20
23.160278
  0
VERTEX
  5
2e7
  8
Layer_0
  10
169.64471
  20
23.287292
  0
VERTEX
  5
2e8
  8
Layer_0
  10
169.31192
  20
24.089272
  0
VERTEX
  5
2e9
  8
Layer_0
  10
168.92845
  20
24.828823
  0
VERTEX
  5
2ea
  8
Layer_0
  10
168.49983
  20
25.518599
  0
VERTEX
  5
2eb
  8
Layer_0
  10
168.03162
  20
26.171249
  0
VERTEX
  5
2ec
  8
Layer_0
  10
166.99853
  20
27.415783
  0
VERTEX
  5
2ed
  8
Layer_0
  10
165.8735
  20
28.663635
  0
VERTEX
  5
2ee
  8
Layer_0
  10
165.77121
  20
28.77301
  42
0.024980973
  0
VERTEX
  5
2ef
  8
Layer_0
  10
165.66183
  20
28.875305
  0
VERTEX
  5
2f0
  8
Layer_0
  10
164.41554
  20
29.998333
  0
VERTEX
  5
2f1
  8
Layer_0
  10
163.17123
  20
31.030746
  0
VERTEX
  5
2f2
  8
Layer_0
  10
162.5186
  20
31.499125
  0
VERTEX
  5
2f3
  8
Layer_0
  10
161.82902
  20
31.928234
  0
VERTEX
  5
2f4
  8
Layer_0
  10
161.08999
  20
32.312533
  0
VERTEX
  5
2f5
  8
Layer_0
  10
160.28903
  20
32.646484
  42
0.0172411
  0
VERTEX
  5
2f6
  8
Layer_0
  10
160.15851
  20
32.688843
  0
VERTEX
  5
2f7
  8
Layer_0
  10
158.27864
  20
33.212265
  0
VERTEX
  5
2f8
  8
Layer_0
  10
156.39083
  20
33.754272
  42
-0.050705108
  0
VERTEX
  5
2f9
  8
Layer_0
  10
150.61938
  20
36.280151
  0
VERTEX
  5
2fa
  8
Layer_0
  10
149.8724
  20
36.726104
  0
VERTEX
  5
2fb
  8
Layer_0
  10
149.1553
  20
37.197336
  0
VERTEX
  5
2fc
  8
Layer_0
  10
148.46787
  20
37.693663
  0
VERTEX
  5
2fd
  8
Layer_0
  10
147.8099
  20
38.214898
  0
VERTEX
  5
2fe
  8
Layer_0
  10
147.18118
  20
38.760856
  0
VERTEX
  5
2ff
  8
Layer_0
  10
146.5815
  20
39.33135
  0
VERTEX
  5
300
  8
Layer_0
  10
146.01064
  20
39.926195
  0
VERTEX
  5
301
  8
Layer_0
  10
145.46839
  20
40.545204
  0
VERTEX
  5
302
  8
Layer_0
  10
144.95455
  20
41.188193
  0
VERTEX
  5
303
  8
Layer_0
  10
144.4689
  20
41.854974
  0
VERTEX
  5
304
  8
Layer_0
  10
144.01122
  20
42.545363
  0
VERTEX
  5
305
  8
Layer_0
  10
143.58131
  20
43.259173
  0
VERTEX
  5
306
  8
Layer_0
  10
143.17896
  20
43.996219
  0
VERTEX
  5
307
  8
Layer_0
  10
142.80395
  20
44.756314
  0
VERTEX
  5
308
  8
Layer_0
  10
142.45606
  20
45.539273
  0
VERTEX
  5
309
  8
Layer_0
  10
142.1351
  20
46.34491
  0
VERTEX
  5
30a
  8
Layer_0
  10
141.98492
  20
46.827932
  0
VERTEX
  5
30b
  8
Layer_0
  10
141.86947
  20
47.319984
  0
VERTEX
  5
30c
  8
Layer_0
  10
141.78734
  20
47.820232
  0
VERTEX
  5
30d
  8
Layer_0
  10
141.73713
  20
48.327846
  0
VERTEX
  5
30e
  8
Layer_0
  10
141.71744
  20
48.841995
  0
VERTEX
  5
30f
  8
Layer_0
  10
141.72686
  20
49.361846
  0
VERTEX
  5
310
  8
Layer_0
  10
141.76398
  20
49.88657
  0
VERTEX
  5
311
  8
Layer_0
  10
141.82741
  20
50.415334
  0
VERTEX
  5
312
  8
Layer_0
  10
142.02755
  20
51.481657
  0
VERTEX
  5
313
  8
Layer_0
  10
142.31604
  20
52.554167
  0
VERTEX
  5
314
  8
Layer_0
  10
142.68166
  20
53.626211
  0
VERTEX
  5
315
  8
Layer_0
  10
143.11317
  20
54.691139
  0
VERTEX
  5
316
  8
Layer_0
  10
143.59933
  20
55.742301
  0
VERTEX
  5
317
  8
Layer_0
  10
144.12891
  20
56.773046
  0
VERTEX
  5
318
  8
Layer_0
  10
144.69067
  20
57.776722
  0
VERTEX
  5
319
  8
Layer_0
  10
145.27338
  20
58.74668
  0
VERTEX
  5
31a
  8
Layer_0
  10
145.8658
  20
59.676269
  0
VERTEX
  5
31b
  8
Layer_0
  10
146.45671
  20
60.558837
  0
VERTEX
  5
31c
  8
Layer_0
  10
147.03486
  20
61.387735
  0
VERTEX
  5
31d
  8
Layer_0
  10
147.58902
  20
62.156311
  0
VERTEX
  5
31e
  8
Layer_0
  10
148.24774
  20
62.914653
  0
VERTEX
  5
31f
  8
Layer_0
  10
148.96295
  20
63.682116
  0
VERTEX
  5
320
  8
Layer_0
  10
149.73137
  20
64.45757
  0
VERTEX
  5
321
  8
Layer_0
  10
150.5497
  20
65.239882
  0
VERTEX
  5
322
  8
Layer_0
  10
151.41466
  20
66.027922
  0
VERTEX
  5
323
  8
Layer_0
  10
152.32296
  20
66.820559
  0
VERTEX
  5
324
  8
Layer_0
  10
153.27131
  20
67.616662
  0
VERTEX
  5
325
  8
Layer_0
  10
154.25642
  20
68.4151
  0
VERTEX
  5
326
  8
Layer_0
  10
155.27501
  20
69.214742
  0
VERTEX
  5
327
  8
Layer_0
  10
156.32379
  20
70.014456
  0
VERTEX
  5
328
  8
Layer_0
  10
157.39947
  20
70.813112
  0
VERTEX
  5
329
  8
Layer_0
  10
158.49876
  20
71.609579
  0
VERTEX
  5
32a
  8
Layer_0
  10
160.75502
  20
73.19142
  0
VERTEX
  5
32b
  8
Layer_0
  10
163.06628
  20
74.750931
  0
VERTEX
  5
32c
  8
Layer_0
  10
165.40623
  20
76.279064
  0
VERTEX
  5
32d
  8
Layer_0
  10
167.74857
  20
77.76677
  0
VERTEX
  5
32e
  8
Layer_0
  10
170.06699
  20
79.205001
  0
VERTEX
  5
32f
  8
Layer_0
  10
172.33519
  20
80.584709
  0
VERTEX
  5
330
  8
Layer_0
  10
173.44224
  20
81.249789
  0
VERTEX
  5
331
  8
Layer_0
  10
174.52687
  20
81.896846
  0
VERTEX
  5
332
  8
Layer_0
  10
175.58579
  20
82.524747
  0
VERTEX
  5
333
  8
Layer_0
  10
176.61572
  20
83.132362
  0
VERTEX
  5
334
  8
Layer_0
  10
177.61337
  20
83.71856
  0
VERTEX
  5
335
  8
Layer_0
  10
178.57545
  20
84.28221
  0
VERTEX
  5
336
  8
Layer_0
  10
179.49867
  20
84.822181
  0
VERTEX
  5
337
  8
Layer_0
  10
180.37974
  20
85.337341
  0
VERTEX
  5
338
  8
Layer_0
  10
180.37973
  20
85.217468
  0
VERTEX
  5
339
  8
Layer_0
  10
180.22143
  20
83.929787
  0
VERTEX
  5
33a
  8
Layer_0
  10
180.07635
  20
82.631531
  42
0.05093677
  0
VERTEX
  5
33b
  8
Layer_0
  10
180.17511
  20
77.706787
  0
VERTEX
  5
33c
  8
Layer_0
  10
180.28214
  20
76.976693
  0
VERTEX
  5
33d
  8
Layer_0
  10
180.41916
  20
76.260192
  0
VERTEX
  5
33e
  8
Layer_0
  10
180.58589
  20
75.557404
  0
VERTEX
  5
33f
  8
Layer_0
  10
180.78205
  20
74.868446
  0
VERTEX
  5
340
  8
Layer_0
  10
181.00739
  20
74.193439
  0
VERTEX
  5
341
  8
Layer_0
  10
181.26162
  20
73.532502
  0
VERTEX
  5
342
  8
Layer_0
  10
181.54446
  20
72.885753
  0
VERTEX
  5
343
  8
Layer_0
  10
181.85565
  20
72.253311
  0
VERTEX
  5
344
  8
Layer_0
  10
182.19491
  20
71.635296
  0
VERTEX
  5
345
  8
Layer_0
  10
182.56197
  20
71.031827
  0
VERTEX
  5
346
  8
Layer_0
  10
182.95656
  20
70.443023
  0
VERTEX
  5
347
  8
Layer_0
  10
183.37839
  20
69.869003
  0
VERTEX
  5
348
  8
Layer_0
  10
183.8272
  20
69.309886
  0
VERTEX
  5
349
  8
Layer_0
  10
184.30271
  20
68.765791
  0
VERTEX
  5
34a
  8
Layer_0
  10
184.80464
  20
68.236838
  0
VERTEX
  5
34b
  8
Layer_0
  10
185.33273
  20
67.723145
  0
VERTEX
  5
34c
  8
Layer_0
  10
185.36093
  20
67.698425
  0
VERTEX
  5
34d
  8
Layer_0
  10
185.72496
  20
67.388646
  0
VERTEX
  5
34e
  8
Layer_0
  10
186.10155
  20
67.103071
  0
VERTEX
  5
34f
  8
Layer_0
  10
186.49001
  20
66.840976
  0
VERTEX
  5
350
  8
Layer_0
  10
186.88964
  20
66.601636
  0
VERTEX
  5
351
  8
Layer_0
  10
187.71969
  20
66.188328
  0
VERTEX
  5
352
  8
Layer_0
  10
188.58616
  20
65.857354
  0
VERTEX
  5
353
  8
Layer_0
  10
189.48353
  20
65.602922
  0
VERTEX
  5
354
  8
Layer_0
  10
190.40628
  20
65.419237
  0
VERTEX
  5
355
  8
Layer_0
  10
191.34889
  20
65.300509
  0
VERTEX
  5
356
  8
Layer_0
  10
192.30582
  20
65.240944
  0
VERTEX
  5
357
  8
Layer_0
  10
193.27157
  20
65.234749
  0
VERTEX
  5
358
  8
Layer_0
  10
194.24059
  20
65.276131
  0
VERTEX
  5
359
  8
Layer_0
  10
195.20737
  20
65.359298
  0
VERTEX
  5
35a
  8
Layer_0
  10
196.16638
  20
65.478457
  0
VERTEX
  5
35b
  8
Layer_0
  10
197.1121
  20
65.627816
  0
VERTEX
  5
35c
  8
Layer_0
  10
198.03901
  20
65.80158
  0
VERTEX
  5
35d
  8
Layer_0
  10
198.94157
  20
65.993959
  0
VERTEX
  5
35e
  8
Layer_0
  10
199.81427
  20
66.199158
  42
0.018265265
  0
VERTEX
  5
35f
  8
Layer_0
  10
199.9342
  20
66.230896
  42
0.0073078121
  0
VERTEX
  5
360
  8
Layer_0
  10
200.57977
  20
66.442627
  0
VERTEX
  5
361
  8
Layer_0
  10
180.50671
  20
46.373108
  42
0.22328946
  0
VERTEX
  5
362
  8
Layer_0
  10
174.64709
  20
46.648193
  42
0.4142161
  0
VERTEX
  5
363
  8
Layer_0
  10
170.92175
  20
37.648865
  42
0.41436204
  0
VERTEX
  5
364
  8
Layer_0
  10
179.92111
  20
33.919983
  42
0.41420922
  0
VERTEX
  5
365
  8
Layer_0
  10
183.64645
  20
42.919434
  42
0.027246147
  0
VERTEX
  5
366
  8
Layer_0
  10
183.37131
  20
43.508545
  0
VERTEX
  5
367
  8
Layer_0
  10
203.44434
  20
63.578003
  42
0.0098322032
  0
VERTEX
  5
368
  8
Layer_0
  10
203.23267
  20
62.932495
  0
VERTEX
  5
369
  8
Layer_0
  10
203.19739
  20
62.8125
  0
VERTEX
  5
36a
  8
Layer_0
  10
202.99277
  20
61.940432
  0
VERTEX
  5
36b
  8
Layer_0
  10
202.80082
  20
61.038413
  0
VERTEX
  5
36c
  8
Layer_0
  10
202.62737
  20
60.111969
  0
VERTEX
  5
36d
  8
Layer_0
  10
202.47822
  20
59.166624
  0
VERTEX
  5
36e
  8
Layer_0
  10
202.35919
  20
58.207903
  0
VERTEX
  5
36f
  8
Layer_0
  10
202.27608
  20
57.241331
  0
VERTEX
  5
370
  8
Layer_0
  10
202.23473
  20
56.272432
  0
VERTEX
  5
371
  8
Layer_0
  10
202.24092
  20
55.306732
  0
VERTEX
  5
372
  8
Layer_0
  10
202.3005
  20
54.349755
  0
VERTEX
  5
373
  8
Layer_0
  10
202.41925
  20
53.407027
  0
VERTEX
  5
374
  8
Layer_0
  10
202.60301
  20
52.484071
  0
VERTEX
  5
375
  8
Layer_0
  10
202.85757
  20
51.586412
  0
VERTEX
  5
376
  8
Layer_0
  10
203.18876
  20
50.719577
  0
VERTEX
  5
377
  8
Layer_0
  10
203.60239
  20
49.889088
  0
VERTEX
  5
378
  8
Layer_0
  10
203.84194
  20
49.489201
  0
VERTEX
  5
379
  8
Layer_0
  10
204.10428
  20
49.100472
  0
VERTEX
  5
37a
  8
Layer_0
  10
204.39013
  20
48.723593
  0
VERTEX
  5
37b
  8
Layer_0
  10
204.70023
  20
48.359253
  0
VERTEX
  5
37c
  8
Layer_0
  10
204.72491
  20
48.330994
  0
VERTEX
  5
37d
  8
Layer_0
  10
205.23802
  20
47.803526
  0
VERTEX
  5
37e
  8
Layer_0
  10
205.76654
  20
47.302135
  0
VERTEX
  5
37f
  8
Layer_0
  10
206.31033
  20
46.827101
  0
VERTEX
  5
380
  8
Layer_0
  10
206.86927
  20
46.3787
  0
VERTEX
  5
381
  8
Layer_0
  10
207.44321
  20
45.957214
  0
VERTEX
  5
382
  8
Layer_0
  10
208.03202
  20
45.56292
  0
VERTEX
  5
383
  8
Layer_0
  10
208.63556
  20
45.196097
  0
VERTEX
  5
384
  8
Layer_0
  10
209.25372
  20
44.857025
  0
VERTEX
  5
385
  8
Layer_0
  10
209.88634
  20
44.545983
  0
VERTEX
  5
386
  8
Layer_0
  10
210.53329
  20
44.263248
  0
VERTEX
  5
387
  8
Layer_0
  10
211.19445
  20
44.009102
  0
VERTEX
  5
388
  8
Layer_0
  10
211.86967
  20
43.783821
  0
VERTEX
  5
389
  8
Layer_0
  10
212.55882
  20
43.587686
  0
VERTEX
  5
38a
  8
Layer_0
  10
213.26177
  20
43.420975
  0
VERTEX
  5
38b
  8
Layer_0
  10
213.97838
  20
43.283967
  0
VERTEX
  5
38c
  8
Layer_0
  10
214.70853
  20
43.176941
  42
0.051066221
  0
VERTEX
  5
38d
  8
Layer_0
  10
219.62979
  20
43.074646
  0
VERTEX
  5
38e
  8
Layer_0
  10
220.92934
  20
43.220985
  0
VERTEX
  5
38f
  8
Layer_0
  10
222.21564
  20
43.377991
  42
-0.041011989
  0
SEQEND
  0
POLYLINE
  5
391
  8
Layer_0
  62
7
  70
1
  66
1
  10
0
  20
0
  30
0
  0
VERTEX
  5
391
  8
Layer_0
  10
147.58902
  20
177.84631
  0
VERTEX
  5
392
  8
Layer_0
  10
147.03486
  20
178.61485
  0
VERTEX
  5
393
  8
Layer_0
  10
146.45671
  20
179.44364
  0
VERTEX
  5
394
  8
Layer_0
  10
145.8658
  20
180.32603
  0
VERTEX
  5
395
  8
Layer_0
  10
145.27338
  20
181.2554
  0
VERTEX
  5
396
  8
Layer_0
  10
144.69067
  20
182.2251
  0
VERTEX
  5
397
  8
Layer_0
  10
144.12891
  20
183.22848
  0
VERTEX
  5
398
  8
Layer_0
  10
143.59933
  20
184.25891
  0
VERTEX
  5
399
  8
Layer_0
  10
143.11317
  20
185.30975
  0
VERTEX
  5
39a
  8
Layer_0
  10
142.68166
  20
186.37435
  0
VERTEX
  5
39b
  8
Layer_0
  10
142.31604
  20
187.44608
  0
VERTEX
  5
39c
  8
Layer_0
  10
142.02755
  20
188.5183
  0
VERTEX
  5
39d
  8
Layer_0
  10
141.82741
  20
189.58436
  0
VERTEX
  5
39e
  8
Layer_0
  10
141.76398
  20
190.113
  0
VERTEX
  5
39f
  8
Layer_0
  10
141.72686
  20
190.63762
  0
VERTEX
  5
3a0
  8
Layer_0
  10
141.71744
  20
191.15738
  0
VERTEX
  5
3a1
  8
Layer_0
  10
141.73713
  20
191.67145
  0
VERTEX
  5
3a2
  8
Layer_0
  10
141.78734
  20
192.179
  0
VERTEX
  5
3a3
  8
Layer_0
  10
141.86947
  20
192.6792
  0
VERTEX
  5
3a4
  8
Layer_0
  10
141.98492
  20
193.17122
  0
VERTEX
  5
3a5
  8
Layer_0
  10
142.1351
  20
193.65424
  0
VERTEX
  5
3a6
  8
Layer_0
  10
142.45606
  20
194.46045
  0
VERTEX
  5
3a7
  8
Layer_0
  10
142.80395
  20
195.24383
  0
VERTEX
  5
3a8
  8
Layer_0
  10
143.17896
  20
196.00421
  0
VERTEX
  5
3a9
  8
Layer_0
  10
143.58131
  20
196.74143
  0
VERTEX
  5
3aa
  8
Layer_0
  10
144.01122
  20
197.45531
  0
VERTEX
  5
3ab
  8
Layer_0
  10
144.4689
  20
198.14568
  0
VERTEX
  5
3ac
  8
Layer_0
  10
144.95455
  20
198.81238
  0
VERTEX
  5
3ad
  8
Layer_0
  10
145.46839
  20
199.45522
  0
VERTEX
  5
3ae
  8
Layer_0
  10
146.01064
  20
200.07405
  0
VERTEX
  5
3af
  8
Layer_0
  10
146.5815
  20
200.66869
  0
VERTEX
  5
3b0
  8
Layer_0
  10
147.18118
  20
201.23896
  0
VERTEX
  5
3b1
  8
Layer_0
  10
147.8099
  20
201.78471
  0
VERTEX
  5
3b2
  8
Layer_0
  10
148.46787
  20
202.30576
  0
VERTEX
  5
3b3
  8
Layer_0
  10
149.1553
  20
202.80193
  0
VERTEX
  5
3b4
  8
Layer_0
  10
149.8724
  20
203.27307
  0
VERTEX
  5
3b5
  8
Layer_0
  10
150.61938
  20
203.71899
  42
-0.051105056
  0
VERTEX
  5
3b6
  8
Layer_0
  10
156.39084
  20
206.24493
  0
VERTEX
  5
3b7
  8
Layer_0
  10
157.33523
  20
206.53044
  0
VERTEX
  5
3b8
  8
Layer_0
  10
158.27864
  20
206.78819
  0
VERTEX
  5
3b9
  8
Layer_0
  10
159.22006
  20
207.04063
  0
VERTEX
  5
3ba
  8
Layer_0
  10
160.1585
  20
207.31024
  0
VERTEX
  5
3bb
  8
Layer_0
  10
160.28903
  20
207.3526
  0
VERTEX
  5
3bc
  8
Layer_0
  10
161.08999
  20
207.68655
  0
VERTEX
  5
3bd
  8
Layer_0
  10
161.82902
  20
208.07086
  0
VERTEX
  5
3be
  8
Layer_0
  10
162.5186
  20
208.49998
  0
VERTEX
  5
3bf
  8
Layer_0
  10
163.17123
  20
208.96836
  0
VERTEX
  5
3c0
  8
Layer_0
  10
164.41554
  20
210.00078
  0
VERTEX
  5
3c1
  8
Layer_0
  10
165.66183
  20
211.12378
  0
VERTEX
  5
3c2
  8
Layer_0
  10
165.77121
  20
211.22614
  42
0.013234198
  0
VERTEX
  5
3c3
  8
Layer_0
  10
165.8735
  20
211.33905
  0
VERTEX
  5
3c4
  8
Layer_0
  10
166.99853
  20
212.58485
  0
VERTEX
  5
3c5
  8
Layer_0
  10
168.03162
  20
213.82832
  0
VERTEX
  5
3c6
  8
Layer_0
  10
168.49983
  20
214.48071
  0
VERTEX
  5
3c7
  8
Layer_0
  10
168.92845
  20
215.17035
  0
VERTEX
  5
3c8
  8
Layer_0
  10
169.31192
  20
215.90986
  0
VERTEX
  5
3c9
  8
Layer_0
  10
169.64471
  20
216.71185
  0
VERTEX
  5
3ca
  8
Layer_0
  10
169.69055
  20
216.83887
  0
VERTEX
  5
3cb
  8
Layer_0
  10
169.95872
  20
217.77927
  0
VERTEX
  5
3cc
  8
Layer_0
  10
170.21134
  20
218.72134
  0
VERTEX
  5
3cd
  8
Layer_0
  10
170.46992
  20
219.66408
  0
VERTEX
  5
3ce
  8
Layer_0
  10
170.75595
  20
220.60651
  42
-0.051222413
  0
VERTEX
  5
3cf
  8
Layer_0
  10
173.28183
  20
226.38147
  0
VERTEX
  5
3d0
  8
Layer_0
  10
173.72775
  20
227.12841
  0
VERTEX
  5
3d1
  8
Layer_0
  10
174.19888
  20
227.84541
  0
VERTEX
  5
3d2
  8
Layer_0
  10
174.69503
  20
228.53268
  0
VERTEX
  5
3d3
  8
Layer_0
  10
175.21605
  20
229.19045
  0
VERTEX
  5
3d4
  8
Layer_0
  10
175.76174
  20
229.81896
  0
VERTEX
  5
3d5
  8
Layer_0
  10
176.33194
  20
230.41843
  0
VERTEX
  5
3d6
  8
Layer_0
  10
176.92647
  20
230.98908
  0
VERTEX
  5
3d7
  8
Layer_0
  10
177.54515
  20
231.53114
  0
VERTEX
  5
3d8
  8
Layer_0
  10
178.18781
  20
232.04485
  0
VERTEX
  5
3d9
  8
Layer_0
  10
178.85427
  20
232.53042
  0
VERTEX
  5
3da
  8
Layer_0
  10
179.54436
  20
232.98809
  0
VERTEX
  5
3db
  8
Layer_0
  10
180.2579
  20
233.41808
  0
VERTEX
  5
3dc
  8
Layer_0
  10
180.99472
  20
233.82061
  0
VERTEX
  5
3dd
  8
Layer_0
  10
181.75464
  20
234.19592
  0
VERTEX
  5
3de
  8
Layer_0
  10
182.53748
  20
234.54424
  0
VERTEX
  5
3df
  8
Layer_0
  10
183.34307
  20
234.86578
  0
VERTEX
  5
3e0
  8
Layer_0
  10
183.82609
  20
235.01565
  0
VERTEX
  5
3e1
  8
Layer_0
  10
184.31815
  20
235.13083
  0
VERTEX
  5
3e2
  8
Layer_0
  10
184.8184
  20
235.21272
  0
VERTEX
  5
3e3
  8
Layer_0
  10
185.32601
  20
235.26272
  0
VERTEX
  5
3e4
  8
Layer_0
  10
185.84016
  20
235.28224
  0
VERTEX
  5
3e5
  8
Layer_0
  10
186.36002
  20
235.27268
  0
VERTEX
  5
3e6
  8
Layer_0
  10
186.88474
  20
235.23544
  0
VERTEX
  5
3e7
  8
Layer_0
  10
187.41351
  20
235.17192
  0
VERTEX
  5
3e8
  8
Layer_0
  10
188.47984
  20
234.97164
  0
VERTEX
  5
3e9
  8
Layer_0
  10
189.55235
  20
234.68308
  0
VERTEX
  5
3ea
  8
Layer_0
  10
190.62441
  20
234.31743
  0
VERTEX
  5
3eb
  8
Layer_0
  10
191.68934
  20
233.88592
  0
VERTEX
  5
3ec
  8
Layer_0
  10
192.74051
  20
233.39975
  0
VERTEX
  5
3ed
  8
Layer_0
  10
193.77126
  20
232.87015
  0
VERTEX
  5
3ee
  8
Layer_0
  10
194.77495
  20
232.30832
  0
VERTEX
  5
3ef
  8
Layer_0
  10
195.74491
  20
231.72549
  0
VERTEX
  5
3f0
  8
Layer_0
  10
196.67451
  20
231.13286
  0
VERTEX
  5
3f1
  8
Layer_0
  10
197.55709
  20
230.54164
  0
VERTEX
  5
3f2
  8
Layer_0
  10
198.38599
  20
229.96306
  0
VERTEX
  5
3f3
  8
Layer_0
  10
199.15457
  20
229.40833
  0
VERTEX
  5
3f4
  8
Layer_0
  10
199.91292
  20
228.7496
  0
VERTEX
  5
3f5
  8
Layer_0
  10
200.68041
  20
228.03439
  0
VERTEX
  5
3f6
  8
Layer_0
  10
201.4559
  20
227.26598
  0
VERTEX
  5
3f7
  8
Layer_0
  10
202.23828
  20
226.44765
  0
VERTEX
  5
3f8
  8
Layer_0
  10
203.02639
  20
225.5827
  0
VERTEX
  5
3f9
  8
Layer_0
  10
203.81912
  20
224.67441
  0
VERTEX
  5
3fa
  8
Layer_0
  10
204.61533
  20
223.72607
  0
VERTEX
  5
3fb
  8
Layer_0
  10
205.41388
  20
222.74098
  0
VERTEX
  5
3fc
  8
Layer_0
  10
206.21365
  20
221.72241
  0
VERTEX
  5
3fd
  8
Layer_0
  10
207.0135
  20
220.67366
  0
VERTEX
  5
3fe
  8
Layer_0
  10
207.8123
  20
219.59802
  0
VERTEX
  5
3ff
  8
Layer_0
  10
208.60892
  20
218.49877
  0
VERTEX
  5
400
  8
Layer_0
  10
210.19108
  20
216.24262
  0
VERTEX
  5
401
  8
Layer_0
  10
211.75092
  20
213.9315
  0
VERTEX
  5
402
  8
Layer_0
  10
213.27939
  20
211.59174
  0
VERTEX
  5
403
  8
Layer_0
  10
214.76741
  20
209.24964
  0
VERTEX
  5
404
  8
Layer_0
  10
216.20594
  20
206.9315
  0
VERTEX
  5
405
  8
Layer_0
  10
217.58592
  20
204.66365
  0
VERTEX
  5
406
  8
Layer_0
  10
218.25112
  20
203.55679
  0
VERTEX
  5
407
  8
Layer_0
  10
218.89829
  20
202.47237
  0
VERTEX
  5
408
  8
Layer_0
  10
219.52628
  20
201.41368
  0
VERTEX
  5
409
  8
Layer_0
  10
220.13398
  20
200.384
  0
VERTEX
  5
40a
  8
Layer_0
  10
220.72024
  20
199.38661
  0
VERTEX
  5
40b
  8
Layer_0
  10
221.28394
  20
198.42482
  0
VERTEX
  5
40c
  8
Layer_0
  10
221.82394
  20
197.5019
  0
VERTEX
  5
40d
  8
Layer_0
  10
222.33911
  20
196.62115
  42
-0.020847951
  0
VERTEX
  5
40e
  8
Layer_0
  10
222.21564
  20
196.62115
  0
VERTEX
  5
40f
  8
Layer_0
  10
220.92934
  20
196.77944
  0
VERTEX
  5
410
  8
Layer_0
  10
219.62979
  20
196.9245
  42
0.051041389
  0
VERTEX
  5
411
  8
Layer_0
  10
214.70853
  20
196.82581
  0
VERTEX
  5
412
  8
Layer_0
  10
213.97838
  20
196.71815
  0
VERTEX
  5
413
  8
Layer_0
  10
213.26177
  20
196.58058
  0
VERTEX
  5
414
  8
Layer_0
  10
212.55882
  20
196.41339
  0
VERTEX
  5
415
  8
Layer_0
  10
211.86967
  20
196.21684
  0
VERTEX
  5
416
  8
Layer_0
  10
211.19445
  20
195.9912
  0
VERTEX
  5
417
  8
Layer_0
  10
210.53329
  20
195.73676
  0
VERTEX
  5
418
  8
Layer_0
  10
209.88634
  20
195.45378
  0
VERTEX
  5
419
  8
Layer_0
  10
209.25372
  20
195.14255
  0
VERTEX
  5
41a
  8
Layer_0
  10
208.63556
  20
194.80332
  0
VERTEX
  5
41b
  8
Layer_0
  10
208.03202
  20
194.43639
  0
VERTEX
  5
41c
  8
Layer_0
  10
207.44321
  20
194.04201
  0
VERTEX
  5
41d
  8
Layer_0
  10
206.86927
  20
193.62048
  0
VERTEX
  5
41e
  8
Layer_0
  10
206.31033
  20
193.17205
  0
VERTEX
  5
41f
  8
Layer_0
  10
205.76654
  20
192.697
  0
VERTEX
  5
420
  8
Layer_0
  10
205.23802
  20
192.19561
  0
VERTEX
  5
421
  8
Layer_0
  10
204.72491
  20
191.66815
  0
VERTEX
  5
422
  8
Layer_0
  10
204.70023
  20
191.63989
  0
VERTEX
  5
423
  8
Layer_0
  10
204.39013
  20
191.27556
  0
VERTEX
  5
424
  8
Layer_0
  10
204.10428
  20
190.8987
  0
VERTEX
  5
425
  8
Layer_0
  10
203.84194
  20
190.51002
  0
VERTEX
  5
426
  8
Layer_0
  10
203.60239
  20
190.11019
  0
VERTEX
  5
427
  8
Layer_0
  10
203.18876
  20
189.27985
  0
VERTEX
  5
428
  8
Layer_0
  10
202.85757
  20
188.41321
  0
VERTEX
  5
429
  8
Layer_0
  10
202.60301
  20
187.51577
  0
VERTEX
  5
42a
  8
Layer_0
  10
202.41925
  20
186.59304
  0
VERTEX
  5
42b
  8
Layer_0
  10
202.3005
  20
185.65052
  0
VERTEX
  5
42c
  8
Layer_0
  10
202.24092
  20
184.69373
  0
VERTEX
  5
42d
  8
Layer_0
  10
202.23473
  20
183.72818
  0
VERTEX
  5
42e
  8
Layer_0
  10
202.27608
  20
182.75937
  0
VERTEX
  5
42f
  8
Layer_0
  10
202.35919
  20
181.79281
  0
VERTEX
  5
430
  8
Layer_0
  10
202.47822
  20
180.83401
  0
VERTEX
  5
431
  8
Layer_0
  10
202.62737
  20
179.88848
  0
VERTEX
  5
432
  8
Layer_0
  10
202.80082
  20
178.96172
  0
VERTEX
  5
433
  8
Layer_0
  10
202.99277
  20
178.05926
  0
VERTEX
  5
434
  8
Layer_0
  10
203.19739
  20
177.18658
  0
VERTEX
  5
435
  8
Layer_0
  10
203.23267
  20
177.06665
  42
0.007351874
  0
VERTEX
  5
436
  8
Layer_0
  10
203.44434
  20
176.42108
  0
VERTEX
  5
437
  8
Layer_0
  10
183.37131
  20
196.49414
  42
0.22385613
  0
VERTEX
  5
438
  8
Layer_0
  10
183.64645
  20
202.35028
  42
0.41445916
  0
VERTEX
  5
439
  8
Layer_0
  10
174.64709
  20
206.07916
  42
0.41420742
  0
VERTEX
  5
43a
  8
Layer_0
  10
170.92175
  20
197.07971
  42
0.41411466
  0
VERTEX
  5
43b
  8
Layer_0
  10
179.92111
  20
193.35089
  42
0.020014766
  0
VERTEX
  5
43c
  8
Layer_0
  10
180.50671
  20
193.6261
  0
VERTEX
  5
43d
  8
Layer_0
  10
200.57977
  20
173.55652
  42
0.0075004597
  0
VERTEX
  5
43e
  8
Layer_0
  10
199.9342
  20
173.76819
  0
VERTEX
  5
43f
  8
Layer_0
  10
199.81427
  20
173.80341
  0
VERTEX
  5
440
  8
Layer_0
  10
198.94157
  20
174.00804
  0
VERTEX
  5
441
  8
Layer_0
  10
198.03901
  20
174.2
  0
VERTEX
  5
442
  8
Layer_0
  10
197.1121
  20
174.37347
  0
VERTEX
  5
443
  8
Layer_0
  10
196.16638
  20
174.52263
  0
VERTEX
  5
444
  8
Layer_0
  10
195.20737
  20
174.64167
  0
VERTEX
  5
445
  8
Layer_0
  10
194.24059
  20
174.72478
  0
VERTEX
  5
446
  8
Layer_0
  10
193.27157
  20
174.76614
  0
VERTEX
  5
447
  8
Layer_0
  10
192.30582
  20
174.75995
  0
VERTEX
  5
448
  8
Layer_0
  10
191.34889
  20
174.70038
  0
VERTEX
  5
449
  8
Layer_0
  10
190.40628
  20
174.58163
  0
VERTEX
  5
44a
  8
Layer_0
  10
189.48353
  20
174.39788
  0
VERTEX
  5
44b
  8
Layer_0
  10
188.58616
  20
174.14331
  0
VERTEX
  5
44c
  8
Layer_0
  10
187.71969
  20
173.81212
  0
VERTEX
  5
44d
  8
Layer_0
  10
186.88964
  20
173.39849
  0
VERTEX
  5
44e
  8
Layer_0
  10
186.49001
  20
173.15895
  0
VERTEX
  5
44f
  8
Layer_0
  10
186.10155
  20
172.89661
  0
VERTEX
  5
450
  8
Layer_0
  10
185.72496
  20
172.61076
  0
VERTEX
  5
451
  8
Layer_0
  10
185.36093
  20
172.30066
  0
VERTEX
  5
452
  8
Layer_0
  10
185.33273
  20
172.27594
  0
VERTEX
  5
453
  8
Layer_0
  10
184.80464
  20
171.76225
  0
VERTEX
  5
454
  8
Layer_0
  10
184.30271
  20
171.2333
  0
VERTEX
  5
455
  8
Layer_0
  10
183.8272
  20
170.68921
  0
VERTEX
  5
456
  8
Layer_0
  10
183.37839
  20
170.13011
  0
VERTEX
  5
457
  8
Layer_0
  10
182.95656
  20
169.5561
  0
VERTEX
  5
458
  8
Layer_0
  10
182.56197
  20
168.96731
  0
VERTEX
  5
459
  8
Layer_0
  10
182.19491
  20
168.36385
  0
VERTEX
  5
45a
  8
Layer_0
  10
181.85565
  20
167.74585
  0
VERTEX
  5
45b
  8
Layer_0
  10
181.54446
  20
167.11342
  0
VERTEX
  5
45c
  8
Layer_0
  10
181.26162
  20
166.46668
  0
VERTEX
  5
45d
  8
Layer_0
  10
181.00739
  20
165.80575
  0
VERTEX
  5
45e
  8
Layer_0
  10
180.78205
  20
165.13074
  0
VERTEX
  5
45f
  8
Layer_0
  10
180.58589
  20
164.44178
  0
VERTEX
  5
460
  8
Layer_0
  10
180.41916
  20
163.73899
  0
VERTEX
  5
461
  8
Layer_0
  10
180.28214
  20
163.02247
  0
VERTEX
  5
462
  8
Layer_0
  10
180.17512
  20
162.29236
  42
0.050936036
  0
VERTEX
  5
463
  8
Layer_0
  10
180.07635
  20
157.36755
  0
VERTEX
  5
464
  8
Layer_0
  10
180.22143
  20
156.06935
  0
VERTEX
  5
465
  8
Layer_0
  10
180.37974
  20
154.78168
  0
VERTEX
  5
466
  8
Layer_0
  10
180.37973
  20
154.6618
  0
VERTEX
  5
467
  8
Layer_0
  10
179.49867
  20
155.17696
  0
VERTEX
  5
468
  8
Layer_0
  10
178.57545
  20
155.71693
  0
VERTEX
  5
469
  8
Layer_0
  10
177.61337
  20
156.28057
  0
VERTEX
  5
46a
  8
Layer_0
  10
176.61572
  20
156.86677
  0
VERTEX
  5
46b
  8
Layer_0
  10
175.58579
  20
157.47439
  0
VERTEX
  5
46c
  8
Layer_0
  10
174.52687
  20
158.1023
  0
VERTEX
  5
46d
  8
Layer_0
  10
173.44224
  20
158.74937
  0
VERTEX
  5
46e
  8
Layer_0
  10
172.33519
  20
159.41446
  0
VERTEX
  5
46f
  8
Layer_0
  10
170.06699
  20
160.79422
  0
VERTEX
  5
470
  8
Layer_0
  10
167.74857
  20
162.23253
  0
VERTEX
  5
471
  8
Layer_0
  10
165.40623
  20
163.72035
  0
VERTEX
  5
472
  8
Layer_0
  10
163.06628
  20
165.24863
  0
VERTEX
  5
473
  8
Layer_0
  10
160.75502
  20
166.80833
  0
VERTEX
  5
474
  8
Layer_0
  10
158.49876
  20
168.3904
  0
VERTEX
  5
475
  8
Layer_0
  10
157.39947
  20
169.187
  0
VERTEX
  5
476
  8
Layer_0
  10
156.32379
  20
169.98581
  0
VERTEX
  5
477
  8
Layer_0
  10
155.27501
  20
170.78569
  0
VERTEX
  5
478
  8
Layer_0
  10
154.25642
  20
171.5855
  0
VERTEX
  5
479
  8
Layer_0
  10
153.27131
  20
172.38414
  0
VERTEX
  5
47a
  8
Layer_0
  10
152.32296
  20
173.18045
  0
VERTEX
  5
47b
  8
Layer_0
  10
151.41466
  20
173.97331
  0
VERTEX
  5
47c
  8
Layer_0
  10
150.5497
  20
174.76159
  0
VERTEX
  5
47d
  8
Layer_0
  10
149.73137
  20
175.54416
  0
VERTEX
  5
47e
  8
Layer_0
  10
148.96295
  20
176.31989
  0
VERTEX
  5
47f
  8
Layer_0
  10
148.24774
  20
177.08766
  0
SEQEND
  0
POLYLINE
  5
481
  8
Layer_0
  62
7
  70
1
  66
1
  10
0
  20
0
  30
0
  0
VERTEX
  5
481
  8
Layer_0
  10
228.50568
  20
95.62793
  0
VERTEX
  5
482
  8
Layer_0
  10
226.20275
  20
93.125454
  0
VERTEX
  5
483
  8
Layer_0
  10
223.96635
  20
90.669004
  0
VERTEX
  5
484
  8
Layer_0
  10
222.89409
  20
89.484096
  0
VERTEX
  5
485
  8
Layer_0
  10
221.86365
  20
88.341962
  0
VERTEX
  5
486
  8
Layer_0
  10
220.88343
  20
87.253025
  0
VERTEX
  5
487
  8
Layer_0
  10
219.96183
  20
86.227707
  0
VERTEX
  5
488
  8
Layer_0
  10
219.52563
  20
85.742162
  0
VERTEX
  5
489
  8
Layer_0
  10
219.10724
  20
85.276431
  0
VERTEX
  5
48a
  8
Layer_0
  10
218.7077
  20
84.831815
  0
VERTEX
  5
48b
  8
Layer_0
  10
218.32807
  20
84.409619
  0
VERTEX
  5
48c
  8
Layer_0
  10
217.96938
  20
84.011144
  0
VERTEX
  5
48d
  8
Layer_0
  10
217.6327
  20
83.637694
  0
VERTEX
  5
48e
  8
Layer_0
  10
217.31907
  20
83.290571
  0
VERTEX
  5
48f
  8
Layer_0
  10
217.02954
  20
82.971079
  0
VERTEX
  5
490
  8
Layer_0
  10
216.76516
  20
82.680519
  0
VERTEX
  5
491
  8
Layer_0
  10
216.52698
  20
82.420195
  0
VERTEX
  5
492
  8
Layer_0
  10
216.31605
  20
82.19141
  0
VERTEX
  5
493
  8
Layer_0
  10
216.13343
  20
81.995466
  0
VERTEX
  5
494
  8
Layer_0
  10
215.98015
  20
81.833667
  0
VERTEX
  5
495
  8
Layer_0
  10
215.85727
  20
81.707315
  0
VERTEX
  5
496
  8
Layer_0
  10
215.76584
  20
81.617712
  0
VERTEX
  5
497
  8
Layer_0
  10
215.70691
  20
81.566162
  0
VERTEX
  5
498
  8
Layer_0
  10
211.66776
  20
78.304083
  0
VERTEX
  5
499
  8
Layer_0
  10
207.67194
  20
75.053894
  0
VERTEX
  5
49a
  8
Layer_0
  10
206.6498
  20
74.28801
  0
VERTEX
  5
49b
  8
Layer_0
  10
205.61039
  20
73.552738
  0
VERTEX
  5
49c
  8
Layer_0
  10
204.54972
  20
72.854054
  0
VERTEX
  5
49d
  8
Layer_0
  10
203.46379
  20
72.197931
  0
VERTEX
  5
49e
  8
Layer_0
  10
202.34862
  20
71.590343
  0
VERTEX
  5
49f
  8
Layer_0
  10
201.2002
  20
71.037265
  0
VERTEX
  5
4a0
  8
Layer_0
  10
200.01455
  20
70.544669
  0
VERTEX
  5
4a1
  8
Layer_0
  10
198.78766
  20
70.11853
  0
VERTEX
  5
4a2
  8
Layer_0
  10
198.20528
  20
69.980926
  0
VERTEX
  5
4a3
  8
Layer_0
  10
197.5781
  20
69.842712
  0
VERTEX
  5
4a4
  8
Layer_0
  10
196.91325
  20
69.708984
  0
VERTEX
  5
4a5
  8
Layer_0
  10
196.21785
  20
69.584837
  0
VERTEX
  5
4a6
  8
Layer_0
  10
195.49903
  20
69.475366
  0
VERTEX
  5
4a7
  8
Layer_0
  10
194.76392
  20
69.385667
  0
VERTEX
  5
4a8
  8
Layer_0
  10
194.01964
  20
69.320835
  0
VERTEX
  5
4a9
  8
Layer_0
  10
193.27332
  20
69.285965
  0
VERTEX
  5
4aa
  8
Layer_0
  10
192.53209
  20
69.286153
  0
VERTEX
  5
4ab
  8
Layer_0
  10
191.80306
  20
69.326493
  0
VERTEX
  5
4ac
  8
Layer_0
  10
191.09338
  20
69.412082
  0
VERTEX
  5
4ad
  8
Layer_0
  10
190.41015
  20
69.548014
  0
VERTEX
  5
4ae
  8
Layer_0
  10
189.76052
  20
69.739385
  0
VERTEX
  5
4af
  8
Layer_0
  10
189.1516
  20
69.991289
  0
VERTEX
  5
4b0
  8
Layer_0
  10
188.59052
  20
70.308824
  0
VERTEX
  5
4b1
  8
Layer_0
  10
188.08441
  20
70.697083
  0
VERTEX
  5
4b2
  8
Layer_0
  10
187.30574
  20
71.486011
  0
VERTEX
  5
4b3
  8
Layer_0
  10
186.6083
  20
72.31616
  0
VERTEX
  5
4b4
  8
Layer_0
  10
185.9933
  20
73.188398
  0
VERTEX
  5
4b5
  8
Layer_0
  10
185.46194
  20
74.103592
  0
VERTEX
  5
4b6
  8
Layer_0
  10
185.0154
  20
75.062611
  0
VERTEX
  5
4b7
  8
Layer_0
  10
184.6549
  20
76.066324
  0
VERTEX
  5
4b8
  8
Layer_0
  10
184.38163
  20
77.115599
  0
VERTEX
  5
4b9
  8
Layer_0
  10
184.19678
  20
78.211304
  42
-0.051544975
  0
VERTEX
  5
4ba
  8
Layer_0
  10
184.11566
  20
82.310547
  0
VERTEX
  5
4bb
  8
Layer_0
  10
184.26073
  20
83.602165
  0
VERTEX
  5
4bc
  8
Layer_0
  10
184.41904
  20
84.885864
  0
VERTEX
  5
4bd
  8
Layer_0
  10
184.42609
  20
84.998657
  0
VERTEX
  5
4be
  8
Layer_0
  10
184.42536
  20
85.597492
  0
VERTEX
  5
4bf
  8
Layer_0
  10
184.37721
  20
86.168331
  0
VERTEX
  5
4c0
  8
Layer_0
  10
184.28813
  20
86.718245
  0
VERTEX
  5
4c1
  8
Layer_0
  10
184.16461
  20
87.254303
  0
VERTEX
  5
4c2
  8
Layer_0
  10
183.84022
  20
88.313129
  0
VERTEX
  5
4c3
  8
Layer_0
  10
183.45596
  20
89.401367
  0
VERTEX
  5
4c4
  8
Layer_0
  10
183.41364
  20
89.517761
  0
VERTEX
  5
4c5
  8
Layer_0
  10
183.36072
  20
89.634216
  0
VERTEX
  5
4c6
  8
Layer_0
  10
182.86241
  20
90.673817
  0
VERTEX
  5
4c7
  8
Layer_0
  10
182.34293
  20
91.65123
  0
VERTEX
  5
4c8
  8
Layer_0
  10
182.05128
  20
92.117446
  0
VERTEX
  5
4c9
  8
Layer_0
  10
181.72557
  20
92.569111
  0
VERTEX
  5
4ca
  8
Layer_0
  10
181.35621
  20
93.006557
  0
VERTEX
  5
4cb
  8
Layer_0
  10
180.93359
  20
93.430115
  42
0.016412667
  0
VERTEX
  5
4cc
  8
Layer_0
  10
180.84894
  20
93.504211
  0
VERTEX
  5
4cd
  8
Layer_0
  10
179.82984
  20
94.301918
  0
VERTEX
  5
4ce
  8
Layer_0
  10
178.81339
  20
95.112854
  42
-0.051428327
  0
VERTEX
  5
4cf
  8
Layer_0
  10
175.97
  20
98.069092
  0
VERTEX
  5
4d0
  8
Layer_0
  10
175.32618
  20
98.97442
  0
VERTEX
  5
4d1
  8
Layer_0
  10
174.77756
  20
99.909556
  0
VERTEX
  5
4d2
  8
Layer_0
  10
174.32278
  20
100.87421
  0
VERTEX
  5
4d3
  8
Layer_0
  10
173.96049
  20
101.8681
  0
VERTEX
  5
4d4
  8
Layer_0
  10
173.68931
  20
102.89092
  0
VERTEX
  5
4d5
  8
Layer_0
  10
173.50789
  20
103.94239
  0
VERTEX
  5
4d6
  8
Layer_0
  10
173.41485
  20
105.02222
  0
VERTEX
  5
4d7
  8
Layer_0
  10
173.40884
  20
106.13013
  0
VERTEX
  5
4d8
  8
Layer_0
  10
173.4919
  20
106.76269
  0
VERTEX
  5
4d9
  8
Layer_0
  10
173.66388
  20
107.38414
  0
VERTEX
  5
4da
  8
Layer_0
  10
173.91613
  20
107.99304
  0
VERTEX
  5
4db
  8
Layer_0
  10
174.24002
  20
108.58794
  0
VERTEX
  5
4dc
  8
Layer_0
  10
174.62688
  20
109.1674
  0
VERTEX
  5
4dd
  8
Layer_0
  10
175.06808
  20
109.72997
  0
VERTEX
  5
4de
  8
Layer_0
  10
175.55498
  20
110.27422
  0
VERTEX
  5
4df
  8
Layer_0
  10
176.07892
  20
110.79871
  0
VERTEX
  5
4e0
  8
Layer_0
  10
176.63127
  20
111.30198
  0
VERTEX
  5
4e1
  8
Layer_0
  10
177.20337
  20
111.78261
  0
VERTEX
  5
4e2
  8
Layer_0
  10
177.78658
  20
112.23914
  0
VERTEX
  5
4e3
  8
Layer_0
  10
178.37226
  20
112.67013
  0
VERTEX
  5
4e4
  8
Layer_0
  10
178.95175
  20
113.07415
  0
VERTEX
  5
4e5
  8
Layer_0
  10
179.51643
  20
113.44975
  0
VERTEX
  5
4e6
  8
Layer_0
  10
180.05763
  20
113.79549
  0
VERTEX
  5
4e7
  8
Layer_0
  10
180.56671
  20
114.10992
  0
VERTEX
  5
4e8
  8
Layer_0
  10
181.7356
  20
114.6755
  0
VERTEX
  5
4e9
  8
Layer_0
  10
182.92229
  20
115.16508
  0
VERTEX
  5
4ea
  8
Layer_0
  10
184.12538
  20
115.5857
  0
VERTEX
  5
4eb
  8
Layer_0
  10
185.34348
  20
115.9444
  0
VERTEX
  5
4ec
  8
Layer_0
  10
186.5752
  20
116.24819
  0
VERTEX
  5
4ed
  8
Layer_0
  10
187.81916
  20
116.5041
  0
VERTEX
  5
4ee
  8
Layer_0
  10
189.07395
  20
116.71917
  0
VERTEX
  5
4ef
  8
Layer_0
  10
190.3382
  20
116.90042
  0
VERTEX
  5
4f0
  8
Layer_0
  10
195.46192
  20
117.4278
  0
VERTEX
  5
4f1
  8
Layer_0
  10
200.62564
  20
117.97632
  0
VERTEX
  5
4f2
  8
Layer_0
  10
200.70342
  20
117.98156
  0
VERTEX
  5
4f3
  8
Layer_0
  10
200.83112
  20
117.98282
  0
VERTEX
  5
4f4
  8
Layer_0
  10
201.00708
  20
117.9803
  0
VERTEX
  5
4f5
  8
Layer_0
  10
201.22965
  20
117.97417
  0
VERTEX
  5
4f6
  8
Layer_0
  10
201.49714
  20
117.96462
  0
VERTEX
  5
4f7
  8
Layer_0
  10
201.80789
  20
117.95183
  0
VERTEX
  5
4f8
  8
Layer_0
  10
202.16024
  20
117.93599
  0
VERTEX
  5
4f9
  8
Layer_0
  10
202.55253
  20
117.91728
  0
VERTEX
  5
4fa
  8
Layer_0
  10
202.98308
  20
117.89588
  0
VERTEX
  5
4fb
  8
Layer_0
  10
203.45023
  20
117.87197
  0
VERTEX
  5
4fc
  8
Layer_0
  10
203.95232
  20
117.84575
  0
VERTEX
  5
4fd
  8
Layer_0
  10
204.48767
  20
117.81739
  0
VERTEX
  5
4fe
  8
Layer_0
  10
205.05463
  20
117.78707
  0
VERTEX
  5
4ff
  8
Layer_0
  10
205.65153
  20
117.75498
  0
VERTEX
  5
500
  8
Layer_0
  10
206.27669
  20
117.72131
  0
VERTEX
  5
501
  8
Layer_0
  10
206.92846
  20
117.68623
  0
VERTEX
  5
502
  8
Layer_0
  10
208.30516
  20
117.6126
  0
VERTEX
  5
503
  8
Layer_0
  10
209.76828
  20
117.53556
  0
VERTEX
  5
504
  8
Layer_0
  10
211.3045
  20
117.45658
  0
VERTEX
  5
505
  8
Layer_0
  10
212.9005
  20
117.37712
  0
VERTEX
  5
506
  8
Layer_0
  10
216.21851
  20
117.22264
  0
VERTEX
  5
507
  8
Layer_0
  10
219.61569
  20
117.08386
  42
0.065966124
  0
VERTEX
  5
508
  8
Layer_0
  10
221.6265
  20
107.54126
  0
VERTEX
  5
509
  8
Layer_0
  10
205.89969
  20
101.02545
  42
0.22293675
  0
VERTEX
  5
50a
  8
Layer_0
  10
200.59039
  20
103.52313
  42
0.41421356
  0
VERTEX
  5
50b
  8
Layer_0
  10
193.70416
  20
96.633301
  42
0.41421356
  0
VERTEX
  5
50c
  8
Layer_0
  10
200.59039
  20
89.74707
  42
0.41421356
  0
VERTEX
  5
50d
  8
Layer_0
  10
207.4801
  20
96.633301
  42
0.024493767
  0
VERTEX
  5
50e
  8
Layer_0
  10
207.44839
  20
97.28241
  0
VERTEX
  5
50f
  8
Layer_0
  10
223.1752
  20
103.79468
  42
0.06515669
  0
SEQEND
  0
POLYLINE
  5
511
  8
Layer_0
  62
7
  70
1
  66
1
  10
0
  20
0
  30
0
  0
VERTEX
  5
511
  8
Layer_0
  10
207.44839
  20
142.71667
  42
0.22360458
  0
VERTEX
  5
512
  8
Layer_0
  10
205.46225
  20
148.23407
  42
0.41422186
  0
VERTEX
  5
513
  8
Layer_0
  10
195.71851
  20
148.23407
  42
0.41421356
  0
VERTEX
  5
514
  8
Layer_0
  10
195.71851
  20
138.49396
  42
0.41420858
  0
VERTEX
  5
515
  8
Layer_0
  10
205.46225
  20
138.49396
  42
0.023194978
  0
VERTEX
  5
516
  8
Layer_0
  10
205.89969
  20
138.97369
  0
VERTEX
  5
517
  8
Layer_0
  10
221.6265
  20
132.45789
  42
0.065966475
  0
VERTEX
  5
518
  8
Layer_0
  10
219.61569
  20
122.91522
  0
VERTEX
  5
519
  8
Layer_0
  10
216.21851
  20
122.77547
  0
VERTEX
  5
51a
  8
Layer_0
  10
212.9005
  20
122.62053
  0
VERTEX
  5
51b
  8
Layer_0
  10
211.3045
  20
122.54099
  0
VERTEX
  5
51c
  8
Layer_0
  10
209.76828
  20
122.46202
  0
VERTEX
  5
51d
  8
Layer_0
  10
208.30516
  20
122.38506
  0
VERTEX
  5
51e
  8
Layer_0
  10
206.92846
  20
122.31157
  0
VERTEX
  5
51f
  8
Layer_0
  10
206.27669
  20
122.27658
  0
VERTEX
  5
520
  8
Layer_0
  10
205.65153
  20
122.243
  0
VERTEX
  5
521
  8
Layer_0
  10
205.05463
  20
122.21101
  0
VERTEX
  5
522
  8
Layer_0
  10
204.48767
  20
122.1808
  0
VERTEX
  5
523
  8
Layer_0
  10
203.95232
  20
122.15254
  0
VERTEX
  5
524
  8
Layer_0
  10
203.45023
  20
122.12642
  0
VERTEX
  5
525
  8
Layer_0
  10
202.98308
  20
122.10262
  0
VERTEX
  5
526
  8
Layer_0
  10
202.55253
  20
122.08133
  0
VERTEX
  5
527
  8
Layer_0
  10
202.16024
  20
122.06271
  0
VERTEX
  5
528
  8
Layer_0
  10
201.80789
  20
122.04696
  0
VERTEX
  5
529
  8
Layer_0
  10
201.49714
  20
122.03425
  0
VERTEX
  5
52a
  8
Layer_0
  10
201.22965
  20
122.02477
  0
VERTEX
  5
52b
  8
Layer_0
  10
201.00708
  20
122.01871
  0
VERTEX
  5
52c
  8
Layer_0
  10
200.83112
  20
122.01623
  0
VERTEX
  5
52d
  8
Layer_0
  10
200.70342
  20
122.01752
  0
VERTEX
  5
52e
  8
Layer_0
  10
200.62564
  20
122.02277
  0
VERTEX
  5
52f
  8
Layer_0
  10
195.46192
  20
122.57084
  0
VERTEX
  5
530
  8
Layer_0
  10
190.3382
  20
123.09741
  0
VERTEX
  5
531
  8
Layer_0
  10
189.07395
  20
123.27852
  0
VERTEX
  5
532
  8
Layer_0
  10
187.81916
  20
123.49351
  0
VERTEX
  5
533
  8
Layer_0
  10
186.5752
  20
123.74941
  0
VERTEX
  5
534
  8
Layer_0
  10
185.34348
  20
124.05328
  0
VERTEX
  5
535
  8
Layer_0
  10
184.12538
  20
124.41215
  0
VERTEX
  5
536
  8
Layer_0
  10
182.92229
  20
124.83307
  0
VERTEX
  5
537
  8
Layer_0
  10
181.7356
  20
125.32308
  0
VERTEX
  5
538
  8
Layer_0
  10
180.56671
  20
125.88922
  0
VERTEX
  5
539
  8
Layer_0
  10
180.05763
  20
126.20366
  0
VERTEX
  5
53a
  8
Layer_0
  10
179.51643
  20
126.5494
  0
VERTEX
  5
53b
  8
Layer_0
  10
178.95175
  20
126.92499
  0
VERTEX
  5
53c
  8
Layer_0
  10
178.37226
  20
127.32898
  0
VERTEX
  5
53d
  8
Layer_0
  10
177.78658
  20
127.75993
  0
VERTEX
  5
53e
  8
Layer_0
  10
177.20337
  20
128.21638
  0
VERTEX
  5
53f
  8
Layer_0
  10
176.63127
  20
128.69689
  0
VERTEX
  5
540
  8
Layer_0
  10
176.07892
  20
129.20002
  0
VERTEX
  5
541
  8
Layer_0
  10
175.55498
  20
129.72431
  0
VERTEX
  5
542
  8
Layer_0
  10
175.06808
  20
130.26833
  0
VERTEX
  5
543
  8
Layer_0
  10
174.62688
  20
130.83061
  0
VERTEX
  5
544
  8
Layer_0
  10
174.24002
  20
131.40972
  0
VERTEX
  5
545
  8
Layer_0
  10
173.91613
  20
132.00421
  0
VERTEX
  5
546
  8
Layer_0
  10
173.66388
  20
132.61263
  0
VERTEX
  5
547
  8
Layer_0
  10
173.4919
  20
133.23354
  0
VERTEX
  5
548
  8
Layer_0
  10
173.40884
  20
133.86548
  0
VERTEX
  5
549
  8
Layer_0
  10
173.41485
  20
134.97457
  0
VERTEX
  5
54a
  8
Layer_0
  10
173.50789
  20
136.05529
  0
VERTEX
  5
54b
  8
Layer_0
  10
173.68931
  20
137.10739
  0
VERTEX
  5
54c
  8
Layer_0
  10
173.96049
  20
138.13062
  0
VERTEX
  5
54d
  8
Layer_0
  10
174.32278
  20
139.12475
  0
VERTEX
  5
54e
  8
Layer_0
  10
174.77756
  20
140.08952
  0
VERTEX
  5
54f
  8
Layer_0
  10
175.32618
  20
141.02468
  0
VERTEX
  5
550
  8
Layer_0
  10
175.97
  20
141.92999
  42
-0.051045652
  0
VERTEX
  5
551
  8
Layer_0
  10
178.81339
  20
144.88635
  0
VERTEX
  5
552
  8
Layer_0
  10
179.82984
  20
145.69679
  0
VERTEX
  5
553
  8
Layer_0
  10
180.84894
  20
146.49139
  42
-0.016989368
  0
VERTEX
  5
554
  8
Layer_0
  10
180.93359
  20
146.56549
  0
VERTEX
  5
555
  8
Layer_0
  10
181.35621
  20
146.99007
  0
VERTEX
  5
556
  8
Layer_0
  10
181.72557
  20
147.42804
  0
VERTEX
  5
557
  8
Layer_0
  10
182.05128
  20
147.8799
  0
VERTEX
  5
558
  8
Layer_0
  10
182.34293
  20
148.34614
  0
VERTEX
  5
559
  8
Layer_0
  10
182.86241
  20
149.32375
  0
VERTEX
  5
55a
  8
Layer_0
  10
183.36072
  20
150.36487
  0
VERTEX
  5
55b
  8
Layer_0
  10
183.41364
  20
150.48132
  0
VERTEX
  5
55c
  8
Layer_0
  10
183.45596
  20
150.59778
  0
VERTEX
  5
55d
  8
Layer_0
  10
183.84022
  20
151.68604
  0
VERTEX
  5
55e
  8
Layer_0
  10
184.16461
  20
152.74486
  0
VERTEX
  5
55f
  8
Layer_0
  10
184.28813
  20
153.2809
  0
VERTEX
  5
560
  8
Layer_0
  10
184.37721
  20
153.8308
  0
VERTEX
  5
561
  8
Layer_0
  10
184.42536
  20
154.40162
  0
VERTEX
  5
562
  8
Layer_0
  10
184.42609
  20
155.00043
  0
VERTEX
  5
563
  8
Layer_0
  10
184.41904
  20
155.11328
  0
VERTEX
  5
564
  8
Layer_0
  10
184.26073
  20
156.39565
  0
VERTEX
  5
565
  8
Layer_0
  10
184.11566
  20
157.68854
  42
-0.051595173
  0
VERTEX
  5
566
  8
Layer_0
  10
184.19678
  20
161.7879
  0
VERTEX
  5
567
  8
Layer_0
  10
184.38163
  20
162.88357
  0
VERTEX
  5
568
  8
Layer_0
  10
184.6549
  20
163.93281
  0
VERTEX
  5
569
  8
Layer_0
  10
185.0154
  20
164.93651
  0
VERTEX
  5
56a
  8
Layer_0
  10
185.46194
  20
165.89552
  0
VERTEX
  5
56b
  8
Layer_0
  10
185.9933
  20
166.81071
  0
VERTEX
  5
56c
  8
Layer_0
  10
186.6083
  20
167.68295
  0
VERTEX
  5
56d
  8
Layer_0
  10
187.30574
  20
168.51311
  0
VERTEX
  5
56e
  8
Layer_0
  10
188.08441
  20
169.30206
  0
VERTEX
  5
56f
  8
Layer_0
  10
188.59052
  20
169.69031
  0
VERTEX
  5
570
  8
Layer_0
  10
189.1516
  20
170.00784
  0
VERTEX
  5
571
  8
Layer_0
  10
189.76052
  20
170.25974
  0
VERTEX
  5
572
  8
Layer_0
  10
190.41015
  20
170.45111
  0
VERTEX
  5
573
  8
Layer_0
  10
191.09338
  20
170.58703
  0
VERTEX
  5
574
  8
Layer_0
  10
191.80306
  20
170.67262
  0
VERTEX
  5
575
  8
Layer_0
  10
192.53209
  20
170.71296
  0
VERTEX
  5
576
  8
Layer_0
  10
193.27332
  20
170.71315
  0
VERTEX
  5
577
  8
Layer_0
  10
194.01964
  20
170.67828
  0
VERTEX
  5
578
  8
Layer_0
  10
194.76392
  20
170.61345
  0
VERTEX
  5
579
  8
Layer_0
  10
195.49903
  20
170.52375
  0
VERTEX
  5
57a
  8
Layer_0
  10
196.21785
  20
170.41427
  0
VERTEX
  5
57b
  8
Layer_0
  10
196.91325
  20
170.29012
  0
VERTEX
  5
57c
  8
Layer_0
  10
197.5781
  20
170.15639
  0
VERTEX
  5
57d
  8
Layer_0
  10
198.20528
  20
170.01817
  0
VERTEX
  5
57e
  8
Layer_0
  10
198.78766
  20
169.88055
  0
VERTEX
  5
57f
  8
Layer_0
  10
200.01455
  20
169.45442
  0
VERTEX
  5
580
  8
Layer_0
  10
201.2002
  20
168.96183
  0
VERTEX
  5
581
  8
Layer_0
  10
202.34862
  20
168.40874
  0
VERTEX
  5
582
  8
Layer_0
  10
203.46379
  20
167.80112
  0
VERTEX
  5
583
  8
Layer_0
  10
204.54972
  20
167.14495
  0
VERTEX
  5
584
  8
Layer_0
  10
205.61039
  20
166.44619
  0
VERTEX
  5
585
  8
Layer_0
  10
206.6498
  20
165.71081
  0
VERTEX
  5
586
  8
Layer_0
  10
207.67194
  20
164.94478
  0
VERTEX
  5
587
  8
Layer_0
  10
211.66776
  20
161.69354
  0
VERTEX
  5
588
  8
Layer_0
  10
215.70691
  20
158.42944
  0
VERTEX
  5
589
  8
Layer_0
  10
215.76583
  20
158.37789
  0
VERTEX
  5
58a
  8
Layer_0
  10
215.85723
  20
158.28826
  0
VERTEX
  5
58b
  8
Layer_0
  10
215.98006
  20
158.16187
  0
VERTEX
  5
58c
  8
Layer_0
  10
216.13328
  20
158.00002
  0
VERTEX
  5
58d
  8
Layer_0
  10
216.31582
  20
157.80401
  0
VERTEX
  5
58e
  8
Layer_0
  10
216.52666
  20
157.57515
  0
VERTEX
  5
58f
  8
Layer_0
  10
216.76473
  20
157.31474
  0
VERTEX
  5
590
  8
Layer_0
  10
217.02899
  20
157.0241
  0
VERTEX
  5
591
  8
Layer_0
  10
217.31839
  20
156.70453
  0
VERTEX
  5
592
  8
Layer_0
  10
217.63188
  20
156.35732
  0
VERTEX
  5
593
  8
Layer_0
  10
217.96842
  20
155.98379
  0
VERTEX
  5
594
  8
Layer_0
  10
218.32696
  20
155.58525
  0
VERTEX
  5
595
  8
Layer_0
  10
218.70644
  20
155.16299
  0
VERTEX
  5
596
  8
Layer_0
  10
219.10581
  20
154.71833
  0
VERTEX
  5
597
  8
Layer_0
  10
219.52404
  20
154.25257
  0
VERTEX
  5
598
  8
Layer_0
  10
219.96008
  20
153.76701
  0
VERTEX
  5
599
  8
Layer_0
  10
220.88135
  20
152.74173
  0
VERTEX
  5
59a
  8
Layer_0
  10
221.86125
  20
151.65294
  0
VERTEX
  5
59b
  8
Layer_0
  10
222.8914
  20
150.51108
  0
VERTEX
  5
59c
  8
Layer_0
  10
223.96339
  20
149.32658
  0
VERTEX
  5
59d
  8
Layer_0
  10
226.1994
  20
146.87149
  0
VERTEX
  5
59e
  8
Layer_0
  10
228.50217
  20
144.37122
  42
0.065510917
  0
VERTEX
  5
59f
  8
Layer_0
  10
223.1752
  20
136.20093
  0
SEQEND
  0
POLYLINE
  5
5a1
  8
Layer_0
  62
7
  70
1
  66
1
  10
0
  20
0
  30
0
  0
VERTEX
  5
5a1
  8
Layer_0
  10
338.02905
  20
98.069092
  42
-0.051439953
  0
VERTEX
  5
5a2
  8
Layer_0
  10
335.18567
  20
95.112854
  0
VERTEX
  5
5a3
  8
Layer_0
  10
334.171
  20
94.301918
  0
VERTEX
  5
5a4
  8
Layer_0
  10
333.15366
  20
93.504211
  0
VERTEX
  5
5a5
  8
Layer_0
  10
333.06549
  20
93.430115
  0
VERTEX
  5
5a6
  8
Layer_0
  10
332.64286
  20
93.006557
  0
VERTEX
  5
5a7
  8
Layer_0
  10
332.27348
  20
92.569111
  0
VERTEX
  5
5a8
  8
Layer_0
  10
331.94776
  20
92.117446
  0
VERTEX
  5
5a9
  8
Layer_0
  10
331.65611
  20
91.65123
  0
VERTEX
  5
5aa
  8
Layer_0
  10
331.13665
  20
90.673817
  0
VERTEX
  5
5ab
  8
Layer_0
  10
330.63837
  20
89.634216
  0
VERTEX
  5
5ac
  8
Layer_0
  10
330.58902
  20
89.517761
  0
VERTEX
  5
5ad
  8
Layer_0
  10
330.54309
  20
89.401367
  0
VERTEX
  5
5ae
  8
Layer_0
  10
330.15885
  20
88.313129
  0
VERTEX
  5
5af
  8
Layer_0
  10
329.83447
  20
87.254303
  0
VERTEX
  5
5b0
  8
Layer_0
  10
329.71095
  20
86.718245
  0
VERTEX
  5
5b1
  8
Layer_0
  10
329.62187
  20
86.168331
  0
VERTEX
  5
5b2
  8
Layer_0
  10
329.57371
  20
85.597492
  0
VERTEX
  5
5b3
  8
Layer_0
  10
329.57297
  20
84.998657
  0
VERTEX
  5
5b4
  8
Layer_0
  10
329.58002
  20
84.885864
  0
VERTEX
  5
5b5
  8
Layer_0
  10
329.73835
  20
83.602165
  0
VERTEX
  5
5b6
  8
Layer_0
  10
329.88345
  20
82.310547
  42
-0.051539422
  0
VERTEX
  5
5b7
  8
Layer_0
  10
329.80228
  20
78.211304
  0
VERTEX
  5
5b8
  8
Layer_0
  10
329.72157
  20
77.657593
  0
VERTEX
  5
5b9
  8
Layer_0
  10
329.61845
  20
77.115599
  0
VERTEX
  5
5ba
  8
Layer_0
  10
329.4931
  20
76.585212
  0
VERTEX
  5
5bb
  8
Layer_0
  10
329.34566
  20
76.066324
  0
VERTEX
  5
5bc
  8
Layer_0
  10
328.98523
  20
75.062611
  0
VERTEX
  5
5bd
  8
Layer_0
  10
328.53848
  20
74.103592
  0
VERTEX
  5
5be
  8
Layer_0
  10
328.00672
  20
73.188398
  0
VERTEX
  5
5bf
  8
Layer_0
  10
327.39129
  20
72.31616
  0
VERTEX
  5
5c0
  8
Layer_0
  10
326.69351
  20
71.486011
  0
VERTEX
  5
5c1
  8
Layer_0
  10
325.9147
  20
70.697083
  0
VERTEX
  5
5c2
  8
Layer_0
  10
325.40859
  20
70.308824
  0
VERTEX
  5
5c3
  8
Layer_0
  10
324.84751
  20
69.991289
  0
VERTEX
  5
5c4
  8
Layer_0
  10
324.23859
  20
69.739385
  0
VERTEX
  5
5c5
  8
Layer_0
  10
323.58895
  20
69.548014
  0
VERTEX
  5
5c6
  8
Layer_0
  10
322.90572
  20
69.412082
  0
VERTEX
  5
5c7
  8
Layer_0
  10
322.19603
  20
69.326493
  0
VERTEX
  5
5c8
  8
Layer_0
  10
321.467
  20
69.286153
  0
VERTEX
  5
5c9
  8
Layer_0
  10
320.72576
  20
69.285965
  0
VERTEX
  5
5ca
  8
Layer_0
  10
319.97944
  20
69.320835
  0
VERTEX
  5
5cb
  8
Layer_0
  10
319.23515
  20
69.385667
  0
VERTEX
  5
5cc
  8
Layer_0
  10
318.50004
  20
69.475366
  0
VERTEX
  5
5cd
  8
Layer_0
  10
317.78122
  20
69.584837
  0
VERTEX
  5
5ce
  8
Layer_0
  10
317.08581
  20
69.708984
  0
VERTEX
  5
5cf
  8
Layer_0
  10
316.42096
  20
69.842712
  0
VERTEX
  5
5d0
  8
Layer_0
  10
315.79378
  20
69.980926
  0
VERTEX
  5
5d1
  8
Layer_0
  10
315.2114
  20
70.11853
  0
VERTEX
  5
5d2
  8
Layer_0
  10
313.98451
  20
70.544669
  0
VERTEX
  5
5d3
  8
Layer_0
  10
312.79886
  20
71.037265
  0
VERTEX
  5
5d4
  8
Layer_0
  10
311.65045
  20
71.590343
  0
VERTEX
  5
5d5
  8
Layer_0
  10
310.53527
  20
72.197931
  0
VERTEX
  5
5d6
  8
Layer_0
  10
309.44935
  20
72.854054
  0
VERTEX
  5
5d7
  8
Layer_0
  10
308.38868
  20
73.552738
  0
VERTEX
  5
5d8
  8
Layer_0
  10
307.34927
  20
74.28801
  0
VERTEX
  5
5d9
  8
Layer_0
  10
306.32713
  20
75.053894
  0
VERTEX
  5
5da
  8
Layer_0
  10
302.33131
  20
78.304083
  0
VERTEX
  5
5db
  8
Layer_0
  10
298.29218
  20
81.566162
  0
VERTEX
  5
5dc
  8
Layer_0
  10
298.23325
  20
81.617712
  0
VERTEX
  5
5dd
  8
Layer_0
  10
298.14185
  20
81.707314
  0
VERTEX
  5
5de
  8
Layer_0
  10
298.01902
  20
81.833664
  0
VERTEX
  5
5df
  8
Layer_0
  10
297.86581
  20
81.99546
  0
VERTEX
  5
5e0
  8
Layer_0
  10
297.68326
  20
82.191397
  0
VERTEX
  5
5e1
  8
Layer_0
  10
297.47243
  20
82.420172
  0
VERTEX
  5
5e2
  8
Layer_0
  10
297.23436
  20
82.680482
  0
VERTEX
  5
5e3
  8
Layer_0
  10
296.97009
  20
82.971024
  0
VERTEX
  5
5e4
  8
Layer_0
  10
296.68069
  20
83.290493
  0
VERTEX
  5
5e5
  8
Layer_0
  10
296.3672
  20
83.637586
  0
VERTEX
  5
5e6
  8
Layer_0
  10
296.03066
  20
84.011001
  0
VERTEX
  5
5e7
  8
Layer_0
  10
295.67213
  20
84.409432
  0
VERTEX
  5
5e8
  8
Layer_0
  10
295.29265
  20
84.831578
  0
VERTEX
  5
5e9
  8
Layer_0
  10
294.89327
  20
85.276134
  0
VERTEX
  5
5ea
  8
Layer_0
  10
294.47504
  20
85.741798
  0
VERTEX
  5
5eb
  8
Layer_0
  10
294.03901
  20
86.227264
  0
VERTEX
  5
5ec
  8
Layer_0
  10
293.11773
  20
87.252395
  0
VERTEX
  5
5ed
  8
Layer_0
  10
292.13783
  20
88.341098
  0
VERTEX
  5
5ee
  8
Layer_0
  10
291.10769
  20
89.482946
  0
VERTEX
  5
5ef
  8
Layer_0
  10
290.03569
  20
90.667511
  0
VERTEX
  5
5f0
  8
Layer_0
  10
287.79969
  20
93.123082
  0
VERTEX
  5
5f1
  8
Layer_0
  10
285.49692
  20
95.62439
  42
0.065270931
  0
VERTEX
  5
5f2
  8
Layer_0
  10
290.82739
  20
103.79468
  0
VERTEX
  5
5f3
  8
Layer_0
  10
306.55069
  20
97.28241
  42
0.22313437
  0
VERTEX
  5
5f4
  8
Layer_0
  10
308.53687
  20
91.761475
  42
0.4138348
  0
VERTEX
  5
5f5
  8
Layer_0
  10
318.28055
  20
91.761475
  42
0.41383812
  0
VERTEX
  5
5f6
  8
Layer_0
  10
318.28055
  20
101.50519
  42
0.4138348
  0
VERTEX
  5
5f7
  8
Layer_0
  10
308.53687
  20
101.50519
  42
0.020344324
  0
VERTEX
  5
5f8
  8
Layer_0
  10
308.09943
  20
101.02545
  0
VERTEX
  5
5f9
  8
Layer_0
  10
292.3761
  20
107.53772
  42
0.065990314
  0
VERTEX
  5
5fa
  8
Layer_0
  10
294.3869
  20
117.08386
  0
VERTEX
  5
5fb
  8
Layer_0
  10
297.78392
  20
117.22365
  0
VERTEX
  5
5fc
  8
Layer_0
  10
301.10153
  20
117.37861
  0
VERTEX
  5
5fd
  8
Layer_0
  10
302.69726
  20
117.45815
  0
VERTEX
  5
5fe
  8
Layer_0
  10
304.23319
  20
117.53712
  0
VERTEX
  5
5ff
  8
Layer_0
  10
305.69599
  20
117.61407
  0
VERTEX
  5
600
  8
Layer_0
  10
307.07235
  20
117.68756
  0
VERTEX
  5
601
  8
Layer_0
  10
307.72396
  20
117.72255
  0
VERTEX
  5
602
  8
Layer_0
  10
308.34896
  20
117.75613
  0
VERTEX
  5
603
  8
Layer_0
  10
308.9457
  20
117.78811
  0
VERTEX
  5
604
  8
Layer_0
  10
309.5125
  20
117.81832
  0
VERTEX
  5
605
  8
Layer_0
  10
310.0477
  20
117.84657
  0
VERTEX
  5
606
  8
Layer_0
  10
310.54965
  20
117.87269
  0
VERTEX
  5
607
  8
Layer_0
  10
311.01666
  20
117.89648
  0
VERTEX
  5
608
  8
Layer_0
  10
311.44709
  20
117.91778
  0
VERTEX
  5
609
  8
Layer_0
  10
311.83925
  20
117.93639
  0
VERTEX
  5
60a
  8
Layer_0
  10
312.1915
  20
117.95214
  0
VERTEX
  5
60b
  8
Layer_0
  10
312.50217
  20
117.96484
  0
VERTEX
  5
60c
  8
Layer_0
  10
312.76958
  20
117.97431
  0
VERTEX
  5
60d
  8
Layer_0
  10
312.99208
  20
117.98038
  0
VERTEX
  5
60e
  8
Layer_0
  10
313.168
  20
117.98286
  0
VERTEX
  5
60f
  8
Layer_0
  10
313.29568
  20
117.98157
  0
VERTEX
  5
610
  8
Layer_0
  10
313.37344
  20
117.97632
  0
VERTEX
  5
611
  8
Layer_0
  10
318.53717
  20
117.4278
  0
VERTEX
  5
612
  8
Layer_0
  10
323.66087
  20
116.90042
  0
VERTEX
  5
613
  8
Layer_0
  10
324.92512
  20
116.71917
  0
VERTEX
  5
614
  8
Layer_0
  10
326.17991
  20
116.5041
  0
VERTEX
  5
615
  8
Layer_0
  10
327.42387
  20
116.24819
  0
VERTEX
  5
616
  8
Layer_0
  10
328.65559
  20
115.9444
  0
VERTEX
  5
617
  8
Layer_0
  10
329.8737
  20
115.5857
  0
VERTEX
  5
618
  8
Layer_0
  10
331.07679
  20
115.16508
  0
VERTEX
  5
619
  8
Layer_0
  10
332.26348
  20
114.6755
  0
VERTEX
  5
61a
  8
Layer_0
  10
333.43237
  20
114.10992
  0
VERTEX
  5
61b
  8
Layer_0
  10
333.94146
  20
113.79549
  0
VERTEX
  5
61c
  8
Layer_0
  10
334.48266
  20
113.44975
  0
VERTEX
  5
61d
  8
Layer_0
  10
335.04733
  20
113.07415
  0
VERTEX
  5
61e
  8
Layer_0
  10
335.62683
  20
112.67013
  0
VERTEX
  5
61f
  8
Layer_0
  10
336.2125
  20
112.23914
  0
VERTEX
  5
620
  8
Layer_0
  10
336.79572
  20
111.78261
  0
VERTEX
  5
621
  8
Layer_0
  10
337.36782
  20
111.30198
  0
VERTEX
  5
622
  8
Layer_0
  10
337.92016
  20
110.79871
  0
VERTEX
  5
623
  8
Layer_0
  10
338.4441
  20
110.27422
  0
VERTEX
  5
624
  8
Layer_0
  10
338.93099
  20
109.72997
  0
VERTEX
  5
625
  8
Layer_0
  10
339.37219
  20
109.1674
  0
VERTEX
  5
626
  8
Layer_0
  10
339.75906
  20
108.58794
  0
VERTEX
  5
627
  8
Layer_0
  10
340.08293
  20
107.99304
  0
VERTEX
  5
628
  8
Layer_0
  10
340.33518
  20
107.38414
  0
VERTEX
  5
629
  8
Layer_0
  10
340.50716
  20
106.76269
  0
VERTEX
  5
62a
  8
Layer_0
  10
340.59021
  20
106.13013
  0
VERTEX
  5
62b
  8
Layer_0
  10
340.58434
  20
105.02222
  0
VERTEX
  5
62c
  8
Layer_0
  10
340.49166
  20
103.94239
  0
VERTEX
  5
62d
  8
Layer_0
  10
340.31066
  20
102.89092
  0
VERTEX
  5
62e
  8
Layer_0
  10
340.03988
  20
101.8681
  0
VERTEX
  5
62f
  8
Layer_0
  10
339.67781
  20
100.87421
  0
VERTEX
  5
630
  8
Layer_0
  10
339.22298
  20
99.909556
  0
VERTEX
  5
631
  8
Layer_0
  10
338.96031
  20
99.43828
  0
VERTEX
  5
632
  8
Layer_0
  10
338.67389
  20
98.97442
  0
VERTEX
  5
633
  8
Layer_0
  10
338.36353
  20
98.518012
  0
SEQEND
  0
POLYLINE
  5
635
  8
Layer_0
  62
7
  70
1
  66
1
  10
0
  20
0
  30
0
  0
VERTEX
  5
635
  8
Layer_0
  10
340.59021
  20
133.86548
  0
VERTEX
  5
636
  8
Layer_0
  10
340.50716
  20
133.23354
  0
VERTEX
  5
637
  8
Layer_0
  10
340.33518
  20
132.61263
  0
VERTEX
  5
638
  8
Layer_0
  10
340.08293
  20
132.00421
  0
VERTEX
  5
639
  8
Layer_0
  10
339.75906
  20
131.40972
  0
VERTEX
  5
63a
  8
Layer_0
  10
339.37219
  20
130.83061
  0
VERTEX
  5
63b
  8
Layer_0
  10
338.93099
  20
130.26833
  0
VERTEX
  5
63c
  8
Layer_0
  10
338.4441
  20
129.72431
  0
VERTEX
  5
63d
  8
Layer_0
  10
337.92016
  20
129.20002
  0
VERTEX
  5
63e
  8
Layer_0
  10
337.36782
  20
128.69689
  0
VERTEX
  5
63f
  8
Layer_0
  10
336.79572
  20
128.21638
  0
VERTEX
  5
640
  8
Layer_0
  10
336.2125
  20
127.75993
  0
VERTEX
  5
641
  8
Layer_0
  10
335.62683
  20
127.32898
  0
VERTEX
  5
642
  8
Layer_0
  10
335.04733
  20
126.92499
  0
VERTEX
  5
643
  8
Layer_0
  10
334.48266
  20
126.5494
  0
VERTEX
  5
644
  8
Layer_0
  10
333.94146
  20
126.20366
  0
VERTEX
  5
645
  8
Layer_0
  10
333.43237
  20
125.88922
  0
VERTEX
  5
646
  8
Layer_0
  10
332.26348
  20
125.32308
  0
VERTEX
  5
647
  8
Layer_0
  10
331.07679
  20
124.83307
  0
VERTEX
  5
648
  8
Layer_0
  10
329.8737
  20
124.41215
  0
VERTEX
  5
649
  8
Layer_0
  10
328.65559
  20
124.05328
  0
VERTEX
  5
64a
  8
Layer_0
  10
327.42387
  20
123.74941
  0
VERTEX
  5
64b
  8
Layer_0
  10
326.17991
  20
123.49351
  0
VERTEX
  5
64c
  8
Layer_0
  10
324.92512
  20
123.27852
  0
VERTEX
  5
64d
  8
Layer_0
  10
323.66087
  20
123.09741
  0
VERTEX
  5
64e
  8
Layer_0
  10
318.53717
  20
122.57084
  0
VERTEX
  5
64f
  8
Layer_0
  10
313.37344
  20
122.02277
  0
VERTEX
  5
650
  8
Layer_0
  10
313.29568
  20
122.01752
  0
VERTEX
  5
651
  8
Layer_0
  10
313.168
  20
122.01623
  0
VERTEX
  5
652
  8
Layer_0
  10
312.99208
  20
122.01871
  0
VERTEX
  5
653
  8
Layer_0
  10
312.76958
  20
122.02477
  0
VERTEX
  5
654
  8
Layer_0
  10
312.50217
  20
122.03425
  0
VERTEX
  5
655
  8
Layer_0
  10
312.1915
  20
122.04696
  0
VERTEX
  5
656
  8
Layer_0
  10
311.83925
  20
122.06271
  0
VERTEX
  5
657
  8
Layer_0
  10
311.44709
  20
122.08133
  0
VERTEX
  5
658
  8
Layer_0
  10
311.01666
  20
122.10262
  0
VERTEX
  5
659
  8
Layer_0
  10
310.54965
  20
122.12642
  0
VERTEX
  5
65a
  8
Layer_0
  10
310.0477
  20
122.15254
  0
VERTEX
  5
65b
  8
Layer_0
  10
309.5125
  20
122.1808
  0
VERTEX
  5
65c
  8
Layer_0
  10
308.9457
  20
122.21101
  0
VERTEX
  5
65d
  8
Layer_0
  10
308.34896
  20
122.243
  0
VERTEX
  5
65e
  8
Layer_0
  10
307.72396
  20
122.27658
  0
VERTEX
  5
65f
  8
Layer_0
  10
307.07235
  20
122.31157
  0
VERTEX
  5
660
  8
Layer_0
  10
305.69599
  20
122.38506
  0
VERTEX
  5
661
  8
Layer_0
  10
304.23319
  20
122.46202
  0
VERTEX
  5
662
  8
Layer_0
  10
302.69726
  20
122.54099
  0
VERTEX
  5
663
  8
Layer_0
  10
301.10153
  20
122.62053
  0
VERTEX
  5
664
  8
Layer_0
  10
297.78392
  20
122.77547
  0
VERTEX
  5
665
  8
Layer_0
  10
294.3869
  20
122.91522
  42
0.065990665
  0
VERTEX
  5
666
  8
Layer_0
  10
292.3761
  20
132.46143
  0
VERTEX
  5
667
  8
Layer_0
  10
308.10291
  20
138.97369
  42
0.22329776
  0
VERTEX
  5
668
  8
Layer_0
  10
313.40872
  20
136.47607
  42
0.41421356
  0
VERTEX
  5
669
  8
Layer_0
  10
320.29843
  20
143.36584
  42
0.41421356
  0
VERTEX
  5
66a
  8
Layer_0
  10
313.40872
  20
150.25208
  42
0.41421356
  0
VERTEX
  5
66b
  8
Layer_0
  10
306.51895
  20
143.36584
  42
0.024908033
  0
VERTEX
  5
66c
  8
Layer_0
  10
306.55069
  20
142.71667
  0
VERTEX
  5
66d
  8
Layer_0
  10
290.82739
  20
136.20795
  42
0.065331851
  0
VERTEX
  5
66e
  8
Layer_0
  10
285.49692
  20
144.37122
  0
VERTEX
  5
66f
  8
Layer_0
  10
287.79969
  20
146.87149
  0
VERTEX
  5
670
  8
Layer_0
  10
290.03569
  20
149.32658
  0
VERTEX
  5
671
  8
Layer_0
  10
291.10769
  20
150.51108
  0
VERTEX
  5
672
  8
Layer_0
  10
292.13783
  20
151.65294
  0
VERTEX
  5
673
  8
Layer_0
  10
293.11773
  20
152.74173
  0
VERTEX
  5
674
  8
Layer_0
  10
294.03901
  20
153.76701
  0
VERTEX
  5
675
  8
Layer_0
  10
294.47504
  20
154.25257
  0
VERTEX
  5
676
  8
Layer_0
  10
294.89327
  20
154.71833
  0
VERTEX
  5
677
  8
Layer_0
  10
295.29265
  20
155.16299
  0
VERTEX
  5
678
  8
Layer_0
  10
295.67213
  20
155.58525
  0
VERTEX
  5
679
  8
Layer_0
  10
296.03066
  20
155.98379
  0
VERTEX
  5
67a
  8
Layer_0
  10
296.3672
  20
156.35732
  0
VERTEX
  5
67b
  8
Layer_0
  10
296.68069
  20
156.70453
  0
VERTEX
  5
67c
  8
Layer_0
  10
296.97009
  20
157.0241
  0
VERTEX
  5
67d
  8
Layer_0
  10
297.23436
  20
157.31474
  0
VERTEX
  5
67e
  8
Layer_0
  10
297.47243
  20
157.57515
  0
VERTEX
  5
67f
  8
Layer_0
  10
297.68326
  20
157.80401
  0
VERTEX
  5
680
  8
Layer_0
  10
297.86581
  20
158.00002
  0
VERTEX
  5
681
  8
Layer_0
  10
298.01902
  20
158.16187
  0
VERTEX
  5
682
  8
Layer_0
  10
298.14185
  20
158.28826
  0
VERTEX
  5
683
  8
Layer_0
  10
298.23325
  20
158.37789
  0
VERTEX
  5
684
  8
Layer_0
  10
298.29218
  20
158.42944
  0
VERTEX
  5
685
  8
Layer_0
  10
302.33131
  20
161.69354
  0
VERTEX
  5
686
  8
Layer_0
  10
306.32713
  20
164.94478
  0
VERTEX
  5
687
  8
Layer_0
  10
307.34927
  20
165.71081
  0
VERTEX
  5
688
  8
Layer_0
  10
308.38868
  20
166.44619
  0
VERTEX
  5
689
  8
Layer_0
  10
309.44935
  20
167.14495
  0
VERTEX
  5
68a
  8
Layer_0
  10
310.53527
  20
167.80112
  0
VERTEX
  5
68b
  8
Layer_0
  10
311.65045
  20
168.40874
  0
VERTEX
  5
68c
  8
Layer_0
  10
312.79886
  20
168.96183
  0
VERTEX
  5
68d
  8
Layer_0
  10
313.98451
  20
169.45442
  0
VERTEX
  5
68e
  8
Layer_0
  10
315.2114
  20
169.88055
  0
VERTEX
  5
68f
  8
Layer_0
  10
315.79378
  20
170.01817
  0
VERTEX
  5
690
  8
Layer_0
  10
316.42096
  20
170.15639
  0
VERTEX
  5
691
  8
Layer_0
  10
317.08581
  20
170.29012
  0
VERTEX
  5
692
  8
Layer_0
  10
317.78122
  20
170.41427
  0
VERTEX
  5
693
  8
Layer_0
  10
318.50004
  20
170.52375
  0
VERTEX
  5
694
  8
Layer_0
  10
319.23515
  20
170.61345
  0
VERTEX
  5
695
  8
Layer_0
  10
319.97944
  20
170.67828
  0
VERTEX
  5
696
  8
Layer_0
  10
320.72576
  20
170.71315
  0
VERTEX
  5
697
  8
Layer_0
  10
321.467
  20
170.71296
  0
VERTEX
  5
698
  8
Layer_0
  10
322.19603
  20
170.67262
  0
VERTEX
  5
699
  8
Layer_0
  10
322.90572
  20
170.58703
  0
VERTEX
  5
69a
  8
Layer_0
  10
323.58895
  20
170.45111
  0
VERTEX
  5
69b
  8
Layer_0
  10
324.23859
  20
170.25974
  0
VERTEX
  5
69c
  8
Layer_0
  10
324.84751
  20
170.00784
  0
VERTEX
  5
69d
  8
Layer_0
  10
325.40859
  20
169.69031
  0
VERTEX
  5
69e
  8
Layer_0
  10
325.9147
  20
169.30206
  0
VERTEX
  5
69f
  8
Layer_0
  10
326.69351
  20
168.51311
  0
VERTEX
  5
6a0
  8
Layer_0
  10
327.39129
  20
167.68295
  0
VERTEX
  5
6a1
  8
Layer_0
  10
328.00672
  20
166.81071
  0
VERTEX
  5
6a2
  8
Layer_0
  10
328.53848
  20
165.89552
  0
VERTEX
  5
6a3
  8
Layer_0
  10
328.98523
  20
164.93651
  0
VERTEX
  5
6a4
  8
Layer_0
  10
329.34566
  20
163.93281
  0
VERTEX
  5
6a5
  8
Layer_0
  10
329.4931
  20
163.41394
  0
VERTEX
  5
6a6
  8
Layer_0
  10
329.61845
  20
162.88357
  0
VERTEX
  5
6a7
  8
Layer_0
  10
329.72157
  20
162.34159
  0
VERTEX
  5
6a8
  8
Layer_0
  10
329.80228
  20
161.7879
  42
-0.051589606
  0
VERTEX
  5
6a9
  8
Layer_0
  10
329.88345
  20
157.68854
  0
VERTEX
  5
6aa
  8
Layer_0
  10
329.73835
  20
156.39565
  0
VERTEX
  5
6ab
  8
Layer_0
  10
329.58002
  20
155.11328
  0
VERTEX
  5
6ac
  8
Layer_0
  10
329.57297
  20
155.00043
  0
VERTEX
  5
6ad
  8
Layer_0
  10
329.57371
  20
154.40162
  0
VERTEX
  5
6ae
  8
Layer_0
  10
329.62187
  20
153.8308
  0
VERTEX
  5
6af
  8
Layer_0
  10
329.71095
  20
153.2809
  0
VERTEX
  5
6b0
  8
Layer_0
  10
329.83447
  20
152.74486
  0
VERTEX
  5
6b1
  8
Layer_0
  10
330.15885
  20
151.68604
  0
VERTEX
  5
6b2
  8
Layer_0
  10
330.54309
  20
150.59778
  0
VERTEX
  5
6b3
  8
Layer_0
  10
330.58902
  20
150.48132
  0
VERTEX
  5
6b4
  8
Layer_0
  10
330.63837
  20
150.36487
  0
VERTEX
  5
6b5
  8
Layer_0
  10
331.13665
  20
149.32375
  0
VERTEX
  5
6b6
  8
Layer_0
  10
331.65611
  20
148.34614
  0
VERTEX
  5
6b7
  8
Layer_0
  10
331.94776
  20
147.8799
  0
VERTEX
  5
6b8
  8
Layer_0
  10
332.27348
  20
147.42804
  0
VERTEX
  5
6b9
  8
Layer_0
  10
332.64286
  20
146.99007
  0
VERTEX
  5
6ba
  8
Layer_0
  10
333.06549
  20
146.56549
  0
VERTEX
  5
6bb
  8
Layer_0
  10
333.15366
  20
146.49139
  0
VERTEX
  5
6bc
  8
Layer_0
  10
334.171
  20
145.69679
  0
VERTEX
  5
6bd
  8
Layer_0
  10
335.18567
  20
144.88635
  42
-0.051057281
  0
VERTEX
  5
6be
  8
Layer_0
  10
338.02905
  20
141.92999
  0
VERTEX
  5
6bf
  8
Layer_0
  10
338.36353
  20
141.48108
  0
VERTEX
  5
6c0
  8
Layer_0
  10
338.67389
  20
141.02468
  0
VERTEX
  5
6c1
  8
Layer_0
  10
338.96031
  20
140.56081
  0
VERTEX
  5
6c2
  8
Layer_0
  10
339.22298
  20
140.08952
  0
VERTEX
  5
6c3
  8
Layer_0
  10
339.67781
  20
139.12475
  0
VERTEX
  5
6c4
  8
Layer_0
  10
340.03988
  20
138.13062
  0
VERTEX
  5
6c5
  8
Layer_0
  10
340.31066
  20
137.10739
  0
VERTEX
  5
6c6
  8
Layer_0
  10
340.49166
  20
136.05529
  0
VERTEX
  5
6c7
  8
Layer_0
  10
340.58434
  20
134.97457
  0
SEQEND
  0
POLYLINE
  5
6c9
  8
Layer_0
  62
7
  70
1
  66
1
  10
0
  20
0
  30
0
  0
VERTEX
  5
6c9
  8
Layer_0
  10
366.41003
  20
62.156311
  0
VERTEX
  5
6ca
  8
Layer_0
  10
366.9642
  20
61.387735
  0
VERTEX
  5
6cb
  8
Layer_0
  10
367.54235
  20
60.558837
  0
VERTEX
  5
6cc
  8
Layer_0
  10
368.13326
  20
59.676269
  0
VERTEX
  5
6cd
  8
Layer_0
  10
368.72569
  20
58.74668
  0
VERTEX
  5
6ce
  8
Layer_0
  10
369.3084
  20
57.776722
  0
VERTEX
  5
6cf
  8
Layer_0
  10
369.87016
  20
56.773046
  0
VERTEX
  5
6d0
  8
Layer_0
  10
370.39974
  20
55.742301
  0
VERTEX
  5
6d1
  8
Layer_0
  10
370.8859
  20
54.691139
  0
VERTEX
  5
6d2
  8
Layer_0
  10
371.31741
  20
53.626211
  0
VERTEX
  5
6d3
  8
Layer_0
  10
371.68303
  20
52.554167
  0
VERTEX
  5
6d4
  8
Layer_0
  10
371.97153
  20
51.481657
  0
VERTEX
  5
6d5
  8
Layer_0
  10
372.17167
  20
50.415334
  0
VERTEX
  5
6d6
  8
Layer_0
  10
372.2351
  20
49.88657
  0
VERTEX
  5
6d7
  8
Layer_0
  10
372.27223
  20
49.361846
  0
VERTEX
  5
6d8
  8
Layer_0
  10
372.28165
  20
48.841995
  0
VERTEX
  5
6d9
  8
Layer_0
  10
372.26196
  20
48.327846
  0
VERTEX
  5
6da
  8
Layer_0
  10
372.21176
  20
47.820232
  0
VERTEX
  5
6db
  8
Layer_0
  10
372.12963
  20
47.319984
  0
VERTEX
  5
6dc
  8
Layer_0
  10
372.01419
  20
46.827932
  0
VERTEX
  5
6dd
  8
Layer_0
  10
371.86401
  20
46.34491
  0
VERTEX
  5
6de
  8
Layer_0
  10
371.54304
  20
45.539273
  0
VERTEX
  5
6df
  8
Layer_0
  10
371.19515
  20
44.756314
  0
VERTEX
  5
6e0
  8
Layer_0
  10
370.82013
  20
43.996219
  0
VERTEX
  5
6e1
  8
Layer_0
  10
370.41776
  20
43.259173
  0
VERTEX
  5
6e2
  8
Layer_0
  10
369.98785
  20
42.545363
  0
VERTEX
  5
6e3
  8
Layer_0
  10
369.53017
  20
41.854974
  0
VERTEX
  5
6e4
  8
Layer_0
  10
369.04452
  20
41.188193
  0
VERTEX
  5
6e5
  8
Layer_0
  10
368.53068
  20
40.545204
  0
VERTEX
  5
6e6
  8
Layer_0
  10
367.98843
  20
39.926195
  0
VERTEX
  5
6e7
  8
Layer_0
  10
367.41758
  20
39.33135
  0
VERTEX
  5
6e8
  8
Layer_0
  10
366.8179
  20
38.760856
  0
VERTEX
  5
6e9
  8
Layer_0
  10
366.18918
  20
38.214898
  0
VERTEX
  5
6ea
  8
Layer_0
  10
365.53121
  20
37.693663
  0
VERTEX
  5
6eb
  8
Layer_0
  10
364.84379
  20
37.197336
  0
VERTEX
  5
6ec
  8
Layer_0
  10
364.12669
  20
36.726104
  0
VERTEX
  5
6ed
  8
Layer_0
  10
363.3797
  20
36.280151
  0
VERTEX
  5
6ee
  8
Layer_0
  10
361.98725
  20
35.53671
  0
VERTEX
  5
6ef
  8
Layer_0
  10
360.55877
  20
34.870338
  0
VERTEX
  5
6f0
  8
Layer_0
  10
359.09788
  20
34.277404
  0
VERTEX
  5
6f1
  8
Layer_0
  10
357.60822
  20
33.754272
  0
VERTEX
  5
6f2
  8
Layer_0
  10
355.72044
  20
33.212265
  0
VERTEX
  5
6f3
  8
Layer_0
  10
353.84058
  20
32.688843
  42
0.017285194
  0
VERTEX
  5
6f4
  8
Layer_0
  10
353.71005
  20
32.646484
  0
VERTEX
  5
6f5
  8
Layer_0
  10
352.90924
  20
32.312533
  0
VERTEX
  5
6f6
  8
Layer_0
  10
352.17056
  20
31.928234
  0
VERTEX
  5
6f7
  8
Layer_0
  10
351.48141
  20
31.499125
  0
VERTEX
  5
6f8
  8
Layer_0
  10
350.82918
  20
31.030746
  0
VERTEX
  5
6f9
  8
Layer_0
  10
349.58503
  20
29.998333
  0
VERTEX
  5
6fa
  8
Layer_0
  10
348.33725
  20
28.875305
  42
0.025224607
  0
VERTEX
  5
6fb
  8
Layer_0
  10
348.22791
  20
28.77301
  0
VERTEX
  5
6fc
  8
Layer_0
  10
348.12558
  20
28.663635
  0
VERTEX
  5
6fd
  8
Layer_0
  10
347.00202
  20
27.415783
  0
VERTEX
  5
6fe
  8
Layer_0
  10
345.96875
  20
26.171249
  0
VERTEX
  5
6ff
  8
Layer_0
  10
345.50014
  20
25.518599
  0
VERTEX
  5
700
  8
Layer_0
  10
345.0711
  20
24.828823
  0
VERTEX
  5
701
  8
Layer_0
  10
344.68729
  20
24.089272
  0
VERTEX
  5
702
  8
Layer_0
  10
344.35437
  20
23.287292
  0
VERTEX
  5
703
  8
Layer_0
  10
344.3085
  20
23.160278
  0
VERTEX
  5
704
  8
Layer_0
  10
344.04032
  20
22.219868
  0
VERTEX
  5
705
  8
Layer_0
  10
343.7877
  20
21.277786
  0
VERTEX
  5
706
  8
Layer_0
  10
343.52913
  20
20.335041
  0
VERTEX
  5
707
  8
Layer_0
  10
343.2431
  20
19.392639
  42
-0.050863461
  0
VERTEX
  5
708
  8
Layer_0
  10
340.72076
  20
13.617676
  0
VERTEX
  5
709
  8
Layer_0
  10
340.27422
  20
12.870723
  0
VERTEX
  5
70a
  8
Layer_0
  10
339.80255
  20
12.153722
  0
VERTEX
  5
70b
  8
Layer_0
  10
339.30592
  20
11.466446
  0
VERTEX
  5
70c
  8
Layer_0
  10
338.7845
  20
10.808667
  0
VERTEX
  5
70d
  8
Layer_0
  10
338.23847
  20
10.180159
  0
VERTEX
  5
70e
  8
Layer_0
  10
337.66798
  20
9.5806926
  0
VERTEX
  5
70f
  8
Layer_0
  10
337.07322
  20
9.0100421
  0
VERTEX
  5
710
  8
Layer_0
  10
336.45435
  20
8.4679794
  0
VERTEX
  5
711
  8
Layer_0
  10
335.81154
  20
7.9542774
  0
VERTEX
  5
712
  8
Layer_0
  10
335.14497
  20
7.4687086
  0
VERTEX
  5
713
  8
Layer_0
  10
334.45481
  20
7.0110457
  0
VERTEX
  5
714
  8
Layer_0
  10
333.74121
  20
6.5810614
  0
VERTEX
  5
715
  8
Layer_0
  10
333.00437
  20
6.1785281
  0
VERTEX
  5
716
  8
Layer_0
  10
332.24444
  20
5.8032187
  0
VERTEX
  5
717
  8
Layer_0
  10
331.46159
  20
5.4549057
  0
VERTEX
  5
718
  8
Layer_0
  10
330.65601
  20
5.1333618
  0
VERTEX
  5
719
  8
Layer_0
  10
330.17298
  20
4.9834994
  0
VERTEX
  5
71a
  8
Layer_0
  10
329.68093
  20
4.8683455
  0
VERTEX
  5
71b
  8
Layer_0
  10
329.18068
  20
4.7864964
  0
VERTEX
  5
71c
  8
Layer_0
  10
328.67307
  20
4.7365483
  0
VERTEX
  5
71d
  8
Layer_0
  10
328.15892
  20
4.7170976
  0
VERTEX
  5
71e
  8
Layer_0
  10
327.63907
  20
4.7267407
  0
VERTEX
  5
71f
  8
Layer_0
  10
327.11434
  20
4.7640737
  0
VERTEX
  5
720
  8
Layer_0
  10
326.58558
  20
4.827693
  0
VERTEX
  5
721
  8
Layer_0
  10
325.51925
  20
5.0281756
  0
VERTEX
  5
722
  8
Layer_0
  10
324.44673
  20
5.316959
  0
VERTEX
  5
723
  8
Layer_0
  10
323.37468
  20
5.6828135
  0
VERTEX
  5
724
  8
Layer_0
  10
322.30975
  20
6.1145096
  0
VERTEX
  5
725
  8
Layer_0
  10
321.25858
  20
6.6008175
  0
VERTEX
  5
726
  8
Layer_0
  10
320.22783
  20
7.1305078
  0
VERTEX
  5
727
  8
Layer_0
  10
319.22414
  20
7.6923508
  0
VERTEX
  5
728
  8
Layer_0
  10
318.25417
  20
8.2751169
  0
VERTEX
  5
729
  8
Layer_0
  10
317.32457
  20
8.8675765
  0
VERTEX
  5
72a
  8
Layer_0
  10
316.44199
  20
9.4585
  0
VERTEX
  5
72b
  8
Layer_0
  10
315.61307
  20
10.036658
  0
VERTEX
  5
72c
  8
Layer_0
  10
314.84448
  20
10.59082
  0
VERTEX
  5
72d
  8
Layer_0
  10
314.08613
  20
11.249541
  0
VERTEX
  5
72e
  8
Layer_0
  10
313.31864
  20
11.964752
  0
VERTEX
  5
72f
  8
Layer_0
  10
312.54314
  20
12.733165
  0
VERTEX
  5
730
  8
Layer_0
  10
311.76077
  20
13.551491
  0
VERTEX
  5
731
  8
Layer_0
  10
310.97265
  20
14.416442
  0
VERTEX
  5
732
  8
Layer_0
  10
310.17992
  20
15.324729
  0
VERTEX
  5
733
  8
Layer_0
  10
309.38371
  20
16.273064
  0
VERTEX
  5
734
  8
Layer_0
  10
308.58515
  20
17.258159
  0
VERTEX
  5
735
  8
Layer_0
  10
307.78538
  20
18.276724
  0
VERTEX
  5
736
  8
Layer_0
  10
306.98553
  20
19.325471
  0
VERTEX
  5
737
  8
Layer_0
  10
306.18673
  20
20.401111
  0
VERTEX
  5
738
  8
Layer_0
  10
305.39011
  20
21.500357
  0
VERTEX
  5
739
  8
Layer_0
  10
303.80795
  20
23.756509
  0
VERTEX
  5
73a
  8
Layer_0
  10
302.24811
  20
26.067619
  0
VERTEX
  5
73b
  8
Layer_0
  10
300.71964
  20
28.407379
  0
VERTEX
  5
73c
  8
Layer_0
  10
299.23162
  20
30.74948
  0
VERTEX
  5
73d
  8
Layer_0
  10
297.79309
  20
33.067614
  0
VERTEX
  5
73e
  8
Layer_0
  10
296.41311
  20
35.335473
  0
VERTEX
  5
73f
  8
Layer_0
  10
295.74792
  20
36.442328
  0
VERTEX
  5
740
  8
Layer_0
  10
295.10075
  20
37.526748
  0
VERTEX
  5
741
  8
Layer_0
  10
294.47276
  20
38.585446
  0
VERTEX
  5
742
  8
Layer_0
  10
293.86507
  20
39.615132
  0
VERTEX
  5
743
  8
Layer_0
  10
293.2788
  20
40.612518
  0
VERTEX
  5
744
  8
Layer_0
  10
292.71511
  20
41.574316
  0
VERTEX
  5
745
  8
Layer_0
  10
292.17511
  20
42.497236
  0
VERTEX
  5
746
  8
Layer_0
  10
291.65994
  20
43.377991
  42
-0.041011989
  0
VERTEX
  5
747
  8
Layer_0
  10
291.78345
  20
43.377991
  0
VERTEX
  5
748
  8
Layer_0
  10
293.06974
  20
43.220985
  0
VERTEX
  5
749
  8
Layer_0
  10
294.36926
  20
43.074646
  42
0.050997871
  0
VERTEX
  5
74a
  8
Layer_0
  10
299.29407
  20
43.176941
  0
VERTEX
  5
74b
  8
Layer_0
  10
300.02418
  20
43.283967
  0
VERTEX
  5
74c
  8
Layer_0
  10
300.74068
  20
43.420975
  0
VERTEX
  5
74d
  8
Layer_0
  10
301.44346
  20
43.587686
  0
VERTEX
  5
74e
  8
Layer_0
  10
302.13239
  20
43.783821
  0
VERTEX
  5
74f
  8
Layer_0
  10
302.80735
  20
44.009102
  0
VERTEX
  5
750
  8
Layer_0
  10
303.46821
  20
44.263248
  0
VERTEX
  5
751
  8
Layer_0
  10
304.11485
  20
44.545983
  0
VERTEX
  5
752
  8
Layer_0
  10
304.74714
  20
44.857025
  0
VERTEX
  5
753
  8
Layer_0
  10
305.36496
  20
45.196097
  0
VERTEX
  5
754
  8
Layer_0
  10
305.96819
  20
45.56292
  0
VERTEX
  5
755
  8
Layer_0
  10
306.55669
  20
45.957214
  0
VERTEX
  5
756
  8
Layer_0
  10
307.13036
  20
46.3787
  0
VERTEX
  5
757
  8
Layer_0
  10
307.68906
  20
46.827101
  0
VERTEX
  5
758
  8
Layer_0
  10
308.23266
  20
47.302135
  0
VERTEX
  5
759
  8
Layer_0
  10
308.76106
  20
47.803526
  0
VERTEX
  5
75a
  8
Layer_0
  10
309.27411
  20
48.330994
  0
VERTEX
  5
75b
  8
Layer_0
  10
309.29883
  20
48.359253
  0
VERTEX
  5
75c
  8
Layer_0
  10
309.60894
  20
48.723593
  0
VERTEX
  5
75d
  8
Layer_0
  10
309.89482
  20
49.100472
  0
VERTEX
  5
75e
  8
Layer_0
  10
310.1572
  20
49.489201
  0
VERTEX
  5
75f
  8
Layer_0
  10
310.39681
  20
49.889088
  0
VERTEX
  5
760
  8
Layer_0
  10
310.8106
  20
50.719577
  0
VERTEX
  5
761
  8
Layer_0
  10
311.14199
  20
51.586412
  0
VERTEX
  5
762
  8
Layer_0
  10
311.39677
  20
52.484071
  0
VERTEX
  5
763
  8
Layer_0
  10
311.58074
  20
53.407027
  0
VERTEX
  5
764
  8
Layer_0
  10
311.6997
  20
54.349755
  0
VERTEX
  5
765
  8
Layer_0
  10
311.75946
  20
55.306732
  0
VERTEX
  5
766
  8
Layer_0
  10
311.7658
  20
56.272432
  0
VERTEX
  5
767
  8
Layer_0
  10
311.72452
  20
57.241331
  0
VERTEX
  5
768
  8
Layer_0
  10
311.64143
  20
58.207903
  0
VERTEX
  5
769
  8
Layer_0
  10
311.52232
  20
59.166624
  0
VERTEX
  5
76a
  8
Layer_0
  10
311.37299
  20
60.111969
  0
VERTEX
  5
76b
  8
Layer_0
  10
311.19924
  20
61.038413
  0
VERTEX
  5
76c
  8
Layer_0
  10
311.00687
  20
61.940432
  0
VERTEX
  5
76d
  8
Layer_0
  10
310.80167
  20
62.8125
  0
VERTEX
  5
76e
  8
Layer_0
  10
310.76642
  20
62.932495
  42
0.0097681909
  0
VERTEX
  5
76f
  8
Layer_0
  10
310.55475
  20
63.578003
  0
VERTEX
  5
770
  8
Layer_0
  10
330.62778
  20
43.508545
  42
0.22322906
  0
VERTEX
  5
771
  8
Layer_0
  10
330.3526
  20
37.648865
  42
0.41446203
  0
VERTEX
  5
772
  8
Layer_0
  10
339.35196
  20
33.919983
  42
0.41395826
  0
VERTEX
  5
773
  8
Layer_0
  10
343.08084
  20
42.919434
  42
0.41411448
  0
VERTEX
  5
774
  8
Layer_0
  10
334.07794
  20
46.648193
  42
0.019981561
  0
VERTEX
  5
775
  8
Layer_0
  10
333.49237
  20
46.373108
  0
VERTEX
  5
776
  8
Layer_0
  10
313.41925
  20
66.442627
  42
0.0072859866
  0
VERTEX
  5
777
  8
Layer_0
  10
314.06488
  20
66.230896
  42
0.018265265
  0
VERTEX
  5
778
  8
Layer_0
  10
314.18832
  20
66.199158
  0
VERTEX
  5
779
  8
Layer_0
  10
315.06041
  20
65.993959
  0
VERTEX
  5
77a
  8
Layer_0
  10
315.96243
  20
65.80158
  0
VERTEX
  5
77b
  8
Layer_0
  10
316.88886
  20
65.627816
  0
VERTEX
  5
77c
  8
Layer_0
  10
317.83418
  20
65.478457
  0
VERTEX
  5
77d
  8
Layer_0
  10
318.79285
  20
65.359298
  0
VERTEX
  5
77e
  8
Layer_0
  10
319.75935
  20
65.276131
  0
VERTEX
  5
77f
  8
Layer_0
  10
320.72813
  20
65.234749
  0
VERTEX
  5
780
  8
Layer_0
  10
321.69369
  20
65.240944
  0
VERTEX
  5
781
  8
Layer_0
  10
322.65048
  20
65.300509
  0
VERTEX
  5
782
  8
Layer_0
  10
323.59297
  20
65.419237
  0
VERTEX
  5
783
  8
Layer_0
  10
324.51565
  20
65.602922
  0
VERTEX
  5
784
  8
Layer_0
  10
325.41297
  20
65.857354
  0
VERTEX
  5
785
  8
Layer_0
  10
326.27941
  20
66.188328
  0
VERTEX
  5
786
  8
Layer_0
  10
327.10944
  20
66.601636
  0
VERTEX
  5
787
  8
Layer_0
  10
327.50907
  20
66.840976
  0
VERTEX
  5
788
  8
Layer_0
  10
327.89753
  20
67.103071
  0
VERTEX
  5
789
  8
Layer_0
  10
328.27412
  20
67.388646
  0
VERTEX
  5
78a
  8
Layer_0
  10
328.63815
  20
67.698425
  0
VERTEX
  5
78b
  8
Layer_0
  10
328.66635
  20
67.723145
  0
VERTEX
  5
78c
  8
Layer_0
  10
329.19444
  20
68.236838
  0
VERTEX
  5
78d
  8
Layer_0
  10
329.69638
  20
68.765791
  0
VERTEX
  5
78e
  8
Layer_0
  10
330.17189
  20
69.309886
  0
VERTEX
  5
78f
  8
Layer_0
  10
330.62069
  20
69.869003
  0
VERTEX
  5
790
  8
Layer_0
  10
331.04252
  20
70.443023
  0
VERTEX
  5
791
  8
Layer_0
  10
331.4371
  20
71.031827
  0
VERTEX
  5
792
  8
Layer_0
  10
331.80416
  20
71.635296
  0
VERTEX
  5
793
  8
Layer_0
  10
332.14342
  20
72.253311
  0
VERTEX
  5
794
  8
Layer_0
  10
332.45461
  20
72.885753
  0
VERTEX
  5
795
  8
Layer_0
  10
332.73745
  20
73.532502
  0
VERTEX
  5
796
  8
Layer_0
  10
332.99168
  20
74.193439
  0
VERTEX
  5
797
  8
Layer_0
  10
333.21701
  20
74.868446
  0
VERTEX
  5
798
  8
Layer_0
  10
333.41318
  20
75.557404
  0
VERTEX
  5
799
  8
Layer_0
  10
333.5799
  20
76.260192
  0
VERTEX
  5
79a
  8
Layer_0
  10
333.71692
  20
76.976693
  0
VERTEX
  5
79b
  8
Layer_0
  10
333.82394
  20
77.706787
  42
0.050941348
  0
VERTEX
  5
79c
  8
Layer_0
  10
333.92273
  20
82.631531
  0
VERTEX
  5
79d
  8
Layer_0
  10
333.77765
  20
83.929787
  0
VERTEX
  5
79e
  8
Layer_0
  10
333.61932
  20
85.217468
  0
VERTEX
  5
79f
  8
Layer_0
  10
333.61932
  20
85.337341
  0
VERTEX
  5
7a0
  8
Layer_0
  10
334.5004
  20
84.822181
  0
VERTEX
  5
7a1
  8
Layer_0
  10
335.42362
  20
84.28221
  0
VERTEX
  5
7a2
  8
Layer_0
  10
336.38569
  20
83.71856
  0
VERTEX
  5
7a3
  8
Layer_0
  10
337.38334
  20
83.132362
  0
VERTEX
  5
7a4
  8
Layer_0
  10
338.41327
  20
82.524747
  0
VERTEX
  5
7a5
  8
Layer_0
  10
339.4722
  20
81.896846
  0
VERTEX
  5
7a6
  8
Layer_0
  10
340.55683
  20
81.249789
  0
VERTEX
  5
7a7
  8
Layer_0
  10
341.66388
  20
80.584709
  0
VERTEX
  5
7a8
  8
Layer_0
  10
343.93208
  20
79.205001
  0
VERTEX
  5
7a9
  8
Layer_0
  10
346.2505
  20
77.76677
  0
VERTEX
  5
7aa
  8
Layer_0
  10
348.59283
  20
76.279064
  0
VERTEX
  5
7ab
  8
Layer_0
  10
350.93278
  20
74.750931
  0
VERTEX
  5
7ac
  8
Layer_0
  10
353.24404
  20
73.19142
  0
VERTEX
  5
7ad
  8
Layer_0
  10
355.5003
  20
71.609579
  0
VERTEX
  5
7ae
  8
Layer_0
  10
356.59959
  20
70.813112
  0
VERTEX
  5
7af
  8
Layer_0
  10
357.67527
  20
70.014456
  0
VERTEX
  5
7b0
  8
Layer_0
  10
358.72405
  20
69.214742
  0
VERTEX
  5
7b1
  8
Layer_0
  10
359.74264
  20
68.4151
  0
VERTEX
  5
7b2
  8
Layer_0
  10
360.72775
  20
67.616662
  0
VERTEX
  5
7b3
  8
Layer_0
  10
361.6761
  20
66.820559
  0
VERTEX
  5
7b4
  8
Layer_0
  10
362.5844
  20
66.027922
  0
VERTEX
  5
7b5
  8
Layer_0
  10
363.44936
  20
65.239882
  0
VERTEX
  5
7b6
  8
Layer_0
  10
364.26769
  20
64.45757
  0
VERTEX
  5
7b7
  8
Layer_0
  10
365.0361
  20
63.682116
  0
VERTEX
  5
7b8
  8
Layer_0
  10
365.75131
  20
62.914653
  0
SEQEND
  0
POLYLINE
  5
7ba
  8
Layer_0
  62
7
  70
1
  66
1
  10
0
  20
0
  30
0
  0
VERTEX
  5
7ba
  8
Layer_0
  10
391.422
  20
103.97461
  0
VERTEX
  5
7bb
  8
Layer_0
  10
391.63462
  20
103.13097
  0
VERTEX
  5
7bc
  8
Layer_0
  10
391.80832
  20
102.29068
  0
VERTEX
  5
7bd
  8
Layer_0
  10
391.94336
  20
101.45373
  0
VERTEX
  5
7be
  8
Layer_0
  10
392.04002
  20
100.62006
  0
VERTEX
  5
7bf
  8
Layer_0
  10
392.09857
  20
99.789663
  0
VERTEX
  5
7c0
  8
Layer_0
  10
392.11926
  20
98.962497
  0
VERTEX
  5
7c1
  8
Layer_0
  10
392.10238
  20
98.138534
  0
VERTEX
  5
7c2
  8
Layer_0
  10
392.04818
  20
97.317741
  0
VERTEX
  5
7c3
  8
Layer_0
  10
391.95695
  20
96.50009
  0
VERTEX
  5
7c4
  8
Layer_0
  10
391.82894
  20
95.685548
  0
VERTEX
  5
7c5
  8
Layer_0
  10
391.66442
  20
94.874086
  0
VERTEX
  5
7c6
  8
Layer_0
  10
391.46367
  20
94.065671
  0
VERTEX
  5
7c7
  8
Layer_0
  10
391.22695
  20
93.260274
  0
VERTEX
  5
7c8
  8
Layer_0
  10
390.95454
  20
92.457863
  0
VERTEX
  5
7c9
  8
Layer_0
  10
390.64669
  20
91.658408
  0
VERTEX
  5
7ca
  8
Layer_0
  10
390.30368
  20
90.861877
  0
VERTEX
  5
7cb
  8
Layer_0
  10
390.06809
  20
90.41403
  0
VERTEX
  5
7cc
  8
Layer_0
  10
389.80159
  20
89.984362
  0
VERTEX
  5
7cd
  8
Layer_0
  10
389.50575
  20
89.572466
  0
VERTEX
  5
7ce
  8
Layer_0
  10
389.18215
  20
89.177939
  0
VERTEX
  5
7cf
  8
Layer_0
  10
388.83238
  20
88.800375
  0
VERTEX
  5
7d0
  8
Layer_0
  10
388.45801
  20
88.439369
  0
VERTEX
  5
7d1
  8
Layer_0
  10
388.06062
  20
88.094517
  0
VERTEX
  5
7d2
  8
Layer_0
  10
387.6418
  20
87.765412
  0
VERTEX
  5
7d3
  8
Layer_0
  10
386.74615
  20
87.152827
  0
VERTEX
  5
7d4
  8
Layer_0
  10
385.7837
  20
86.598374
  0
VERTEX
  5
7d5
  8
Layer_0
  10
384.76708
  20
86.098813
  0
VERTEX
  5
7d6
  8
Layer_0
  10
383.70893
  20
85.650902
  0
VERTEX
  5
7d7
  8
Layer_0
  10
382.62188
  20
85.251402
  0
VERTEX
  5
7d8
  8
Layer_0
  10
381.51857
  20
84.897072
  0
VERTEX
  5
7d9
  8
Layer_0
  10
380.41163
  20
84.584672
  0
VERTEX
  5
7da
  8
Layer_0
  10
379.3137
  20
84.310962
  0
VERTEX
  5
7db
  8
Layer_0
  10
378.23741
  20
84.072701
  0
VERTEX
  5
7dc
  8
Layer_0
  10
377.1954
  20
83.866648
  0
VERTEX
  5
7dd
  8
Layer_0
  10
376.2003
  20
83.689564
  0
VERTEX
  5
7de
  8
Layer_0
  10
375.26474
  20
83.538208
  0
VERTEX
  5
7df
  8
Layer_0
  10
374.26285
  20
83.467807
  0
VERTEX
  5
7e0
  8
Layer_0
  10
373.21454
  20
83.430878
  0
VERTEX
  5
7e1
  8
Layer_0
  10
372.12294
  20
83.425898
  0
VERTEX
  5
7e2
  8
Layer_0
  10
370.99116
  20
83.451341
  0
VERTEX
  5
7e3
  8
Layer_0
  10
369.82235
  20
83.505684
  0
VERTEX
  5
7e4
  8
Layer_0
  10
368.61962
  20
83.587404
  0
VERTEX
  5
7e5
  8
Layer_0
  10
367.3861
  20
83.694977
  0
VERTEX
  5
7e6
  8
Layer_0
  10
366.12492
  20
83.826879
  0
VERTEX
  5
7e7
  8
Layer_0
  10
364.83921
  20
83.981585
  0
VERTEX
  5
7e8
  8
Layer_0
  10
363.53208
  20
84.157572
  0
VERTEX
  5
7e9
  8
Layer_0
  10
362.20668
  20
84.353317
  0
VERTEX
  5
7ea
  8
Layer_0
  10
360.86611
  20
84.567295
  0
VERTEX
  5
7eb
  8
Layer_0
  10
358.15202
  20
85.043857
  0
VERTEX
  5
7ec
  8
Layer_0
  10
355.41482
  20
85.575066
  0
VERTEX
  5
7ed
  8
Layer_0
  10
352.67952
  20
86.148731
  0
VERTEX
  5
7ee
  8
Layer_0
  10
349.97114
  20
86.752663
  0
VERTEX
  5
7ef
  8
Layer_0
  10
347.31468
  20
87.374671
  0
VERTEX
  5
7f0
  8
Layer_0
  10
344.73515
  20
88.002563
  0
VERTEX
  5
7f1
  8
Layer_0
  10
343.48206
  20
88.314906
  0
VERTEX
  5
7f2
  8
Layer_0
  10
342.25758
  20
88.624148
  0
VERTEX
  5
7f3
  8
Layer_0
  10
341.06484
  20
88.928767
  0
VERTEX
  5
7f4
  8
Layer_0
  10
339.90696
  20
89.227238
  0
VERTEX
  5
7f5
  8
Layer_0
  10
338.78708
  20
89.518036
  0
VERTEX
  5
7f6
  8
Layer_0
  10
337.70831
  20
89.799639
  0
VERTEX
  5
7f7
  8
Layer_0
  10
336.67379
  20
90.070523
  0
VERTEX
  5
7f8
  8
Layer_0
  10
335.68665
  20
90.329163
  42
-0.029983194
  0
VERTEX
  5
7f9
  8
Layer_0
  10
335.77484
  20
90.417358
  0
VERTEX
  5
7fa
  8
Layer_0
  10
336.79609
  20
91.214233
  0
VERTEX
  5
7fb
  8
Layer_0
  10
337.81741
  20
92.029602
  42
0.050854839
  0
VERTEX
  5
7fc
  8
Layer_0
  10
341.22876
  20
95.582031
  0
VERTEX
  5
7fd
  8
Layer_0
  10
341.6691
  20
96.17399
  0
VERTEX
  5
7fe
  8
Layer_0
  10
342.0787
  20
96.777571
  0
VERTEX
  5
7ff
  8
Layer_0
  10
342.45765
  20
97.392491
  0
VERTEX
  5
800
  8
Layer_0
  10
342.80606
  20
98.018466
  0
VERTEX
  5
801
  8
Layer_0
  10
343.12403
  20
98.655211
  0
VERTEX
  5
802
  8
Layer_0
  10
343.41164
  20
99.302441
  0
VERTEX
  5
803
  8
Layer_0
  10
343.669
  20
99.959872
  0
VERTEX
  5
804
  8
Layer_0
  10
343.89621
  20
100.62722
  0
VERTEX
  5
805
  8
Layer_0
  10
344.09336
  20
101.3042
  0
VERTEX
  5
806
  8
Layer_0
  10
344.26055
  20
101.99053
  0
VERTEX
  5
807
  8
Layer_0
  10
344.39789
  20
102.68592
  0
VERTEX
  5
808
  8
Layer_0
  10
344.50546
  20
103.39009
  0
VERTEX
  5
809
  8
Layer_0
  10
344.58337
  20
104.10276
  0
VERTEX
  5
80a
  8
Layer_0
  10
344.63172
  20
104.82363
  0
VERTEX
  5
80b
  8
Layer_0
  10
344.6506
  20
105.55244
  0
VERTEX
  5
80c
  8
Layer_0
  10
344.64011
  20
106.28888
  0
VERTEX
  5
80d
  8
Layer_0
  10
344.64011
  20
106.32416
  0
VERTEX
  5
80e
  8
Layer_0
  10
344.60164
  20
106.8009
  0
VERTEX
  5
80f
  8
Layer_0
  10
344.53718
  20
107.26937
  0
VERTEX
  5
810
  8
Layer_0
  10
344.44772
  20
107.72961
  0
VERTEX
  5
811
  8
Layer_0
  10
344.33428
  20
108.18164
  0
VERTEX
  5
812
  8
Layer_0
  10
344.03941
  20
109.06115
  0
VERTEX
  5
813
  8
Layer_0
  10
343.66059
  20
109.9081
  0
VERTEX
  5
814
  8
Layer_0
  10
343.20584
  20
110.72271
  0
VERTEX
  5
815
  8
Layer_0
  10
342.68314
  20
111.50517
  0
VERTEX
  5
816
  8
Layer_0
  10
342.10053
  20
112.25569
  0
VERTEX
  5
817
  8
Layer_0
  10
341.466
  20
112.97446
  0
VERTEX
  5
818
  8
Layer_0
  10
340.78756
  20
113.66168
  0
VERTEX
  5
819
  8
Layer_0
  10
340.07323
  20
114.31757
  0
VERTEX
  5
81a
  8
Layer_0
  10
339.33102
  20
114.94232
  0
VERTEX
  5
81b
  8
Layer_0
  10
338.56892
  20
115.53613
  0
VERTEX
  5
81c
  8
Layer_0
  10
337.79497
  20
116.0992
  0
VERTEX
  5
81d
  8
Layer_0
  10
337.01715
  20
116.63174
  0
VERTEX
  5
81e
  8
Layer_0
  10
336.24349
  20
117.13394
  0
VERTEX
  5
81f
  8
Layer_0
  10
335.48199
  20
117.60602
  0
VERTEX
  5
820
  8
Layer_0
  10
335.37265
  20
117.66949
  42
0.0052078503
  0
VERTEX
  5
821
  8
Layer_0
  10
334.76584
  20
117.9729
  0
VERTEX
  5
822
  8
Layer_0
  10
363.15036
  20
117.9729
  42
0.22324956
  0
VERTEX
  5
823
  8
Layer_0
  10
367.09799
  20
113.63727
  42
0.41446817
  0
VERTEX
  5
824
  8
Layer_0
  10
376.09735
  20
117.36261
  42
0.41410633
  0
VERTEX
  5
825
  8
Layer_0
  10
372.37198
  20
126.36548
  42
0.41410815
  0
VERTEX
  5
826
  8
Layer_0
  10
363.37262
  20
122.6366
  42
0.024332348
  0
VERTEX
  5
827
  8
Layer_0
  10
363.15036
  20
122.02625
  0
VERTEX
  5
828
  8
Layer_0
  10
334.76584
  20
122.02625
  42
0.0086193383
  0
VERTEX
  5
829
  8
Layer_0
  10
335.37265
  20
122.33319
  42
0.018018356
  0
VERTEX
  5
82a
  8
Layer_0
  10
335.48199
  20
122.39313
  0
VERTEX
  5
82b
  8
Layer_0
  10
336.24349
  20
122.8652
  0
VERTEX
  5
82c
  8
Layer_0
  10
337.01715
  20
123.36741
  0
VERTEX
  5
82d
  8
Layer_0
  10
337.79497
  20
123.89995
  0
VERTEX
  5
82e
  8
Layer_0
  10
338.56892
  20
124.46303
  0
VERTEX
  5
82f
  8
Layer_0
  10
339.33102
  20
125.05684
  0
VERTEX
  5
830
  8
Layer_0
  10
340.07323
  20
125.68159
  0
VERTEX
  5
831
  8
Layer_0
  10
340.78756
  20
126.33748
  0
VERTEX
  5
832
  8
Layer_0
  10
341.466
  20
127.0247
  0
VERTEX
  5
833
  8
Layer_0
  10
342.10053
  20
127.74347
  0
VERTEX
  5
834
  8
Layer_0
  10
342.68314
  20
128.49398
  0
VERTEX
  5
835
  8
Layer_0
  10
343.20584
  20
129.27644
  0
VERTEX
  5
836
  8
Layer_0
  10
343.66059
  20
130.09104
  0
VERTEX
  5
837
  8
Layer_0
  10
344.03941
  20
130.93799
  0
VERTEX
  5
838
  8
Layer_0
  10
344.33428
  20
131.81749
  0
VERTEX
  5
839
  8
Layer_0
  10
344.44772
  20
132.2695
  0
VERTEX
  5
83a
  8
Layer_0
  10
344.53718
  20
132.72973
  0
VERTEX
  5
83b
  8
Layer_0
  10
344.60164
  20
133.1982
  0
VERTEX
  5
83c
  8
Layer_0
  10
344.64011
  20
133.67493
  0
VERTEX
  5
83d
  8
Layer_0
  10
344.64011
  20
133.71381
  0
VERTEX
  5
83e
  8
Layer_0
  10
344.6506
  20
134.44963
  0
VERTEX
  5
83f
  8
Layer_0
  10
344.63172
  20
135.17788
  0
VERTEX
  5
840
  8
Layer_0
  10
344.58337
  20
135.89828
  0
VERTEX
  5
841
  8
Layer_0
  10
344.50546
  20
136.61054
  0
VERTEX
  5
842
  8
Layer_0
  10
344.39789
  20
137.31436
  0
VERTEX
  5
843
  8
Layer_0
  10
344.26055
  20
138.00946
  0
VERTEX
  5
844
  8
Layer_0
  10
344.09336
  20
138.69556
  0
VERTEX
  5
845
  8
Layer_0
  10
343.89621
  20
139.37234
  0
VERTEX
  5
846
  8
Layer_0
  10
343.669
  20
140.03954
  0
VERTEX
  5
847
  8
Layer_0
  10
343.41164
  20
140.69686
  0
VERTEX
  5
848
  8
Layer_0
  10
343.12403
  20
141.34402
  0
VERTEX
  5
849
  8
Layer_0
  10
342.80606
  20
141.98071
  0
VERTEX
  5
84a
  8
Layer_0
  10
342.45765
  20
142.60665
  0
VERTEX
  5
84b
  8
Layer_0
  10
342.0787
  20
143.22156
  0
VERTEX
  5
84c
  8
Layer_0
  10
341.6691
  20
143.82515
  0
VERTEX
  5
84d
  8
Layer_0
  10
341.22876
  20
144.41711
  42
0.050849144
  0
VERTEX
  5
84e
  8
Layer_0
  10
337.81741
  20
147.96954
  0
VERTEX
  5
84f
  8
Layer_0
  10
336.79609
  20
148.78535
  0
VERTEX
  5
850
  8
Layer_0
  10
335.77484
  20
149.58527
  42
-0.046175085
  0
VERTEX
  5
851
  8
Layer_0
  10
335.68665
  20
149.66992
  0
VERTEX
  5
852
  8
Layer_0
  10
336.67379
  20
149.92857
  0
VERTEX
  5
853
  8
Layer_0
  10
337.70831
  20
150.19947
  0
VERTEX
  5
854
  8
Layer_0
  10
338.78708
  20
150.48108
  0
VERTEX
  5
855
  8
Layer_0
  10
339.90696
  20
150.77188
  0
VERTEX
  5
856
  8
Layer_0
  10
341.06484
  20
151.07036
  0
VERTEX
  5
857
  8
Layer_0
  10
342.25758
  20
151.37499
  0
VERTEX
  5
858
  8
Layer_0
  10
343.48206
  20
151.68423
  0
VERTEX
  5
859
  8
Layer_0
  10
344.73515
  20
151.99658
  0
VERTEX
  5
85a
  8
Layer_0
  10
347.31468
  20
152.62448
  0
VERTEX
  5
85b
  8
Layer_0
  10
349.97114
  20
153.24649
  0
VERTEX
  5
85c
  8
Layer_0
  10
352.67952
  20
153.85042
  0
VERTEX
  5
85d
  8
Layer_0
  10
355.41482
  20
154.42409
  0
VERTEX
  5
85e
  8
Layer_0
  10
358.15202
  20
154.95529
  0
VERTEX
  5
85f
  8
Layer_0
  10
360.86611
  20
155.43185
  0
VERTEX
  5
860
  8
Layer_0
  10
362.20668
  20
155.64582
  0
VERTEX
  5
861
  8
Layer_0
  10
363.53208
  20
155.84156
  0
VERTEX
  5
862
  8
Layer_0
  10
364.83921
  20
156.01755
  0
VERTEX
  5
863
  8
Layer_0
  10
366.12492
  20
156.17225
  0
VERTEX
  5
864
  8
Layer_0
  10
367.3861
  20
156.30415
  0
VERTEX
  5
865
  8
Layer_0
  10
368.61962
  20
156.41171
  0
VERTEX
  5
866
  8
Layer_0
  10
369.82235
  20
156.49343
  0
VERTEX
  5
867
  8
Layer_0
  10
370.99116
  20
156.54777
  0
VERTEX
  5
868
  8
Layer_0
  10
372.12294
  20
156.5732
  0
VERTEX
  5
869
  8
Layer_0
  10
373.21454
  20
156.56822
  0
VERTEX
  5
86a
  8
Layer_0
  10
374.26285
  20
156.53128
  0
VERTEX
  5
86b
  8
Layer_0
  10
375.26474
  20
156.46088
  0
VERTEX
  5
86c
  8
Layer_0
  10
376.2003
  20
156.30952
  0
VERTEX
  5
86d
  8
Layer_0
  10
377.1954
  20
156.13244
  0
VERTEX
  5
86e
  8
Layer_0
  10
378.23741
  20
155.92641
  0
VERTEX
  5
86f
  8
Layer_0
  10
379.3137
  20
155.68818
  0
VERTEX
  5
870
  8
Layer_0
  10
380.41163
  20
155.41452
  0
VERTEX
  5
871
  8
Layer_0
  10
381.51857
  20
155.1022
  0
VERTEX
  5
872
  8
Layer_0
  10
382.62188
  20
154.74798
  0
VERTEX
  5
873
  8
Layer_0
  10
383.70893
  20
154.34863
  0
VERTEX
  5
874
  8
Layer_0
  10
384.76708
  20
153.9009
  0
VERTEX
  5
875
  8
Layer_0
  10
385.7837
  20
153.40157
  0
VERTEX
  5
876
  8
Layer_0
  10
386.74615
  20
152.84741
  0
VERTEX
  5
877
  8
Layer_0
  10
387.6418
  20
152.23517
  0
VERTEX
  5
878
  8
Layer_0
  10
388.06062
  20
151.90626
  0
VERTEX
  5
879
  8
Layer_0
  10
388.45801
  20
151.56161
  0
VERTEX
  5
87a
  8
Layer_0
  10
388.83238
  20
151.20084
  0
VERTEX
  5
87b
  8
Layer_0
  10
389.18215
  20
150.82352
  0
VERTEX
  5
87c
  8
Layer_0
  10
389.50575
  20
150.42925
  0
VERTEX
  5
87d
  8
Layer_0
  10
389.80159
  20
150.01764
  0
VERTEX
  5
87e
  8
Layer_0
  10
390.06809
  20
149.58827
  0
VERTEX
  5
87f
  8
Layer_0
  10
390.30368
  20
149.14075
  0
VERTEX
  5
880
  8
Layer_0
  10
390.64669
  20
148.3436
  0
VERTEX
  5
881
  8
Layer_0
  10
390.95454
  20
147.54362
  0
VERTEX
  5
882
  8
Layer_0
  10
391.22695
  20
146.74074
  0
VERTEX
  5
883
  8
Layer_0
  10
391.46367
  20
145.93495
  0
VERTEX
  5
884
  8
Layer_0
  10
391.66442
  20
145.1262
  0
VERTEX
  5
885
  8
Layer_0
  10
391.82894
  20
144.31446
  0
VERTEX
  5
886
  8
Layer_0
  10
391.95695
  20
143.49969
  0
VERTEX
  5
887
  8
Layer_0
  10
392.04818
  20
142.68186
  0
VERTEX
  5
888
  8
Layer_0
  10
392.10238
  20
141.86093
  0
VERTEX
  5
889
  8
Layer_0
  10
392.11926
  20
141.03686
  0
VERTEX
  5
88a
  8
Layer_0
  10
392.09857
  20
140.20962
  0
VERTEX
  5
88b
  8
Layer_0
  10
392.04002
  20
139.37916
  0
VERTEX
  5
88c
  8
Layer_0
  10
391.94336
  20
138.54546
  0
VERTEX
  5
88d
  8
Layer_0
  10
391.80832
  20
137.70849
  0
VERTEX
  5
88e
  8
Layer_0
  10
391.63462
  20
136.86819
  0
VERTEX
  5
88f
  8
Layer_0
  10
391.422
  20
136.02454
  42
-0.050412998
  0
VERTEX
  5
890
  8
Layer_0
  10
389.1254
  20
130.15424
  0
VERTEX
  5
891
  8
Layer_0
  10
388.66045
  20
129.28732
  0
VERTEX
  5
892
  8
Layer_0
  10
388.17599
  20
128.43889
  0
VERTEX
  5
893
  8
Layer_0
  10
387.68821
  20
127.59442
  0
VERTEX
  5
894
  8
Layer_0
  10
387.21335
  20
126.73938
  0
VERTEX
  5
895
  8
Layer_0
  10
387.15335
  20
126.61597
  0
VERTEX
  5
896
  8
Layer_0
  10
386.82198
  20
125.81344
  0
VERTEX
  5
897
  8
Layer_0
  10
386.57064
  20
125.01918
  0
VERTEX
  5
898
  8
Layer_0
  10
386.38643
  20
124.22824
  0
VERTEX
  5
899
  8
Layer_0
  10
386.25645
  20
123.43565
  0
VERTEX
  5
89a
  8
Layer_0
  10
386.10762
  20
121.82566
  0
VERTEX
  5
89b
  8
Layer_0
  10
386.02094
  20
120.14954
  0
VERTEX
  5
89c
  8
Layer_0
  10
386.01389
  20
120.00134
  0
VERTEX
  5
89d
  8
Layer_0
  10
386.02094
  20
119.84961
  0
VERTEX
  5
89e
  8
Layer_0
  10
386.10762
  20
118.17348
  0
VERTEX
  5
89f
  8
Layer_0
  10
386.25645
  20
116.5635
  0
VERTEX
  5
8a0
  8
Layer_0
  10
386.38643
  20
115.77091
  0
VERTEX
  5
8a1
  8
Layer_0
  10
386.57064
  20
114.97996
  0
VERTEX
  5
8a2
  8
Layer_0
  10
386.82198
  20
114.18571
  0
VERTEX
  5
8a3
  8
Layer_0
  10
387.15335
  20
113.38318
  0
VERTEX
  5
8a4
  8
Layer_0
  10
387.21335
  20
113.25977
  0
VERTEX
  5
8a5
  8
Layer_0
  10
387.68821
  20
112.4062
  0
VERTEX
  5
8a6
  8
Layer_0
  10
388.17599
  20
111.56158
  0
VERTEX
  5
8a7
  8
Layer_0
  10
388.66045
  20
110.71235
  0
VERTEX
  5
8a8
  8
Layer_0
  10
389.1254
  20
109.84491
  42
-0.050407787
  0
SEQEND
  0
POLYLINE
  5
8aa
  8
Layer_0
  62
7
  70
1
  66
1
  10
0
  20
0
  30
0
  0
VERTEX
  5
8aa
  8
Layer_0
  10
255.77454
  20
229.86786
  0
VERTEX
  5
8ab
  8
Layer_0
  10
253.99789
  20
229.86786
  42
0.040581421
  0
VERTEX
  5
8ac
  8
Layer_0
  10
254.134
  20
234.74408
  0
VERTEX
  5
8ad
  8
Layer_0
  10
253.87138
  20
234.51276
  0
VERTEX
  5
8ae
  8
Layer_0
  10
253.69267
  20
234.32099
  0
VERTEX
  5
8af
  8
Layer_0
  10
253.63255
  20
234.24664
  0
VERTEX
  5
8b0
  8
Layer_0
  10
253.59071
  20
234.19021
  0
VERTEX
  5
8b1
  8
Layer_0
  10
253.56627
  20
234.15438
  0
VERTEX
  5
8b2
  8
Layer_0
  10
253.55832
  20
234.14185
  0
VERTEX
  5
8b3
  8
Layer_0
  10
252.74115
  20
235.54266
  0
VERTEX
  5
8b4
  8
Layer_0
  10
252.88735
  20
235.60976
  0
VERTEX
  5
8b5
  8
Layer_0
  10
253.07322
  20
235.72018
  0
VERTEX
  5
8b6
  8
Layer_0
  10
253.28049
  20
235.85816
  0
VERTEX
  5
8b7
  8
Layer_0
  10
253.49089
  20
236.0079
  0
VERTEX
  5
8b8
  8
Layer_0
  10
253.68613
  20
236.15365
  0
VERTEX
  5
8b9
  8
Layer_0
  10
253.84796
  20
236.27961
  0
VERTEX
  5
8ba
  8
Layer_0
  10
253.95809
  20
236.37
  0
VERTEX
  5
8bb
  8
Layer_0
  10
253.99826
  20
236.40906
  0
VERTEX
  5
8bc
  8
Layer_0
  10
255.77454
  20
236.40906
  42
0.05400047
  0
SEQEND
  0
POLYLINE
  5
8be
  8
Layer_0
  62
7
  70
1
  66
1
  10
0
  20
0
  30
0
  0
VERTEX
  5
8be
  8
Layer_0
  10
261.26154
  20
231.69
  0
VERTEX
  5
8bf
  8
Layer_0
  10
261.26154
  20
229.93884
  0
VERTEX
  5
8c0
  8
Layer_0
  10
260.27982
  20
230.04445
  0
VERTEX
  5
8c1
  8
Layer_0
  10
259.36246
  20
230.1049
  0
VERTEX
  5
8c2
  8
Layer_0
  10
258.93431
  20
230.12118
  0
VERTEX
  5
8c3
  8
Layer_0
  10
258.52994
  20
230.12976
  0
VERTEX
  5
8c4
  8
Layer_0
  10
258.15192
  20
230.13185
  0
VERTEX
  5
8c5
  8
Layer_0
  10
257.8028
  20
230.12863
  0
VERTEX
  5
8c6
  8
Layer_0
  10
257.48515
  20
230.12131
  0
VERTEX
  5
8c7
  8
Layer_0
  10
257.20154
  20
230.11108
  0
VERTEX
  5
8c8
  8
Layer_0
  10
256.95452
  20
230.09913
  0
VERTEX
  5
8c9
  8
Layer_0
  10
256.74667
  20
230.08668
  0
VERTEX
  5
8ca
  8
Layer_0
  10
256.58054
  20
230.07491
  0
VERTEX
  5
8cb
  8
Layer_0
  10
256.4587
  20
230.06501
  0
VERTEX
  5
8cc
  8
Layer_0
  10
256.38372
  20
230.0582
  0
VERTEX
  5
8cd
  8
Layer_0
  10
256.35815
  20
230.05566
  0
VERTEX
  5
8ce
  8
Layer_0
  10
256.59137
  20
231.22321
  0
VERTEX
  5
8cf
  8
Layer_0
  10
256.60767
  20
231.23301
  0
VERTEX
  5
8d0
  8
Layer_0
  10
256.6544
  20
231.26164
  0
VERTEX
  5
8d1
  8
Layer_0
  10
256.72833
  20
231.3079
  0
VERTEX
  5
8d2
  8
Layer_0
  10
256.82623
  20
231.37061
  0
VERTEX
  5
8d3
  8
Layer_0
  10
257.08099
  20
231.54063
  0
VERTEX
  5
8d4
  8
Layer_0
  10
257.39279
  20
231.76221
  0
VERTEX
  5
8d5
  8
Layer_0
  10
257.73576
  20
232.02585
  0
VERTEX
  5
8d6
  8
Layer_0
  10
258.08401
  20
232.32208
  0
VERTEX
  5
8d7
  8
Layer_0
  10
258.41168
  20
232.64139
  0
VERTEX
  5
8d8
  8
Layer_0
  10
258.69287
  20
232.9743
  0
VERTEX
  5
8d9
  8
Layer_0
  10
258.89591
  20
233.25302
  0
VERTEX
  5
8da
  8
Layer_0
  10
259.12908
  20
233.61057
  0
VERTEX
  5
8db
  8
Layer_0
  10
259.23602
  20
233.80386
  0
VERTEX
  5
8dc
  8
Layer_0
  10
259.32535
  20
233.99881
  0
VERTEX
  5
8dd
  8
Layer_0
  10
259.38872
  20
234.18938
  0
VERTEX
  5
8de
  8
Layer_0
  10
259.41772
  20
234.36957
  42
0.09615686
  0
VERTEX
  5
8df
  8
Layer_0
  10
259.37259
  20
234.63934
  42
0.097872816
  0
VERTEX
  5
8e0
  8
Layer_0
  10
259.23788
  20
234.87219
  42
0.10062251
  0
VERTEX
  5
8e1
  8
Layer_0
  10
259.02121
  20
235.03552
  42
0.11356049
  0
VERTEX
  5
8e2
  8
Layer_0
  10
258.72287
  20
235.09686
  42
0.21758771
  0
VERTEX
  5
8e3
  8
Layer_0
  10
258.21228
  20
234.88464
  42
0.1800079
  0
VERTEX
  5
8e4
  8
Layer_0
  10
258.02832
  20
234.35339
  42
0.035199255
  0
VERTEX
  5
8e5
  8
Layer_0
  10
258.0528
  20
234.09192
  0
VERTEX
  5
8e6
  8
Layer_0
  10
256.30405
  20
234.09192
  42
-0.095030832
  0
VERTEX
  5
8e7
  8
Layer_0
  10
256.47977
  20
235.07239
  42
-0.10217656
  0
VERTEX
  5
8e8
  8
Layer_0
  10
256.97412
  20
235.8324
  42
-0.10296891
  0
VERTEX
  5
8e9
  8
Layer_0
  10
257.72998
  20
236.32294
  42
-0.093770941
  0
VERTEX
  5
8ea
  8
Layer_0
  10
258.69012
  20
236.49451
  42
-0.089618626
  0
VERTEX
  5
8eb
  8
Layer_0
  10
259.64236
  20
236.33087
  42
-0.097169121
  0
VERTEX
  5
8ec
  8
Layer_0
  10
260.39819
  20
235.87335
  42
-0.10219469
  0
VERTEX
  5
8ed
  8
Layer_0
  10
260.8967
  20
235.17468
  42
-0.10496264
  0
VERTEX
  5
8ee
  8
Layer_0
  10
261.07654
  20
234.2962
  42
-0.11740559
  0
VERTEX
  5
8ef
  8
Layer_0
  10
260.85986
  20
233.36053
  0
VERTEX
  5
8f0
  8
Layer_0
  10
260.7355
  20
233.14457
  0
VERTEX
  5
8f1
  8
Layer_0
  10
260.57898
  20
232.92616
  0
VERTEX
  5
8f2
  8
Layer_0
  10
260.3903
  20
232.7053
  0
VERTEX
  5
8f3
  8
Layer_0
  10
260.16946
  20
232.48199
  0
VERTEX
  5
8f4
  8
Layer_0
  10
259.14798
  20
231.52563
  0
VERTEX
  5
8f5
  8
Layer_0
  10
259.49008
  20
231.52563
  0
VERTEX
  5
8f6
  8
Layer_0
  10
260.36974
  20
231.58392
  0
SEQEND
  0
POLYLINE
  5
8f8
  8
Layer_0
  62
7
  70
1
  66
1
  10
0
  20
0
  30
0
  0
VERTEX
  5
8f8
  8
Layer_0
  10
259.45837
  20
7.2041016
  42
0.093463518
  0
VERTEX
  5
8f9
  8
Layer_0
  10
259.02448
  20
7.9025879
  42
0.095676055
  0
VERTEX
  5
8fa
  8
Layer_0
  10
258.37186
  20
8.3753662
  42
0.10626139
  0
VERTEX
  5
8fb
  8
Layer_0
  10
257.54636
  20
8.5446777
  42
0.044053299
  0
VERTEX
  5
8fc
  8
Layer_0
  10
257.28177
  20
8.5165405
  42
0.090529844
  0
VERTEX
  5
8fd
  8
Layer_0
  10
256.90781
  20
8.350647
  0
VERTEX
  5
8fe
  8
Layer_0
  10
256.87607
  20
8.350647
  0
VERTEX
  5
8ff
  8
Layer_0
  10
257.34106
  20
8.886096
  0
VERTEX
  5
900
  8
Layer_0
  10
257.75447
  20
9.3424606
  0
VERTEX
  5
901
  8
Layer_0
  10
257.97283
  20
9.5675563
  0
VERTEX
  5
902
  8
Layer_0
  10
258.21549
  20
9.8047647
  0
VERTEX
  5
903
  8
Layer_0
  10
258.49487
  20
10.064714
  0
VERTEX
  5
904
  8
Layer_0
  10
258.82336
  20
10.358032
  0
VERTEX
  5
905
  8
Layer_0
  10
256.44919
  20
10.358032
  42
-0.063419515
  0
VERTEX
  5
906
  8
Layer_0
  10
255.33795
  20
8.6259155
  42
0.080506746
  0
VERTEX
  5
907
  8
Layer_0
  10
254.62183
  20
7.4299316
  42
0.091617186
  0
VERTEX
  5
908
  8
Layer_0
  10
254.38901
  20
6.2975464
  42
0.10310771
  0
VERTEX
  5
909
  8
Layer_0
  10
254.56888
  20
5.4191284
  42
0.10418694
  0
VERTEX
  5
90a
  8
Layer_0
  10
255.08749
  20
4.6959229
  42
0.09712733
  0
VERTEX
  5
90b
  8
Layer_0
  10
255.90945
  20
4.2055054
  42
0.076840731
  0
VERTEX
  5
90c
  8
Layer_0
  10
256.78787
  20
4.0327148
  0
VERTEX
  5
90d
  8
Layer_0
  10
256.78787
  20
5.6166382
  42
-0.27257483
  0
VERTEX
  5
90e
  8
Layer_0
  10
256.2446
  20
6.5374146
  42
-0.17027648
  0
VERTEX
  5
90f
  8
Layer_0
  10
256.47037
  20
7.1830444
  42
-0.23244451
  0
VERTEX
  5
910
  8
Layer_0
  10
257.2959
  20
7.585144
  42
-0.41421356
  0
VERTEX
  5
911
  8
Layer_0
  10
258.34717
  20
6.5374146
  42
-0.27486589
  0
VERTEX
  5
912
  8
Layer_0
  10
257.80386
  20
5.6202393
  0
VERTEX
  5
913
  8
Layer_0
  10
257.80386
  20
4.1173096
  42
0.030393566
  0
VERTEX
  5
914
  8
Layer_0
  10
258.09317
  20
4.2055054
  42
0.095164158
  0
VERTEX
  5
915
  8
Layer_0
  10
258.9151
  20
4.6994629
  42
0.10439246
  0
VERTEX
  5
916
  8
Layer_0
  10
259.43372
  20
5.4367676
  42
0.10193031
  0
VERTEX
  5
917
  8
Layer_0
  10
259.61362
  20
6.3469238
  42
0.092517558
  0
SEQEND
  0
POLYLINE
  5
919
  8
Layer_0
  62
7
  70
1
  66
1
  10
0
  20
0
  30
0
  0
VERTEX
  5
919
  8
Layer_0
  10
369.44925
  20
120.50745
  0
VERTEX
  5
91a
  8
Layer_0
  10
369.54813
  20
120.49921
  0
VERTEX
  5
91b
  8
Layer_0
  10
369.61737
  20
120.49921
  0
VERTEX
  5
91c
  8
Layer_0
  10
369.79971
  20
120.51049
  0
VERTEX
  5
91d
  8
Layer_0
  10
370.03509
  20
120.54432
  0
VERTEX
  5
91e
  8
Layer_0
  10
370.25832
  20
120.60063
  0
VERTEX
  5
91f
  8
Layer_0
  10
370.40424
  20
120.67938
  42
0.19198957
  0
VERTEX
  5
920
  8
Layer_0
  10
370.57959
  20
121.14514
  42
0.19575614
  0
VERTEX
  5
921
  8
Layer_0
  10
370.41147
  20
121.59473
  42
0.20249981
  0
VERTEX
  5
922
  8
Layer_0
  10
369.98462
  20
121.7663
  42
0.2269805
  0
VERTEX
  5
923
  8
Layer_0
  10
369.55191
  20
121.57025
  42
0.17750295
  0
VERTEX
  5
924
  8
Layer_0
  10
369.40311
  20
121.06348
  0
VERTEX
  5
925
  8
Layer_0
  10
367.82077
  20
121.06348
  42
-0.082996681
  0
VERTEX
  5
926
  8
Layer_0
  10
368.06778
  20
121.92169
  42
-0.093173471
  0
VERTEX
  5
927
  8
Layer_0
  10
368.53424
  20
122.55487
  42
-0.10117759
  0
VERTEX
  5
928
  8
Layer_0
  10
369.19363
  20
122.94727
  42
-0.08485708
  0
VERTEX
  5
929
  8
Layer_0
  10
370.04214
  20
123.08197
  42
-0.082235745
  0
VERTEX
  5
92a
  8
Layer_0
  10
370.87173
  20
122.95557
  42
-0.098216824
  0
VERTEX
  5
92b
  8
Layer_0
  10
371.50909
  20
122.59589
  42
-0.11142131
  0
VERTEX
  5
92c
  8
Layer_0
  10
371.91766
  20
122.03192
  42
-0.10245894
  0
VERTEX
  5
92d
  8
Layer_0
  10
372.06064
  20
121.29224
  0
VERTEX
  5
92e
  8
Layer_0
  10
372.05017
  20
121.08159
  0
VERTEX
  5
92f
  8
Layer_0
  10
372.01878
  20
120.89088
  0
VERTEX
  5
930
  8
Layer_0
  10
371.96646
  20
120.72007
  0
VERTEX
  5
931
  8
Layer_0
  10
371.89322
  20
120.56909
  42
-0.11386009
  0
VERTEX
  5
932
  8
Layer_0
  10
371.41504
  20
120.08301
  42
-0.16633698
  0
VERTEX
  5
933
  8
Layer_0
  10
372.15469
  20
119.55591
  0
VERTEX
  5
934
  8
Layer_0
  10
372.2709
  20
119.35483
  0
VERTEX
  5
935
  8
Layer_0
  10
372.3539
  20
119.13188
  0
VERTEX
  5
936
  8
Layer_0
  10
372.40371
  20
118.88703
  0
VERTEX
  5
937
  8
Layer_0
  10
372.42032
  20
118.62024
  42
-0.1120522
  0
VERTEX
  5
938
  8
Layer_0
  10
372.24048
  20
117.7865
  42
-0.10768415
  0
VERTEX
  5
939
  8
Layer_0
  10
371.73782
  20
117.14093
  42
-0.094538535
  0
VERTEX
  5
93a
  8
Layer_0
  10
370.96991
  20
116.72406
  42
-0.07973403
  0
VERTEX
  5
93b
  8
Layer_0
  10
369.99323
  20
116.57697
  42
-0.1143299
  0
VERTEX
  5
93c
  8
Layer_0
  10
368.71375
  20
116.85498
  0
VERTEX
  5
93d
  8
Layer_0
  10
368.44266
  20
117.01565
  0
VERTEX
  5
93e
  8
Layer_0
  10
368.19851
  20
117.21843
  0
VERTEX
  5
93f
  8
Layer_0
  10
367.98073
  20
117.46307
  0
VERTEX
  5
940
  8
Layer_0
  10
367.78873
  20
117.74933
  42
-0.059437067
  0
VERTEX
  5
941
  8
Layer_0
  10
367.54861
  20
118.29089
  42
-0.02585371
  0
VERTEX
  5
942
  8
Layer_0
  10
367.39978
  20
118.82245
  0
VERTEX
  5
943
  8
Layer_0
  10
369.24567
  20
118.82349
  0
VERTEX
  5
944
  8
Layer_0
  10
369.24227
  20
118.62095
  0
VERTEX
  5
945
  8
Layer_0
  10
369.26947
  20
118.4426
  0
VERTEX
  5
946
  8
Layer_0
  10
369.32825
  20
118.28977
  0
VERTEX
  5
947
  8
Layer_0
  10
369.41962
  20
118.16376
  0
VERTEX
  5
948
  8
Layer_0
  10
369.53879
  20
118.06556
  0
VERTEX
  5
949
  8
Layer_0
  10
369.6794
  20
117.99564
  0
VERTEX
  5
94a
  8
Layer_0
  10
369.84093
  20
117.95389
  0
VERTEX
  5
94b
  8
Layer_0
  10
370.02286
  20
117.94019
  0
VERTEX
  5
94c
  8
Layer_0
  10
370.21386
  20
117.95496
  0
VERTEX
  5
94d
  8
Layer_0
  10
370.37887
  20
117.99827
  0
VERTEX
  5
94e
  8
Layer_0
  10
370.51746
  20
118.07006
  0
VERTEX
  5
94f
  8
Layer_0
  10
370.62921
  20
118.17029
  42
0.1791099
  0
VERTEX
  5
950
  8
Layer_0
  10
370.82697
  20
118.73462
  0
VERTEX
  5
951
  8
Layer_0
  10
370.81209
  20
118.92257
  0
VERTEX
  5
952
  8
Layer_0
  10
370.76844
  20
119.08595
  0
VERTEX
  5
953
  8
Layer_0
  10
370.69746
  20
119.22473
  0
VERTEX
  5
954
  8
Layer_0
  10
370.60062
  20
119.33887
  0
VERTEX
  5
955
  8
Layer_0
  10
370.43311
  20
119.42794
  0
VERTEX
  5
956
  8
Layer_0
  10
370.19229
  20
119.49149
  0
VERTEX
  5
957
  8
Layer_0
  10
369.94359
  20
119.52947
  0
VERTEX
  5
958
  8
Layer_0
  10
369.75244
  20
119.54181
  42
0.048034444
  0
VERTEX
  5
959
  8
Layer_0
  10
369.61841
  20
119.52905
  0
VERTEX
  5
95a
  8
Layer_0
  10
369.47681
  20
119.50012
  42
0.0059956181
  0
SEQEND
  0
POLYLINE
  5
95c
  8
Layer_0
  62
7
  70
1
  66
1
  10
0
  20
0
  30
0
  0
VERTEX
  5
95c
  8
Layer_0
  10
393.47513
  20
112.06024
  0
VERTEX
  5
95d
  8
Layer_0
  10
392.52087
  20
113.78848
  0
VERTEX
  5
95e
  8
Layer_0
  10
391.556
  20
115.49286
  0
VERTEX
  5
95f
  8
Layer_0
  10
391.35852
  20
116.01255
  0
VERTEX
  5
960
  8
Layer_0
  10
391.2104
  20
116.55892
  0
VERTEX
  5
961
  8
Layer_0
  10
391.10346
  20
117.1249
  0
VERTEX
  5
962
  8
Layer_0
  10
391.02951
  20
117.70341
  0
VERTEX
  5
963
  8
Layer_0
  10
390.94784
  20
118.86974
  0
VERTEX
  5
964
  8
Layer_0
  10
390.8999
  20
120.00134
  0
VERTEX
  5
965
  8
Layer_0
  10
390.94784
  20
121.13089
  0
VERTEX
  5
966
  8
Layer_0
  10
391.02951
  20
122.29617
  0
VERTEX
  5
967
  8
Layer_0
  10
391.10346
  20
122.87442
  0
VERTEX
  5
968
  8
Layer_0
  10
391.2104
  20
123.44028
  0
VERTEX
  5
969
  8
Layer_0
  10
391.35852
  20
123.98662
  0
VERTEX
  5
96a
  8
Layer_0
  10
391.556
  20
124.50635
  0
VERTEX
  5
96b
  8
Layer_0
  10
392.52087
  20
126.21067
  0
VERTEX
  5
96c
  8
Layer_0
  10
393.47513
  20
127.93884
  42
0.050957191
  0
VERTEX
  5
96d
  8
Layer_0
  10
396.12802
  20
134.72986
  0
VERTEX
  5
96e
  8
Layer_0
  10
396.39286
  20
135.78205
  0
VERTEX
  5
96f
  8
Layer_0
  10
396.60946
  20
136.83239
  0
VERTEX
  5
970
  8
Layer_0
  10
396.7781
  20
137.88058
  0
VERTEX
  5
971
  8
Layer_0
  10
396.89907
  20
138.92633
  0
VERTEX
  5
972
  8
Layer_0
  10
396.97266
  20
139.96935
  0
VERTEX
  5
973
  8
Layer_0
  10
396.99917
  20
141.00936
  0
VERTEX
  5
974
  8
Layer_0
  10
396.97888
  20
142.04606
  0
VERTEX
  5
975
  8
Layer_0
  10
396.91208
  20
143.07916
  0
VERTEX
  5
976
  8
Layer_0
  10
396.79906
  20
144.10838
  0
VERTEX
  5
977
  8
Layer_0
  10
396.64011
  20
145.13343
  0
VERTEX
  5
978
  8
Layer_0
  10
396.43551
  20
146.15401
  0
VERTEX
  5
979
  8
Layer_0
  10
396.18557
  20
147.16983
  0
VERTEX
  5
97a
  8
Layer_0
  10
395.89056
  20
148.18062
  0
VERTEX
  5
97b
  8
Layer_0
  10
395.55079
  20
149.18607
  0
VERTEX
  5
97c
  8
Layer_0
  10
395.16652
  20
150.18589
  0
VERTEX
  5
97d
  8
Layer_0
  10
394.73807
  20
151.17981
  0
VERTEX
  5
97e
  8
Layer_0
  10
394.72046
  20
151.21857
  0
VERTEX
  5
97f
  8
Layer_0
  10
394.40238
  20
151.83953
  0
VERTEX
  5
980
  8
Layer_0
  10
394.05297
  20
152.4348
  0
VERTEX
  5
981
  8
Layer_0
  10
393.67363
  20
153.00497
  0
VERTEX
  5
982
  8
Layer_0
  10
393.26577
  20
153.55063
  0
VERTEX
  5
983
  8
Layer_0
  10
392.83077
  20
154.07238
  0
VERTEX
  5
984
  8
Layer_0
  10
392.37004
  20
154.57081
  0
VERTEX
  5
985
  8
Layer_0
  10
391.88497
  20
155.04652
  0
VERTEX
  5
986
  8
Layer_0
  10
391.37696
  20
155.50011
  0
VERTEX
  5
987
  8
Layer_0
  10
390.8474
  20
155.93217
  0
VERTEX
  5
988
  8
Layer_0
  10
390.2977
  20
156.3433
  0
VERTEX
  5
989
  8
Layer_0
  10
389.72924
  20
156.73409
  0
VERTEX
  5
98a
  8
Layer_0
  10
389.14344
  20
157.10513
  0
VERTEX
  5
98b
  8
Layer_0
  10
387.92536
  20
157.79039
  0
VERTEX
  5
98c
  8
Layer_0
  10
386.65464
  20
158.40382
  0
VERTEX
  5
98d
  8
Layer_0
  10
385.34245
  20
158.95019
  0
VERTEX
  5
98e
  8
Layer_0
  10
383.99998
  20
159.43427
  0
VERTEX
  5
98f
  8
Layer_0
  10
382.63839
  20
159.86083
  0
VERTEX
  5
990
  8
Layer_0
  10
381.26888
  20
160.23463
  0
VERTEX
  5
991
  8
Layer_0
  10
379.9026
  20
160.56042
  0
VERTEX
  5
992
  8
Layer_0
  10
378.55075
  20
160.84299
  0
VERTEX
  5
993
  8
Layer_0
  10
377.2245
  20
161.08709
  0
VERTEX
  5
994
  8
Layer_0
  10
375.93503
  20
161.29749
  42
0.01626986
  0
VERTEX
  5
995
  8
Layer_0
  10
375.78333
  20
161.31512
  0
VERTEX
  5
996
  8
Layer_0
  10
374.64038
  20
161.40038
  0
VERTEX
  5
997
  8
Layer_0
  10
373.43825
  20
161.4546
  0
VERTEX
  5
998
  8
Layer_0
  10
372.18122
  20
161.47909
  0
VERTEX
  5
999
  8
Layer_0
  10
370.87361
  20
161.47514
  0
VERTEX
  5
99a
  8
Layer_0
  10
369.51971
  20
161.44405
  0
VERTEX
  5
99b
  8
Layer_0
  10
368.12384
  20
161.38712
  0
VERTEX
  5
99c
  8
Layer_0
  10
366.69029
  20
161.30564
  0
VERTEX
  5
99d
  8
Layer_0
  10
365.22338
  20
161.20091
  0
VERTEX
  5
99e
  8
Layer_0
  10
363.72741
  20
161.07424
  0
VERTEX
  5
99f
  8
Layer_0
  10
362.20667
  20
160.92691
  0
VERTEX
  5
9a0
  8
Layer_0
  10
360.66548
  20
160.76022
  0
VERTEX
  5
9a1
  8
Layer_0
  10
359.10815
  20
160.57547
  0
VERTEX
  5
9a2
  8
Layer_0
  10
355.96225
  20
160.15698
  0
VERTEX
  5
9a3
  8
Layer_0
  10
352.80341
  20
159.68182
  0
VERTEX
  5
9a4
  8
Layer_0
  10
355.37201
  20
161.58001
  0
VERTEX
  5
9a5
  8
Layer_0
  10
357.89196
  20
163.50888
  0
VERTEX
  5
9a6
  8
Layer_0
  10
359.12375
  20
164.47952
  0
VERTEX
  5
9a7
  8
Layer_0
  10
360.33146
  20
165.45148
  0
VERTEX
  5
9a8
  8
Layer_0
  10
361.5111
  20
166.42263
  0
VERTEX
  5
9a9
  8
Layer_0
  10
362.65871
  20
167.39085
  0
VERTEX
  5
9aa
  8
Layer_0
  10
363.77031
  20
168.35404
  0
VERTEX
  5
9ab
  8
Layer_0
  10
364.84193
  20
169.31006
  0
VERTEX
  5
9ac
  8
Layer_0
  10
365.8696
  20
170.2568
  0
VERTEX
  5
9ad
  8
Layer_0
  10
366.84933
  20
171.19215
  0
VERTEX
  5
9ae
  8
Layer_0
  10
367.77716
  20
172.11397
  0
VERTEX
  5
9af
  8
Layer_0
  10
368.64911
  20
173.02016
  0
VERTEX
  5
9b0
  8
Layer_0
  10
369.4612
  20
173.9086
  0
VERTEX
  5
9b1
  8
Layer_0
  10
370.20947
  20
174.77716
  0
VERTEX
  5
9b2
  8
Layer_0
  10
370.30115
  20
174.89709
  0
VERTEX
  5
9b3
  8
Layer_0
  10
371.06404
  20
175.95739
  0
VERTEX
  5
9b4
  8
Layer_0
  10
371.82913
  20
177.06756
  0
VERTEX
  5
9b5
  8
Layer_0
  10
372.58515
  20
178.22306
  0
VERTEX
  5
9b6
  8
Layer_0
  10
373.32082
  20
179.41935
  0
VERTEX
  5
9b7
  8
Layer_0
  10
374.02487
  20
180.6519
  0
VERTEX
  5
9b8
  8
Layer_0
  10
374.68601
  20
181.91618
  0
VERTEX
  5
9b9
  8
Layer_0
  10
375.29297
  20
183.20763
  0
VERTEX
  5
9ba
  8
Layer_0
  10
375.83448
  20
184.52174
  0
VERTEX
  5
9bb
  8
Layer_0
  10
376.29926
  20
185.85395
  0
VERTEX
  5
9bc
  8
Layer_0
  10
376.67604
  20
187.19973
  0
VERTEX
  5
9bd
  8
Layer_0
  10
376.8279
  20
187.87629
  0
VERTEX
  5
9be
  8
Layer_0
  10
376.95353
  20
188.55454
  0
VERTEX
  5
9bf
  8
Layer_0
  10
377.05153
  20
189.23392
  0
VERTEX
  5
9c0
  8
Layer_0
  10
377.12047
  20
189.91385
  0
VERTEX
  5
9c1
  8
Layer_0
  10
377.15896
  20
190.59377
  0
VERTEX
  5
9c2
  8
Layer_0
  10
377.16558
  20
191.27312
  0
VERTEX
  5
9c3
  8
Layer_0
  10
377.13892
  20
191.95132
  0
VERTEX
  5
9c4
  8
Layer_0
  10
377.07758
  20
192.62781
  0
VERTEX
  5
9c5
  8
Layer_0
  10
376.98014
  20
193.30202
  0
VERTEX
  5
9c6
  8
Layer_0
  10
376.8452
  20
193.97338
  0
VERTEX
  5
9c7
  8
Layer_0
  10
376.67134
  20
194.64133
  0
VERTEX
  5
9c8
  8
Layer_0
  10
376.45715
  20
195.3053
  0
VERTEX
  5
9c9
  8
Layer_0
  10
376.44305
  20
195.3476
  0
VERTEX
  5
9ca
  8
Layer_0
  10
376.04304
  20
196.35352
  0
VERTEX
  5
9cb
  8
Layer_0
  10
375.60763
  20
197.3324
  0
VERTEX
  5
9cc
  8
Layer_0
  10
375.13684
  20
198.28382
  0
VERTEX
  5
9cd
  8
Layer_0
  10
374.63065
  20
199.20736
  0
VERTEX
  5
9ce
  8
Layer_0
  10
374.08908
  20
200.10261
  0
VERTEX
  5
9cf
  8
Layer_0
  10
373.51213
  20
200.96914
  0
VERTEX
  5
9d0
  8
Layer_0
  10
372.89978
  20
201.80654
  0
VERTEX
  5
9d1
  8
Layer_0
  10
372.25204
  20
202.61438
  0
VERTEX
  5
9d2
  8
Layer_0
  10
371.56892
  20
203.39225
  0
VERTEX
  5
9d3
  8
Layer_0
  10
370.85041
  20
204.13973
  0
VERTEX
  5
9d4
  8
Layer_0
  10
370.09651
  20
204.8564
  0
VERTEX
  5
9d5
  8
Layer_0
  10
369.30723
  20
205.54184
  0
VERTEX
  5
9d6
  8
Layer_0
  10
368.48255
  20
206.19564
  0
VERTEX
  5
9d7
  8
Layer_0
  10
367.62249
  20
206.81737
  0
VERTEX
  5
9d8
  8
Layer_0
  10
366.72704
  20
207.40661
  0
VERTEX
  5
9d9
  8
Layer_0
  10
365.7962
  20
207.96295
  42
0.05093942
  0
VERTEX
  5
9da
  8
Layer_0
  10
359.11456
  20
210.88745
  0
VERTEX
  5
9db
  8
Layer_0
  10
358.16549
  20
211.17606
  0
VERTEX
  5
9dc
  8
Layer_0
  10
357.2184
  20
211.4369
  0
VERTEX
  5
9dd
  8
Layer_0
  10
356.27395
  20
211.69114
  0
VERTEX
  5
9de
  8
Layer_0
  10
355.33279
  20
211.9599
  0
VERTEX
  5
9df
  8
Layer_0
  10
354.82532
  20
212.18747
  0
VERTEX
  5
9e0
  8
Layer_0
  10
354.33418
  20
212.46878
  0
VERTEX
  5
9e1
  8
Layer_0
  10
353.85849
  20
212.79309
  0
VERTEX
  5
9e2
  8
Layer_0
  10
353.39739
  20
213.14964
  0
VERTEX
  5
9e3
  8
Layer_0
  10
352.5155
  20
213.9165
  0
VERTEX
  5
9e4
  8
Layer_0
  10
351.68158
  20
214.68335
  0
VERTEX
  5
9e5
  8
Layer_0
  10
350.91621
  20
215.51575
  0
VERTEX
  5
9e6
  8
Layer_0
  10
350.14919
  20
216.39742
  0
VERTEX
  5
9e7
  8
Layer_0
  10
349.79224
  20
216.85849
  0
VERTEX
  5
9e8
  8
Layer_0
  10
349.46749
  20
217.33399
  0
VERTEX
  5
9e9
  8
Layer_0
  10
349.18582
  20
217.82463
  0
VERTEX
  5
9ea
  8
Layer_0
  10
348.9581
  20
218.33112
  0
VERTEX
  5
9eb
  8
Layer_0
  10
348.68941
  20
219.27425
  0
VERTEX
  5
9ec
  8
Layer_0
  10
348.43558
  20
220.21935
  0
VERTEX
  5
9ed
  8
Layer_0
  10
348.17578
  20
221.16577
  0
VERTEX
  5
9ee
  8
Layer_0
  10
347.88919
  20
222.11285
  0
VERTEX
  5
9ef
  8
Layer_0
  10
347.28335
  20
223.83797
  0
VERTEX
  5
9f0
  8
Layer_0
  10
346.59583
  20
225.52905
  0
VERTEX
  5
9f1
  8
Layer_0
  10
345.82298
  20
227.18244
  0
VERTEX
  5
9f2
  8
Layer_0
  10
344.96118
  20
228.79449
  0
VERTEX
  5
9f3
  8
Layer_0
  10
344.40483
  20
229.7259
  0
VERTEX
  5
9f4
  8
Layer_0
  10
343.81559
  20
230.62177
  0
VERTEX
  5
9f5
  8
Layer_0
  10
343.19387
  20
231.48214
  0
VERTEX
  5
9f6
  8
Layer_0
  10
342.5401
  20
232.30702
  0
VERTEX
  5
9f7
  8
Layer_0
  10
341.85471
  20
233.09643
  0
VERTEX
  5
9f8
  8
Layer_0
  10
341.13812
  20
233.85039
  0
VERTEX
  5
9f9
  8
Layer_0
  10
340.39075
  20
234.56892
  0
VERTEX
  5
9fa
  8
Layer_0
  10
339.61303
  20
235.25205
  0
VERTEX
  5
9fb
  8
Layer_0
  10
338.80538
  20
235.89979
  0
VERTEX
  5
9fc
  8
Layer_0
  10
337.96822
  20
236.51217
  0
VERTEX
  5
9fd
  8
Layer_0
  10
337.10198
  20
237.08919
  0
VERTEX
  5
9fe
  8
Layer_0
  10
336.20708
  20
237.63089
  0
VERTEX
  5
9ff
  8
Layer_0
  10
335.28394
  20
238.13729
  0
VERTEX
  5
a00
  8
Layer_0
  10
334.333
  20
238.60839
  0
VERTEX
  5
a01
  8
Layer_0
  10
333.35466
  20
239.04423
  0
VERTEX
  5
a02
  8
Layer_0
  10
332.34937
  20
239.44482
  0
VERTEX
  5
a03
  8
Layer_0
  10
332.30701
  20
239.45892
  0
VERTEX
  5
a04
  8
Layer_0
  10
331.64304
  20
239.6728
  0
VERTEX
  5
a05
  8
Layer_0
  10
330.97508
  20
239.84639
  0
VERTEX
  5
a06
  8
Layer_0
  10
330.30372
  20
239.98111
  0
VERTEX
  5
a07
  8
Layer_0
  10
329.6295
  20
240.07835
  0
VERTEX
  5
a08
  8
Layer_0
  10
328.95301
  20
240.13952
  0
VERTEX
  5
a09
  8
Layer_0
  10
328.2748
  20
240.16604
  0
VERTEX
  5
a0a
  8
Layer_0
  10
327.59544
  20
240.15931
  0
VERTEX
  5
a0b
  8
Layer_0
  10
326.9155
  20
240.12073
  0
VERTEX
  5
a0c
  8
Layer_0
  10
326.23555
  20
240.05171
  0
VERTEX
  5
a0d
  8
Layer_0
  10
325.55614
  20
239.95367
  0
VERTEX
  5
a0e
  8
Layer_0
  10
324.87786
  20
239.828
  0
VERTEX
  5
a0f
  8
Layer_0
  10
324.20125
  20
239.67611
  0
VERTEX
  5
a10
  8
Layer_0
  10
322.85537
  20
239.29932
  0
VERTEX
  5
a11
  8
Layer_0
  10
321.52301
  20
238.83453
  0
VERTEX
  5
a12
  8
Layer_0
  10
320.20873
  20
238.29302
  0
VERTEX
  5
a13
  8
Layer_0
  10
318.91704
  20
237.68604
  0
VERTEX
  5
a14
  8
Layer_0
  10
317.65248
  20
237.02483
  0
VERTEX
  5
a15
  8
Layer_0
  10
316.41959
  20
236.32066
  0
VERTEX
  5
a16
  8
Layer_0
  10
315.22289
  20
235.58478
  0
VERTEX
  5
a17
  8
Layer_0
  10
314.06691
  20
234.82845
  0
VERTEX
  5
a18
  8
Layer_0
  10
312.95619
  20
234.06292
  0
VERTEX
  5
a19
  8
Layer_0
  10
311.89526
  20
233.29944
  42
0.037480317
  0
VERTEX
  5
a1a
  8
Layer_0
  10
311.77887
  20
233.2077
  0
VERTEX
  5
a1b
  8
Layer_0
  10
310.90974
  20
232.45947
  0
VERTEX
  5
a1c
  8
Layer_0
  10
310.02087
  20
231.64748
  0
VERTEX
  5
a1d
  8
Layer_0
  10
309.11439
  20
230.7757
  0
VERTEX
  5
a1e
  8
Layer_0
  10
308.19239
  20
229.8481
  0
VERTEX
  5
a1f
  8
Layer_0
  10
307.25697
  20
228.86863
  0
VERTEX
  5
a20
  8
Layer_0
  10
306.31024
  20
227.84127
  0
VERTEX
  5
a21
  8
Layer_0
  10
305.3543
  20
226.76997
  0
VERTEX
  5
a22
  8
Layer_0
  10
304.39125
  20
225.6587
  0
VERTEX
  5
a23
  8
Layer_0
  10
303.42321
  20
224.51142
  0
VERTEX
  5
a24
  8
Layer_0
  10
302.45226
  20
223.3321
  0
VERTEX
  5
a25
  8
Layer_0
  10
301.48052
  20
222.12469
  0
VERTEX
  5
a26
  8
Layer_0
  10
300.51009
  20
220.89317
  0
VERTEX
  5
a27
  8
Layer_0
  10
298.58156
  20
218.37363
  0
VERTEX
  5
a28
  8
Layer_0
  10
296.6835
  20
215.80518
  0
VERTEX
  5
a29
  8
Layer_0
  10
297.15768
  20
218.96288
  0
VERTEX
  5
a2a
  8
Layer_0
  10
297.57571
  20
222.10796
  0
VERTEX
  5
a2b
  8
Layer_0
  10
297.76039
  20
223.66501
  0
VERTEX
  5
a2c
  8
Layer_0
  10
297.9271
  20
225.206
  0
VERTEX
  5
a2d
  8
Layer_0
  10
298.07452
  20
226.72661
  0
VERTEX
  5
a2e
  8
Layer_0
  10
298.20134
  20
228.22255
  0
VERTEX
  5
a2f
  8
Layer_0
  10
298.30625
  20
229.68951
  0
VERTEX
  5
a30
  8
Layer_0
  10
298.38794
  20
231.12318
  0
VERTEX
  5
a31
  8
Layer_0
  10
298.44509
  20
232.51926
  0
VERTEX
  5
a32
  8
Layer_0
  10
298.47639
  20
233.87345
  0
VERTEX
  5
a33
  8
Layer_0
  10
298.48053
  20
235.18143
  0
VERTEX
  5
a34
  8
Layer_0
  10
298.4562
  20
236.43892
  0
VERTEX
  5
a35
  8
Layer_0
  10
298.40208
  20
237.64159
  0
VERTEX
  5
a36
  8
Layer_0
  10
298.31686
  20
238.78516
  42
0.016465767
  0
VERTEX
  5
a37
  8
Layer_0
  10
298.29572
  20
238.93329
  0
VERTEX
  5
a38
  8
Layer_0
  10
298.08594
  20
240.22277
  0
VERTEX
  5
a39
  8
Layer_0
  10
297.84239
  20
241.54902
  0
VERTEX
  5
a3a
  8
Layer_0
  10
297.56029
  20
242.90088
  0
VERTEX
  5
a3b
  8
Layer_0
  10
297.23489
  20
244.26716
  0
VERTEX
  5
a3c
  8
Layer_0
  10
296.86144
  20
245.63668
  0
VERTEX
  5
a3d
  8
Layer_0
  10
296.43517
  20
246.99827
  0
VERTEX
  5
a3e
  8
Layer_0
  10
295.95131
  20
248.34074
  0
VERTEX
  5
a3f
  8
Layer_0
  10
295.40512
  20
249.65293
  0
VERTEX
  5
a40
  8
Layer_0
  10
294.79184
  20
250.92365
  0
VERTEX
  5
a41
  8
Layer_0
  10
294.1067
  20
252.14173
  0
VERTEX
  5
a42
  8
Layer_0
  10
293.7357
  20
252.72753
  0
VERTEX
  5
a43
  8
Layer_0
  10
293.34494
  20
253.29598
  0
VERTEX
  5
a44
  8
Layer_0
  10
292.93385
  20
253.84568
  0
VERTEX
  5
a45
  8
Layer_0
  10
292.50181
  20
254.37523
  0
VERTEX
  5
a46
  8
Layer_0
  10
292.04825
  20
254.88324
  0
VERTEX
  5
a47
  8
Layer_0
  10
291.57255
  20
255.36831
  0
VERTEX
  5
a48
  8
Layer_0
  10
291.07413
  20
255.82904
  0
VERTEX
  5
a49
  8
Layer_0
  10
290.55239
  20
256.26403
  0
VERTEX
  5
a4a
  8
Layer_0
  10
290.00674
  20
256.67189
  0
VERTEX
  5
a4b
  8
Layer_0
  10
289.43659
  20
257.05121
  0
VERTEX
  5
a4c
  8
Layer_0
  10
288.84133
  20
257.40061
  0
VERTEX
  5
a4d
  8
Layer_0
  10
288.22037
  20
257.71869
  0
VERTEX
  5
a4e
  8
Layer_0
  10
288.17804
  20
257.73993
  0
VERTEX
  5
a4f
  8
Layer_0
  10
287.18412
  20
258.16779
  0
VERTEX
  5
a50
  8
Layer_0
  10
286.1843
  20
258.5516
  0
VERTEX
  5
a51
  8
Layer_0
  10
285.17887
  20
258.89107
  0
VERTEX
  5
a52
  8
Layer_0
  10
284.16811
  20
259.18589
  0
VERTEX
  5
a53
  8
Layer_0
  10
283.15234
  20
259.43576
  0
VERTEX
  5
a54
  8
Layer_0
  10
282.13183
  20
259.64036
  0
VERTEX
  5
a55
  8
Layer_0
  10
281.10689
  20
259.7994
  0
VERTEX
  5
a56
  8
Layer_0
  10
280.07781
  20
259.91256
  0
VERTEX
  5
a57
  8
Layer_0
  10
279.04489
  20
259.97954
  0
VERTEX
  5
a58
  8
Layer_0
  10
278.00842
  20
260.00005
  0
VERTEX
  5
a59
  8
Layer_0
  10
276.96869
  20
259.97376
  0
VERTEX
  5
a5a
  8
Layer_0
  10
275.926
  20
259.90038
  0
VERTEX
  5
a5b
  8
Layer_0
  10
274.88065
  20
259.7796
  0
VERTEX
  5
a5c
  8
Layer_0
  10
273.83292
  20
259.61112
  0
VERTEX
  5
a5d
  8
Layer_0
  10
272.78312
  20
259.39463
  0
VERTEX
  5
a5e
  8
Layer_0
  10
271.73154
  20
259.12982
  42
0.050705288
  0
VERTEX
  5
a5f
  8
Layer_0
  10
264.93704
  20
256.47339
  0
VERTEX
  5
a60
  8
Layer_0
  10
264.06337
  20
256.00643
  0
VERTEX
  5
a61
  8
Layer_0
  10
263.21019
  20
255.52094
  0
VERTEX
  5
a62
  8
Layer_0
  10
262.36231
  20
255.03279
  0
VERTEX
  5
a63
  8
Layer_0
  10
261.50452
  20
254.55786
  0
VERTEX
  5
a64
  8
Layer_0
  10
260.98596
  20
254.35935
  0
VERTEX
  5
a65
  8
Layer_0
  10
260.44044
  20
254.21074
  0
VERTEX
  5
a66
  8
Layer_0
  10
259.87509
  20
254.10371
  0
VERTEX
  5
a67
  8
Layer_0
  10
259.297
  20
254.02997
  0
VERTEX
  5
a68
  8
Layer_0
  10
258.13108
  20
253.94908
  0
VERTEX
  5
a69
  8
Layer_0
  10
256.99954
  20
253.90161
  0
VERTEX
  5
a6a
  8
Layer_0
  10
255.8685
  20
253.94908
  0
VERTEX
  5
a6b
  8
Layer_0
  10
254.7034
  20
254.02997
  0
VERTEX
  5
a6c
  8
Layer_0
  10
254.12554
  20
254.10371
  0
VERTEX
  5
a6d
  8
Layer_0
  10
253.56012
  20
254.21074
  0
VERTEX
  5
a6e
  8
Layer_0
  10
253.01414
  20
254.35935
  0
VERTEX
  5
a6f
  8
Layer_0
  10
252.49457
  20
254.55786
  0
VERTEX
  5
a70
  8
Layer_0
  10
251.63677
  20
255.03279
  0
VERTEX
  5
a71
  8
Layer_0
  10
250.78889
  20
255.52094
  0
VERTEX
  5
a72
  8
Layer_0
  10
249.93572
  20
256.00643
  0
VERTEX
  5
a73
  8
Layer_0
  10
249.06204
  20
256.47339
  42
0.050706119
  0
VERTEX
  5
a74
  8
Layer_0
  10
242.26752
  20
259.12982
  0
VERTEX
  5
a75
  8
Layer_0
  10
241.21593
  20
259.39463
  0
VERTEX
  5
a76
  8
Layer_0
  10
240.16613
  20
259.61112
  0
VERTEX
  5
a77
  8
Layer_0
  10
239.11841
  20
259.7796
  0
VERTEX
  5
a78
  8
Layer_0
  10
238.07306
  20
259.90038
  0
VERTEX
  5
a79
  8
Layer_0
  10
237.03037
  20
259.97376
  0
VERTEX
  5
a7a
  8
Layer_0
  10
235.99065
  20
260.00005
  0
VERTEX
  5
a7b
  8
Layer_0
  10
234.95418
  20
259.97954
  0
VERTEX
  5
a7c
  8
Layer_0
  10
233.92126
  20
259.91256
  0
VERTEX
  5
a7d
  8
Layer_0
  10
232.89218
  20
259.7994
  0
VERTEX
  5
a7e
  8
Layer_0
  10
231.86725
  20
259.64036
  0
VERTEX
  5
a7f
  8
Layer_0
  10
230.84674
  20
259.43576
  0
VERTEX
  5
a80
  8
Layer_0
  10
229.83097
  20
259.18589
  0
VERTEX
  5
a81
  8
Layer_0
  10
228.82022
  20
258.89107
  0
VERTEX
  5
a82
  8
Layer_0
  10
227.81478
  20
258.5516
  0
VERTEX
  5
a83
  8
Layer_0
  10
226.81496
  20
258.16779
  0
VERTEX
  5
a84
  8
Layer_0
  10
225.82104
  20
257.73993
  0
VERTEX
  5
a85
  8
Layer_0
  10
225.77869
  20
257.71869
  0
VERTEX
  5
a86
  8
Layer_0
  10
225.15804
  20
257.40061
  0
VERTEX
  5
a87
  8
Layer_0
  10
224.56305
  20
257.05121
  0
VERTEX
  5
a88
  8
Layer_0
  10
223.99313
  20
256.67189
  0
VERTEX
  5
a89
  8
Layer_0
  10
223.44768
  20
256.26403
  0
VERTEX
  5
a8a
  8
Layer_0
  10
222.92611
  20
255.82904
  0
VERTEX
  5
a8b
  8
Layer_0
  10
222.42782
  20
255.36831
  0
VERTEX
  5
a8c
  8
Layer_0
  10
221.95223
  20
254.88324
  0
VERTEX
  5
a8d
  8
Layer_0
  10
221.49874
  20
254.37523
  0
VERTEX
  5
a8e
  8
Layer_0
  10
221.06676
  20
253.84568
  0
VERTEX
  5
a8f
  8
Layer_0
  10
220.65569
  20
253.29598
  0
VERTEX
  5
a90
  8
Layer_0
  10
220.26494
  20
252.72753
  0
VERTEX
  5
a91
  8
Layer_0
  10
219.89392
  20
252.14173
  0
VERTEX
  5
a92
  8
Layer_0
  10
219.2087
  20
250.92365
  0
VERTEX
  5
a93
  8
Layer_0
  10
218.59527
  20
249.65293
  0
VERTEX
  5
a94
  8
Layer_0
  10
218.0489
  20
248.34074
  0
VERTEX
  5
a95
  8
Layer_0
  10
217.56484
  20
246.99827
  0
VERTEX
  5
a96
  8
Layer_0
  10
217.13835
  20
245.63668
  0
VERTEX
  5
a97
  8
Layer_0
  10
216.76468
  20
244.26716
  0
VERTEX
  5
a98
  8
Layer_0
  10
216.43909
  20
242.90088
  0
VERTEX
  5
a99
  8
Layer_0
  10
216.15684
  20
241.54902
  0
VERTEX
  5
a9a
  8
Layer_0
  10
215.91318
  20
240.22277
  0
VERTEX
  5
a9b
  8
Layer_0
  10
215.70337
  20
238.93329
  42
0.016182369
  0
VERTEX
  5
a9c
  8
Layer_0
  10
215.68219
  20
238.78516
  0
VERTEX
  5
a9d
  8
Layer_0
  10
215.59698
  20
237.64159
  0
VERTEX
  5
a9e
  8
Layer_0
  10
215.54286
  20
236.43892
  0
VERTEX
  5
a9f
  8
Layer_0
  10
215.51853
  20
235.18143
  0
VERTEX
  5
aa0
  8
Layer_0
  10
215.52268
  20
233.87345
  0
VERTEX
  5
aa1
  8
Layer_0
  10
215.55398
  20
232.51926
  0
VERTEX
  5
aa2
  8
Layer_0
  10
215.61114
  20
231.12318
  0
VERTEX
  5
aa3
  8
Layer_0
  10
215.69283
  20
229.68951
  0
VERTEX
  5
aa4
  8
Layer_0
  10
215.79774
  20
228.22255
  0
VERTEX
  5
aa5
  8
Layer_0
  10
215.92456
  20
226.72661
  0
VERTEX
  5
aa6
  8
Layer_0
  10
216.07198
  20
225.206
  0
VERTEX
  5
aa7
  8
Layer_0
  10
216.23869
  20
223.66501
  0
VERTEX
  5
aa8
  8
Layer_0
  10
216.42336
  20
222.10796
  0
VERTEX
  5
aa9
  8
Layer_0
  10
216.84139
  20
218.96288
  0
VERTEX
  5
aaa
  8
Layer_0
  10
217.31555
  20
215.80518
  0
VERTEX
  5
aab
  8
Layer_0
  10
215.41749
  20
218.37363
  0
VERTEX
  5
aac
  8
Layer_0
  10
213.48896
  20
220.89317
  0
VERTEX
  5
aad
  8
Layer_0
  10
212.51853
  20
222.12469
  0
VERTEX
  5
aae
  8
Layer_0
  10
211.54679
  20
223.3321
  0
VERTEX
  5
aaf
  8
Layer_0
  10
210.57585
  20
224.51142
  0
VERTEX
  5
ab0
  8
Layer_0
  10
209.6078
  20
225.6587
  0
VERTEX
  5
ab1
  8
Layer_0
  10
208.64476
  20
226.76997
  0
VERTEX
  5
ab2
  8
Layer_0
  10
207.68883
  20
227.84127
  0
VERTEX
  5
ab3
  8
Layer_0
  10
206.7421
  20
228.86863
  0
VERTEX
  5
ab4
  8
Layer_0
  10
205.80669
  20
229.8481
  0
VERTEX
  5
ab5
  8
Layer_0
  10
204.88469
  20
230.7757
  0
VERTEX
  5
ab6
  8
Layer_0
  10
203.97821
  20
231.64748
  0
VERTEX
  5
ab7
  8
Layer_0
  10
203.08935
  20
232.45947
  0
VERTEX
  5
ab8
  8
Layer_0
  10
202.22021
  20
233.2077
  42
0.037480317
  0
VERTEX
  5
ab9
  8
Layer_0
  10
202.10379
  20
233.29944
  0
VERTEX
  5
aba
  8
Layer_0
  10
201.04345
  20
234.06292
  0
VERTEX
  5
abb
  8
Layer_0
  10
199.93316
  20
234.82845
  0
VERTEX
  5
abc
  8
Layer_0
  10
198.77748
  20
235.58478
  0
VERTEX
  5
abd
  8
Layer_0
  10
197.58096
  20
236.32066
  0
VERTEX
  5
abe
  8
Layer_0
  10
196.34814
  20
237.02483
  0
VERTEX
  5
abf
  8
Layer_0
  10
195.08357
  20
237.68604
  0
VERTEX
  5
ac0
  8
Layer_0
  10
193.7918
  20
238.29302
  0
VERTEX
  5
ac1
  8
Layer_0
  10
192.47737
  20
238.83453
  0
VERTEX
  5
ac2
  8
Layer_0
  10
191.14484
  20
239.29932
  0
VERTEX
  5
ac3
  8
Layer_0
  10
189.79874
  20
239.67611
  0
VERTEX
  5
ac4
  8
Layer_0
  10
189.12203
  20
239.828
  0
VERTEX
  5
ac5
  8
Layer_0
  10
188.44364
  20
239.95367
  0
VERTEX
  5
ac6
  8
Layer_0
  10
187.76412
  20
240.05171
  0
VERTEX
  5
ac7
  8
Layer_0
  10
187.08406
  20
240.12073
  0
VERTEX
  5
ac8
  8
Layer_0
  10
186.40402
  20
240.15931
  0
VERTEX
  5
ac9
  8
Layer_0
  10
185.72457
  20
240.16604
  0
VERTEX
  5
aca
  8
Layer_0
  10
185.04628
  20
240.13952
  0
VERTEX
  5
acb
  8
Layer_0
  10
184.36972
  20
240.07835
  0
VERTEX
  5
acc
  8
Layer_0
  10
183.69544
  20
239.98111
  0
VERTEX
  5
acd
  8
Layer_0
  10
183.02403
  20
239.84639
  0
VERTEX
  5
ace
  8
Layer_0
  10
182.35606
  20
239.6728
  0
VERTEX
  5
acf
  8
Layer_0
  10
181.69208
  20
239.45892
  0
VERTEX
  5
ad0
  8
Layer_0
  10
181.64975
  20
239.44482
  0
VERTEX
  5
ad1
  8
Layer_0
  10
180.64445
  20
239.04423
  0
VERTEX
  5
ad2
  8
Layer_0
  10
179.66611
  20
238.60839
  0
VERTEX
  5
ad3
  8
Layer_0
  10
178.71515
  20
238.13729
  0
VERTEX
  5
ad4
  8
Layer_0
  10
177.79201
  20
237.63089
  0
VERTEX
  5
ad5
  8
Layer_0
  10
176.8971
  20
237.08919
  0
VERTEX
  5
ad6
  8
Layer_0
  10
176.03086
  20
236.51217
  0
VERTEX
  5
ad7
  8
Layer_0
  10
175.1937
  20
235.89979
  0
VERTEX
  5
ad8
  8
Layer_0
  10
174.38604
  20
235.25205
  0
VERTEX
  5
ad9
  8
Layer_0
  10
173.60832
  20
234.56892
  0
VERTEX
  5
ada
  8
Layer_0
  10
172.86095
  20
233.85039
  0
VERTEX
  5
adb
  8
Layer_0
  10
172.14437
  20
233.09643
  0
VERTEX
  5
adc
  8
Layer_0
  10
171.45898
  20
232.30702
  0
VERTEX
  5
add
  8
Layer_0
  10
170.80522
  20
231.48214
  0
VERTEX
  5
ade
  8
Layer_0
  10
170.18351
  20
230.62177
  0
VERTEX
  5
adf
  8
Layer_0
  10
169.59427
  20
229.7259
  0
VERTEX
  5
ae0
  8
Layer_0
  10
169.03793
  20
228.79449
  42
0.050769453
  0
VERTEX
  5
ae1
  8
Layer_0
  10
166.10986
  20
222.11285
  0
VERTEX
  5
ae2
  8
Layer_0
  10
165.82329
  20
221.16577
  0
VERTEX
  5
ae3
  8
Layer_0
  10
165.56351
  20
220.21935
  0
VERTEX
  5
ae4
  8
Layer_0
  10
165.30967
  20
219.27425
  0
VERTEX
  5
ae5
  8
Layer_0
  10
165.04095
  20
218.33112
  0
VERTEX
  5
ae6
  8
Layer_0
  10
164.81324
  20
217.82463
  0
VERTEX
  5
ae7
  8
Layer_0
  10
164.53158
  20
217.33399
  0
VERTEX
  5
ae8
  8
Layer_0
  10
164.20684
  20
216.85849
  0
VERTEX
  5
ae9
  8
Layer_0
  10
163.84989
  20
216.39742
  0
VERTEX
  5
aea
  8
Layer_0
  10
163.08287
  20
215.51575
  0
VERTEX
  5
aeb
  8
Layer_0
  10
162.3175
  20
214.68335
  0
VERTEX
  5
aec
  8
Layer_0
  10
161.48358
  20
213.9165
  0
VERTEX
  5
aed
  8
Layer_0
  10
160.6017
  20
213.14964
  0
VERTEX
  5
aee
  8
Layer_0
  10
160.1406
  20
212.79309
  0
VERTEX
  5
aef
  8
Layer_0
  10
159.66491
  20
212.46878
  0
VERTEX
  5
af0
  8
Layer_0
  10
159.17375
  20
212.18747
  0
VERTEX
  5
af1
  8
Layer_0
  10
158.66627
  20
211.9599
  0
VERTEX
  5
af2
  8
Layer_0
  10
157.72513
  20
211.69114
  0
VERTEX
  5
af3
  8
Layer_0
  10
156.78067
  20
211.4369
  0
VERTEX
  5
af4
  8
Layer_0
  10
155.83357
  20
211.17606
  0
VERTEX
  5
af5
  8
Layer_0
  10
154.88449
  20
210.88745
  42
0.050938455
  0
VERTEX
  5
af6
  8
Layer_0
  10
148.20288
  20
207.96295
  0
VERTEX
  5
af7
  8
Layer_0
  10
147.27204
  20
207.40661
  0
VERTEX
  5
af8
  8
Layer_0
  10
146.37659
  20
206.81737
  0
VERTEX
  5
af9
  8
Layer_0
  10
145.51653
  20
206.19564
  0
VERTEX
  5
afa
  8
Layer_0
  10
144.69186
  20
205.54184
  0
VERTEX
  5
afb
  8
Layer_0
  10
143.90257
  20
204.8564
  0
VERTEX
  5
afc
  8
Layer_0
  10
143.14867
  20
204.13973
  0
VERTEX
  5
afd
  8
Layer_0
  10
142.43016
  20
203.39225
  0
VERTEX
  5
afe
  8
Layer_0
  10
141.74704
  20
202.61438
  0
VERTEX
  5
aff
  8
Layer_0
  10
141.09931
  20
201.80654
  0
VERTEX
  5
b00
  8
Layer_0
  10
140.48696
  20
200.96914
  0
VERTEX
  5
b01
  8
Layer_0
  10
139.91
  20
200.10261
  0
VERTEX
  5
b02
  8
Layer_0
  10
139.36843
  20
199.20736
  0
VERTEX
  5
b03
  8
Layer_0
  10
138.86225
  20
198.28382
  0
VERTEX
  5
b04
  8
Layer_0
  10
138.39145
  20
197.3324
  0
VERTEX
  5
b05
  8
Layer_0
  10
137.95605
  20
196.35352
  0
VERTEX
  5
b06
  8
Layer_0
  10
137.55603
  20
195.3476
  0
VERTEX
  5
b07
  8
Layer_0
  10
137.54192
  20
195.3053
  0
VERTEX
  5
b08
  8
Layer_0
  10
137.32773
  20
194.64133
  0
VERTEX
  5
b09
  8
Layer_0
  10
137.15387
  20
193.97338
  0
VERTEX
  5
b0a
  8
Layer_0
  10
137.01893
  20
193.30202
  0
VERTEX
  5
b0b
  8
Layer_0
  10
136.92149
  20
192.62781
  0
VERTEX
  5
b0c
  8
Layer_0
  10
136.86014
  20
191.95132
  0
VERTEX
  5
b0d
  8
Layer_0
  10
136.83349
  20
191.27312
  0
VERTEX
  5
b0e
  8
Layer_0
  10
136.84011
  20
190.59377
  0
VERTEX
  5
b0f
  8
Layer_0
  10
136.87859
  20
189.91385
  0
VERTEX
  5
b10
  8
Layer_0
  10
136.94754
  20
189.23392
  0
VERTEX
  5
b11
  8
Layer_0
  10
137.04553
  20
188.55454
  0
VERTEX
  5
b12
  8
Layer_0
  10
137.17116
  20
187.87629
  0
VERTEX
  5
b13
  8
Layer_0
  10
137.32303
  20
187.19973
  0
VERTEX
  5
b14
  8
Layer_0
  10
137.6998
  20
185.85395
  0
VERTEX
  5
b15
  8
Layer_0
  10
138.16458
  20
184.52174
  0
VERTEX
  5
b16
  8
Layer_0
  10
138.70609
  20
183.20763
  0
VERTEX
  5
b17
  8
Layer_0
  10
139.31305
  20
181.91618
  0
VERTEX
  5
b18
  8
Layer_0
  10
139.97419
  20
180.6519
  0
VERTEX
  5
b19
  8
Layer_0
  10
140.67823
  20
179.41935
  0
VERTEX
  5
b1a
  8
Layer_0
  10
141.4139
  20
178.22306
  0
VERTEX
  5
b1b
  8
Layer_0
  10
142.16992
  20
177.06756
  0
VERTEX
  5
b1c
  8
Layer_0
  10
142.93501
  20
175.95739
  0
VERTEX
  5
b1d
  8
Layer_0
  10
143.69791
  20
174.89709
  0
VERTEX
  5
b1e
  8
Layer_0
  10
143.79315
  20
174.77716
  0
VERTEX
  5
b1f
  8
Layer_0
  10
144.5408
  20
173.9086
  0
VERTEX
  5
b20
  8
Layer_0
  10
145.35236
  20
173.02016
  0
VERTEX
  5
b21
  8
Layer_0
  10
146.22384
  20
172.11397
  0
VERTEX
  5
b22
  8
Layer_0
  10
147.15126
  20
171.19215
  0
VERTEX
  5
b23
  8
Layer_0
  10
148.13065
  20
170.2568
  0
VERTEX
  5
b24
  8
Layer_0
  10
149.15803
  20
169.31006
  0
VERTEX
  5
b25
  8
Layer_0
  10
150.22941
  20
168.35404
  0
VERTEX
  5
b26
  8
Layer_0
  10
151.34083
  20
167.39085
  0
VERTEX
  5
b27
  8
Layer_0
  10
152.48829
  20
166.42263
  0
VERTEX
  5
b28
  8
Layer_0
  10
153.66782
  20
165.45148
  0
VERTEX
  5
b29
  8
Layer_0
  10
154.87545
  20
164.47952
  0
VERTEX
  5
b2a
  8
Layer_0
  10
156.10718
  20
163.50888
  0
VERTEX
  5
b2b
  8
Layer_0
  10
158.62708
  20
161.58001
  0
VERTEX
  5
b2c
  8
Layer_0
  10
161.19567
  20
159.68182
  0
VERTEX
  5
b2d
  8
Layer_0
  10
158.03698
  20
160.15698
  0
VERTEX
  5
b2e
  8
Layer_0
  10
154.89143
  20
160.57547
  0
VERTEX
  5
b2f
  8
Layer_0
  10
153.3343
  20
160.76022
  0
VERTEX
  5
b30
  8
Layer_0
  10
151.79334
  20
160.92691
  0
VERTEX
  5
b31
  8
Layer_0
  10
150.27281
  20
161.07424
  0
VERTEX
  5
b32
  8
Layer_0
  10
148.77702
  20
161.20091
  0
VERTEX
  5
b33
  8
Layer_0
  10
147.31024
  20
161.30564
  0
VERTEX
  5
b34
  8
Layer_0
  10
145.87678
  20
161.38712
  0
VERTEX
  5
b35
  8
Layer_0
  10
144.48092
  20
161.44405
  0
VERTEX
  5
b36
  8
Layer_0
  10
143.12695
  20
161.47514
  0
VERTEX
  5
b37
  8
Layer_0
  10
141.81916
  20
161.47909
  0
VERTEX
  5
b38
  8
Layer_0
  10
140.56183
  20
161.4546
  0
VERTEX
  5
b39
  8
Layer_0
  10
139.35927
  20
161.40038
  0
VERTEX
  5
b3a
  8
Layer_0
  10
138.21574
  20
161.31512
  42
0.016265264
  0
VERTEX
  5
b3b
  8
Layer_0
  10
138.06403
  20
161.29749
  0
VERTEX
  5
b3c
  8
Layer_0
  10
136.77518
  20
161.08709
  0
VERTEX
  5
b3d
  8
Layer_0
  10
135.44947
  20
160.84299
  0
VERTEX
  5
b3e
  8
Layer_0
  10
134.09808
  20
160.56042
  0
VERTEX
  5
b3f
  8
Layer_0
  10
132.73218
  20
160.23463
  0
VERTEX
  5
b40
  8
Layer_0
  10
131.36296
  20
159.86083
  0
VERTEX
  5
b41
  8
Layer_0
  10
130.00158
  20
159.43427
  0
VERTEX
  5
b42
  8
Layer_0
  10
128.65923
  20
158.95019
  0
VERTEX
  5
b43
  8
Layer_0
  10
127.34709
  20
158.40382
  0
VERTEX
  5
b44
  8
Layer_0
  10
126.07633
  20
157.79039
  0
VERTEX
  5
b45
  8
Layer_0
  10
124.85812
  20
157.10513
  0
VERTEX
  5
b46
  8
Layer_0
  10
124.27222
  20
156.73409
  0
VERTEX
  5
b47
  8
Layer_0
  10
123.70366
  20
156.3433
  0
VERTEX
  5
b48
  8
Layer_0
  10
123.15382
  20
155.93217
  0
VERTEX
  5
b49
  8
Layer_0
  10
122.62411
  20
155.50011
  0
VERTEX
  5
b4a
  8
Layer_0
  10
122.11592
  20
155.04652
  0
VERTEX
  5
b4b
  8
Layer_0
  10
121.63065
  20
154.57081
  0
VERTEX
  5
b4c
  8
Layer_0
  10
121.1697
  20
154.07238
  0
VERTEX
  5
b4d
  8
Layer_0
  10
120.73446
  20
153.55063
  0
VERTEX
  5
b4e
  8
Layer_0
  10
120.32634
  20
153.00497
  0
VERTEX
  5
b4f
  8
Layer_0
  10
119.94672
  20
152.4348
  0
VERTEX
  5
b50
  8
Layer_0
  10
119.59701
  20
151.83953
  0
VERTEX
  5
b51
  8
Layer_0
  10
119.27861
  20
151.21857
  0
VERTEX
  5
b52
  8
Layer_0
  10
119.26097
  20
151.17981
  0
VERTEX
  5
b53
  8
Layer_0
  10
118.8331
  20
150.18589
  0
VERTEX
  5
b54
  8
Layer_0
  10
118.44927
  20
149.18607
  0
VERTEX
  5
b55
  8
Layer_0
  10
118.1098
  20
148.18062
  0
VERTEX
  5
b56
  8
Layer_0
  10
117.81497
  20
147.16983
  0
VERTEX
  5
b57
  8
Layer_0
  10
117.56511
  20
146.15401
  0
VERTEX
  5
b58
  8
Layer_0
  10
117.3605
  20
145.13343
  0
VERTEX
  5
b59
  8
Layer_0
  10
117.20147
  20
144.10838
  0
VERTEX
  5
b5a
  8
Layer_0
  10
117.08831
  20
143.07916
  0
VERTEX
  5
b5b
  8
Layer_0
  10
117.02132
  20
142.04606
  0
VERTEX
  5
b5c
  8
Layer_0
  10
117.00082
  20
141.00936
  0
VERTEX
  5
b5d
  8
Layer_0
  10
117.02711
  20
139.96935
  0
VERTEX
  5
b5e
  8
Layer_0
  10
117.10049
  20
138.92633
  0
VERTEX
  5
b5f
  8
Layer_0
  10
117.22127
  20
137.88058
  0
VERTEX
  5
b60
  8
Layer_0
  10
117.38975
  20
136.83239
  0
VERTEX
  5
b61
  8
Layer_0
  10
117.60623
  20
135.78205
  0
VERTEX
  5
b62
  8
Layer_0
  10
117.87103
  20
134.72986
  42
0.051278177
  0
VERTEX
  5
b63
  8
Layer_0
  10
120.52745
  20
127.93884
  0
VERTEX
  5
b64
  8
Layer_0
  10
120.99394
  20
127.06466
  0
VERTEX
  5
b65
  8
Layer_0
  10
121.47862
  20
126.21067
  0
VERTEX
  5
b66
  8
Layer_0
  10
121.96662
  20
125.36264
  0
VERTEX
  5
b67
  8
Layer_0
  10
122.44304
  20
124.50635
  0
VERTEX
  5
b68
  8
Layer_0
  10
122.64053
  20
123.98662
  0
VERTEX
  5
b69
  8
Layer_0
  10
122.78865
  20
123.44028
  0
VERTEX
  5
b6a
  8
Layer_0
  10
122.8956
  20
122.87442
  0
VERTEX
  5
b6b
  8
Layer_0
  10
122.96956
  20
122.29617
  0
VERTEX
  5
b6c
  8
Layer_0
  10
123.05124
  20
121.13089
  0
VERTEX
  5
b6d
  8
Layer_0
  10
123.0992
  20
120.00134
  0
VERTEX
  5
b6e
  8
Layer_0
  10
123.05124
  20
118.86974
  0
VERTEX
  5
b6f
  8
Layer_0
  10
122.96956
  20
117.70341
  0
VERTEX
  5
b70
  8
Layer_0
  10
122.8956
  20
117.1249
  0
VERTEX
  5
b71
  8
Layer_0
  10
122.78865
  20
116.55892
  0
VERTEX
  5
b72
  8
Layer_0
  10
122.64053
  20
116.01255
  0
VERTEX
  5
b73
  8
Layer_0
  10
122.44304
  20
115.49286
  0
VERTEX
  5
b74
  8
Layer_0
  10
121.96662
  20
114.63654
  0
VERTEX
  5
b75
  8
Layer_0
  10
121.47862
  20
113.78848
  0
VERTEX
  5
b76
  8
Layer_0
  10
120.99394
  20
112.93444
  0
VERTEX
  5
b77
  8
Layer_0
  10
120.52745
  20
112.06024
  42
0.051278177
  0
VERTEX
  5
b78
  8
Layer_0
  10
117.87103
  20
105.26929
  0
VERTEX
  5
b79
  8
Layer_0
  10
117.60623
  20
104.21712
  0
VERTEX
  5
b7a
  8
Layer_0
  10
117.38975
  20
103.16688
  0
VERTEX
  5
b7b
  8
Layer_0
  10
117.22127
  20
102.11884
  0
VERTEX
  5
b7c
  8
Layer_0
  10
117.10049
  20
101.07328
  0
VERTEX
  5
b7d
  8
Layer_0
  10
117.02711
  20
100.03047
  0
VERTEX
  5
b7e
  8
Layer_0
  10
117.00082
  20
98.990675
  0
VERTEX
  5
b7f
  8
Layer_0
  10
117.02132
  20
97.95418
  0
VERTEX
  5
b80
  8
Layer_0
  10
117.08831
  20
96.921257
  0
VERTEX
  5
b81
  8
Layer_0
  10
117.20147
  20
95.892178
  0
VERTEX
  5
b82
  8
Layer_0
  10
117.3605
  20
94.867217
  0
VERTEX
  5
b83
  8
Layer_0
  10
117.56511
  20
93.846649
  0
VERTEX
  5
b84
  8
Layer_0
  10
117.81497
  20
92.830747
  0
VERTEX
  5
b85
  8
Layer_0
  10
118.1098
  20
91.819784
  0
VERTEX
  5
b86
  8
Layer_0
  10
118.44927
  20
90.814036
  0
VERTEX
  5
b87
  8
Layer_0
  10
118.8331
  20
89.813774
  0
VERTEX
  5
b88
  8
Layer_0
  10
119.26097
  20
88.819275
  0
VERTEX
  5
b89
  8
Layer_0
  10
119.27861
  20
88.780518
  0
VERTEX
  5
b8a
  8
Layer_0
  10
119.59701
  20
88.159551
  0
VERTEX
  5
b8b
  8
Layer_0
  10
119.94672
  20
87.564282
  0
VERTEX
  5
b8c
  8
Layer_0
  10
120.32634
  20
86.994116
  0
VERTEX
  5
b8d
  8
Layer_0
  10
120.73446
  20
86.448456
  0
VERTEX
  5
b8e
  8
Layer_0
  10
121.1697
  20
85.926708
  0
VERTEX
  5
b8f
  8
Layer_0
  10
121.63065
  20
85.428275
  0
VERTEX
  5
b90
  8
Layer_0
  10
122.11592
  20
84.952562
  0
VERTEX
  5
b91
  8
Layer_0
  10
122.62411
  20
84.498974
  0
VERTEX
  5
b92
  8
Layer_0
  10
123.15382
  20
84.066914
  0
VERTEX
  5
b93
  8
Layer_0
  10
123.70366
  20
83.655788
  0
VERTEX
  5
b94
  8
Layer_0
  10
124.27222
  20
83.264999
  0
VERTEX
  5
b95
  8
Layer_0
  10
124.85812
  20
82.893953
  0
VERTEX
  5
b96
  8
Layer_0
  10
126.07633
  20
82.208704
  0
VERTEX
  5
b97
  8
Layer_0
  10
127.34709
  20
81.595276
  0
VERTEX
  5
b98
  8
Layer_0
  10
128.65923
  20
81.048905
  0
VERTEX
  5
b99
  8
Layer_0
  10
130.00158
  20
80.564826
  0
VERTEX
  5
b9a
  8
Layer_0
  10
131.36296
  20
80.138274
  0
VERTEX
  5
b9b
  8
Layer_0
  10
132.73218
  20
79.764484
  0
VERTEX
  5
b9c
  8
Layer_0
  10
134.09808
  20
79.438693
  0
VERTEX
  5
b9d
  8
Layer_0
  10
135.44947
  20
79.156135
  0
VERTEX
  5
b9e
  8
Layer_0
  10
136.77518
  20
78.912046
  0
VERTEX
  5
b9f
  8
Layer_0
  10
138.06403
  20
78.70166
  42
0.01683567
  0
VERTEX
  5
ba0
  8
Layer_0
  10
138.21574
  20
78.684021
  0
VERTEX
  5
ba1
  8
Layer_0
  10
139.35927
  20
78.598796
  0
VERTEX
  5
ba2
  8
Layer_0
  10
140.56183
  20
78.54467
  0
VERTEX
  5
ba3
  8
Layer_0
  10
141.81916
  20
78.52033
  0
VERTEX
  5
ba4
  8
Layer_0
  10
143.12695
  20
78.524465
  0
VERTEX
  5
ba5
  8
Layer_0
  10
144.48092
  20
78.55576
  0
VERTEX
  5
ba6
  8
Layer_0
  10
145.87678
  20
78.612905
  0
VERTEX
  5
ba7
  8
Layer_0
  10
147.31024
  20
78.694586
  0
VERTEX
  5
ba8
  8
Layer_0
  10
148.77702
  20
78.799492
  0
VERTEX
  5
ba9
  8
Layer_0
  10
150.27281
  20
78.926309
  0
VERTEX
  5
baa
  8
Layer_0
  10
151.79334
  20
79.073726
  0
VERTEX
  5
bab
  8
Layer_0
  10
153.3343
  20
79.24043
  0
VERTEX
  5
bac
  8
Layer_0
  10
154.89143
  20
79.425109
  0
VERTEX
  5
bad
  8
Layer_0
  10
158.03698
  20
79.84314
  0
VERTEX
  5
bae
  8
Layer_0
  10
161.19567
  20
80.317322
  0
VERTEX
  5
baf
  8
Layer_0
  10
158.62708
  20
78.419117
  0
VERTEX
  5
bb0
  8
Layer_0
  10
156.10718
  20
76.490242
  0
VERTEX
  5
bb1
  8
Layer_0
  10
154.87545
  20
75.5196
  0
VERTEX
  5
bb2
  8
Layer_0
  10
153.66782
  20
74.547646
  0
VERTEX
  5
bb3
  8
Layer_0
  10
152.48829
  20
73.576498
  0
VERTEX
  5
bb4
  8
Layer_0
  10
151.34083
  20
72.608276
  0
VERTEX
  5
bb5
  8
Layer_0
  10
150.22941
  20
71.645098
  0
VERTEX
  5
bb6
  8
Layer_0
  10
149.15803
  20
70.689083
  0
VERTEX
  5
bb7
  8
Layer_0
  10
148.13065
  20
69.742349
  0
VERTEX
  5
bb8
  8
Layer_0
  10
147.15126
  20
68.807014
  0
VERTEX
  5
bb9
  8
Layer_0
  10
146.22384
  20
67.885198
  0
VERTEX
  5
bba
  8
Layer_0
  10
145.35236
  20
66.979019
  0
VERTEX
  5
bbb
  8
Layer_0
  10
144.5408
  20
66.090595
  0
VERTEX
  5
bbc
  8
Layer_0
  10
143.79315
  20
65.222046
  0
VERTEX
  5
bbd
  8
Layer_0
  10
143.69791
  20
65.102051
  0
VERTEX
  5
bbe
  8
Layer_0
  10
142.93501
  20
64.041756
  0
VERTEX
  5
bbf
  8
Layer_0
  10
142.16992
  20
62.931592
  0
VERTEX
  5
bc0
  8
Layer_0
  10
141.4139
  20
61.776095
  0
VERTEX
  5
bc1
  8
Layer_0
  10
140.67823
  20
60.579803
  0
VERTEX
  5
bc2
  8
Layer_0
  10
139.97419
  20
59.347254
  0
VERTEX
  5
bc3
  8
Layer_0
  10
139.31305
  20
58.082984
  0
VERTEX
  5
bc4
  8
Layer_0
  10
138.70609
  20
56.791531
  0
VERTEX
  5
bc5
  8
Layer_0
  10
138.16458
  20
55.477432
  0
VERTEX
  5
bc6
  8
Layer_0
  10
137.6998
  20
54.145224
  0
VERTEX
  5
bc7
  8
Layer_0
  10
137.32303
  20
52.799445
  0
VERTEX
  5
bc8
  8
Layer_0
  10
137.17116
  20
52.122883
  0
VERTEX
  5
bc9
  8
Layer_0
  10
137.04553
  20
51.444631
  0
VERTEX
  5
bca
  8
Layer_0
  10
136.94754
  20
50.765254
  0
VERTEX
  5
bcb
  8
Layer_0
  10
136.87859
  20
50.08532
  0
VERTEX
  5
bcc
  8
Layer_0
  10
136.84011
  20
49.405395
  0
VERTEX
  5
bcd
  8
Layer_0
  10
136.83349
  20
48.726048
  0
VERTEX
  5
bce
  8
Layer_0
  10
136.86014
  20
48.047846
  0
VERTEX
  5
bcf
  8
Layer_0
  10
136.92149
  20
47.371355
  0
VERTEX
  5
bd0
  8
Layer_0
  10
137.01893
  20
46.697142
  0
VERTEX
  5
bd1
  8
Layer_0
  10
137.15387
  20
46.025775
  0
VERTEX
  5
bd2
  8
Layer_0
  10
137.32773
  20
45.357821
  0
VERTEX
  5
bd3
  8
Layer_0
  10
137.54192
  20
44.693848
  0
VERTEX
  5
bd4
  8
Layer_0
  10
137.55603
  20
44.65155
  0
VERTEX
  5
bd5
  8
Layer_0
  10
137.95605
  20
43.645629
  0
VERTEX
  5
bd6
  8
Layer_0
  10
138.39145
  20
42.666748
  0
VERTEX
  5
bd7
  8
Layer_0
  10
138.86225
  20
41.715326
  0
VERTEX
  5
bd8
  8
Layer_0
  10
139.36843
  20
40.791782
  0
VERTEX
  5
bd9
  8
Layer_0
  10
139.91
  20
39.896536
  0
VERTEX
  5
bda
  8
Layer_0
  10
140.48696
  20
39.030005
  0
VERTEX
  5
bdb
  8
Layer_0
  10
141.09931
  20
38.192609
  0
VERTEX
  5
bdc
  8
Layer_0
  10
141.74704
  20
37.384766
  0
VERTEX
  5
bdd
  8
Layer_0
  10
142.43016
  20
36.606895
  0
VERTEX
  5
bde
  8
Layer_0
  10
143.14867
  20
35.859415
  0
VERTEX
  5
bdf
  8
Layer_0
  10
143.90257
  20
35.142744
  0
VERTEX
  5
be0
  8
Layer_0
  10
144.69186
  20
34.457302
  0
VERTEX
  5
be1
  8
Layer_0
  10
145.51653
  20
33.803507
  0
VERTEX
  5
be2
  8
Layer_0
  10
146.37659
  20
33.181778
  0
VERTEX
  5
be3
  8
Layer_0
  10
147.27204
  20
32.592534
  0
VERTEX
  5
be4
  8
Layer_0
  10
148.20288
  20
32.036194
  42
0.050937936
  0
VERTEX
  5
be5
  8
Layer_0
  10
154.88449
  20
29.111633
  0
VERTEX
  5
be6
  8
Layer_0
  10
156.78067
  20
28.56353
  0
VERTEX
  5
be7
  8
Layer_0
  10
158.66627
  20
28.039185
  0
VERTEX
  5
be8
  8
Layer_0
  10
159.17375
  20
27.812642
  0
VERTEX
  5
be9
  8
Layer_0
  10
159.66491
  20
27.531861
  0
VERTEX
  5
bea
  8
Layer_0
  10
160.1406
  20
27.207754
  0
VERTEX
  5
beb
  8
Layer_0
  10
160.6017
  20
26.851234
  0
VERTEX
  5
bec
  8
Layer_0
  10
161.48358
  20
26.084605
  0
VERTEX
  5
bed
  8
Layer_0
  10
162.3175
  20
25.319275
  0
VERTEX
  5
bee
  8
Layer_0
  10
163.08287
  20
24.485379
  0
VERTEX
  5
bef
  8
Layer_0
  10
163.84989
  20
23.603493
  0
VERTEX
  5
bf0
  8
Layer_0
  10
164.20684
  20
23.142388
  0
VERTEX
  5
bf1
  8
Layer_0
  10
164.53158
  20
22.666686
  0
VERTEX
  5
bf2
  8
Layer_0
  10
164.81324
  20
22.175522
  0
VERTEX
  5
bf3
  8
Layer_0
  10
165.04095
  20
21.66803
  0
VERTEX
  5
bf4
  8
Layer_0
  10
165.30967
  20
20.724919
  0
VERTEX
  5
bf5
  8
Layer_0
  10
165.56351
  20
19.779823
  0
VERTEX
  5
bf6
  8
Layer_0
  10
165.82329
  20
18.833411
  0
VERTEX
  5
bf7
  8
Layer_0
  10
166.10986
  20
17.886353
  42
0.050776432
  0
VERTEX
  5
bf8
  8
Layer_0
  10
169.03793
  20
11.204651
  0
VERTEX
  5
bf9
  8
Layer_0
  10
169.59427
  20
10.27324
  0
VERTEX
  5
bfa
  8
Layer_0
  10
170.18351
  20
9.3773664
  0
VERTEX
  5
bfb
  8
Layer_0
  10
170.80522
  20
8.5170143
  0
VERTEX
  5
bfc
  8
Layer_0
  10
171.45898
  20
7.6921682
  0
VERTEX
  5
bfd
  8
Layer_0
  10
172.14437
  20
6.9028128
  0
VERTEX
  5
bfe
  8
Layer_0
  10
172.86095
  20
6.1489326
  0
VERTEX
  5
bff
  8
Layer_0
  10
173.60832
  20
5.430512
  0
VERTEX
  5
c00
  8
Layer_0
  10
174.38604
  20
4.7475357
  0
VERTEX
  5
c01
  8
Layer_0
  10
175.1937
  20
4.0999881
  0
VERTEX
  5
c02
  8
Layer_0
  10
176.03086
  20
3.4878539
  0
VERTEX
  5
c03
  8
Layer_0
  10
176.8971
  20
2.9111174
  0
VERTEX
  5
c04
  8
Layer_0
  10
177.79201
  20
2.3697634
  0
VERTEX
  5
c05
  8
Layer_0
  10
178.71515
  20
1.8637762
  0
VERTEX
  5
c06
  8
Layer_0
  10
179.66611
  20
1.3931404
  0
VERTEX
  5
c07
  8
Layer_0
  10
180.64445
  20
0.95784064
  0
VERTEX
  5
c08
  8
Layer_0
  10
181.64976
  20
0.55786133
  0
VERTEX
  5
c09
  8
Layer_0
  10
181.69208
  20
0.54016113
  0
VERTEX
  5
c0a
  8
Layer_0
  10
182.35606
  20
0.32628369
  0
VERTEX
  5
c0b
  8
Layer_0
  10
183.02403
  20
0.1526923
  0
VERTEX
  5
c0c
  8
Layer_0
  10
183.69544
  20
0.017980048
  0
VERTEX
  5
c0d
  8
Layer_0
  10
184.36972
  20
-0.079259992
  0
VERTEX
  5
c0e
  8
Layer_0
  10
185.04628
  20
-0.14043474
  0
VERTEX
  5
c0f
  8
Layer_0
  10
185.72457
  20
-0.1669511
  0
VERTEX
  5
c10
  8
Layer_0
  10
186.40402
  20
-0.16021602
  0
VERTEX
  5
c11
  8
Layer_0
  10
187.08406
  20
-0.12163639
  0
VERTEX
  5
c12
  8
Layer_0
  10
187.76412
  20
-0.052619146
  0
VERTEX
  5
c13
  8
Layer_0
  10
188.44364
  20
0.045428798
  0
VERTEX
  5
c14
  8
Layer_0
  10
189.12203
  20
0.17110052
  0
VERTEX
  5
c15
  8
Layer_0
  10
189.79874
  20
0.32298911
  0
VERTEX
  5
c16
  8
Layer_0
  10
191.14484
  20
0.69978918
  0
VERTEX
  5
c17
  8
Layer_0
  10
192.47737
  20
1.1645737
  0
VERTEX
  5
c18
  8
Layer_0
  10
193.7918
  20
1.7060872
  0
VERTEX
  5
c19
  8
Layer_0
  10
195.08357
  20
2.3130745
  0
VERTEX
  5
c1a
  8
Layer_0
  10
196.34814
  20
2.9742801
  0
VERTEX
  5
c1b
  8
Layer_0
  10
197.58096
  20
3.6784487
  0
VERTEX
  5
c1c
  8
Layer_0
  10
198.77748
  20
4.4143249
  0
VERTEX
  5
c1d
  8
Layer_0
  10
199.93316
  20
5.1706535
  0
VERTEX
  5
c1e
  8
Layer_0
  10
201.04345
  20
5.9361789
  0
VERTEX
  5
c1f
  8
Layer_0
  10
202.10379
  20
6.699646
  0
VERTEX
  5
c20
  8
Layer_0
  10
202.22021
  20
6.7913818
  0
VERTEX
  5
c21
  8
Layer_0
  10
203.08935
  20
7.5396183
  0
VERTEX
  5
c22
  8
Layer_0
  10
203.97821
  20
8.3516086
  0
VERTEX
  5
c23
  8
Layer_0
  10
204.88469
  20
9.2233892
  0
VERTEX
  5
c24
  8
Layer_0
  10
205.80669
  20
10.150996
  0
VERTEX
  5
c25
  8
Layer_0
  10
206.7421
  20
11.130466
  0
VERTEX
  5
c26
  8
Layer_0
  10
207.68883
  20
12.157835
  0
VERTEX
  5
c27
  8
Layer_0
  10
208.64476
  20
13.22914
  0
VERTEX
  5
c28
  8
Layer_0
  10
209.6078
  20
14.340416
  0
VERTEX
  5
c29
  8
Layer_0
  10
210.57585
  20
15.4877
  0
VERTEX
  5
c2a
  8
Layer_0
  10
211.54679
  20
16.667029
  0
VERTEX
  5
c2b
  8
Layer_0
  10
212.51853
  20
17.874439
  0
VERTEX
  5
c2c
  8
Layer_0
  10
213.48896
  20
19.105966
  0
VERTEX
  5
c2d
  8
Layer_0
  10
215.41749
  20
21.625516
  0
VERTEX
  5
c2e
  8
Layer_0
  10
217.31555
  20
24.19397
  0
VERTEX
  5
c2f
  8
Layer_0
  10
216.84139
  20
21.03627
  0
VERTEX
  5
c30
  8
Layer_0
  10
216.42336
  20
17.891184
  0
VERTEX
  5
c31
  8
Layer_0
  10
216.23869
  20
16.334132
  0
VERTEX
  5
c32
  8
Layer_0
  10
216.07198
  20
14.793147
  0
VERTEX
  5
c33
  8
Layer_0
  10
215.92456
  20
13.272533
  0
VERTEX
  5
c34
  8
Layer_0
  10
215.79774
  20
11.776596
  0
VERTEX
  5
c35
  8
Layer_0
  10
215.69283
  20
10.309639
  0
VERTEX
  5
c36
  8
Layer_0
  10
215.61114
  20
8.8759682
  0
VERTEX
  5
c37
  8
Layer_0
  10
215.55398
  20
7.4798869
  0
VERTEX
  5
c38
  8
Layer_0
  10
215.52268
  20
6.1257
  0
VERTEX
  5
c39
  8
Layer_0
  10
215.51853
  20
4.8177122
  0
VERTEX
  5
c3a
  8
Layer_0
  10
215.54286
  20
3.5602281
  0
VERTEX
  5
c3b
  8
Layer_0
  10
215.59698
  20
2.3575523
  0
VERTEX
  5
c3c
  8
Layer_0
  10
215.68219
  20
1.2139893
  42
0.013773442
  0
VERTEX
  5
c3d
  8
Layer_0
  10
215.70337
  20
1.0657959
  0
VERTEX
  5
c3e
  8
Layer_0
  10
215.91318
  20
-0.22366238
  0
VERTEX
  5
c3f
  8
Layer_0
  10
216.15684
  20
-1.549902
  0
VERTEX
  5
c40
  8
Layer_0
  10
216.43909
  20
-2.9017448
  0
VERTEX
  5
c41
  8
Layer_0
  10
216.76468
  20
-4.268013
  0
VERTEX
  5
c42
  8
Layer_0
  10
217.13835
  20
-5.6375284
  0
VERTEX
  5
c43
  8
Layer_0
  10
217.56484
  20
-6.9991131
  0
VERTEX
  5
c44
  8
Layer_0
  10
218.0489
  20
-8.341589
  0
VERTEX
  5
c45
  8
Layer_0
  10
218.59527
  20
-9.6537781
  0
VERTEX
  5
c46
  8
Layer_0
  10
219.2087
  20
-10.924502
  0
VERTEX
  5
c47
  8
Layer_0
  10
219.89392
  20
-12.142584
  0
VERTEX
  5
c48
  8
Layer_0
  10
220.26494
  20
-12.72839
  0
VERTEX
  5
c49
  8
Layer_0
  10
220.65569
  20
-13.296844
  0
VERTEX
  5
c4a
  8
Layer_0
  10
221.06676
  20
-13.846549
  0
VERTEX
  5
c4b
  8
Layer_0
  10
221.49874
  20
-14.376106
  0
VERTEX
  5
c4c
  8
Layer_0
  10
221.95223
  20
-14.884119
  0
VERTEX
  5
c4d
  8
Layer_0
  10
222.42782
  20
-15.369191
  0
VERTEX
  5
c4e
  8
Layer_0
  10
222.92611
  20
-15.829924
  0
VERTEX
  5
c4f
  8
Layer_0
  10
223.44768
  20
-16.264921
  0
VERTEX
  5
c50
  8
Layer_0
  10
223.99313
  20
-16.672785
  0
VERTEX
  5
c51
  8
Layer_0
  10
224.56305
  20
-17.052118
  0
VERTEX
  5
c52
  8
Layer_0
  10
225.15804
  20
-17.401524
  0
VERTEX
  5
c53
  8
Layer_0
  10
225.77869
  20
-17.719604
  0
VERTEX
  5
c54
  8
Layer_0
  10
225.82104
  20
-17.740784
  0
VERTEX
  5
c55
  8
Layer_0
  10
226.81496
  20
-18.16864
  0
VERTEX
  5
c56
  8
Layer_0
  10
227.81478
  20
-18.552451
  0
VERTEX
  5
c57
  8
Layer_0
  10
228.82022
  20
-18.891906
  0
VERTEX
  5
c58
  8
Layer_0
  10
229.83097
  20
-19.186695
  0
VERTEX
  5
c59
  8
Layer_0
  10
230.84674
  20
-19.436507
  0
VERTEX
  5
c5a
  8
Layer_0
  10
231.86725
  20
-19.641032
  0
VERTEX
  5
c5b
  8
Layer_0
  10
232.89218
  20
-19.79996
  0
VERTEX
  5
c5c
  8
Layer_0
  10
233.92126
  20
-19.912979
  0
VERTEX
  5
c5d
  8
Layer_0
  10
234.95418
  20
-19.97978
  0
VERTEX
  5
c5e
  8
Layer_0
  10
235.99065
  20
-20.000052
  0
VERTEX
  5
c5f
  8
Layer_0
  10
237.03037
  20
-19.973485
  0
VERTEX
  5
c60
  8
Layer_0
  10
238.07306
  20
-19.899769
  0
VERTEX
  5
c61
  8
Layer_0
  10
239.11841
  20
-19.778592
  0
VERTEX
  5
c62
  8
Layer_0
  10
240.16613
  20
-19.609645
  0
VERTEX
  5
c63
  8
Layer_0
  10
241.21593
  20
-19.392617
  0
VERTEX
  5
c64
  8
Layer_0
  10
242.26752
  20
-19.127197
  42
0.051038563
  0
VERTEX
  5
c65
  8
Layer_0
  10
249.06204
  20
-16.474304
  0
VERTEX
  5
c66
  8
Layer_0
  10
249.93572
  20
-16.007251
  0
VERTEX
  5
c67
  8
Layer_0
  10
250.78889
  20
-15.521355
  0
VERTEX
  5
c68
  8
Layer_0
  10
251.63677
  20
-15.032151
  0
VERTEX
  5
c69
  8
Layer_0
  10
252.49457
  20
-14.555176
  0
VERTEX
  5
c6a
  8
Layer_0
  10
253.01414
  20
-14.357855
  0
VERTEX
  5
c6b
  8
Layer_0
  10
253.56012
  20
-14.210135
  0
VERTEX
  5
c6c
  8
Layer_0
  10
254.12554
  20
-14.10375
  0
VERTEX
  5
c6d
  8
Layer_0
  10
254.7034
  20
-14.030434
  0
VERTEX
  5
c6e
  8
Layer_0
  10
255.8685
  20
-13.949941
  0
VERTEX
  5
c6f
  8
Layer_0
  10
256.99954
  20
-13.902527
  0
VERTEX
  5
c70
  8
Layer_0
  10
258.13108
  20
-13.949941
  0
VERTEX
  5
c71
  8
Layer_0
  10
259.297
  20
-14.030434
  0
VERTEX
  5
c72
  8
Layer_0
  10
259.87509
  20
-14.10375
  0
VERTEX
  5
c73
  8
Layer_0
  10
260.44044
  20
-14.210135
  0
VERTEX
  5
c74
  8
Layer_0
  10
260.98596
  20
-14.357855
  0
VERTEX
  5
c75
  8
Layer_0
  10
261.50452
  20
-14.555176
  0
VERTEX
  5
c76
  8
Layer_0
  10
262.36231
  20
-15.032151
  0
VERTEX
  5
c77
  8
Layer_0
  10
263.21019
  20
-15.521355
  0
VERTEX
  5
c78
  8
Layer_0
  10
264.06337
  20
-16.007251
  0
VERTEX
  5
c79
  8
Layer_0
  10
264.93704
  20
-16.474304
  42
0.051037736
  0
VERTEX
  5
c7a
  8
Layer_0
  10
271.73154
  20
-19.127197
  0
VERTEX
  5
c7b
  8
Layer_0
  10
272.78312
  20
-19.392617
  0
VERTEX
  5
c7c
  8
Layer_0
  10
273.83292
  20
-19.609645
  0
VERTEX
  5
c7d
  8
Layer_0
  10
274.88065
  20
-19.778592
  0
VERTEX
  5
c7e
  8
Layer_0
  10
275.926
  20
-19.899769
  0
VERTEX
  5
c7f
  8
Layer_0
  10
276.96869
  20
-19.973485
  0
VERTEX
  5
c80
  8
Layer_0
  10
278.00842
  20
-20.000052
  0
VERTEX
  5
c81
  8
Layer_0
  10
279.04489
  20
-19.97978
  0
VERTEX
  5
c82
  8
Layer_0
  10
280.07781
  20
-19.912979
  0
VERTEX
  5
c83
  8
Layer_0
  10
281.10689
  20
-19.79996
  0
VERTEX
  5
c84
  8
Layer_0
  10
282.13183
  20
-19.641032
  0
VERTEX
  5
c85
  8
Layer_0
  10
283.15234
  20
-19.436507
  0
VERTEX
  5
c86
  8
Layer_0
  10
284.16811
  20
-19.186695
  0
VERTEX
  5
c87
  8
Layer_0
  10
285.17887
  20
-18.891906
  0
VERTEX
  5
c88
  8
Layer_0
  10
286.1843
  20
-18.552451
  0
VERTEX
  5
c89
  8
Layer_0
  10
287.18412
  20
-18.16864
  0
VERTEX
  5
c8a
  8
Layer_0
  10
288.17804
  20
-17.740784
  0
VERTEX
  5
c8b
  8
Layer_0
  10
288.22037
  20
-17.719604
  0
VERTEX
  5
c8c
  8
Layer_0
  10
288.84133
  20
-17.401524
  0
VERTEX
  5
c8d
  8
Layer_0
  10
289.43659
  20
-17.052118
  0
VERTEX
  5
c8e
  8
Layer_0
  10
290.00674
  20
-16.672785
  0
VERTEX
  5
c8f
  8
Layer_0
  10
290.55239
  20
-16.264921
  0
VERTEX
  5
c90
  8
Layer_0
  10
291.07413
  20
-15.829924
  0
VERTEX
  5
c91
  8
Layer_0
  10
291.57255
  20
-15.369191
  0
VERTEX
  5
c92
  8
Layer_0
  10
292.04825
  20
-14.884119
  0
VERTEX
  5
c93
  8
Layer_0
  10
292.50181
  20
-14.376106
  0
VERTEX
  5
c94
  8
Layer_0
  10
292.93385
  20
-13.846549
  0
VERTEX
  5
c95
  8
Layer_0
  10
293.34494
  20
-13.296844
  0
VERTEX
  5
c96
  8
Layer_0
  10
293.7357
  20
-12.72839
  0
VERTEX
  5
c97
  8
Layer_0
  10
294.1067
  20
-12.142584
  0
VERTEX
  5
c98
  8
Layer_0
  10
294.79184
  20
-10.924502
  0
VERTEX
  5
c99
  8
Layer_0
  10
295.40512
  20
-9.6537781
  0
VERTEX
  5
c9a
  8
Layer_0
  10
295.95131
  20
-8.341589
  0
VERTEX
  5
c9b
  8
Layer_0
  10
296.43517
  20
-6.9991131
  0
VERTEX
  5
c9c
  8
Layer_0
  10
296.86144
  20
-5.6375284
  0
VERTEX
  5
c9d
  8
Layer_0
  10
297.23489
  20
-4.268013
  0
VERTEX
  5
c9e
  8
Layer_0
  10
297.56029
  20
-2.9017448
  0
VERTEX
  5
c9f
  8
Layer_0
  10
297.84239
  20
-1.549902
  0
VERTEX
  5
ca0
  8
Layer_0
  10
298.08594
  20
-0.22366238
  0
VERTEX
  5
ca1
  8
Layer_0
  10
298.29572
  20
1.0657959
  42
0.014076352
  0
VERTEX
  5
ca2
  8
Layer_0
  10
298.31686
  20
1.2139893
  0
VERTEX
  5
ca3
  8
Layer_0
  10
298.40208
  20
2.3575531
  0
VERTEX
  5
ca4
  8
Layer_0
  10
298.4562
  20
3.560235
  0
VERTEX
  5
ca5
  8
Layer_0
  10
298.48053
  20
4.8177356
  0
VERTEX
  5
ca6
  8
Layer_0
  10
298.47639
  20
6.1257553
  0
VERTEX
  5
ca7
  8
Layer_0
  10
298.44509
  20
7.4799949
  0
VERTEX
  5
ca8
  8
Layer_0
  10
298.38794
  20
8.8761549
  0
VERTEX
  5
ca9
  8
Layer_0
  10
298.30625
  20
10.309936
  0
VERTEX
  5
caa
  8
Layer_0
  10
298.20134
  20
11.777039
  0
VERTEX
  5
cab
  8
Layer_0
  10
298.07452
  20
13.273163
  0
VERTEX
  5
cac
  8
Layer_0
  10
297.9271
  20
14.794011
  0
VERTEX
  5
cad
  8
Layer_0
  10
297.76039
  20
16.335282
  0
VERTEX
  5
cae
  8
Layer_0
  10
297.57571
  20
17.892677
  0
VERTEX
  5
caf
  8
Layer_0
  10
297.15768
  20
21.038642
  0
VERTEX
  5
cb0
  8
Layer_0
  10
296.6835
  20
24.19751
  0
VERTEX
  5
cb1
  8
Layer_0
  10
298.58156
  20
21.627887
  0
VERTEX
  5
cb2
  8
Layer_0
  10
300.51009
  20
19.107459
  0
VERTEX
  5
cb3
  8
Layer_0
  10
301.48052
  20
17.875589
  0
VERTEX
  5
cb4
  8
Layer_0
  10
302.45226
  20
16.667894
  0
VERTEX
  5
cb5
  8
Layer_0
  10
303.42321
  20
15.48833
  0
VERTEX
  5
cb6
  8
Layer_0
  10
304.39125
  20
14.340858
  0
VERTEX
  5
cb7
  8
Layer_0
  10
305.3543
  20
13.229436
  0
VERTEX
  5
cb8
  8
Layer_0
  10
306.31024
  20
12.158022
  0
VERTEX
  5
cb9
  8
Layer_0
  10
307.25697
  20
11.130574
  0
VERTEX
  5
cba
  8
Layer_0
  10
308.19239
  20
10.151052
  0
VERTEX
  5
cbb
  8
Layer_0
  10
309.11439
  20
9.2234125
  0
VERTEX
  5
cbc
  8
Layer_0
  10
310.02087
  20
8.3516155
  0
VERTEX
  5
cbd
  8
Layer_0
  10
310.90974
  20
7.5396192
  0
VERTEX
  5
cbe
  8
Layer_0
  10
311.77887
  20
6.7913818
  0
VERTEX
  5
cbf
  8
Layer_0
  10
311.89526
  20
6.699646
  0
VERTEX
  5
cc0
  8
Layer_0
  10
312.95619
  20
5.9361789
  0
VERTEX
  5
cc1
  8
Layer_0
  10
314.06691
  20
5.1706535
  0
VERTEX
  5
cc2
  8
Layer_0
  10
315.22289
  20
4.4143249
  0
VERTEX
  5
cc3
  8
Layer_0
  10
316.41959
  20
3.6784487
  0
VERTEX
  5
cc4
  8
Layer_0
  10
317.65248
  20
2.9742801
  0
VERTEX
  5
cc5
  8
Layer_0
  10
318.91704
  20
2.3130745
  0
VERTEX
  5
cc6
  8
Layer_0
  10
320.20873
  20
1.7060872
  0
VERTEX
  5
cc7
  8
Layer_0
  10
321.52301
  20
1.1645737
  0
VERTEX
  5
cc8
  8
Layer_0
  10
322.85537
  20
0.69978918
  0
VERTEX
  5
cc9
  8
Layer_0
  10
324.20125
  20
0.32298911
  0
VERTEX
  5
cca
  8
Layer_0
  10
324.87786
  20
0.17110052
  0
VERTEX
  5
ccb
  8
Layer_0
  10
325.55614
  20
0.045428798
  0
VERTEX
  5
ccc
  8
Layer_0
  10
326.23555
  20
-0.052619146
  0
VERTEX
  5
ccd
  8
Layer_0
  10
326.9155
  20
-0.12163639
  0
VERTEX
  5
cce
  8
Layer_0
  10
327.59544
  20
-0.16021602
  0
VERTEX
  5
ccf
  8
Layer_0
  10
328.2748
  20
-0.1669511
  0
VERTEX
  5
cd0
  8
Layer_0
  10
328.95301
  20
-0.14043474
  0
VERTEX
  5
cd1
  8
Layer_0
  10
329.6295
  20
-0.079259992
  0
VERTEX
  5
cd2
  8
Layer_0
  10
330.30372
  20
0.017980048
  0
VERTEX
  5
cd3
  8
Layer_0
  10
330.97508
  20
0.1526923
  0
VERTEX
  5
cd4
  8
Layer_0
  10
331.64304
  20
0.32628369
  0
VERTEX
  5
cd5
  8
Layer_0
  10
332.30701
  20
0.54016113
  0
VERTEX
  5
cd6
  8
Layer_0
  10
332.34937
  20
0.55786133
  0
VERTEX
  5
cd7
  8
Layer_0
  10
333.35466
  20
0.95784064
  0
VERTEX
  5
cd8
  8
Layer_0
  10
334.333
  20
1.3931404
  0
VERTEX
  5
cd9
  8
Layer_0
  10
335.28394
  20
1.8637762
  0
VERTEX
  5
cda
  8
Layer_0
  10
336.20708
  20
2.3697634
  0
VERTEX
  5
cdb
  8
Layer_0
  10
337.10198
  20
2.9111174
  0
VERTEX
  5
cdc
  8
Layer_0
  10
337.96822
  20
3.4878539
  0
VERTEX
  5
cdd
  8
Layer_0
  10
338.80538
  20
4.0999881
  0
VERTEX
  5
cde
  8
Layer_0
  10
339.61303
  20
4.7475357
  0
VERTEX
  5
cdf
  8
Layer_0
  10
340.39075
  20
5.430512
  0
VERTEX
  5
ce0
  8
Layer_0
  10
341.13812
  20
6.1489326
  0
VERTEX
  5
ce1
  8
Layer_0
  10
341.85471
  20
6.9028128
  0
VERTEX
  5
ce2
  8
Layer_0
  10
342.5401
  20
7.6921682
  0
VERTEX
  5
ce3
  8
Layer_0
  10
343.19387
  20
8.5170143
  0
VERTEX
  5
ce4
  8
Layer_0
  10
343.81559
  20
9.3773664
  0
VERTEX
  5
ce5
  8
Layer_0
  10
344.40483
  20
10.27324
  0
VERTEX
  5
ce6
  8
Layer_0
  10
344.96118
  20
11.204651
  0
VERTEX
  5
ce7
  8
Layer_0
  10
345.82298
  20
12.816677
  0
VERTEX
  5
ce8
  8
Layer_0
  10
346.59583
  20
14.470062
  0
VERTEX
  5
ce9
  8
Layer_0
  10
347.28335
  20
16.161167
  0
VERTEX
  5
cea
  8
Layer_0
  10
347.88919
  20
17.886353
  0
VERTEX
  5
ceb
  8
Layer_0
  10
348.17578
  20
18.833411
  0
VERTEX
  5
cec
  8
Layer_0
  10
348.43558
  20
19.779823
  0
VERTEX
  5
ced
  8
Layer_0
  10
348.68941
  20
20.724919
  0
VERTEX
  5
cee
  8
Layer_0
  10
348.9581
  20
21.66803
  0
VERTEX
  5
cef
  8
Layer_0
  10
349.18582
  20
22.175522
  0
VERTEX
  5
cf0
  8
Layer_0
  10
349.46749
  20
22.666686
  0
VERTEX
  5
cf1
  8
Layer_0
  10
349.79224
  20
23.142388
  0
VERTEX
  5
cf2
  8
Layer_0
  10
350.14919
  20
23.603493
  0
VERTEX
  5
cf3
  8
Layer_0
  10
350.91621
  20
24.485379
  0
VERTEX
  5
cf4
  8
Layer_0
  10
351.68158
  20
25.319275
  0
VERTEX
  5
cf5
  8
Layer_0
  10
352.5155
  20
26.084605
  0
VERTEX
  5
cf6
  8
Layer_0
  10
353.39739
  20
26.851234
  0
VERTEX
  5
cf7
  8
Layer_0
  10
353.85849
  20
27.207754
  0
VERTEX
  5
cf8
  8
Layer_0
  10
354.33418
  20
27.531861
  0
VERTEX
  5
cf9
  8
Layer_0
  10
354.82532
  20
27.812642
  0
VERTEX
  5
cfa
  8
Layer_0
  10
355.33279
  20
28.039185
  0
VERTEX
  5
cfb
  8
Layer_0
  10
357.2184
  20
28.56353
  0
VERTEX
  5
cfc
  8
Layer_0
  10
359.11456
  20
29.111633
  42
0.050938901
  0
VERTEX
  5
cfd
  8
Layer_0
  10
365.7962
  20
32.036194
  0
VERTEX
  5
cfe
  8
Layer_0
  10
366.72704
  20
32.592534
  0
VERTEX
  5
cff
  8
Layer_0
  10
367.62249
  20
33.181778
  0
VERTEX
  5
d00
  8
Layer_0
  10
368.48255
  20
33.803507
  0
VERTEX
  5
d01
  8
Layer_0
  10
369.30723
  20
34.457302
  0
VERTEX
  5
d02
  8
Layer_0
  10
370.09651
  20
35.142744
  0
VERTEX
  5
d03
  8
Layer_0
  10
370.85041
  20
35.859415
  0
VERTEX
  5
d04
  8
Layer_0
  10
371.56892
  20
36.606895
  0
VERTEX
  5
d05
  8
Layer_0
  10
372.25204
  20
37.384766
  0
VERTEX
  5
d06
  8
Layer_0
  10
372.89978
  20
38.192609
  0
VERTEX
  5
d07
  8
Layer_0
  10
373.51213
  20
39.030005
  0
VERTEX
  5
d08
  8
Layer_0
  10
374.08908
  20
39.896536
  0
VERTEX
  5
d09
  8
Layer_0
  10
374.63065
  20
40.791782
  0
VERTEX
  5
d0a
  8
Layer_0
  10
375.13684
  20
41.715326
  0
VERTEX
  5
d0b
  8
Layer_0
  10
375.60763
  20
42.666748
  0
VERTEX
  5
d0c
  8
Layer_0
  10
376.04304
  20
43.645629
  0
VERTEX
  5
d0d
  8
Layer_0
  10
376.44305
  20
44.65155
  0
VERTEX
  5
d0e
  8
Layer_0
  10
376.45715
  20
44.693848
  0
VERTEX
  5
d0f
  8
Layer_0
  10
376.67134
  20
45.357821
  0
VERTEX
  5
d10
  8
Layer_0
  10
376.8452
  20
46.025775
  0
VERTEX
  5
d11
  8
Layer_0
  10
376.98014
  20
46.697142
  0
VERTEX
  5
d12
  8
Layer_0
  10
377.07758
  20
47.371355
  0
VERTEX
  5
d13
  8
Layer_0
  10
377.13892
  20
48.047846
  0
VERTEX
  5
d14
  8
Layer_0
  10
377.16558
  20
48.726048
  0
VERTEX
  5
d15
  8
Layer_0
  10
377.15896
  20
49.405395
  0
VERTEX
  5
d16
  8
Layer_0
  10
377.12047
  20
50.08532
  0
VERTEX
  5
d17
  8
Layer_0
  10
377.05153
  20
50.765254
  0
VERTEX
  5
d18
  8
Layer_0
  10
376.95353
  20
51.444631
  0
VERTEX
  5
d19
  8
Layer_0
  10
376.8279
  20
52.122883
  0
VERTEX
  5
d1a
  8
Layer_0
  10
376.67604
  20
52.799445
  0
VERTEX
  5
d1b
  8
Layer_0
  10
376.29926
  20
54.145224
  0
VERTEX
  5
d1c
  8
Layer_0
  10
375.83448
  20
55.477432
  0
VERTEX
  5
d1d
  8
Layer_0
  10
375.29297
  20
56.791531
  0
VERTEX
  5
d1e
  8
Layer_0
  10
374.68601
  20
58.082984
  0
VERTEX
  5
d1f
  8
Layer_0
  10
374.02487
  20
59.347254
  0
VERTEX
  5
d20
  8
Layer_0
  10
373.32082
  20
60.579803
  0
VERTEX
  5
d21
  8
Layer_0
  10
372.58515
  20
61.776095
  0
VERTEX
  5
d22
  8
Layer_0
  10
371.82913
  20
62.931592
  0
VERTEX
  5
d23
  8
Layer_0
  10
371.06404
  20
64.041756
  0
VERTEX
  5
d24
  8
Layer_0
  10
370.30115
  20
65.102051
  0
VERTEX
  5
d25
  8
Layer_0
  10
370.20947
  20
65.222046
  0
VERTEX
  5
d26
  8
Layer_0
  10
369.4612
  20
66.090595
  0
VERTEX
  5
d27
  8
Layer_0
  10
368.64911
  20
66.979019
  0
VERTEX
  5
d28
  8
Layer_0
  10
367.77716
  20
67.885198
  0
VERTEX
  5
d29
  8
Layer_0
  10
366.84933
  20
68.807014
  0
VERTEX
  5
d2a
  8
Layer_0
  10
365.8696
  20
69.742349
  0
VERTEX
  5
d2b
  8
Layer_0
  10
364.84193
  20
70.689083
  0
VERTEX
  5
d2c
  8
Layer_0
  10
363.77031
  20
71.645098
  0
VERTEX
  5
d2d
  8
Layer_0
  10
362.65871
  20
72.608276
  0
VERTEX
  5
d2e
  8
Layer_0
  10
361.5111
  20
73.576498
  0
VERTEX
  5
d2f
  8
Layer_0
  10
360.33146
  20
74.547646
  0
VERTEX
  5
d30
  8
Layer_0
  10
359.12375
  20
75.5196
  0
VERTEX
  5
d31
  8
Layer_0
  10
357.89196
  20
76.490242
  0
VERTEX
  5
d32
  8
Layer_0
  10
355.37201
  20
78.419117
  0
VERTEX
  5
d33
  8
Layer_0
  10
352.80341
  20
80.317322
  0
VERTEX
  5
d34
  8
Layer_0
  10
355.9621
  20
79.84314
  0
VERTEX
  5
d35
  8
Layer_0
  10
359.10765
  20
79.425109
  0
VERTEX
  5
d36
  8
Layer_0
  10
360.66477
  20
79.24043
  0
VERTEX
  5
d37
  8
Layer_0
  10
362.20574
  20
79.073726
  0
VERTEX
  5
d38
  8
Layer_0
  10
363.72626
  20
78.926309
  0
VERTEX
  5
d39
  8
Layer_0
  10
365.22205
  20
78.799492
  0
VERTEX
  5
d3a
  8
Layer_0
  10
366.68882
  20
78.694586
  0
VERTEX
  5
d3b
  8
Layer_0
  10
368.12228
  20
78.612905
  0
VERTEX
  5
d3c
  8
Layer_0
  10
369.51814
  20
78.55576
  0
VERTEX
  5
d3d
  8
Layer_0
  10
370.87211
  20
78.524465
  0
VERTEX
  5
d3e
  8
Layer_0
  10
372.17991
  20
78.52033
  0
VERTEX
  5
d3f
  8
Layer_0
  10
373.43723
  20
78.54467
  0
VERTEX
  5
d40
  8
Layer_0
  10
374.6398
  20
78.598796
  0
VERTEX
  5
d41
  8
Layer_0
  10
375.78333
  20
78.684021
  42
0.016840426
  0
VERTEX
  5
d42
  8
Layer_0
  10
375.93503
  20
78.70166
  0
VERTEX
  5
d43
  8
Layer_0
  10
377.2245
  20
78.912046
  0
VERTEX
  5
d44
  8
Layer_0
  10
378.55075
  20
79.156135
  0
VERTEX
  5
d45
  8
Layer_0
  10
379.9026
  20
79.438693
  0
VERTEX
  5
d46
  8
Layer_0
  10
381.26888
  20
79.764484
  0
VERTEX
  5
d47
  8
Layer_0
  10
382.63839
  20
80.138274
  0
VERTEX
  5
d48
  8
Layer_0
  10
383.99998
  20
80.564826
  0
VERTEX
  5
d49
  8
Layer_0
  10
385.34245
  20
81.048905
  0
VERTEX
  5
d4a
  8
Layer_0
  10
386.65464
  20
81.595276
  0
VERTEX
  5
d4b
  8
Layer_0
  10
387.92536
  20
82.208704
  0
VERTEX
  5
d4c
  8
Layer_0
  10
389.14344
  20
82.893953
  0
VERTEX
  5
d4d
  8
Layer_0
  10
389.72924
  20
83.264999
  0
VERTEX
  5
d4e
  8
Layer_0
  10
390.2977
  20
83.655788
  0
VERTEX
  5
d4f
  8
Layer_0
  10
390.8474
  20
84.066914
  0
VERTEX
  5
d50
  8
Layer_0
  10
391.37696
  20
84.498974
  0
VERTEX
  5
d51
  8
Layer_0
  10
391.88497
  20
84.952562
  0
VERTEX
  5
d52
  8
Layer_0
  10
392.37004
  20
85.428275
  0
VERTEX
  5
d53
  8
Layer_0
  10
392.83077
  20
85.926708
  0
VERTEX
  5
d54
  8
Layer_0
  10
393.26577
  20
86.448456
  0
VERTEX
  5
d55
  8
Layer_0
  10
393.67363
  20
86.994116
  0
VERTEX
  5
d56
  8
Layer_0
  10
394.05297
  20
87.564282
  0
VERTEX
  5
d57
  8
Layer_0
  10
394.40238
  20
88.159551
  0
VERTEX
  5
d58
  8
Layer_0
  10
394.72046
  20
88.780518
  0
VERTEX
  5
d59
  8
Layer_0
  10
394.73807
  20
88.819275
  0
VERTEX
  5
d5a
  8
Layer_0
  10
395.16652
  20
89.813774
  0
VERTEX
  5
d5b
  8
Layer_0
  10
395.55079
  20
90.814036
  0
VERTEX
  5
d5c
  8
Layer_0
  10
395.89056
  20
91.819784
  0
VERTEX
  5
d5d
  8
Layer_0
  10
396.18557
  20
92.830747
  0
VERTEX
  5
d5e
  8
Layer_0
  10
396.43551
  20
93.846649
  0
VERTEX
  5
d5f
  8
Layer_0
  10
396.64011
  20
94.867217
  0
VERTEX
  5
d60
  8
Layer_0
  10
396.79906
  20
95.892178
  0
VERTEX
  5
d61
  8
Layer_0
  10
396.91208
  20
96.921257
  0
VERTEX
  5
d62
  8
Layer_0
  10
396.97888
  20
97.95418
  0
VERTEX
  5
d63
  8
Layer_0
  10
396.99917
  20
98.990675
  0
VERTEX
  5
d64
  8
Layer_0
  10
396.97266
  20
100.03047
  0
VERTEX
  5
d65
  8
Layer_0
  10
396.89907
  20
101.07328
  0
VERTEX
  5
d66
  8
Layer_0
  10
396.7781
  20
102.11884
  0
VERTEX
  5
d67
  8
Layer_0
  10
396.60946
  20
103.16688
  0
VERTEX
  5
d68
  8
Layer_0
  10
396.39286
  20
104.21712
  0
VERTEX
  5
d69
  8
Layer_0
  10
396.12802
  20
105.26929
  42
0.050957191
  0
SEQEND
  0
POLYLINE
  5
d6b
  8
Layer_0
  62
7
  70
1
  66
1
  10
0
  20
0
  30
0
  0
VERTEX
  5
d6b
  8
Layer_0
  10
314.84448
  20
229.40833
  0
VERTEX
  5
d6c
  8
Layer_0
  10
315.61307
  20
229.96306
  0
VERTEX
  5
d6d
  8
Layer_0
  10
316.44199
  20
230.54164
  0
VERTEX
  5
d6e
  8
Layer_0
  10
317.32457
  20
231.13286
  0
VERTEX
  5
d6f
  8
Layer_0
  10
318.25417
  20
231.72549
  0
VERTEX
  5
d70
  8
Layer_0
  10
319.22414
  20
232.30832
  0
VERTEX
  5
d71
  8
Layer_0
  10
320.22783
  20
232.87015
  0
VERTEX
  5
d72
  8
Layer_0
  10
321.25858
  20
233.39975
  0
VERTEX
  5
d73
  8
Layer_0
  10
322.30975
  20
233.88592
  0
VERTEX
  5
d74
  8
Layer_0
  10
323.37468
  20
234.31743
  0
VERTEX
  5
d75
  8
Layer_0
  10
324.44673
  20
234.68308
  0
VERTEX
  5
d76
  8
Layer_0
  10
325.51925
  20
234.97164
  0
VERTEX
  5
d77
  8
Layer_0
  10
326.58558
  20
235.17192
  0
VERTEX
  5
d78
  8
Layer_0
  10
327.11434
  20
235.23544
  0
VERTEX
  5
d79
  8
Layer_0
  10
327.63907
  20
235.27268
  0
VERTEX
  5
d7a
  8
Layer_0
  10
328.15892
  20
235.28224
  0
VERTEX
  5
d7b
  8
Layer_0
  10
328.67307
  20
235.26272
  0
VERTEX
  5
d7c
  8
Layer_0
  10
329.18068
  20
235.21272
  0
VERTEX
  5
d7d
  8
Layer_0
  10
329.68093
  20
235.13083
  0
VERTEX
  5
d7e
  8
Layer_0
  10
330.17298
  20
235.01565
  0
VERTEX
  5
d7f
  8
Layer_0
  10
330.65601
  20
234.86578
  0
VERTEX
  5
d80
  8
Layer_0
  10
331.46159
  20
234.54424
  0
VERTEX
  5
d81
  8
Layer_0
  10
332.24444
  20
234.19592
  0
VERTEX
  5
d82
  8
Layer_0
  10
333.00437
  20
233.82061
  0
VERTEX
  5
d83
  8
Layer_0
  10
333.74121
  20
233.41808
  0
VERTEX
  5
d84
  8
Layer_0
  10
334.45481
  20
232.98809
  0
VERTEX
  5
d85
  8
Layer_0
  10
335.14497
  20
232.53042
  0
VERTEX
  5
d86
  8
Layer_0
  10
335.81154
  20
232.04485
  0
VERTEX
  5
d87
  8
Layer_0
  10
336.45435
  20
231.53114
  0
VERTEX
  5
d88
  8
Layer_0
  10
337.07322
  20
230.98908
  0
VERTEX
  5
d89
  8
Layer_0
  10
337.66798
  20
230.41843
  0
VERTEX
  5
d8a
  8
Layer_0
  10
338.23847
  20
229.81896
  0
VERTEX
  5
d8b
  8
Layer_0
  10
338.7845
  20
229.19045
  0
VERTEX
  5
d8c
  8
Layer_0
  10
339.30592
  20
228.53268
  0
VERTEX
  5
d8d
  8
Layer_0
  10
339.80255
  20
227.84541
  0
VERTEX
  5
d8e
  8
Layer_0
  10
340.27422
  20
227.12841
  0
VERTEX
  5
d8f
  8
Layer_0
  10
340.72076
  20
226.38147
  42
-0.050857651
  0
VERTEX
  5
d90
  8
Layer_0
  10
343.2431
  20
220.60651
  0
VERTEX
  5
d91
  8
Layer_0
  10
343.52913
  20
219.66408
  0
VERTEX
  5
d92
  8
Layer_0
  10
343.7877
  20
218.72134
  0
VERTEX
  5
d93
  8
Layer_0
  10
344.04032
  20
217.77927
  0
VERTEX
  5
d94
  8
Layer_0
  10
344.3085
  20
216.83887
  0
VERTEX
  5
d95
  8
Layer_0
  10
344.35437
  20
216.71185
  0
VERTEX
  5
d96
  8
Layer_0
  10
344.68729
  20
215.90986
  0
VERTEX
  5
d97
  8
Layer_0
  10
345.0711
  20
215.17035
  0
VERTEX
  5
d98
  8
Layer_0
  10
345.50014
  20
214.48071
  0
VERTEX
  5
d99
  8
Layer_0
  10
345.96875
  20
213.82832
  0
VERTEX
  5
d9a
  8
Layer_0
  10
347.00202
  20
212.58485
  0
VERTEX
  5
d9b
  8
Layer_0
  10
348.12558
  20
211.33905
  42
0.013368731
  0
VERTEX
  5
d9c
  8
Layer_0
  10
348.22791
  20
211.22614
  0
VERTEX
  5
d9d
  8
Layer_0
  10
348.33725
  20
211.12378
  0
VERTEX
  5
d9e
  8
Layer_0
  10
349.58503
  20
210.00078
  0
VERTEX
  5
d9f
  8
Layer_0
  10
350.82918
  20
208.96836
  0
VERTEX
  5
da0
  8
Layer_0
  10
351.48141
  20
208.49998
  0
VERTEX
  5
da1
  8
Layer_0
  10
352.17056
  20
208.07086
  0
VERTEX
  5
da2
  8
Layer_0
  10
352.90924
  20
207.68655
  0
VERTEX
  5
da3
  8
Layer_0
  10
353.71005
  20
207.3526
  0
VERTEX
  5
da4
  8
Layer_0
  10
353.84058
  20
207.31024
  0
VERTEX
  5
da5
  8
Layer_0
  10
354.77902
  20
207.04063
  0
VERTEX
  5
da6
  8
Layer_0
  10
355.72044
  20
206.78819
  0
VERTEX
  5
da7
  8
Layer_0
  10
356.66383
  20
206.53044
  0
VERTEX
  5
da8
  8
Layer_0
  10
357.60822
  20
206.24493
  42
-0.051311803
  0
VERTEX
  5
da9
  8
Layer_0
  10
363.3797
  20
203.71899
  0
VERTEX
  5
daa
  8
Layer_0
  10
364.12669
  20
203.27307
  0
VERTEX
  5
dab
  8
Layer_0
  10
364.84379
  20
202.80193
  0
VERTEX
  5
dac
  8
Layer_0
  10
365.53121
  20
202.30576
  0
VERTEX
  5
dad
  8
Layer_0
  10
366.18918
  20
201.78471
  0
VERTEX
  5
dae
  8
Layer_0
  10
366.8179
  20
201.23896
  0
VERTEX
  5
daf
  8
Layer_0
  10
367.41758
  20
200.66869
  0
VERTEX
  5
db0
  8
Layer_0
  10
367.98843
  20
200.07405
  0
VERTEX
  5
db1
  8
Layer_0
  10
368.53068
  20
199.45522
  0
VERTEX
  5
db2
  8
Layer_0
  10
369.04452
  20
198.81238
  0
VERTEX
  5
db3
  8
Layer_0
  10
369.53017
  20
198.14568
  0
VERTEX
  5
db4
  8
Layer_0
  10
369.98785
  20
197.45531
  0
VERTEX
  5
db5
  8
Layer_0
  10
370.41776
  20
196.74143
  0
VERTEX
  5
db6
  8
Layer_0
  10
370.82013
  20
196.00421
  0
VERTEX
  5
db7
  8
Layer_0
  10
371.19515
  20
195.24383
  0
VERTEX
  5
db8
  8
Layer_0
  10
371.54304
  20
194.46045
  0
VERTEX
  5
db9
  8
Layer_0
  10
371.86401
  20
193.65424
  0
VERTEX
  5
dba
  8
Layer_0
  10
372.01419
  20
193.17122
  0
VERTEX
  5
dbb
  8
Layer_0
  10
372.12963
  20
192.6792
  0
VERTEX
  5
dbc
  8
Layer_0
  10
372.21176
  20
192.179
  0
VERTEX
  5
dbd
  8
Layer_0
  10
372.26196
  20
191.67145
  0
VERTEX
  5
dbe
  8
Layer_0
  10
372.28165
  20
191.15738
  0
VERTEX
  5
dbf
  8
Layer_0
  10
372.27223
  20
190.63762
  0
VERTEX
  5
dc0
  8
Layer_0
  10
372.2351
  20
190.113
  0
VERTEX
  5
dc1
  8
Layer_0
  10
372.17167
  20
189.58436
  0
VERTEX
  5
dc2
  8
Layer_0
  10
371.97153
  20
188.5183
  0
VERTEX
  5
dc3
  8
Layer_0
  10
371.68303
  20
187.44608
  0
VERTEX
  5
dc4
  8
Layer_0
  10
371.31741
  20
186.37435
  0
VERTEX
  5
dc5
  8
Layer_0
  10
370.8859
  20
185.30975
  0
VERTEX
  5
dc6
  8
Layer_0
  10
370.39974
  20
184.25891
  0
VERTEX
  5
dc7
  8
Layer_0
  10
369.87016
  20
183.22848
  0
VERTEX
  5
dc8
  8
Layer_0
  10
369.3084
  20
182.2251
  0
VERTEX
  5
dc9
  8
Layer_0
  10
368.72569
  20
181.2554
  0
VERTEX
  5
dca
  8
Layer_0
  10
368.13326
  20
180.32603
  0
VERTEX
  5
dcb
  8
Layer_0
  10
367.54235
  20
179.44364
  0
VERTEX
  5
dcc
  8
Layer_0
  10
366.9642
  20
178.61485
  0
VERTEX
  5
dcd
  8
Layer_0
  10
366.41003
  20
177.84631
  0
VERTEX
  5
dce
  8
Layer_0
  10
365.75131
  20
177.08766
  0
VERTEX
  5
dcf
  8
Layer_0
  10
365.0361
  20
176.31989
  0
VERTEX
  5
dd0
  8
Layer_0
  10
364.26769
  20
175.54416
  0
VERTEX
  5
dd1
  8
Layer_0
  10
363.44936
  20
174.76159
  0
VERTEX
  5
dd2
  8
Layer_0
  10
362.5844
  20
173.97331
  0
VERTEX
  5
dd3
  8
Layer_0
  10
361.6761
  20
173.18045
  0
VERTEX
  5
dd4
  8
Layer_0
  10
360.72775
  20
172.38414
  0
VERTEX
  5
dd5
  8
Layer_0
  10
359.74264
  20
171.5855
  0
VERTEX
  5
dd6
  8
Layer_0
  10
358.72405
  20
170.78569
  0
VERTEX
  5
dd7
  8
Layer_0
  10
357.67527
  20
169.98581
  0
VERTEX
  5
dd8
  8
Layer_0
  10
356.59959
  20
169.187
  0
VERTEX
  5
dd9
  8
Layer_0
  10
355.5003
  20
168.3904
  0
VERTEX
  5
dda
  8
Layer_0
  10
353.24404
  20
166.80833
  0
VERTEX
  5
ddb
  8
Layer_0
  10
350.93278
  20
165.24863
  0
VERTEX
  5
ddc
  8
Layer_0
  10
348.59283
  20
163.72035
  0
VERTEX
  5
ddd
  8
Layer_0
  10
346.2505
  20
162.23253
  0
VERTEX
  5
dde
  8
Layer_0
  10
343.93208
  20
160.79422
  0
VERTEX
  5
ddf
  8
Layer_0
  10
341.66388
  20
159.41446
  0
VERTEX
  5
de0
  8
Layer_0
  10
340.55683
  20
158.74937
  0
VERTEX
  5
de1
  8
Layer_0
  10
339.4722
  20
158.1023
  0
VERTEX
  5
de2
  8
Layer_0
  10
338.41327
  20
157.47439
  0
VERTEX
  5
de3
  8
Layer_0
  10
337.38334
  20
156.86677
  0
VERTEX
  5
de4
  8
Layer_0
  10
336.38569
  20
156.28057
  0
VERTEX
  5
de5
  8
Layer_0
  10
335.42362
  20
155.71693
  0
VERTEX
  5
de6
  8
Layer_0
  10
334.5004
  20
155.17696
  0
VERTEX
  5
de7
  8
Layer_0
  10
333.61932
  20
154.6618
  0
VERTEX
  5
de8
  8
Layer_0
  10
333.61932
  20
154.78168
  0
VERTEX
  5
de9
  8
Layer_0
  10
333.77765
  20
156.06935
  0
VERTEX
  5
dea
  8
Layer_0
  10
333.92273
  20
157.36755
  42
0.050940613
  0
VERTEX
  5
deb
  8
Layer_0
  10
333.82394
  20
162.29236
  0
VERTEX
  5
dec
  8
Layer_0
  10
333.71692
  20
163.02247
  0
VERTEX
  5
ded
  8
Layer_0
  10
333.5799
  20
163.73899
  0
VERTEX
  5
dee
  8
Layer_0
  10
333.41318
  20
164.44178
  0
VERTEX
  5
def
  8
Layer_0
  10
333.21701
  20
165.13074
  0
VERTEX
  5
df0
  8
Layer_0
  10
332.99168
  20
165.80575
  0
VERTEX
  5
df1
  8
Layer_0
  10
332.73745
  20
166.46668
  0
VERTEX
  5
df2
  8
Layer_0
  10
332.45461
  20
167.11342
  0
VERTEX
  5
df3
  8
Layer_0
  10
332.14342
  20
167.74585
  0
VERTEX
  5
df4
  8
Layer_0
  10
331.80416
  20
168.36385
  0
VERTEX
  5
df5
  8
Layer_0
  10
331.4371
  20
168.96731
  0
VERTEX
  5
df6
  8
Layer_0
  10
331.04252
  20
169.5561
  0
VERTEX
  5
df7
  8
Layer_0
  10
330.62069
  20
170.13011
  0
VERTEX
  5
df8
  8
Layer_0
  10
330.17189
  20
170.68921
  0
VERTEX
  5
df9
  8
Layer_0
  10
329.69638
  20
171.2333
  0
VERTEX
  5
dfa
  8
Layer_0
  10
329.19444
  20
171.76225
  0
VERTEX
  5
dfb
  8
Layer_0
  10
328.66635
  20
172.27594
  0
VERTEX
  5
dfc
  8
Layer_0
  10
328.63815
  20
172.30066
  0
VERTEX
  5
dfd
  8
Layer_0
  10
328.27412
  20
172.61076
  0
VERTEX
  5
dfe
  8
Layer_0
  10
327.89753
  20
172.89661
  0
VERTEX
  5
dff
  8
Layer_0
  10
327.50907
  20
173.15895
  0
VERTEX
  5
e00
  8
Layer_0
  10
327.10944
  20
173.39849
  0
VERTEX
  5
e01
  8
Layer_0
  10
326.27941
  20
173.81212
  0
VERTEX
  5
e02
  8
Layer_0
  10
325.41297
  20
174.14331
  0
VERTEX
  5
e03
  8
Layer_0
  10
324.51565
  20
174.39788
  0
VERTEX
  5
e04
  8
Layer_0
  10
323.59297
  20
174.58163
  0
VERTEX
  5
e05
  8
Layer_0
  10
322.65048
  20
174.70038
  0
VERTEX
  5
e06
  8
Layer_0
  10
321.69369
  20
174.75995
  0
VERTEX
  5
e07
  8
Layer_0
  10
320.72813
  20
174.76614
  0
VERTEX
  5
e08
  8
Layer_0
  10
319.75935
  20
174.72478
  0
VERTEX
  5
e09
  8
Layer_0
  10
318.79285
  20
174.64167
  0
VERTEX
  5
e0a
  8
Layer_0
  10
317.83418
  20
174.52263
  0
VERTEX
  5
e0b
  8
Layer_0
  10
316.88886
  20
174.37347
  0
VERTEX
  5
e0c
  8
Layer_0
  10
315.96243
  20
174.2
  0
VERTEX
  5
e0d
  8
Layer_0
  10
315.06041
  20
174.00804
  0
VERTEX
  5
e0e
  8
Layer_0
  10
314.18832
  20
173.80341
  0
VERTEX
  5
e0f
  8
Layer_0
  10
314.06488
  20
173.76819
  42
0.0074786199
  0
VERTEX
  5
e10
  8
Layer_0
  10
313.41925
  20
173.55652
  0
VERTEX
  5
e11
  8
Layer_0
  10
333.49237
  20
193.6261
  42
0.2230628
  0
VERTEX
  5
e12
  8
Layer_0
  10
339.35196
  20
193.35089
  42
0.41396694
  0
VERTEX
  5
e13
  8
Layer_0
  10
343.08084
  20
202.35028
  42
0.41420833
  0
VERTEX
  5
e14
  8
Layer_0
  10
334.07794
  20
206.07916
  42
0.41420435
  0
VERTEX
  5
e15
  8
Layer_0
  10
330.3526
  20
197.07971
  42
0.025596598
  0
VERTEX
  5
e16
  8
Layer_0
  10
330.62778
  20
196.49414
  0
VERTEX
  5
e17
  8
Layer_0
  10
310.55475
  20
176.42108
  42
0.0072878616
  0
VERTEX
  5
e18
  8
Layer_0
  10
310.76642
  20
177.06665
  0
VERTEX
  5
e19
  8
Layer_0
  10
310.80167
  20
177.18658
  0
VERTEX
  5
e1a
  8
Layer_0
  10
311.00687
  20
178.05926
  0
VERTEX
  5
e1b
  8
Layer_0
  10
311.19924
  20
178.96172
  0
VERTEX
  5
e1c
  8
Layer_0
  10
311.37299
  20
179.88848
  0
VERTEX
  5
e1d
  8
Layer_0
  10
311.52232
  20
180.83401
  0
VERTEX
  5
e1e
  8
Layer_0
  10
311.64143
  20
181.79281
  0
VERTEX
  5
e1f
  8
Layer_0
  10
311.72452
  20
182.75937
  0
VERTEX
  5
e20
  8
Layer_0
  10
311.7658
  20
183.72818
  0
VERTEX
  5
e21
  8
Layer_0
  10
311.75946
  20
184.69373
  0
VERTEX
  5
e22
  8
Layer_0
  10
311.6997
  20
185.65052
  0
VERTEX
  5
e23
  8
Layer_0
  10
311.58074
  20
186.59304
  0
VERTEX
  5
e24
  8
Layer_0
  10
311.39677
  20
187.51577
  0
VERTEX
  5
e25
  8
Layer_0
  10
311.14199
  20
188.41321
  0
VERTEX
  5
e26
  8
Layer_0
  10
310.8106
  20
189.27985
  0
VERTEX
  5
e27
  8
Layer_0
  10
310.39681
  20
190.11019
  0
VERTEX
  5
e28
  8
Layer_0
  10
310.1572
  20
190.51002
  0
VERTEX
  5
e29
  8
Layer_0
  10
309.89482
  20
190.8987
  0
VERTEX
  5
e2a
  8
Layer_0
  10
309.60894
  20
191.27556
  0
VERTEX
  5
e2b
  8
Layer_0
  10
309.29883
  20
191.63989
  0
VERTEX
  5
e2c
  8
Layer_0
  10
309.27411
  20
191.66815
  0
VERTEX
  5
e2d
  8
Layer_0
  10
308.76105
  20
192.19561
  0
VERTEX
  5
e2e
  8
Layer_0
  10
308.23266
  20
192.697
  0
VERTEX
  5
e2f
  8
Layer_0
  10
307.68903
  20
193.17205
  0
VERTEX
  5
e30
  8
Layer_0
  10
307.1303
  20
193.62048
  0
VERTEX
  5
e31
  8
Layer_0
  10
306.55658
  20
194.04201
  0
VERTEX
  5
e32
  8
Layer_0
  10
305.968
  20
194.43639
  0
VERTEX
  5
e33
  8
Layer_0
  10
305.36466
  20
194.80332
  0
VERTEX
  5
e34
  8
Layer_0
  10
304.7467
  20
195.14255
  0
VERTEX
  5
e35
  8
Layer_0
  10
304.11422
  20
195.45378
  0
VERTEX
  5
e36
  8
Layer_0
  10
303.46735
  20
195.73676
  0
VERTEX
  5
e37
  8
Layer_0
  10
302.8062
  20
195.9912
  0
VERTEX
  5
e38
  8
Layer_0
  10
302.1309
  20
196.21684
  0
VERTEX
  5
e39
  8
Layer_0
  10
301.44156
  20
196.41339
  0
VERTEX
  5
e3a
  8
Layer_0
  10
300.73831
  20
196.58058
  0
VERTEX
  5
e3b
  8
Layer_0
  10
300.02126
  20
196.71815
  0
VERTEX
  5
e3c
  8
Layer_0
  10
299.29053
  20
196.82581
  42
0.051041021
  0
VERTEX
  5
e3d
  8
Layer_0
  10
294.36926
  20
196.9245
  0
VERTEX
  5
e3e
  8
Layer_0
  10
293.06974
  20
196.77944
  0
VERTEX
  5
e3f
  8
Layer_0
  10
291.78345
  20
196.62115
  42
-0.020847951
  0
VERTEX
  5
e40
  8
Layer_0
  10
291.65994
  20
196.62115
  0
VERTEX
  5
e41
  8
Layer_0
  10
292.17511
  20
197.5019
  0
VERTEX
  5
e42
  8
Layer_0
  10
292.71511
  20
198.42482
  0
VERTEX
  5
e43
  8
Layer_0
  10
293.2788
  20
199.38661
  0
VERTEX
  5
e44
  8
Layer_0
  10
293.86507
  20
200.384
  0
VERTEX
  5
e45
  8
Layer_0
  10
294.47276
  20
201.41368
  0
VERTEX
  5
e46
  8
Layer_0
  10
295.10075
  20
202.47237
  0
VERTEX
  5
e47
  8
Layer_0
  10
295.74792
  20
203.55679
  0
VERTEX
  5
e48
  8
Layer_0
  10
296.41311
  20
204.66365
  0
VERTEX
  5
e49
  8
Layer_0
  10
297.79309
  20
206.9315
  0
VERTEX
  5
e4a
  8
Layer_0
  10
299.23162
  20
209.24964
  0
VERTEX
  5
e4b
  8
Layer_0
  10
300.71964
  20
211.59174
  0
VERTEX
  5
e4c
  8
Layer_0
  10
302.24811
  20
213.9315
  0
VERTEX
  5
e4d
  8
Layer_0
  10
303.80795
  20
216.24262
  0
VERTEX
  5
e4e
  8
Layer_0
  10
305.39011
  20
218.49877
  0
VERTEX
  5
e4f
  8
Layer_0
  10
306.18673
  20
219.59802
  0
VERTEX
  5
e50
  8
Layer_0
  10
306.98553
  20
220.67366
  0
VERTEX
  5
e51
  8
Layer_0
  10
307.78538
  20
221.72241
  0
VERTEX
  5
e52
  8
Layer_0
  10
308.58515
  20
222.74098
  0
VERTEX
  5
e53
  8
Layer_0
  10
309.38371
  20
223.72607
  0
VERTEX
  5
e54
  8
Layer_0
  10
310.17992
  20
224.67441
  0
VERTEX
  5
e55
  8
Layer_0
  10
310.97265
  20
225.5827
  0
VERTEX
  5
e56
  8
Layer_0
  10
311.76077
  20
226.44765
  0
VERTEX
  5
e57
  8
Layer_0
  10
312.54314
  20
227.26598
  0
VERTEX
  5
e58
  8
Layer_0
  10
313.31864
  20
228.03439
  0
VERTEX
  5
e59
  8
Layer_0
  10
314.08613
  20
228.7496
  0
SEQEND
  0
POLYLINE
  5
e5b
  8
Layer_0
  62
7
  70
1
  66
1
  10
0
  20
0
  30
0
  0
VERTEX
  5
e5b
  8
Layer_0
  10
306.88232
  20
178.20972
  0
VERTEX
  5
e5c
  8
Layer_0
  10
306.4556
  20
176.98282
  0
VERTEX
  5
e5d
  8
Layer_0
  10
305.96256
  20
175.79715
  0
VERTEX
  5
e5e
  8
Layer_0
  10
305.40916
  20
174.64873
  0
VERTEX
  5
e5f
  8
Layer_0
  10
304.80137
  20
173.53355
  0
VERTEX
  5
e60
  8
Layer_0
  10
304.14512
  20
172.44763
  0
VERTEX
  5
e61
  8
Layer_0
  10
303.44637
  20
171.38695
  0
VERTEX
  5
e62
  8
Layer_0
  10
302.71107
  20
170.34754
  0
VERTEX
  5
e63
  8
Layer_0
  10
301.94519
  20
169.3254
  0
VERTEX
  5
e64
  8
Layer_0
  10
298.69478
  20
165.32959
  0
VERTEX
  5
e65
  8
Layer_0
  10
295.43112
  20
161.29047
  0
VERTEX
  5
e66
  8
Layer_0
  10
295.37957
  20
161.23187
  0
VERTEX
  5
e67
  8
Layer_0
  10
295.28995
  20
161.14077
  0
VERTEX
  5
e68
  8
Layer_0
  10
295.16356
  20
161.01822
  0
VERTEX
  5
e69
  8
Layer_0
  10
295.0017
  20
160.86527
  0
VERTEX
  5
e6a
  8
Layer_0
  10
294.8057
  20
160.68296
  0
VERTEX
  5
e6b
  8
Layer_0
  10
294.57684
  20
160.47236
  0
VERTEX
  5
e6c
  8
Layer_0
  10
294.31644
  20
160.23449
  0
VERTEX
  5
e6d
  8
Layer_0
  10
294.0258
  20
159.97043
  0
VERTEX
  5
e6e
  8
Layer_0
  10
293.70622
  20
159.6812
  0
VERTEX
  5
e6f
  8
Layer_0
  10
293.35902
  20
159.36787
  0
VERTEX
  5
e70
  8
Layer_0
  10
292.9855
  20
159.03148
  0
VERTEX
  5
e71
  8
Layer_0
  10
292.58696
  20
158.67308
  0
VERTEX
  5
e72
  8
Layer_0
  10
292.1647
  20
158.29372
  0
VERTEX
  5
e73
  8
Layer_0
  10
291.72004
  20
157.89445
  0
VERTEX
  5
e74
  8
Layer_0
  10
291.25428
  20
157.47632
  0
VERTEX
  5
e75
  8
Layer_0
  10
290.76873
  20
157.04037
  0
VERTEX
  5
e76
  8
Layer_0
  10
289.74345
  20
156.11924
  0
VERTEX
  5
e77
  8
Layer_0
  10
288.65466
  20
155.13944
  0
VERTEX
  5
e78
  8
Layer_0
  10
287.5128
  20
154.10937
  0
VERTEX
  5
e79
  8
Layer_0
  10
286.32832
  20
153.03742
  0
VERTEX
  5
e7a
  8
Layer_0
  10
283.87324
  20
150.80144
  0
VERTEX
  5
e7b
  8
Layer_0
  10
281.37299
  20
148.49866
  42
0.06527908
  0
VERTEX
  5
e7c
  8
Layer_0
  10
273.20612
  20
153.82916
  0
VERTEX
  5
e7d
  8
Layer_0
  10
279.71844
  20
169.54901
  42
0.22313877
  0
VERTEX
  5
e7e
  8
Layer_0
  10
285.23587
  20
171.53864
  42
0.41401753
  0
VERTEX
  5
e7f
  8
Layer_0
  10
285.23587
  20
181.27887
  42
0.41401253
  0
VERTEX
  5
e80
  8
Layer_0
  10
275.49564
  20
181.27887
  42
0.41439634
  0
VERTEX
  5
e81
  8
Layer_0
  10
275.49564
  20
171.53864
  42
0.026089334
  0
VERTEX
  5
e82
  8
Layer_0
  10
275.97546
  20
171.1012
  0
VERTEX
  5
e83
  8
Layer_0
  10
269.4632
  20
155.37787
  42
0.065981533
  0
VERTEX
  5
e84
  8
Layer_0
  10
259.91702
  20
157.38873
  0
VERTEX
  5
e85
  8
Layer_0
  10
259.77724
  20
160.7846
  0
VERTEX
  5
e86
  8
Layer_0
  10
259.62229
  20
164.10133
  0
VERTEX
  5
e87
  8
Layer_0
  10
259.54275
  20
165.69672
  0
VERTEX
  5
e88
  8
Layer_0
  10
259.46377
  20
167.23236
  0
VERTEX
  5
e89
  8
Layer_0
  10
259.38682
  20
168.69493
  0
VERTEX
  5
e8a
  8
Layer_0
  10
259.31332
  20
170.07111
  0
VERTEX
  5
e8b
  8
Layer_0
  10
259.27833
  20
170.72264
  0
VERTEX
  5
e8c
  8
Layer_0
  10
259.24475
  20
171.34758
  0
VERTEX
  5
e8d
  8
Layer_0
  10
259.21276
  20
171.94425
  0
VERTEX
  5
e8e
  8
Layer_0
  10
259.18255
  20
172.51101
  0
VERTEX
  5
e8f
  8
Layer_0
  10
259.15429
  20
173.04617
  0
VERTEX
  5
e90
  8
Layer_0
  10
259.12818
  20
173.54807
  0
VERTEX
  5
e91
  8
Layer_0
  10
259.10437
  20
174.01506
  0
VERTEX
  5
e92
  8
Layer_0
  10
259.08307
  20
174.44546
  0
VERTEX
  5
e93
  8
Layer_0
  10
259.06446
  20
174.83761
  0
VERTEX
  5
e94
  8
Layer_0
  10
259.0487
  20
175.18985
  0
VERTEX
  5
e95
  8
Layer_0
  10
259.03599
  20
175.5005
  0
VERTEX
  5
e96
  8
Layer_0
  10
259.02651
  20
175.76791
  0
VERTEX
  5
e97
  8
Layer_0
  10
259.02044
  20
175.9904
  0
VERTEX
  5
e98
  8
Layer_0
  10
259.01795
  20
176.16632
  0
VERTEX
  5
e99
  8
Layer_0
  10
259.01924
  20
176.294
  0
VERTEX
  5
e9a
  8
Layer_0
  10
259.02448
  20
176.37177
  0
VERTEX
  5
e9b
  8
Layer_0
  10
259.57253
  20
181.53547
  0
VERTEX
  5
e9c
  8
Layer_0
  10
260.09911
  20
186.65916
  0
VERTEX
  5
e9d
  8
Layer_0
  10
260.28022
  20
187.92341
  0
VERTEX
  5
e9e
  8
Layer_0
  10
260.4952
  20
189.17821
  0
VERTEX
  5
e9f
  8
Layer_0
  10
260.75111
  20
190.42216
  0
VERTEX
  5
ea0
  8
Layer_0
  10
261.05497
  20
191.65388
  0
VERTEX
  5
ea1
  8
Layer_0
  10
261.41384
  20
192.87199
  0
VERTEX
  5
ea2
  8
Layer_0
  10
261.83475
  20
194.07508
  0
VERTEX
  5
ea3
  8
Layer_0
  10
262.32476
  20
195.26177
  0
VERTEX
  5
ea4
  8
Layer_0
  10
262.8909
  20
196.43066
  0
VERTEX
  5
ea5
  8
Layer_0
  10
263.20535
  20
196.94036
  0
VERTEX
  5
ea6
  8
Layer_0
  10
263.55109
  20
197.48209
  0
VERTEX
  5
ea7
  8
Layer_0
  10
263.92668
  20
198.04723
  0
VERTEX
  5
ea8
  8
Layer_0
  10
264.33068
  20
198.62712
  0
VERTEX
  5
ea9
  8
Layer_0
  10
264.76162
  20
199.21314
  0
VERTEX
  5
eaa
  8
Layer_0
  10
265.21808
  20
199.79663
  0
VERTEX
  5
eab
  8
Layer_0
  10
265.69859
  20
200.36897
  0
VERTEX
  5
eac
  8
Layer_0
  10
266.20172
  20
200.9215
  0
VERTEX
  5
ead
  8
Layer_0
  10
266.72602
  20
201.44559
  0
VERTEX
  5
eae
  8
Layer_0
  10
267.27004
  20
201.9326
  0
VERTEX
  5
eaf
  8
Layer_0
  10
267.83233
  20
202.37389
  0
VERTEX
  5
eb0
  8
Layer_0
  10
268.41144
  20
202.76081
  0
VERTEX
  5
eb1
  8
Layer_0
  10
269.00594
  20
203.08472
  0
VERTEX
  5
eb2
  8
Layer_0
  10
269.61437
  20
203.33699
  0
VERTEX
  5
eb3
  8
Layer_0
  10
270.23529
  20
203.50898
  0
VERTEX
  5
eb4
  8
Layer_0
  10
270.86725
  20
203.59204
  0
VERTEX
  5
eb5
  8
Layer_0
  10
271.97631
  20
203.58501
  0
VERTEX
  5
eb6
  8
Layer_0
  10
273.057
  20
203.49146
  0
VERTEX
  5
eb7
  8
Layer_0
  10
274.10909
  20
203.30984
  0
VERTEX
  5
eb8
  8
Layer_0
  10
275.13232
  20
203.03864
  0
VERTEX
  5
eb9
  8
Layer_0
  10
276.12644
  20
202.67631
  0
VERTEX
  5
eba
  8
Layer_0
  10
277.09121
  20
202.22134
  0
VERTEX
  5
ebb
  8
Layer_0
  10
277.56251
  20
201.95864
  0
VERTEX
  5
ebc
  8
Layer_0
  10
278.02638
  20
201.6722
  0
VERTEX
  5
ebd
  8
Layer_0
  10
278.48279
  20
201.36183
  0
VERTEX
  5
ebe
  8
Layer_0
  10
278.9317
  20
201.02734
  42
-0.051056749
  0
VERTEX
  5
ebf
  8
Layer_0
  10
281.88803
  20
198.18396
  0
VERTEX
  5
ec0
  8
Layer_0
  10
282.6972
  20
197.16927
  0
VERTEX
  5
ec1
  8
Layer_0
  10
283.49316
  20
196.15192
  42
0.030998659
  0
VERTEX
  5
ec2
  8
Layer_0
  10
283.56726
  20
196.06726
  0
VERTEX
  5
ec3
  8
Layer_0
  10
283.99081
  20
195.64348
  0
VERTEX
  5
ec4
  8
Layer_0
  10
284.42829
  20
195.27324
  0
VERTEX
  5
ec5
  8
Layer_0
  10
284.88009
  20
194.94691
  0
VERTEX
  5
ec6
  8
Layer_0
  10
285.34656
  20
194.65485
  0
VERTEX
  5
ec7
  8
Layer_0
  10
286.32503
  20
194.13501
  0
VERTEX
  5
ec8
  8
Layer_0
  10
287.36667
  20
193.63666
  42
0.028647837
  0
VERTEX
  5
ec9
  8
Layer_0
  10
287.47955
  20
193.58722
  42
0.018932271
  0
VERTEX
  5
eca
  8
Layer_0
  10
287.59949
  20
193.54138
  0
VERTEX
  5
ecb
  8
Layer_0
  10
288.68775
  20
193.15716
  0
VERTEX
  5
ecc
  8
Layer_0
  10
289.74658
  20
192.83279
  0
VERTEX
  5
ecd
  8
Layer_0
  10
290.28263
  20
192.70927
  0
VERTEX
  5
ece
  8
Layer_0
  10
290.83253
  20
192.62019
  0
VERTEX
  5
ecf
  8
Layer_0
  10
291.40334
  20
192.57203
  0
VERTEX
  5
ed0
  8
Layer_0
  10
292.00214
  20
192.57129
  0
VERTEX
  5
ed1
  8
Layer_0
  10
292.11505
  20
192.58179
  0
VERTEX
  5
ed2
  8
Layer_0
  10
293.39694
  20
192.73882
  0
VERTEX
  5
ed3
  8
Layer_0
  10
294.6868
  20
192.88519
  42
-0.050260537
  0
VERTEX
  5
ed4
  8
Layer_0
  10
298.78958
  20
192.80408
  0
VERTEX
  5
ed5
  8
Layer_0
  10
299.88526
  20
192.61922
  0
VERTEX
  5
ed6
  8
Layer_0
  10
300.93451
  20
192.34591
  0
VERTEX
  5
ed7
  8
Layer_0
  10
301.93821
  20
191.98528
  0
VERTEX
  5
ed8
  8
Layer_0
  10
302.89722
  20
191.5385
  0
VERTEX
  5
ed9
  8
Layer_0
  10
303.81242
  20
191.00671
  0
VERTEX
  5
eda
  8
Layer_0
  10
304.68466
  20
190.39108
  0
VERTEX
  5
edb
  8
Layer_0
  10
305.51482
  20
189.69276
  0
VERTEX
  5
edc
  8
Layer_0
  10
306.30377
  20
188.9129
  0
VERTEX
  5
edd
  8
Layer_0
  10
306.69144
  20
188.40738
  0
VERTEX
  5
ede
  8
Layer_0
  10
307.00854
  20
187.84674
  0
VERTEX
  5
edf
  8
Layer_0
  10
307.26014
  20
187.23812
  0
VERTEX
  5
ee0
  8
Layer_0
  10
307.45133
  20
186.58867
  0
VERTEX
  5
ee1
  8
Layer_0
  10
307.58718
  20
185.90553
  0
VERTEX
  5
ee2
  8
Layer_0
  10
307.67278
  20
185.19583
  0
VERTEX
  5
ee3
  8
Layer_0
  10
307.71321
  20
184.46672
  0
VERTEX
  5
ee4
  8
Layer_0
  10
307.71354
  20
183.72535
  0
VERTEX
  5
ee5
  8
Layer_0
  10
307.67885
  20
182.97885
  0
VERTEX
  5
ee6
  8
Layer_0
  10
307.61423
  20
182.23436
  0
VERTEX
  5
ee7
  8
Layer_0
  10
307.52476
  20
181.49904
  0
VERTEX
  5
ee8
  8
Layer_0
  10
307.4155
  20
180.78001
  0
VERTEX
  5
ee9
  8
Layer_0
  10
307.29155
  20
180.08442
  0
VERTEX
  5
eea
  8
Layer_0
  10
307.15799
  20
179.41941
  0
VERTEX
  5
eeb
  8
Layer_0
  10
307.01988
  20
178.79213
  0
SEQEND
  0
POLYLINE
  5
eed
  8
Layer_0
  62
7
  70
1
  66
1
  10
0
  20
0
  30
0
  0
VERTEX
  5
eed
  8
Layer_0
  10
254.97458
  20
63.623901
  0
VERTEX
  5
eee
  8
Layer_0
  10
254.42652
  20
58.461681
  0
VERTEX
  5
eef
  8
Layer_0
  10
253.89995
  20
53.337799
  0
VERTEX
  5
ef0
  8
Layer_0
  10
253.71884
  20
52.073363
  0
VERTEX
  5
ef1
  8
Layer_0
  10
253.50385
  20
50.818351
  0
VERTEX
  5
ef2
  8
Layer_0
  10
253.24795
  20
49.574171
  0
VERTEX
  5
ef3
  8
Layer_0
  10
252.94408
  20
48.342228
  0
VERTEX
  5
ef4
  8
Layer_0
  10
252.58521
  20
47.123928
  0
VERTEX
  5
ef5
  8
Layer_0
  10
252.1643
  20
45.920676
  0
VERTEX
  5
ef6
  8
Layer_0
  10
251.67429
  20
44.733878
  0
VERTEX
  5
ef7
  8
Layer_0
  10
251.10815
  20
43.564941
  0
VERTEX
  5
ef8
  8
Layer_0
  10
250.79371
  20
43.055862
  0
VERTEX
  5
ef9
  8
Layer_0
  10
250.44796
  20
42.514666
  0
VERTEX
  5
efa
  8
Layer_0
  10
250.07237
  20
41.949999
  0
VERTEX
  5
efb
  8
Layer_0
  10
249.66838
  20
41.370505
  0
VERTEX
  5
efc
  8
Layer_0
  10
249.23743
  20
40.784832
  0
VERTEX
  5
efd
  8
Layer_0
  10
248.78097
  20
40.201624
  0
VERTEX
  5
efe
  8
Layer_0
  10
248.30045
  20
39.629527
  0
VERTEX
  5
eff
  8
Layer_0
  10
247.79733
  20
39.077187
  0
VERTEX
  5
f00
  8
Layer_0
  10
247.27303
  20
38.553248
  0
VERTEX
  5
f01
  8
Layer_0
  10
246.72901
  20
38.066357
  0
VERTEX
  5
f02
  8
Layer_0
  10
246.16672
  20
37.62516
  0
VERTEX
  5
f03
  8
Layer_0
  10
245.58761
  20
37.238301
  0
VERTEX
  5
f04
  8
Layer_0
  10
244.99312
  20
36.914427
  0
VERTEX
  5
f05
  8
Layer_0
  10
244.38469
  20
36.662182
  0
VERTEX
  5
f06
  8
Layer_0
  10
243.76378
  20
36.490213
  0
VERTEX
  5
f07
  8
Layer_0
  10
243.13184
  20
36.407166
  0
VERTEX
  5
f08
  8
Layer_0
  10
242.02292
  20
36.414183
  0
VERTEX
  5
f09
  8
Layer_0
  10
240.94257
  20
36.507685
  0
VERTEX
  5
f0a
  8
Layer_0
  10
239.89092
  20
36.68916
  0
VERTEX
  5
f0b
  8
Layer_0
  10
238.86808
  20
36.960098
  0
VERTEX
  5
f0c
  8
Layer_0
  10
237.87418
  20
37.321988
  0
VERTEX
  5
f0d
  8
Layer_0
  10
236.90934
  20
37.77632
  0
VERTEX
  5
f0e
  8
Layer_0
  10
235.97369
  20
38.324581
  0
VERTEX
  5
f0f
  8
Layer_0
  10
235.06735
  20
38.968262
  42
-0.050558885
  0
VERTEX
  5
f10
  8
Layer_0
  10
232.11105
  20
41.811646
  0
VERTEX
  5
f11
  8
Layer_0
  10
231.30188
  20
42.828125
  0
VERTEX
  5
f12
  8
Layer_0
  10
230.50592
  20
43.847168
  42
0.031586179
  0
VERTEX
  5
f13
  8
Layer_0
  10
230.43185
  20
43.931824
  0
VERTEX
  5
f14
  8
Layer_0
  10
230.00829
  20
44.355598
  0
VERTEX
  5
f15
  8
Layer_0
  10
229.57079
  20
44.725797
  0
VERTEX
  5
f16
  8
Layer_0
  10
229.11899
  20
45.052012
  0
VERTEX
  5
f17
  8
Layer_0
  10
228.65252
  20
45.343834
  0
VERTEX
  5
f18
  8
Layer_0
  10
227.67405
  20
45.862662
  0
VERTEX
  5
f19
  8
Layer_0
  10
226.63242
  20
46.359009
  0
VERTEX
  5
f1a
  8
Layer_0
  10
226.51953
  20
46.411865
  0
VERTEX
  5
f1b
  8
Layer_0
  10
226.3996
  20
46.457703
  0
VERTEX
  5
f1c
  8
Layer_0
  10
225.31332
  20
46.841913
  0
VERTEX
  5
f1d
  8
Layer_0
  10
224.25515
  20
47.165939
  0
VERTEX
  5
f1e
  8
Layer_0
  10
223.71893
  20
47.28905
  0
VERTEX
  5
f1f
  8
Layer_0
  10
223.16853
  20
47.377516
  0
VERTEX
  5
f20
  8
Layer_0
  10
222.59688
  20
47.424803
  0
VERTEX
  5
f21
  8
Layer_0
  10
221.99692
  20
47.424377
  0
VERTEX
  5
f22
  8
Layer_0
  10
221.88403
  20
47.417358
  0
VERTEX
  5
f23
  8
Layer_0
  10
220.60213
  20
47.260292
  0
VERTEX
  5
f24
  8
Layer_0
  10
219.31229
  20
47.113892
  42
-0.050191564
  0
VERTEX
  5
f25
  8
Layer_0
  10
215.2095
  20
47.195068
  0
VERTEX
  5
f26
  8
Layer_0
  10
214.11382
  20
47.379924
  0
VERTEX
  5
f27
  8
Layer_0
  10
213.0646
  20
47.653246
  0
VERTEX
  5
f28
  8
Layer_0
  10
212.06102
  20
48.013878
  0
VERTEX
  5
f29
  8
Layer_0
  10
211.10226
  20
48.460663
  0
VERTEX
  5
f2a
  8
Layer_0
  10
210.18749
  20
48.992443
  0
VERTEX
  5
f2b
  8
Layer_0
  10
209.31588
  20
49.608061
  0
VERTEX
  5
f2c
  8
Layer_0
  10
208.48661
  20
50.30636
  0
VERTEX
  5
f2d
  8
Layer_0
  10
207.69885
  20
51.086182
  0
VERTEX
  5
f2e
  8
Layer_0
  10
207.31055
  20
51.591664
  0
VERTEX
  5
f2f
  8
Layer_0
  10
206.99291
  20
52.152194
  0
VERTEX
  5
f30
  8
Layer_0
  10
206.74085
  20
52.76064
  0
VERTEX
  5
f31
  8
Layer_0
  10
206.54929
  20
53.40987
  0
VERTEX
  5
f32
  8
Layer_0
  10
206.41314
  20
54.092753
  0
VERTEX
  5
f33
  8
Layer_0
  10
206.32733
  20
54.802157
  0
VERTEX
  5
f34
  8
Layer_0
  10
206.28678
  20
55.530951
  0
VERTEX
  5
f35
  8
Layer_0
  10
206.2864
  20
56.272003
  0
VERTEX
  5
f36
  8
Layer_0
  10
206.32113
  20
57.018182
  0
VERTEX
  5
f37
  8
Layer_0
  10
206.38587
  20
57.762357
  0
VERTEX
  5
f38
  8
Layer_0
  10
206.47556
  20
58.497396
  0
VERTEX
  5
f39
  8
Layer_0
  10
206.5851
  20
59.216167
  0
VERTEX
  5
f3a
  8
Layer_0
  10
206.70942
  20
59.91154
  0
VERTEX
  5
f3b
  8
Layer_0
  10
206.84345
  20
60.576382
  0
VERTEX
  5
f3c
  8
Layer_0
  10
206.98209
  20
61.203563
  0
VERTEX
  5
f3d
  8
Layer_0
  10
207.12027
  20
61.78595
  0
VERTEX
  5
f3e
  8
Layer_0
  10
207.54641
  20
63.012828
  0
VERTEX
  5
f3f
  8
Layer_0
  10
208.03901
  20
64.198477
  0
VERTEX
  5
f40
  8
Layer_0
  10
208.59209
  20
65.34689
  0
VERTEX
  5
f41
  8
Layer_0
  10
209.19968
  20
66.462062
  0
VERTEX
  5
f42
  8
Layer_0
  10
209.85581
  20
67.547986
  0
VERTEX
  5
f43
  8
Layer_0
  10
210.55449
  20
68.608658
  0
VERTEX
  5
f44
  8
Layer_0
  10
211.28976
  20
69.648071
  0
VERTEX
  5
f45
  8
Layer_0
  10
212.05565
  20
70.670219
  0
VERTEX
  5
f46
  8
Layer_0
  10
215.30584
  20
74.666055
  0
VERTEX
  5
f47
  8
Layer_0
  10
218.56793
  20
78.7052
  0
VERTEX
  5
f48
  8
Layer_0
  10
218.61948
  20
78.764131
  0
VERTEX
  5
f49
  8
Layer_0
  10
218.70911
  20
78.855561
  0
VERTEX
  5
f4a
  8
Layer_0
  10
218.8355
  20
78.978439
  0
VERTEX
  5
f4b
  8
Layer_0
  10
218.99736
  20
79.131717
  0
VERTEX
  5
f4c
  8
Layer_0
  10
219.19337
  20
79.314345
  0
VERTEX
  5
f4d
  8
Layer_0
  10
219.42223
  20
79.525273
  0
VERTEX
  5
f4e
  8
Layer_0
  10
219.68265
  20
79.763451
  0
VERTEX
  5
f4f
  8
Layer_0
  10
219.97331
  20
80.027829
  0
VERTEX
  5
f50
  8
Layer_0
  10
220.2929
  20
80.317359
  0
VERTEX
  5
f51
  8
Layer_0
  10
220.64013
  20
80.63099
  0
VERTEX
  5
f52
  8
Layer_0
  10
221.01369
  20
80.967672
  0
VERTEX
  5
f53
  8
Layer_0
  10
221.41228
  20
81.326357
  0
VERTEX
  5
f54
  8
Layer_0
  10
221.83458
  20
81.705994
  0
VERTEX
  5
f55
  8
Layer_0
  10
222.2793
  20
82.105533
  0
VERTEX
  5
f56
  8
Layer_0
  10
222.74513
  20
82.523925
  0
VERTEX
  5
f57
  8
Layer_0
  10
223.23076
  20
82.960121
  0
VERTEX
  5
f58
  8
Layer_0
  10
224.25622
  20
83.881724
  0
VERTEX
  5
f59
  8
Layer_0
  10
225.34525
  20
84.861943
  0
VERTEX
  5
f5a
  8
Layer_0
  10
226.4874
  20
85.892383
  0
VERTEX
  5
f5b
  8
Layer_0
  10
227.67223
  20
86.964644
  0
VERTEX
  5
f5c
  8
Layer_0
  10
230.1282
  20
89.201045
  0
VERTEX
  5
f5d
  8
Layer_0
  10
232.62964
  20
91.503967
  42
0.065154632
  0
VERTEX
  5
f5e
  8
Layer_0
  10
240.79291
  20
86.173462
  0
VERTEX
  5
f5f
  8
Layer_0
  10
234.28067
  20
70.446594
  42
0.22360809
  0
VERTEX
  5
f60
  8
Layer_0
  10
228.76321
  20
68.46051
  42
0.41421356
  0
VERTEX
  5
f61
  8
Layer_0
  10
228.76321
  20
58.720337
  42
0.41440963
  0
VERTEX
  5
f62
  8
Layer_0
  10
238.50339
  20
58.720337
  42
0.41459907
  0
VERTEX
  5
f63
  8
Layer_0
  10
238.50339
  20
68.46051
  42
0.023426914
  0
VERTEX
  5
f64
  8
Layer_0
  10
238.02716
  20
68.897949
  0
VERTEX
  5
f65
  8
Layer_0
  10
244.54294
  20
84.624817
  42
0.066067717
  0
VERTEX
  5
f66
  8
Layer_0
  10
254.08206
  20
82.614014
  0
VERTEX
  5
f67
  8
Layer_0
  10
254.22183
  20
79.216954
  0
VERTEX
  5
f68
  8
Layer_0
  10
254.37678
  20
75.899278
  0
VERTEX
  5
f69
  8
Layer_0
  10
254.45632
  20
74.303487
  0
VERTEX
  5
f6a
  8
Layer_0
  10
254.53529
  20
72.767477
  0
VERTEX
  5
f6b
  8
Layer_0
  10
254.61224
  20
71.30456
  0
VERTEX
  5
f6c
  8
Layer_0
  10
254.68573
  20
69.928047
  0
VERTEX
  5
f6d
  8
Layer_0
  10
254.72072
  20
69.276352
  0
VERTEX
  5
f6e
  8
Layer_0
  10
254.7543
  20
68.65125
  0
VERTEX
  5
f6f
  8
Layer_0
  10
254.78629
  20
68.054405
  0
VERTEX
  5
f70
  8
Layer_0
  10
254.8165
  20
67.487481
  0
VERTEX
  5
f71
  8
Layer_0
  10
254.84476
  20
66.952141
  0
VERTEX
  5
f72
  8
Layer_0
  10
254.87088
  20
66.450051
  0
VERTEX
  5
f73
  8
Layer_0
  10
254.89468
  20
65.982873
  0
VERTEX
  5
f74
  8
Layer_0
  10
254.91598
  20
65.552272
  0
VERTEX
  5
f75
  8
Layer_0
  10
254.9346
  20
65.159911
  0
VERTEX
  5
f76
  8
Layer_0
  10
254.95035
  20
64.807456
  0
VERTEX
  5
f77
  8
Layer_0
  10
254.96306
  20
64.496569
  0
VERTEX
  5
f78
  8
Layer_0
  10
254.97254
  20
64.228914
  0
VERTEX
  5
f79
  8
Layer_0
  10
254.97862
  20
64.006156
  0
VERTEX
  5
f7a
  8
Layer_0
  10
254.9811
  20
63.829959
  0
VERTEX
  5
f7b
  8
Layer_0
  10
254.97982
  20
63.701986
  0
SEQEND
  0
POLYLINE
  5
f7d
  8
Layer_0
  62
7
  70
1
  66
1
  10
0
  20
0
  30
0
  0
VERTEX
  5
f7d
  8
Layer_0
  10
220.53995
  20
238.26648
  0
VERTEX
  5
f7e
  8
Layer_0
  10
220.6913
  20
239.20204
  0
VERTEX
  5
f7f
  8
Layer_0
  10
220.86837
  20
240.19715
  0
VERTEX
  5
f80
  8
Layer_0
  10
221.07441
  20
241.23917
  0
VERTEX
  5
f81
  8
Layer_0
  10
221.31264
  20
242.31547
  0
VERTEX
  5
f82
  8
Layer_0
  10
221.5863
  20
243.41341
  0
VERTEX
  5
f83
  8
Layer_0
  10
221.89863
  20
244.52036
  0
VERTEX
  5
f84
  8
Layer_0
  10
222.25285
  20
245.62368
  0
VERTEX
  5
f85
  8
Layer_0
  10
222.65221
  20
246.71073
  0
VERTEX
  5
f86
  8
Layer_0
  10
223.09994
  20
247.76889
  0
VERTEX
  5
f87
  8
Layer_0
  10
223.59928
  20
248.78551
  0
VERTEX
  5
f88
  8
Layer_0
  10
224.15345
  20
249.74797
  0
VERTEX
  5
f89
  8
Layer_0
  10
224.76569
  20
250.64362
  0
VERTEX
  5
f8a
  8
Layer_0
  10
225.0946
  20
251.06244
  0
VERTEX
  5
f8b
  8
Layer_0
  10
225.43925
  20
251.45983
  0
VERTEX
  5
f8c
  8
Layer_0
  10
225.80003
  20
251.8342
  0
VERTEX
  5
f8d
  8
Layer_0
  10
226.17734
  20
252.18397
  0
VERTEX
  5
f8e
  8
Layer_0
  10
226.57161
  20
252.50756
  0
VERTEX
  5
f8f
  8
Layer_0
  10
226.98322
  20
252.8034
  0
VERTEX
  5
f90
  8
Layer_0
  10
227.41258
  20
253.0699
  0
VERTEX
  5
f91
  8
Layer_0
  10
227.86011
  20
253.30548
  0
VERTEX
  5
f92
  8
Layer_0
  10
228.65725
  20
253.64786
  0
VERTEX
  5
f93
  8
Layer_0
  10
229.45724
  20
253.95515
  0
VERTEX
  5
f94
  8
Layer_0
  10
230.26011
  20
254.2271
  0
VERTEX
  5
f95
  8
Layer_0
  10
231.06591
  20
254.46341
  0
VERTEX
  5
f96
  8
Layer_0
  10
231.87466
  20
254.66382
  0
VERTEX
  5
f97
  8
Layer_0
  10
232.6864
  20
254.82805
  0
VERTEX
  5
f98
  8
Layer_0
  10
233.50117
  20
254.95583
  0
VERTEX
  5
f99
  8
Layer_0
  10
234.31901
  20
255.04688
  0
VERTEX
  5
f9a
  8
Layer_0
  10
235.13995
  20
255.10093
  0
VERTEX
  5
f9b
  8
Layer_0
  10
235.96402
  20
255.11771
  0
VERTEX
  5
f9c
  8
Layer_0
  10
236.79127
  20
255.09694
  0
VERTEX
  5
f9d
  8
Layer_0
  10
237.62173
  20
255.03834
  0
VERTEX
  5
f9e
  8
Layer_0
  10
238.45543
  20
254.94165
  0
VERTEX
  5
f9f
  8
Layer_0
  10
239.29242
  20
254.80658
  0
VERTEX
  5
fa0
  8
Layer_0
  10
240.13272
  20
254.63286
  0
VERTEX
  5
fa1
  8
Layer_0
  10
240.97638
  20
254.42023
  42
-0.051263344
  0
VERTEX
  5
fa2
  8
Layer_0
  10
246.84308
  20
252.12372
  0
VERTEX
  5
fa3
  8
Layer_0
  10
247.71206
  20
251.65879
  0
VERTEX
  5
fa4
  8
Layer_0
  10
248.56153
  20
251.1747
  0
VERTEX
  5
fa5
  8
Layer_0
  10
249.40638
  20
250.68798
  0
VERTEX
  5
fa6
  8
Layer_0
  10
250.26147
  20
250.21515
  42
0.033790074
  0
VERTEX
  5
fa7
  8
Layer_0
  10
250.38141
  20
250.15521
  0
VERTEX
  5
fa8
  8
Layer_0
  10
251.18494
  20
249.82379
  0
VERTEX
  5
fa9
  8
Layer_0
  10
251.97966
  20
249.57237
  0
VERTEX
  5
faa
  8
Layer_0
  10
252.77067
  20
249.38801
  0
VERTEX
  5
fab
  8
Layer_0
  10
253.56304
  20
249.25777
  0
VERTEX
  5
fac
  8
Layer_0
  10
255.17222
  20
249.10789
  0
VERTEX
  5
fad
  8
Layer_0
  10
256.84787
  20
249.01923
  0
VERTEX
  5
fae
  8
Layer_0
  10
256.99954
  20
249.01575
  0
VERTEX
  5
faf
  8
Layer_0
  10
257.15121
  20
249.01923
  0
VERTEX
  5
fb0
  8
Layer_0
  10
258.82735
  20
249.10789
  0
VERTEX
  5
fb1
  8
Layer_0
  10
260.43735
  20
249.25777
  0
VERTEX
  5
fb2
  8
Layer_0
  10
261.22994
  20
249.38801
  0
VERTEX
  5
fb3
  8
Layer_0
  10
262.02089
  20
249.57237
  0
VERTEX
  5
fb4
  8
Layer_0
  10
262.81513
  20
249.82379
  0
VERTEX
  5
fb5
  8
Layer_0
  10
263.61765
  20
250.15521
  42
0.03371163
  0
VERTEX
  5
fb6
  8
Layer_0
  10
263.73761
  20
250.21515
  0
VERTEX
  5
fb7
  8
Layer_0
  10
264.5927
  20
250.68798
  0
VERTEX
  5
fb8
  8
Layer_0
  10
265.43754
  20
251.1747
  0
VERTEX
  5
fb9
  8
Layer_0
  10
266.28701
  20
251.65879
  0
VERTEX
  5
fba
  8
Layer_0
  10
267.15601
  20
252.12372
  42
-0.051264036
  0
VERTEX
  5
fbb
  8
Layer_0
  10
273.02267
  20
254.42023
  0
VERTEX
  5
fbc
  8
Layer_0
  10
273.86637
  20
254.63286
  0
VERTEX
  5
fbd
  8
Layer_0
  10
274.70678
  20
254.80658
  0
VERTEX
  5
fbe
  8
Layer_0
  10
275.54393
  20
254.94165
  0
VERTEX
  5
fbf
  8
Layer_0
  10
276.37783
  20
255.03834
  0
VERTEX
  5
fc0
  8
Layer_0
  10
277.2085
  20
255.09694
  0
VERTEX
  5
fc1
  8
Layer_0
  10
278.03597
  20
255.11771
  0
VERTEX
  5
fc2
  8
Layer_0
  10
278.86026
  20
255.10093
  0
VERTEX
  5
fc3
  8
Layer_0
  10
279.68139
  20
255.04688
  0
VERTEX
  5
fc4
  8
Layer_0
  10
280.49937
  20
254.95583
  0
VERTEX
  5
fc5
  8
Layer_0
  10
281.31423
  20
254.82805
  0
VERTEX
  5
fc6
  8
Layer_0
  10
282.126
  20
254.66382
  0
VERTEX
  5
fc7
  8
Layer_0
  10
282.93468
  20
254.46341
  0
VERTEX
  5
fc8
  8
Layer_0
  10
283.7403
  20
254.2271
  0
VERTEX
  5
fc9
  8
Layer_0
  10
284.54288
  20
253.95515
  0
VERTEX
  5
fca
  8
Layer_0
  10
285.34244
  20
253.64786
  0
VERTEX
  5
fcb
  8
Layer_0
  10
286.13901
  20
253.30548
  0
VERTEX
  5
fcc
  8
Layer_0
  10
286.58653
  20
253.0699
  0
VERTEX
  5
fcd
  8
Layer_0
  10
287.0159
  20
252.8034
  0
VERTEX
  5
fce
  8
Layer_0
  10
287.42751
  20
252.50756
  0
VERTEX
  5
fcf
  8
Layer_0
  10
287.82177
  20
252.18397
  0
VERTEX
  5
fd0
  8
Layer_0
  10
288.19909
  20
251.8342
  0
VERTEX
  5
fd1
  8
Layer_0
  10
288.55986
  20
251.45983
  0
VERTEX
  5
fd2
  8
Layer_0
  10
288.9045
  20
251.06244
  0
VERTEX
  5
fd3
  8
Layer_0
  10
289.23341
  20
250.64362
  0
VERTEX
  5
fd4
  8
Layer_0
  10
289.84565
  20
249.74797
  0
VERTEX
  5
fd5
  8
Layer_0
  10
290.39982
  20
248.78551
  0
VERTEX
  5
fd6
  8
Layer_0
  10
290.89915
  20
247.76889
  0
VERTEX
  5
fd7
  8
Layer_0
  10
291.34687
  20
246.71073
  0
VERTEX
  5
fd8
  8
Layer_0
  10
291.74623
  20
245.62368
  0
VERTEX
  5
fd9
  8
Layer_0
  10
292.10045
  20
244.52036
  0
VERTEX
  5
fda
  8
Layer_0
  10
292.41277
  20
243.41341
  0
VERTEX
  5
fdb
  8
Layer_0
  10
292.68643
  20
242.31547
  0
VERTEX
  5
fdc
  8
Layer_0
  10
292.92467
  20
241.23917
  0
VERTEX
  5
fdd
  8
Layer_0
  10
293.1307
  20
240.19715
  0
VERTEX
  5
fde
  8
Layer_0
  10
293.30778
  20
239.20204
  0
VERTEX
  5
fdf
  8
Layer_0
  10
293.45914
  20
238.26648
  0
VERTEX
  5
fe0
  8
Layer_0
  10
293.52985
  20
237.26429
  0
VERTEX
  5
fe1
  8
Layer_0
  10
293.56704
  20
236.21571
  0
VERTEX
  5
fe2
  8
Layer_0
  10
293.57226
  20
235.12388
  0
VERTEX
  5
fe3
  8
Layer_0
  10
293.54701
  20
233.99191
  0
VERTEX
  5
fe4
  8
Layer_0
  10
293.49283
  20
232.82294
  0
VERTEX
  5
fe5
  8
Layer_0
  10
293.41124
  20
231.62008
  0
VERTEX
  5
fe6
  8
Layer_0
  10
293.30377
  20
230.38646
  0
VERTEX
  5
fe7
  8
Layer_0
  10
293.17195
  20
229.12521
  0
VERTEX
  5
fe8
  8
Layer_0
  10
293.01729
  20
227.83945
  0
VERTEX
  5
fe9
  8
Layer_0
  10
292.84133
  20
226.5323
  0
VERTEX
  5
fea
  8
Layer_0
  10
292.64559
  20
225.20689
  0
VERTEX
  5
feb
  8
Layer_0
  10
292.43159
  20
223.86634
  0
VERTEX
  5
fec
  8
Layer_0
  10
291.95495
  20
221.15234
  0
VERTEX
  5
fed
  8
Layer_0
  10
291.4236
  20
218.41528
  0
VERTEX
  5
fee
  8
Layer_0
  10
290.84975
  20
215.68016
  0
VERTEX
  5
fef
  8
Layer_0
  10
290.24561
  20
212.97197
  0
VERTEX
  5
ff0
  8
Layer_0
  10
289.62338
  20
210.31573
  0
VERTEX
  5
ff1
  8
Layer_0
  10
288.99528
  20
207.73641
  0
VERTEX
  5
ff2
  8
Layer_0
  10
288.68283
  20
206.48341
  0
VERTEX
  5
ff3
  8
Layer_0
  10
288.3735
  20
205.25902
  0
VERTEX
  5
ff4
  8
Layer_0
  10
288.06879
  20
204.06635
  0
VERTEX
  5
ff5
  8
Layer_0
  10
287.77025
  20
202.90855
  0
VERTEX
  5
ff6
  8
Layer_0
  10
287.47939
  20
201.78872
  0
VERTEX
  5
ff7
  8
Layer_0
  10
287.19774
  20
200.70999
  0
VERTEX
  5
ff8
  8
Layer_0
  10
286.92683
  20
199.6755
  0
VERTEX
  5
ff9
  8
Layer_0
  10
286.66818
  20
198.68835
  0
VERTEX
  5
ffa
  8
Layer_0
  10
286.58347
  20
198.77313
  0
VERTEX
  5
ffb
  8
Layer_0
  10
285.78489
  20
199.79571
  0
VERTEX
  5
ffc
  8
Layer_0
  10
284.96777
  20
200.81567
  42
0.05161498
  0
VERTEX
  5
ffd
  8
Layer_0
  10
281.41879
  20
204.22705
  0
VERTEX
  5
ffe
  8
Layer_0
  10
280.82626
  20
204.66797
  0
VERTEX
  5
fff
  8
Layer_0
  10
280.22226
  20
205.078
  0
VERTEX
  5
1000
  8
Layer_0
  10
279.60705
  20
205.45726
  0
VERTEX
  5
1001
  8
Layer_0
  10
278.9809
  20
205.80588
  0
VERTEX
  5
1002
  8
Layer_0
  10
278.34409
  20
206.12396
  0
VERTEX
  5
1003
  8
Layer_0
  10
277.69688
  20
206.41163
  0
VERTEX
  5
1004
  8
Layer_0
  10
277.03954
  20
206.66901
  0
VERTEX
  5
1005
  8
Layer_0
  10
276.37234
  20
206.89622
  0
VERTEX
  5
1006
  8
Layer_0
  10
275.69555
  20
207.09337
  0
VERTEX
  5
1007
  8
Layer_0
  10
275.00943
  20
207.26059
  0
VERTEX
  5
1008
  8
Layer_0
  10
274.31426
  20
207.39799
  0
VERTEX
  5
1009
  8
Layer_0
  10
273.61031
  20
207.50569
  0
VERTEX
  5
100a
  8
Layer_0
  10
272.89783
  20
207.58381
  0
VERTEX
  5
100b
  8
Layer_0
  10
272.17711
  20
207.63248
  0
VERTEX
  5
100c
  8
Layer_0
  10
271.44842
  20
207.6518
  0
VERTEX
  5
100d
  8
Layer_0
  10
270.71201
  20
207.64191
  0
VERTEX
  5
100e
  8
Layer_0
  10
270.67322
  20
207.63843
  0
VERTEX
  5
100f
  8
Layer_0
  10
270.19679
  20
207.60028
  0
VERTEX
  5
1010
  8
Layer_0
  10
269.72858
  20
207.53612
  0
VERTEX
  5
1011
  8
Layer_0
  10
269.26858
  20
207.44694
  0
VERTEX
  5
1012
  8
Layer_0
  10
268.81675
  20
207.33375
  0
VERTEX
  5
1013
  8
Layer_0
  10
267.93755
  20
207.03934
  0
VERTEX
  5
1014
  8
Layer_0
  10
267.0908
  20
206.66089
  0
VERTEX
  5
1015
  8
Layer_0
  10
266.27631
  20
206.20642
  0
VERTEX
  5
1016
  8
Layer_0
  10
265.49392
  20
205.68393
  0
VERTEX
  5
1017
  8
Layer_0
  10
264.74342
  20
205.10143
  0
VERTEX
  5
1018
  8
Layer_0
  10
264.02465
  20
204.46693
  0
VERTEX
  5
1019
  8
Layer_0
  10
263.33743
  20
203.78845
  0
VERTEX
  5
101a
  8
Layer_0
  10
262.68157
  20
203.07399
  0
VERTEX
  5
101b
  8
Layer_0
  10
262.05689
  20
202.33157
  0
VERTEX
  5
101c
  8
Layer_0
  10
261.46321
  20
201.56919
  0
VERTEX
  5
101d
  8
Layer_0
  10
260.90035
  20
200.79486
  0
VERTEX
  5
101e
  8
Layer_0
  10
260.36814
  20
200.01659
  0
VERTEX
  5
101f
  8
Layer_0
  10
259.86638
  20
199.2424
  0
VERTEX
  5
1020
  8
Layer_0
  10
259.3949
  20
198.48029
  42
0.027926771
  0
VERTEX
  5
1021
  8
Layer_0
  10
259.33139
  20
198.37091
  42
0.0085906328
  0
VERTEX
  5
1022
  8
Layer_0
  10
259.02448
  20
197.76416
  0
VERTEX
  5
1023
  8
Layer_0
  10
259.02448
  20
226.15216
  42
0.22343842
  0
VERTEX
  5
1024
  8
Layer_0
  10
263.36365
  20
230.09973
  42
0.41431482
  0
VERTEX
  5
1025
  8
Layer_0
  10
259.63477
  20
239.09912
  42
0.41421266
  0
VERTEX
  5
1026
  8
Layer_0
  10
250.63544
  20
235.37024
  42
0.41421356
  0
VERTEX
  5
1027
  8
Layer_0
  10
254.36429
  20
226.37091
  42
0.024475459
  0
VERTEX
  5
1028
  8
Layer_0
  10
254.97458
  20
226.15216
  0
VERTEX
  5
1029
  8
Layer_0
  10
254.97458
  20
197.76416
  42
0.0086203455
  0
VERTEX
  5
102a
  8
Layer_0
  10
254.66766
  20
198.37091
  42
0.028078626
  0
VERTEX
  5
102b
  8
Layer_0
  10
254.60416
  20
198.48029
  0
VERTEX
  5
102c
  8
Layer_0
  10
254.13271
  20
199.2424
  0
VERTEX
  5
102d
  8
Layer_0
  10
253.63106
  20
200.01659
  0
VERTEX
  5
102e
  8
Layer_0
  10
253.099
  20
200.79486
  0
VERTEX
  5
102f
  8
Layer_0
  10
252.53634
  20
201.56919
  0
VERTEX
  5
1030
  8
Layer_0
  10
251.94288
  20
202.33157
  0
VERTEX
  5
1031
  8
Layer_0
  10
251.31842
  20
203.07399
  0
VERTEX
  5
1032
  8
Layer_0
  10
250.66277
  20
203.78845
  0
VERTEX
  5
1033
  8
Layer_0
  10
249.97573
  20
204.46693
  0
VERTEX
  5
1034
  8
Layer_0
  10
249.25711
  20
205.10143
  0
VERTEX
  5
1035
  8
Layer_0
  10
248.5067
  20
205.68393
  0
VERTEX
  5
1036
  8
Layer_0
  10
247.72432
  20
206.20642
  0
VERTEX
  5
1037
  8
Layer_0
  10
246.90976
  20
206.66089
  0
VERTEX
  5
1038
  8
Layer_0
  10
246.06283
  20
207.03934
  0
VERTEX
  5
1039
  8
Layer_0
  10
245.18334
  20
207.33375
  0
VERTEX
  5
103a
  8
Layer_0
  10
244.73132
  20
207.44694
  0
VERTEX
  5
103b
  8
Layer_0
  10
244.27108
  20
207.53612
  0
VERTEX
  5
103c
  8
Layer_0
  10
243.80261
  20
207.60028
  0
VERTEX
  5
103d
  8
Layer_0
  10
243.32587
  20
207.63843
  0
VERTEX
  5
103e
  8
Layer_0
  10
243.28705
  20
207.64191
  0
VERTEX
  5
103f
  8
Layer_0
  10
242.55064
  20
207.6518
  0
VERTEX
  5
1040
  8
Layer_0
  10
241.82195
  20
207.63248
  0
VERTEX
  5
1041
  8
Layer_0
  10
241.10124
  20
207.58381
  0
VERTEX
  5
1042
  8
Layer_0
  10
240.38877
  20
207.50569
  0
VERTEX
  5
1043
  8
Layer_0
  10
239.68482
  20
207.39799
  0
VERTEX
  5
1044
  8
Layer_0
  10
238.98965
  20
207.26059
  0
VERTEX
  5
1045
  8
Layer_0
  10
238.30354
  20
207.09337
  0
VERTEX
  5
1046
  8
Layer_0
  10
237.62675
  20
206.89622
  0
VERTEX
  5
1047
  8
Layer_0
  10
236.95955
  20
206.66901
  0
VERTEX
  5
1048
  8
Layer_0
  10
236.30221
  20
206.41163
  0
VERTEX
  5
1049
  8
Layer_0
  10
235.655
  20
206.12396
  0
VERTEX
  5
104a
  8
Layer_0
  10
235.01818
  20
205.80588
  0
VERTEX
  5
104b
  8
Layer_0
  10
234.39203
  20
205.45726
  0
VERTEX
  5
104c
  8
Layer_0
  10
233.77681
  20
205.078
  0
VERTEX
  5
104d
  8
Layer_0
  10
233.1728
  20
204.66797
  0
VERTEX
  5
104e
  8
Layer_0
  10
232.58026
  20
204.22705
  42
0.051285048
  0
VERTEX
  5
104f
  8
Layer_0
  10
229.03131
  20
200.81567
  0
VERTEX
  5
1050
  8
Layer_0
  10
228.21551
  20
199.79571
  0
VERTEX
  5
1051
  8
Layer_0
  10
227.41559
  20
198.77313
  0
VERTEX
  5
1052
  8
Layer_0
  10
227.33093
  20
198.68835
  0
VERTEX
  5
1053
  8
Layer_0
  10
227.07228
  20
199.6755
  0
VERTEX
  5
1054
  8
Layer_0
  10
226.80136
  20
200.70999
  0
VERTEX
  5
1055
  8
Layer_0
  10
226.51971
  20
201.78872
  0
VERTEX
  5
1056
  8
Layer_0
  10
226.22884
  20
202.90855
  0
VERTEX
  5
1057
  8
Layer_0
  10
225.9303
  20
204.06635
  0
VERTEX
  5
1058
  8
Layer_0
  10
225.62559
  20
205.25902
  0
VERTEX
  5
1059
  8
Layer_0
  10
225.31625
  20
206.48341
  0
VERTEX
  5
105a
  8
Layer_0
  10
225.00381
  20
207.73641
  0
VERTEX
  5
105b
  8
Layer_0
  10
224.3757
  20
210.31573
  0
VERTEX
  5
105c
  8
Layer_0
  10
223.75347
  20
212.97197
  0
VERTEX
  5
105d
  8
Layer_0
  10
223.14933
  20
215.68016
  0
VERTEX
  5
105e
  8
Layer_0
  10
222.57548
  20
218.41528
  0
VERTEX
  5
105f
  8
Layer_0
  10
222.04413
  20
221.15234
  0
VERTEX
  5
1060
  8
Layer_0
  10
221.56749
  20
223.86634
  0
VERTEX
  5
1061
  8
Layer_0
  10
221.35349
  20
225.20689
  0
VERTEX
  5
1062
  8
Layer_0
  10
221.15775
  20
226.5323
  0
VERTEX
  5
1063
  8
Layer_0
  10
220.98179
  20
227.83945
  0
VERTEX
  5
1064
  8
Layer_0
  10
220.82713
  20
229.12521
  0
VERTEX
  5
1065
  8
Layer_0
  10
220.69531
  20
230.38646
  0
VERTEX
  5
1066
  8
Layer_0
  10
220.58784
  20
231.62008
  0
VERTEX
  5
1067
  8
Layer_0
  10
220.50625
  20
232.82294
  0
VERTEX
  5
1068
  8
Layer_0
  10
220.45207
  20
233.99191
  0
VERTEX
  5
1069
  8
Layer_0
  10
220.42683
  20
235.12388
  0
VERTEX
  5
106a
  8
Layer_0
  10
220.43204
  20
236.21571
  0
VERTEX
  5
106b
  8
Layer_0
  10
220.46924
  20
237.26429
  0
SEQEND
  0
POLYLINE
  5
106d
  8
Layer_0
  62
7
  70
1
  66
1
  10
0
  20
0
  30
0
  0
VERTEX
  5
106d
  8
Layer_0
  10
144.24117
  20
118.75958
  42
-0.081611512
  0
VERTEX
  5
106e
  8
Layer_0
  10
143.86723
  20
118.59027
  42
-0.044209994
  0
VERTEX
  5
106f
  8
Layer_0
  10
143.60265
  20
118.56201
  42
-0.1049613
  0
VERTEX
  5
1070
  8
Layer_0
  10
142.77362
  20
118.73486
  42
-0.099978898
  0
VERTEX
  5
1071
  8
Layer_0
  10
142.12097
  20
119.20398
  42
-0.093368156
  0
VERTEX
  5
1072
  8
Layer_0
  10
141.6906
  20
119.90259
  42
-0.091370781
  0
VERTEX
  5
1073
  8
Layer_0
  10
141.53537
  20
120.75983
  42
-0.10082904
  0
VERTEX
  5
1074
  8
Layer_0
  10
141.71529
  20
121.67346
  42
-0.10532275
  0
VERTEX
  5
1075
  8
Layer_0
  10
142.23386
  20
122.40723
  42
-0.097261861
  0
VERTEX
  5
1076
  8
Layer_0
  10
143.05585
  20
122.90118
  42
-0.054508536
  0
VERTEX
  5
1077
  8
Layer_0
  10
143.6485
  20
123.04578
  0
VERTEX
  5
1078
  8
Layer_0
  10
143.6485
  20
121.68048
  42
0.063150186
  0
VERTEX
  5
1079
  8
Layer_0
  10
143.43332
  20
121.51477
  42
0.084757176
  0
VERTEX
  5
107a
  8
Layer_0
  10
143.21106
  20
121.19019
  42
0.10161531
  0
VERTEX
  5
107b
  8
Layer_0
  10
143.12993
  20
120.7951
  42
0.1015249
  0
VERTEX
  5
107c
  8
Layer_0
  10
143.21106
  20
120.39642
  42
0.086599817
  0
VERTEX
  5
107d
  8
Layer_0
  10
143.43332
  20
120.07544
  42
0.086699483
  0
VERTEX
  5
107e
  8
Layer_0
  10
143.75433
  20
119.85315
  42
0.10155878
  0
VERTEX
  5
107f
  8
Layer_0
  10
144.15297
  20
119.77203
  42
0.10158138
  0
VERTEX
  5
1080
  8
Layer_0
  10
144.54808
  20
119.85315
  42
0.0847588
  0
VERTEX
  5
1081
  8
Layer_0
  10
144.87265
  20
120.07544
  42
0.092689613
  0
VERTEX
  5
1082
  8
Layer_0
  10
145.09137
  20
120.39642
  42
0.1015249
  0
VERTEX
  5
1083
  8
Layer_0
  10
145.1725
  20
120.7951
  42
0.1076491
  0
VERTEX
  5
1084
  8
Layer_0
  10
145.09137
  20
121.19019
  42
0.090725697
  0
VERTEX
  5
1085
  8
Layer_0
  10
144.87265
  20
121.51477
  42
0.07228957
  0
VERTEX
  5
1086
  8
Layer_0
  10
144.64687
  20
121.68414
  0
VERTEX
  5
1087
  8
Layer_0
  10
144.64687
  20
123.04578
  42
-0.054510902
  0
VERTEX
  5
1088
  8
Layer_0
  10
145.23953
  20
122.90118
  42
-0.097106396
  0
VERTEX
  5
1089
  8
Layer_0
  10
146.06151
  20
122.41077
  42
-0.10633339
  0
VERTEX
  5
108a
  8
Layer_0
  10
146.58009
  20
121.68756
  42
-0.10316054
  0
VERTEX
  5
108b
  8
Layer_0
  10
146.76001
  20
120.80927
  42
-0.091591871
  0
VERTEX
  5
108c
  8
Layer_0
  10
146.52719
  20
119.67676
  42
-0.080488573
  0
VERTEX
  5
108d
  8
Layer_0
  10
145.81104
  20
118.4809
  0
VERTEX
  5
108e
  8
Layer_0
  10
145.60781
  20
118.23529
  0
VERTEX
  5
108f
  8
Layer_0
  10
145.42678
  20
118.01229
  0
VERTEX
  5
1090
  8
Layer_0
  10
145.268
  20
117.80476
  0
VERTEX
  5
1091
  8
Layer_0
  10
145.13149
  20
117.60553
  0
VERTEX
  5
1092
  8
Layer_0
  10
145.01731
  20
117.40746
  0
VERTEX
  5
1093
  8
Layer_0
  10
144.9255
  20
117.20339
  0
VERTEX
  5
1094
  8
Layer_0
  10
144.8561
  20
116.98618
  0
VERTEX
  5
1095
  8
Layer_0
  10
144.80914
  20
116.74866
  0
VERTEX
  5
1096
  8
Layer_0
  10
142.22682
  20
116.74866
  0
VERTEX
  5
1097
  8
Layer_0
  10
142.56159
  20
117.04721
  0
VERTEX
  5
1098
  8
Layer_0
  10
142.85311
  20
117.30996
  0
VERTEX
  5
1099
  8
Layer_0
  10
143.11172
  20
117.54806
  0
VERTEX
  5
109a
  8
Layer_0
  10
143.34776
  20
117.77268
  0
VERTEX
  5
109b
  8
Layer_0
  10
143.79348
  20
118.22612
  0
VERTEX
  5
109c
  8
Layer_0
  10
144.27293
  20
118.75958
  0
SEQEND
  0
POLYLINE
  5
109e
  8
Layer_0
  62
7
  70
1
  66
1
  10
0
  20
0
  30
0
  0
VERTEX
  5
109e
  8
Layer_0
  10
293.45914
  20
1.732605
  0
VERTEX
  5
109f
  8
Layer_0
  10
293.30778
  20
0.79704429
  0
VERTEX
  5
10a0
  8
Layer_0
  10
293.1307
  20
-0.19805706
  0
VERTEX
  5
10a1
  8
Layer_0
  10
292.92467
  20
-1.240059
  0
VERTEX
  5
10a2
  8
Layer_0
  10
292.68643
  20
-2.3163214
  0
VERTEX
  5
10a3
  8
Layer_0
  10
292.41277
  20
-3.4142042
  0
VERTEX
  5
10a4
  8
Layer_0
  10
292.10045
  20
-4.5210673
  0
VERTEX
  5
10a5
  8
Layer_0
  10
291.74623
  20
-5.6242706
  0
VERTEX
  5
10a6
  8
Layer_0
  10
291.34687
  20
-6.711174
  0
VERTEX
  5
10a7
  8
Layer_0
  10
290.89915
  20
-7.7691375
  0
VERTEX
  5
10a8
  8
Layer_0
  10
290.39982
  20
-8.7855209
  0
VERTEX
  5
10a9
  8
Layer_0
  10
289.84565
  20
-9.7476842
  0
VERTEX
  5
10aa
  8
Layer_0
  10
289.23341
  20
-10.642987
  0
VERTEX
  5
10ab
  8
Layer_0
  10
288.9045
  20
-11.061616
  0
VERTEX
  5
10ac
  8
Layer_0
  10
288.55986
  20
-11.45879
  0
VERTEX
  5
10ad
  8
Layer_0
  10
288.19909
  20
-11.832929
  0
VERTEX
  5
10ae
  8
Layer_0
  10
287.82177
  20
-12.182452
  0
VERTEX
  5
10af
  8
Layer_0
  10
287.42751
  20
-12.505781
  0
VERTEX
  5
10b0
  8
Layer_0
  10
287.0159
  20
-12.801334
  0
VERTEX
  5
10b1
  8
Layer_0
  10
286.58653
  20
-13.067532
  0
VERTEX
  5
10b2
  8
Layer_0
  10
286.13901
  20
-13.302795
  0
VERTEX
  5
10b3
  8
Layer_0
  10
285.34244
  20
-13.645794
  0
VERTEX
  5
10b4
  8
Layer_0
  10
284.54288
  20
-13.953634
  0
VERTEX
  5
10b5
  8
Layer_0
  10
283.7403
  20
-14.226046
  0
VERTEX
  5
10b6
  8
Layer_0
  10
282.93468
  20
-14.462761
  0
VERTEX
  5
10b7
  8
Layer_0
  10
282.126
  20
-14.66351
  0
VERTEX
  5
10b8
  8
Layer_0
  10
281.31423
  20
-14.828024
  0
VERTEX
  5
10b9
  8
Layer_0
  10
280.49937
  20
-14.956034
  0
VERTEX
  5
10ba
  8
Layer_0
  10
279.68139
  20
-15.047272
  0
VERTEX
  5
10bb
  8
Layer_0
  10
278.86026
  20
-15.101468
  0
VERTEX
  5
10bc
  8
Layer_0
  10
278.03597
  20
-15.118353
  0
VERTEX
  5
10bd
  8
Layer_0
  10
277.2085
  20
-15.097659
  0
VERTEX
  5
10be
  8
Layer_0
  10
276.37783
  20
-15.039116
  0
VERTEX
  5
10bf
  8
Layer_0
  10
275.54393
  20
-14.942456
  0
VERTEX
  5
10c0
  8
Layer_0
  10
274.70678
  20
-14.807409
  0
VERTEX
  5
10c1
  8
Layer_0
  10
273.86637
  20
-14.633708
  0
VERTEX
  5
10c2
  8
Layer_0
  10
273.02267
  20
-14.421082
  42
-0.051263496
  0
VERTEX
  5
10c3
  8
Layer_0
  10
267.15601
  20
-12.124512
  0
VERTEX
  5
10c4
  8
Layer_0
  10
266.28701
  20
-11.659616
  0
VERTEX
  5
10c5
  8
Layer_0
  10
265.43754
  20
-11.175545
  0
VERTEX
  5
10c6
  8
Layer_0
  10
264.5927
  20
-10.68883
  0
VERTEX
  5
10c7
  8
Layer_0
  10
263.73761
  20
-10.216003
  0
VERTEX
  5
10c8
  8
Layer_0
  10
263.61765
  20
-10.152527
  0
VERTEX
  5
10c9
  8
Layer_0
  10
262.81513
  20
-9.8221323
  0
VERTEX
  5
10ca
  8
Layer_0
  10
262.02089
  20
-9.5712414
  0
VERTEX
  5
10cb
  8
Layer_0
  10
261.22994
  20
-9.387078
  0
VERTEX
  5
10cc
  8
Layer_0
  10
260.43735
  20
-9.2568665
  0
VERTEX
  5
10cd
  8
Layer_0
  10
258.82735
  20
-9.1071949
  0
VERTEX
  5
10ce
  8
Layer_0
  10
257.15121
  20
-9.0200195
  0
VERTEX
  5
10cf
  8
Layer_0
  10
256.99954
  20
-9.0166016
  0
VERTEX
  5
10d0
  8
Layer_0
  10
256.84787
  20
-9.0200195
  0
VERTEX
  5
10d1
  8
Layer_0
  10
255.17222
  20
-9.1071949
  0
VERTEX
  5
10d2
  8
Layer_0
  10
253.56304
  20
-9.2568665
  0
VERTEX
  5
10d3
  8
Layer_0
  10
252.77067
  20
-9.387078
  0
VERTEX
  5
10d4
  8
Layer_0
  10
251.97966
  20
-9.5712414
  0
VERTEX
  5
10d5
  8
Layer_0
  10
251.18494
  20
-9.8221323
  0
VERTEX
  5
10d6
  8
Layer_0
  10
250.38141
  20
-10.152527
  0
VERTEX
  5
10d7
  8
Layer_0
  10
250.26147
  20
-10.216003
  0
VERTEX
  5
10d8
  8
Layer_0
  10
249.40638
  20
-10.68883
  0
VERTEX
  5
10d9
  8
Layer_0
  10
248.56153
  20
-11.175545
  0
VERTEX
  5
10da
  8
Layer_0
  10
247.71206
  20
-11.659616
  0
VERTEX
  5
10db
  8
Layer_0
  10
246.84308
  20
-12.124512
  42
-0.051262805
  0
VERTEX
  5
10dc
  8
Layer_0
  10
240.97638
  20
-14.421082
  0
VERTEX
  5
10dd
  8
Layer_0
  10
240.13272
  20
-14.633708
  0
VERTEX
  5
10de
  8
Layer_0
  10
239.29242
  20
-14.807409
  0
VERTEX
  5
10df
  8
Layer_0
  10
238.45543
  20
-14.942456
  0
VERTEX
  5
10e0
  8
Layer_0
  10
237.62173
  20
-15.039116
  0
VERTEX
  5
10e1
  8
Layer_0
  10
236.79127
  20
-15.097659
  0
VERTEX
  5
10e2
  8
Layer_0
  10
235.96402
  20
-15.118353
  0
VERTEX
  5
10e3
  8
Layer_0
  10
235.13995
  20
-15.101468
  0
VERTEX
  5
10e4
  8
Layer_0
  10
234.31901
  20
-15.047272
  0
VERTEX
  5
10e5
  8
Layer_0
  10
233.50117
  20
-14.956034
  0
VERTEX
  5
10e6
  8
Layer_0
  10
232.6864
  20
-14.828024
  0
VERTEX
  5
10e7
  8
Layer_0
  10
231.87466
  20
-14.66351
  0
VERTEX
  5
10e8
  8
Layer_0
  10
231.06591
  20
-14.462761
  0
VERTEX
  5
10e9
  8
Layer_0
  10
230.26011
  20
-14.226046
  0
VERTEX
  5
10ea
  8
Layer_0
  10
229.45724
  20
-13.953634
  0
VERTEX
  5
10eb
  8
Layer_0
  10
228.65725
  20
-13.645794
  0
VERTEX
  5
10ec
  8
Layer_0
  10
227.86011
  20
-13.302795
  0
VERTEX
  5
10ed
  8
Layer_0
  10
227.41258
  20
-13.067532
  0
VERTEX
  5
10ee
  8
Layer_0
  10
226.98322
  20
-12.801334
  0
VERTEX
  5
10ef
  8
Layer_0
  10
226.57161
  20
-12.505781
  0
VERTEX
  5
10f0
  8
Layer_0
  10
226.17734
  20
-12.182452
  0
VERTEX
  5
10f1
  8
Layer_0
  10
225.80003
  20
-11.832929
  0
VERTEX
  5
10f2
  8
Layer_0
  10
225.43925
  20
-11.45879
  0
VERTEX
  5
10f3
  8
Layer_0
  10
225.0946
  20
-11.061616
  0
VERTEX
  5
10f4
  8
Layer_0
  10
224.76569
  20
-10.642987
  0
VERTEX
  5
10f5
  8
Layer_0
  10
224.15345
  20
-9.7476842
  0
VERTEX
  5
10f6
  8
Layer_0
  10
223.59928
  20
-8.7855209
  0
VERTEX
  5
10f7
  8
Layer_0
  10
223.09994
  20
-7.7691375
  0
VERTEX
  5
10f8
  8
Layer_0
  10
222.65221
  20
-6.711174
  0
VERTEX
  5
10f9
  8
Layer_0
  10
222.25285
  20
-5.6242706
  0
VERTEX
  5
10fa
  8
Layer_0
  10
221.89863
  20
-4.5210673
  0
VERTEX
  5
10fb
  8
Layer_0
  10
221.5863
  20
-3.4142042
  0
VERTEX
  5
10fc
  8
Layer_0
  10
221.31264
  20
-2.3163214
  0
VERTEX
  5
10fd
  8
Layer_0
  10
221.07441
  20
-1.240059
  0
VERTEX
  5
10fe
  8
Layer_0
  10
220.86837
  20
-0.19805706
  0
VERTEX
  5
10ff
  8
Layer_0
  10
220.6913
  20
0.79704429
  0
VERTEX
  5
1100
  8
Layer_0
  10
220.53995
  20
1.732605
  0
VERTEX
  5
1101
  8
Layer_0
  10
220.46924
  20
2.734798
  0
VERTEX
  5
1102
  8
Layer_0
  10
220.43204
  20
3.783373
  0
VERTEX
  5
1103
  8
Layer_0
  10
220.42683
  20
4.8752054
  0
VERTEX
  5
1104
  8
Layer_0
  10
220.45207
  20
6.0071708
  0
VERTEX
  5
1105
  8
Layer_0
  10
220.50625
  20
7.1761446
  0
VERTEX
  5
1106
  8
Layer_0
  10
220.58784
  20
8.3790024
  0
VERTEX
  5
1107
  8
Layer_0
  10
220.69531
  20
9.6126196
  0
VERTEX
  5
1108
  8
Layer_0
  10
220.82713
  20
10.873872
  0
VERTEX
  5
1109
  8
Layer_0
  10
220.98179
  20
12.159634
  0
VERTEX
  5
110a
  8
Layer_0
  10
221.15775
  20
13.466783
  0
VERTEX
  5
110b
  8
Layer_0
  10
221.35349
  20
14.792193
  0
VERTEX
  5
110c
  8
Layer_0
  10
221.56749
  20
16.13274
  0
VERTEX
  5
110d
  8
Layer_0
  10
222.04413
  20
18.846748
  0
VERTEX
  5
110e
  8
Layer_0
  10
222.57548
  20
21.583809
  0
VERTEX
  5
110f
  8
Layer_0
  10
223.14933
  20
24.318928
  0
VERTEX
  5
1110
  8
Layer_0
  10
223.75347
  20
27.02711
  0
VERTEX
  5
1111
  8
Layer_0
  10
224.3757
  20
29.683357
  0
VERTEX
  5
1112
  8
Layer_0
  10
225.00381
  20
32.262675
  0
VERTEX
  5
1113
  8
Layer_0
  10
225.31625
  20
33.515674
  0
VERTEX
  5
1114
  8
Layer_0
  10
225.62559
  20
34.740067
  0
VERTEX
  5
1115
  8
Layer_0
  10
225.9303
  20
35.93273
  0
VERTEX
  5
1116
  8
Layer_0
  10
226.22884
  20
37.090538
  0
VERTEX
  5
1117
  8
Layer_0
  10
226.51971
  20
38.210366
  0
VERTEX
  5
1118
  8
Layer_0
  10
226.80136
  20
39.289091
  0
VERTEX
  5
1119
  8
Layer_0
  10
227.07228
  20
40.323587
  0
VERTEX
  5
111a
  8
Layer_0
  10
227.33093
  20
41.31073
  0
VERTEX
  5
111b
  8
Layer_0
  10
227.41559
  20
41.226074
  0
VERTEX
  5
111c
  8
Layer_0
  10
228.21551
  20
40.203445
  0
VERTEX
  5
111d
  8
Layer_0
  10
229.03131
  20
39.183472
  42
0.050516248
  0
VERTEX
  5
111e
  8
Layer_0
  10
232.58026
  20
35.772034
  0
VERTEX
  5
111f
  8
Layer_0
  10
233.1728
  20
35.331699
  0
VERTEX
  5
1120
  8
Layer_0
  10
233.77681
  20
34.922107
  0
VERTEX
  5
1121
  8
Layer_0
  10
234.39203
  20
34.543159
  0
VERTEX
  5
1122
  8
Layer_0
  10
235.01818
  20
34.194757
  0
VERTEX
  5
1123
  8
Layer_0
  10
235.655
  20
33.876801
  0
VERTEX
  5
1124
  8
Layer_0
  10
236.30221
  20
33.589195
  0
VERTEX
  5
1125
  8
Layer_0
  10
236.95955
  20
33.33184
  0
VERTEX
  5
1126
  8
Layer_0
  10
237.62675
  20
33.104637
  0
VERTEX
  5
1127
  8
Layer_0
  10
238.30354
  20
32.907489
  0
VERTEX
  5
1128
  8
Layer_0
  10
238.98965
  20
32.740296
  0
VERTEX
  5
1129
  8
Layer_0
  10
239.68482
  20
32.602962
  0
VERTEX
  5
112a
  8
Layer_0
  10
240.38877
  20
32.495387
  0
VERTEX
  5
112b
  8
Layer_0
  10
241.10124
  20
32.417473
  0
VERTEX
  5
112c
  8
Layer_0
  10
241.82195
  20
32.369123
  0
VERTEX
  5
112d
  8
Layer_0
  10
242.55064
  20
32.350237
  0
VERTEX
  5
112e
  8
Layer_0
  10
243.28705
  20
32.360718
  0
VERTEX
  5
112f
  8
Layer_0
  10
243.32587
  20
32.360718
  0
VERTEX
  5
1130
  8
Layer_0
  10
243.80261
  20
32.399176
  0
VERTEX
  5
1131
  8
Layer_0
  10
244.27108
  20
32.46361
  0
VERTEX
  5
1132
  8
Layer_0
  10
244.73132
  20
32.55302
  0
VERTEX
  5
1133
  8
Layer_0
  10
245.18334
  20
32.666407
  0
VERTEX
  5
1134
  8
Layer_0
  10
246.06283
  20
32.961117
  0
VERTEX
  5
1135
  8
Layer_0
  10
246.90976
  20
33.339744
  0
VERTEX
  5
1136
  8
Layer_0
  10
247.72432
  20
33.794293
  0
VERTEX
  5
1137
  8
Layer_0
  10
248.5067
  20
34.31677
  0
VERTEX
  5
1138
  8
Layer_0
  10
249.25711
  20
34.899181
  0
VERTEX
  5
1139
  8
Layer_0
  10
249.97573
  20
35.533531
  0
VERTEX
  5
113a
  8
Layer_0
  10
250.66277
  20
36.211826
  0
VERTEX
  5
113b
  8
Layer_0
  10
251.31842
  20
36.926071
  0
VERTEX
  5
113c
  8
Layer_0
  10
251.94288
  20
37.668271
  0
VERTEX
  5
113d
  8
Layer_0
  10
252.53634
  20
38.430432
  0
VERTEX
  5
113e
  8
Layer_0
  10
253.099
  20
39.20456
  0
VERTEX
  5
113f
  8
Layer_0
  10
253.63106
  20
39.98266
  0
VERTEX
  5
1140
  8
Layer_0
  10
254.13271
  20
40.756738
  0
VERTEX
  5
1141
  8
Layer_0
  10
254.60416
  20
41.518799
  0
VERTEX
  5
1142
  8
Layer_0
  10
254.66766
  20
41.628174
  42
0.0086495581
  0
VERTEX
  5
1143
  8
Layer_0
  10
254.97458
  20
42.234985
  0
VERTEX
  5
1144
  8
Layer_0
  10
254.97458
  20
13.846924
  42
0.22360787
  0
VERTEX
  5
1145
  8
Layer_0
  10
250.63544
  20
9.8994141
  42
0.41420922
  0
VERTEX
  5
1146
  8
Layer_0
  10
254.36429
  20
0.90002441
  42
0.41395735
  0
VERTEX
  5
1147
  8
Layer_0
  10
263.36365
  20
4.6289063
  42
0.41431048
  0
VERTEX
  5
1148
  8
Layer_0
  10
259.63477
  20
13.628296
  42
0.024448685
  0
VERTEX
  5
1149
  8
Layer_0
  10
259.02448
  20
13.850464
  0
VERTEX
  5
114a
  8
Layer_0
  10
259.02448
  20
42.234985
  42
0.0086198453
  0
VERTEX
  5
114b
  8
Layer_0
  10
259.33139
  20
41.628174
  0
VERTEX
  5
114c
  8
Layer_0
  10
259.3949
  20
41.518799
  0
VERTEX
  5
114d
  8
Layer_0
  10
259.86638
  20
40.756738
  0
VERTEX
  5
114e
  8
Layer_0
  10
260.36814
  20
39.98266
  0
VERTEX
  5
114f
  8
Layer_0
  10
260.90035
  20
39.20456
  0
VERTEX
  5
1150
  8
Layer_0
  10
261.46321
  20
38.430432
  0
VERTEX
  5
1151
  8
Layer_0
  10
262.05689
  20
37.668271
  0
VERTEX
  5
1152
  8
Layer_0
  10
262.68157
  20
36.926071
  0
VERTEX
  5
1153
  8
Layer_0
  10
263.33743
  20
36.211826
  0
VERTEX
  5
1154
  8
Layer_0
  10
264.02465
  20
35.533531
  0
VERTEX
  5
1155
  8
Layer_0
  10
264.74342
  20
34.899181
  0
VERTEX
  5
1156
  8
Layer_0
  10
265.49392
  20
34.31677
  0
VERTEX
  5
1157
  8
Layer_0
  10
266.27631
  20
33.794293
  0
VERTEX
  5
1158
  8
Layer_0
  10
267.0908
  20
33.339744
  0
VERTEX
  5
1159
  8
Layer_0
  10
267.93755
  20
32.961117
  0
VERTEX
  5
115a
  8
Layer_0
  10
268.81675
  20
32.666407
  0
VERTEX
  5
115b
  8
Layer_0
  10
269.26858
  20
32.55302
  0
VERTEX
  5
115c
  8
Layer_0
  10
269.72858
  20
32.46361
  0
VERTEX
  5
115d
  8
Layer_0
  10
270.19679
  20
32.399176
  0
VERTEX
  5
115e
  8
Layer_0
  10
270.67322
  20
32.360718
  0
VERTEX
  5
115f
  8
Layer_0
  10
270.71201
  20
32.357178
  0
VERTEX
  5
1160
  8
Layer_0
  10
271.44842
  20
32.34732
  0
VERTEX
  5
1161
  8
Layer_0
  10
272.17711
  20
32.366751
  0
VERTEX
  5
1162
  8
Layer_0
  10
272.89783
  20
32.415575
  0
VERTEX
  5
1163
  8
Layer_0
  10
273.61031
  20
32.493894
  0
VERTEX
  5
1164
  8
Layer_0
  10
274.31426
  20
32.601812
  0
VERTEX
  5
1165
  8
Layer_0
  10
275.00943
  20
32.739432
  0
VERTEX
  5
1166
  8
Layer_0
  10
275.69555
  20
32.906859
  0
VERTEX
  5
1167
  8
Layer_0
  10
276.37234
  20
33.104195
  0
VERTEX
  5
1168
  8
Layer_0
  10
277.03954
  20
33.331543
  0
VERTEX
  5
1169
  8
Layer_0
  10
277.69688
  20
33.589008
  0
VERTEX
  5
116a
  8
Layer_0
  10
278.34409
  20
33.876693
  0
VERTEX
  5
116b
  8
Layer_0
  10
278.9809
  20
34.194701
  0
VERTEX
  5
116c
  8
Layer_0
  10
279.60705
  20
34.543136
  0
VERTEX
  5
116d
  8
Layer_0
  10
280.22226
  20
34.9221
  0
VERTEX
  5
116e
  8
Layer_0
  10
280.82626
  20
35.331699
  0
VERTEX
  5
116f
  8
Layer_0
  10
281.41879
  20
35.772034
  42
0.050846441
  0
VERTEX
  5
1170
  8
Layer_0
  10
284.96777
  20
39.183472
  0
VERTEX
  5
1171
  8
Layer_0
  10
285.78489
  20
40.203445
  0
VERTEX
  5
1172
  8
Layer_0
  10
286.58347
  20
41.226074
  0
VERTEX
  5
1173
  8
Layer_0
  10
286.66818
  20
41.31073
  0
VERTEX
  5
1174
  8
Layer_0
  10
286.92683
  20
40.323587
  0
VERTEX
  5
1175
  8
Layer_0
  10
287.19774
  20
39.289091
  0
VERTEX
  5
1176
  8
Layer_0
  10
287.47939
  20
38.210366
  0
VERTEX
  5
1177
  8
Layer_0
  10
287.77025
  20
37.090538
  0
VERTEX
  5
1178
  8
Layer_0
  10
288.06879
  20
35.93273
  0
VERTEX
  5
1179
  8
Layer_0
  10
288.3735
  20
34.740067
  0
VERTEX
  5
117a
  8
Layer_0
  10
288.68283
  20
33.515674
  0
VERTEX
  5
117b
  8
Layer_0
  10
288.99528
  20
32.262675
  0
VERTEX
  5
117c
  8
Layer_0
  10
289.62338
  20
29.683357
  0
VERTEX
  5
117d
  8
Layer_0
  10
290.24561
  20
27.02711
  0
VERTEX
  5
117e
  8
Layer_0
  10
290.84975
  20
24.318928
  0
VERTEX
  5
117f
  8
Layer_0
  10
291.4236
  20
21.583809
  0
VERTEX
  5
1180
  8
Layer_0
  10
291.95495
  20
18.846748
  0
VERTEX
  5
1181
  8
Layer_0
  10
292.43159
  20
16.13274
  0
VERTEX
  5
1182
  8
Layer_0
  10
292.64559
  20
14.792193
  0
VERTEX
  5
1183
  8
Layer_0
  10
292.84133
  20
13.466783
  0
VERTEX
  5
1184
  8
Layer_0
  10
293.01729
  20
12.159634
  0
VERTEX
  5
1185
  8
Layer_0
  10
293.17195
  20
10.873872
  0
VERTEX
  5
1186
  8
Layer_0
  10
293.30377
  20
9.6126196
  0
VERTEX
  5
1187
  8
Layer_0
  10
293.41124
  20
8.3790024
  0
VERTEX
  5
1188
  8
Layer_0
  10
293.49283
  20
7.1761446
  0
VERTEX
  5
1189
  8
Layer_0
  10
293.54701
  20
6.0071708
  0
VERTEX
  5
118a
  8
Layer_0
  10
293.57226
  20
4.8752054
  0
VERTEX
  5
118b
  8
Layer_0
  10
293.56704
  20
3.783373
  0
VERTEX
  5
118c
  8
Layer_0
  10
293.52985
  20
2.734798
  0
SEQEND
  0
ENDSEC
  0
EOF
