ISO-10303-21;
HEADER;
/* Generated by software containing ST-Developer
 * from STEP Tools, Inc. (www.steptools.com) 
 */

FILE_DESCRIPTION(
/* description */ (''),
/* implementation_level */ '2;1');

FILE_NAME(
/* name */ 'Toothbrush v3.step',
/* time_stamp */ '2024-04-23T21:09:08-04:00',
/* author */ (''),
/* organization */ (''),
/* preprocessor_version */ 'ST-DEVELOPER v20',
/* originating_system */ 'Autodesk Translation Framework v12.20.1.177',

/* authorisation */ '');

FILE_SCHEMA (('AUTOMOTIVE_DESIGN { 1 0 10303 214 3 1 1 }'));
ENDSEC;

DATA;
#10=MECHANICAL_DESIGN_GEOMETRIC_PRESENTATION_REPRESENTATION('',(#13,#14,
#15),#278);
#11=SHAPE_REPRESENTATION_RELATIONSHIP('SRR','None',#285,#12);
#12=ADVANCED_BREP_SHAPE_REPRESENTATION('',(#16,#17,#18),#277);
#13=STYLED_ITEM('',(#294),#16);
#14=STYLED_ITEM('',(#294),#17);
#15=STYLED_ITEM('',(#294),#18);
#16=MANIFOLD_SOLID_BREP('Base',#148);
#17=MANIFOLD_SOLID_BREP('Avoid',#149);
#18=MANIFOLD_SOLID_BREP('Top Ring',#150);
#19=FACE_BOUND('',#43,.T.);
#20=FACE_BOUND('',#53,.T.);
#21=FACE_BOUND('',#55,.T.);
#22=PLANE('',#167);
#23=PLANE('',#171);
#24=PLANE('',#172);
#25=PLANE('',#176);
#26=PLANE('',#177);
#27=PLANE('',#184);
#28=PLANE('',#185);
#29=FACE_OUTER_BOUND('',#41,.T.);
#30=FACE_OUTER_BOUND('',#42,.T.);
#31=FACE_OUTER_BOUND('',#44,.T.);
#32=FACE_OUTER_BOUND('',#45,.T.);
#33=FACE_OUTER_BOUND('',#46,.T.);
#34=FACE_OUTER_BOUND('',#47,.T.);
#35=FACE_OUTER_BOUND('',#48,.T.);
#36=FACE_OUTER_BOUND('',#49,.T.);
#37=FACE_OUTER_BOUND('',#50,.T.);
#38=FACE_OUTER_BOUND('',#51,.T.);
#39=FACE_OUTER_BOUND('',#52,.T.);
#40=FACE_OUTER_BOUND('',#54,.T.);
#41=EDGE_LOOP('',(#101,#102,#103,#104));
#42=EDGE_LOOP('',(#105));
#43=EDGE_LOOP('',(#106));
#44=EDGE_LOOP('',(#107,#108,#109,#110));
#45=EDGE_LOOP('',(#111));
#46=EDGE_LOOP('',(#112));
#47=EDGE_LOOP('',(#113,#114,#115,#116));
#48=EDGE_LOOP('',(#117));
#49=EDGE_LOOP('',(#118));
#50=EDGE_LOOP('',(#119,#120,#121,#122));
#51=EDGE_LOOP('',(#123,#124,#125,#126));
#52=EDGE_LOOP('',(#127));
#53=EDGE_LOOP('',(#128));
#54=EDGE_LOOP('',(#129));
#55=EDGE_LOOP('',(#130));
#56=LINE('',#242,#61);
#57=LINE('',#250,#62);
#58=LINE('',#257,#63);
#59=LINE('',#265,#64);
#60=LINE('',#271,#65);
#61=VECTOR('',#192,10.);
#62=VECTOR('',#203,15.0000002235174);
#63=VECTOR('',#212,10.);
#64=VECTOR('',#223,10.);
#65=VECTOR('',#230,15.);
#66=CIRCLE('',#165,10.);
#67=CIRCLE('',#166,10.);
#68=CIRCLE('',#168,15.0000002235174);
#69=CIRCLE('',#170,15.0000002235174);
#70=CIRCLE('',#174,10.);
#71=CIRCLE('',#175,10.);
#72=CIRCLE('',#179,10.);
#73=CIRCLE('',#180,10.);
#74=CIRCLE('',#182,15.);
#75=CIRCLE('',#183,15.);
#76=VERTEX_POINT('',#239);
#77=VERTEX_POINT('',#241);
#78=VERTEX_POINT('',#245);
#79=VERTEX_POINT('',#248);
#80=VERTEX_POINT('',#254);
#81=VERTEX_POINT('',#256);
#82=VERTEX_POINT('',#262);
#83=VERTEX_POINT('',#264);
#84=VERTEX_POINT('',#268);
#85=VERTEX_POINT('',#270);
#86=EDGE_CURVE('',#76,#76,#66,.T.);
#87=EDGE_CURVE('',#76,#77,#56,.T.);
#88=EDGE_CURVE('',#77,#77,#67,.T.);
#89=EDGE_CURVE('',#78,#78,#68,.T.);
#90=EDGE_CURVE('',#79,#79,#69,.T.);
#91=EDGE_CURVE('',#79,#78,#57,.T.);
#92=EDGE_CURVE('',#80,#80,#70,.T.);
#93=EDGE_CURVE('',#80,#81,#58,.T.);
#94=EDGE_CURVE('',#81,#81,#71,.T.);
#95=EDGE_CURVE('',#82,#82,#72,.T.);
#96=EDGE_CURVE('',#82,#83,#59,.T.);
#97=EDGE_CURVE('',#83,#83,#73,.T.);
#98=EDGE_CURVE('',#84,#84,#74,.T.);
#99=EDGE_CURVE('',#84,#85,#60,.T.);
#100=EDGE_CURVE('',#85,#85,#75,.T.);
#101=ORIENTED_EDGE('',*,*,#86,.F.);
#102=ORIENTED_EDGE('',*,*,#87,.T.);
#103=ORIENTED_EDGE('',*,*,#88,.F.);
#104=ORIENTED_EDGE('',*,*,#87,.F.);
#105=ORIENTED_EDGE('',*,*,#89,.T.);
#106=ORIENTED_EDGE('',*,*,#86,.T.);
#107=ORIENTED_EDGE('',*,*,#90,.F.);
#108=ORIENTED_EDGE('',*,*,#91,.T.);
#109=ORIENTED_EDGE('',*,*,#89,.F.);
#110=ORIENTED_EDGE('',*,*,#91,.F.);
#111=ORIENTED_EDGE('',*,*,#88,.T.);
#112=ORIENTED_EDGE('',*,*,#90,.T.);
#113=ORIENTED_EDGE('',*,*,#92,.F.);
#114=ORIENTED_EDGE('',*,*,#93,.T.);
#115=ORIENTED_EDGE('',*,*,#94,.T.);
#116=ORIENTED_EDGE('',*,*,#93,.F.);
#117=ORIENTED_EDGE('',*,*,#92,.T.);
#118=ORIENTED_EDGE('',*,*,#94,.F.);
#119=ORIENTED_EDGE('',*,*,#95,.F.);
#120=ORIENTED_EDGE('',*,*,#96,.T.);
#121=ORIENTED_EDGE('',*,*,#97,.T.);
#122=ORIENTED_EDGE('',*,*,#96,.F.);
#123=ORIENTED_EDGE('',*,*,#98,.F.);
#124=ORIENTED_EDGE('',*,*,#99,.T.);
#125=ORIENTED_EDGE('',*,*,#100,.T.);
#126=ORIENTED_EDGE('',*,*,#99,.F.);
#127=ORIENTED_EDGE('',*,*,#98,.T.);
#128=ORIENTED_EDGE('',*,*,#95,.T.);
#129=ORIENTED_EDGE('',*,*,#100,.F.);
#130=ORIENTED_EDGE('',*,*,#97,.F.);
#131=CYLINDRICAL_SURFACE('',#164,10.);
#132=CYLINDRICAL_SURFACE('',#169,15.0000002235174);
#133=CYLINDRICAL_SURFACE('',#173,10.);
#134=CYLINDRICAL_SURFACE('',#178,10.);
#135=CYLINDRICAL_SURFACE('',#181,15.);
#136=ADVANCED_FACE('',(#29),#131,.F.);
#137=ADVANCED_FACE('',(#30,#19),#22,.T.);
#138=ADVANCED_FACE('',(#31),#132,.T.);
#139=ADVANCED_FACE('',(#32),#23,.T.);
#140=ADVANCED_FACE('',(#33),#24,.F.);
#141=ADVANCED_FACE('',(#34),#133,.T.);
#142=ADVANCED_FACE('',(#35),#25,.T.);
#143=ADVANCED_FACE('',(#36),#26,.F.);
#144=ADVANCED_FACE('',(#37),#134,.F.);
#145=ADVANCED_FACE('',(#38),#135,.T.);
#146=ADVANCED_FACE('',(#39,#20),#27,.T.);
#147=ADVANCED_FACE('',(#40,#21),#28,.F.);
#148=CLOSED_SHELL('',(#136,#137,#138,#139,#140));
#149=CLOSED_SHELL('',(#141,#142,#143));
#150=CLOSED_SHELL('',(#144,#145,#146,#147));
#151=DERIVED_UNIT_ELEMENT(#153,1.);
#152=DERIVED_UNIT_ELEMENT(#280,-3.);
#153=(
MASS_UNIT()
NAMED_UNIT(*)
SI_UNIT(.KILO.,.GRAM.)
);
#154=DERIVED_UNIT((#151,#152));
#155=MEASURE_REPRESENTATION_ITEM('density measure',
POSITIVE_RATIO_MEASURE(7850.),#154);
#156=PROPERTY_DEFINITION_REPRESENTATION(#161,#158);
#157=PROPERTY_DEFINITION_REPRESENTATION(#162,#159);
#158=REPRESENTATION('material name',(#160),#277);
#159=REPRESENTATION('density',(#155),#277);
#160=DESCRIPTIVE_REPRESENTATION_ITEM('Steel','Steel');
#161=PROPERTY_DEFINITION('material property','material name',#287);
#162=PROPERTY_DEFINITION('material property','density of part',#287);
#163=AXIS2_PLACEMENT_3D('',#237,#186,#187);
#164=AXIS2_PLACEMENT_3D('',#238,#188,#189);
#165=AXIS2_PLACEMENT_3D('',#240,#190,#191);
#166=AXIS2_PLACEMENT_3D('',#243,#193,#194);
#167=AXIS2_PLACEMENT_3D('',#244,#195,#196);
#168=AXIS2_PLACEMENT_3D('',#246,#197,#198);
#169=AXIS2_PLACEMENT_3D('',#247,#199,#200);
#170=AXIS2_PLACEMENT_3D('',#249,#201,#202);
#171=AXIS2_PLACEMENT_3D('',#251,#204,#205);
#172=AXIS2_PLACEMENT_3D('',#252,#206,#207);
#173=AXIS2_PLACEMENT_3D('',#253,#208,#209);
#174=AXIS2_PLACEMENT_3D('',#255,#210,#211);
#175=AXIS2_PLACEMENT_3D('',#258,#213,#214);
#176=AXIS2_PLACEMENT_3D('',#259,#215,#216);
#177=AXIS2_PLACEMENT_3D('',#260,#217,#218);
#178=AXIS2_PLACEMENT_3D('',#261,#219,#220);
#179=AXIS2_PLACEMENT_3D('',#263,#221,#222);
#180=AXIS2_PLACEMENT_3D('',#266,#224,#225);
#181=AXIS2_PLACEMENT_3D('',#267,#226,#227);
#182=AXIS2_PLACEMENT_3D('',#269,#228,#229);
#183=AXIS2_PLACEMENT_3D('',#272,#231,#232);
#184=AXIS2_PLACEMENT_3D('',#273,#233,#234);
#185=AXIS2_PLACEMENT_3D('',#274,#235,#236);
#186=DIRECTION('axis',(0.,0.,1.));
#187=DIRECTION('refdir',(1.,0.,0.));
#188=DIRECTION('center_axis',(0.,0.,1.));
#189=DIRECTION('ref_axis',(1.,0.,0.));
#190=DIRECTION('center_axis',(0.,0.,-1.));
#191=DIRECTION('ref_axis',(1.,0.,0.));
#192=DIRECTION('',(0.,0.,-1.));
#193=DIRECTION('center_axis',(0.,0.,1.));
#194=DIRECTION('ref_axis',(1.,0.,0.));
#195=DIRECTION('center_axis',(0.,0.,1.));
#196=DIRECTION('ref_axis',(1.,0.,0.));
#197=DIRECTION('center_axis',(0.,0.,1.));
#198=DIRECTION('ref_axis',(1.,0.,0.));
#199=DIRECTION('center_axis',(0.,0.,-1.));
#200=DIRECTION('ref_axis',(1.,0.,0.));
#201=DIRECTION('center_axis',(0.,0.,-1.));
#202=DIRECTION('ref_axis',(1.,0.,0.));
#203=DIRECTION('',(0.,0.,1.));
#204=DIRECTION('center_axis',(0.,0.,1.));
#205=DIRECTION('ref_axis',(1.,0.,0.));
#206=DIRECTION('center_axis',(0.,0.,1.));
#207=DIRECTION('ref_axis',(1.,0.,0.));
#208=DIRECTION('center_axis',(0.,0.,1.));
#209=DIRECTION('ref_axis',(1.,0.,0.));
#210=DIRECTION('center_axis',(0.,0.,1.));
#211=DIRECTION('ref_axis',(1.,0.,0.));
#212=DIRECTION('',(0.,0.,-1.));
#213=DIRECTION('center_axis',(0.,0.,1.));
#214=DIRECTION('ref_axis',(1.,0.,0.));
#215=DIRECTION('center_axis',(0.,0.,1.));
#216=DIRECTION('ref_axis',(1.,0.,0.));
#217=DIRECTION('center_axis',(0.,0.,1.));
#218=DIRECTION('ref_axis',(1.,0.,0.));
#219=DIRECTION('center_axis',(0.,0.,1.));
#220=DIRECTION('ref_axis',(-1.,0.,0.));
#221=DIRECTION('center_axis',(0.,0.,-1.));
#222=DIRECTION('ref_axis',(-1.,0.,0.));
#223=DIRECTION('',(0.,0.,-1.));
#224=DIRECTION('center_axis',(0.,0.,-1.));
#225=DIRECTION('ref_axis',(-1.,0.,0.));
#226=DIRECTION('center_axis',(0.,0.,1.));
#227=DIRECTION('ref_axis',(-1.,0.,0.));
#228=DIRECTION('center_axis',(0.,0.,1.));
#229=DIRECTION('ref_axis',(-1.,0.,0.));
#230=DIRECTION('',(0.,0.,-1.));
#231=DIRECTION('center_axis',(0.,0.,1.));
#232=DIRECTION('ref_axis',(-1.,0.,0.));
#233=DIRECTION('center_axis',(0.,0.,1.));
#234=DIRECTION('ref_axis',(-1.,0.,0.));
#235=DIRECTION('center_axis',(0.,0.,1.));
#236=DIRECTION('ref_axis',(-1.,0.,0.));
#237=CARTESIAN_POINT('',(0.,0.,0.));
#238=CARTESIAN_POINT('Origin',(0.,0.,0.));
#239=CARTESIAN_POINT('',(-10.,-1.22464679914735E-15,30.));
#240=CARTESIAN_POINT('Origin',(0.,0.,30.));
#241=CARTESIAN_POINT('',(-10.,-1.22464679914735E-15,0.));
#242=CARTESIAN_POINT('',(-10.,-1.22464679914735E-15,0.));
#243=CARTESIAN_POINT('Origin',(0.,0.,0.));
#244=CARTESIAN_POINT('Origin',(0.,0.,30.));
#245=CARTESIAN_POINT('',(-15.0000002235174,-1.83697022609402E-15,30.));
#246=CARTESIAN_POINT('Origin',(0.,0.,30.));
#247=CARTESIAN_POINT('Origin',(0.,0.,0.));
#248=CARTESIAN_POINT('',(-15.0000002235174,-1.83697022609402E-15,-5.));
#249=CARTESIAN_POINT('Origin',(0.,0.,-5.));
#250=CARTESIAN_POINT('',(-15.0000002235174,1.83697022609402E-15,0.));
#251=CARTESIAN_POINT('Origin',(0.,0.,0.));
#252=CARTESIAN_POINT('Origin',(0.,0.,-5.));
#253=CARTESIAN_POINT('Origin',(0.,0.,0.));
#254=CARTESIAN_POINT('',(-10.,-1.22464679914735E-15,145.));
#255=CARTESIAN_POINT('Origin',(0.,0.,145.));
#256=CARTESIAN_POINT('',(-10.,-1.22464679914735E-15,0.));
#257=CARTESIAN_POINT('',(-10.,-1.22464679914735E-15,0.));
#258=CARTESIAN_POINT('Origin',(0.,0.,0.));
#259=CARTESIAN_POINT('Origin',(0.,0.,145.));
#260=CARTESIAN_POINT('Origin',(0.,0.,0.));
#261=CARTESIAN_POINT('Origin',(0.,0.,100.));
#262=CARTESIAN_POINT('',(10.,1.22464679914735E-15,110.));
#263=CARTESIAN_POINT('Origin',(0.,0.,110.));
#264=CARTESIAN_POINT('',(10.,1.22464679914735E-15,100.));
#265=CARTESIAN_POINT('',(10.,1.22464679914735E-15,100.));
#266=CARTESIAN_POINT('Origin',(0.,0.,100.));
#267=CARTESIAN_POINT('Origin',(0.,0.,100.));
#268=CARTESIAN_POINT('',(15.,1.83697019872103E-15,110.));
#269=CARTESIAN_POINT('Origin',(0.,0.,110.));
#270=CARTESIAN_POINT('',(15.,1.83697019872103E-15,100.));
#271=CARTESIAN_POINT('',(15.,1.83697019872103E-15,100.));
#272=CARTESIAN_POINT('Origin',(0.,0.,100.));
#273=CARTESIAN_POINT('Origin',(0.,0.,110.));
#274=CARTESIAN_POINT('Origin',(0.,0.,100.));
#275=UNCERTAINTY_MEASURE_WITH_UNIT(LENGTH_MEASURE(0.01),#279,
'DISTANCE_ACCURACY_VALUE',
'Maximum model space distance between geometric entities at asserted c
onnectivities');
#276=UNCERTAINTY_MEASURE_WITH_UNIT(LENGTH_MEASURE(0.01),#279,
'DISTANCE_ACCURACY_VALUE',
'Maximum model space distance between geometric entities at asserted c
onnectivities');
#277=(
GEOMETRIC_REPRESENTATION_CONTEXT(3)
GLOBAL_UNCERTAINTY_ASSIGNED_CONTEXT((#275))
GLOBAL_UNIT_ASSIGNED_CONTEXT((#279,#281,#282))
REPRESENTATION_CONTEXT('','3D')
);
#278=(
GEOMETRIC_REPRESENTATION_CONTEXT(3)
GLOBAL_UNCERTAINTY_ASSIGNED_CONTEXT((#276))
GLOBAL_UNIT_ASSIGNED_CONTEXT((#279,#281,#282))
REPRESENTATION_CONTEXT('','3D')
);
#279=(
LENGTH_UNIT()
NAMED_UNIT(*)
SI_UNIT(.MILLI.,.METRE.)
);
#280=(
LENGTH_UNIT()
NAMED_UNIT(*)
SI_UNIT($,.METRE.)
);
#281=(
NAMED_UNIT(*)
PLANE_ANGLE_UNIT()
SI_UNIT($,.RADIAN.)
);
#282=(
NAMED_UNIT(*)
SI_UNIT($,.STERADIAN.)
SOLID_ANGLE_UNIT()
);
#283=SHAPE_DEFINITION_REPRESENTATION(#284,#285);
#284=PRODUCT_DEFINITION_SHAPE('',$,#287);
#285=SHAPE_REPRESENTATION('',(#163),#277);
#286=PRODUCT_DEFINITION_CONTEXT('part definition',#291,'design');
#287=PRODUCT_DEFINITION('Toothbrush','Toothbrush v3',#288,#286);
#288=PRODUCT_DEFINITION_FORMATION('',$,#293);
#289=PRODUCT_RELATED_PRODUCT_CATEGORY('Toothbrush v3','Toothbrush v3',(#293));
#290=APPLICATION_PROTOCOL_DEFINITION('international standard',
'automotive_design',2009,#291);
#291=APPLICATION_CONTEXT(
'Core Data for Automotive Mechanical Design Process');
#292=PRODUCT_CONTEXT('part definition',#291,'mechanical');
#293=PRODUCT('Toothbrush','Toothbrush v3',$,(#292));
#294=PRESENTATION_STYLE_ASSIGNMENT((#295));
#295=SURFACE_STYLE_USAGE(.BOTH.,#296);
#296=SURFACE_SIDE_STYLE('',(#297));
#297=SURFACE_STYLE_FILL_AREA(#298);
#298=FILL_AREA_STYLE('Steel - Satin',(#299));
#299=FILL_AREA_STYLE_COLOUR('Steel - Satin',#300);
#300=COLOUR_RGB('Steel - Satin',0.627450980392157,0.627450980392157,0.627450980392157);
ENDSEC;
END-ISO-10303-21;
