  0
SECTION
  2
HEADER
  9
$ACADVER
  1
AC1021
  9
$ACADMAINTVER
 70
    25
  9
$DWGCODEPAGE
  3
ANSI_1252
  9
$LASTSAVEDBY
  1
admin
  9
$INSBASE
 10
0.0
 20
0.0
 30
0.0
  9
$EXTMIN
 10
1.000000000000000E+20
 20
1.000000000000000E+20
 30
1.000000000000000E+20
  9
$EXTMAX
 10
-1.000000000000000E+20
 20
-1.000000000000000E+20
 30
-1.000000000000000E+20
  9
$LIMMIN
 10
0.0
 20
0.0
  9
$LIMMAX
 10
12.0
 20
9.0
  9
$ORTHOMODE
 70
     0
  9
$REGENMODE
 70
     1
  9
$FILLMODE
 70
     1
  9
$QTEXTMODE
 70
     0
  9
$MIRRTEXT
 70
     1
  9
$LTSCALE
 40
1.0
  9
$ATTMODE
 70
     1
  9
$TEXTSIZE
 40
0.2
  9
$TRACEWID
 40
0.05
  9
$TEXTSTYLE
  7
Standard
  9
$CLAYER
  8
0
  9
$CELTYPE
  6
ByLayer
  9
$CECOLOR
 62
   256
  9
$CELTSCALE
 40
1.0
  9
$DISPSILH
 70
     0
  9
$DIMSCALE
 40
1.0
  9
$DIMASZ
 40
0.18
  9
$DIMEXO
 40
0.0625
  9
$DIMDLI
 40
0.38
  9
$DIMRND
 40
0.0
  9
$DIMDLE
 40
0.0
  9
$DIMEXE
 40
0.18
  9
$DIMTP
 40
0.0
  9
$DIMTM
 40
0.0
  9
$DIMTXT
 40
0.18
  9
$DIMCEN
 40
0.09
  9
$DIMTSZ
 40
0.0
  9
$DIMTOL
 70
     0
  9
$DIMLIM
 70
     0
  9
$DIMTIH
 70
     1
  9
$DIMTOH
 70
     1
  9
$DIMSE1
 70
     0
  9
$DIMSE2
 70
     0
  9
$DIMTAD
 70
     0
  9
$DIMZIN
 70
     0
  9
$DIMBLK
  1

  9
$DIMASO
 70
     1
  9
$DIMSHO
 70
     1
  9
$DIMPOST
  1

  9
$DIMAPOST
  1

  9
$DIMALT
 70
     0
  9
$DIMALTD
 70
     2
  9
$DIMALTF
 40
25.4
  9
$DIMLFAC
 40
1.0
  9
$DIMTOFL
 70
     0
  9
$DIMTVP
 40
0.0
  9
$DIMTIX
 70
     0
  9
$DIMSOXD
 70
     0
  9
$DIMSAH
 70
     0
  9
$DIMBLK1
  1

  9
$DIMBLK2
  1

  9
$DIMSTYLE
  2
STANDARD_ACAD
  9
$DIMCLRD
 70
     0
  9
$DIMCLRE
 70
     0
  9
$DIMCLRT
 70
     0
  9
$DIMTFAC
 40
1.0
  9
$DIMGAP
 40
0.09
  9
$DIMJUST
 70
     0
  9
$DIMSD1
 70
     0
  9
$DIMSD2
 70
     0
  9
$DIMTOLJ
 70
     1
  9
$DIMTZIN
 70
     0
  9
$DIMALTZ
 70
     0
  9
$DIMALTTZ
 70
     0
  9
$DIMUPT
 70
     0
  9
$DIMDEC
 70
     4
  9
$DIMTDEC
 70
     4
  9
$DIMALTU
 70
     2
  9
$DIMALTTD
 70
     2
  9
$DIMTXSTY
  7
Standard
  9
$DIMAUNIT
 70
     0
  9
$DIMADEC
 70
     0
  9
$DIMALTRND
 40
0.0
  9
$DIMAZIN
 70
     0
  9
$DIMDSEP
 70
    46
  9
$DIMATFIT
 70
     3
  9
$DIMFRAC
 70
     0
  9
$DIMLDRBLK
  1

  9
$DIMLUNIT
 70
     2
  9
$DIMLWD
 70
    -2
  9
$DIMLWE
 70
    -2
  9
$DIMTMOVE
 70
     2
  9
$DIMFXL
 40
1.0
  9
$DIMFXLON
 70
     0
  9
$DIMJOGANG
 40
0.7853981633974483
  9
$DIMTFILL
 70
     0
  9
$DIMTFILLCLR
 70
     0
  9
$DIMARCSYM
 70
     0
  9
$DIMLTYPE
  6

  9
$DIMLTEX1
  6

  9
$DIMLTEX2
  6

  9
$LUNITS
 70
     2
  9
$LUPREC
 70
     2
  9
$SKETCHINC
 40
0.1
  9
$FILLETRAD
 40
0.0
  9
$AUNITS
 70
     0
  9
$AUPREC
 70
     0
  9
$MENU
  1
.
  9
$ELEVATION
 40
0.0
  9
$PELEVATION
 40
0.0
  9
$THICKNESS
 40
0.0
  9
$LIMCHECK
 70
     0
  9
$CHAMFERA
 40
0.0
  9
$CHAMFERB
 40
0.0
  9
$CHAMFERC
 40
0.0
  9
$CHAMFERD
 40
0.0
  9
$SKPOLY
 70
     0
  9
$TDCREATE
 40
2460970.581182639
  9
$TDUCREATE
 40
2460970.247849306
  9
$TDUPDATE
 40
2460970.581234525
  9
$TDUUPDATE
 40
2460970.247901192
  9
$TDINDWG
 40
0.0000000116
  9
$TDUSRTIMER
 40
0.0000000116
  9
$USRTIMER
 70
     1
  9
$ANGBASE
 50
0.0
  9
$ANGDIR
 70
     0
  9
$PDMODE
 70
     0
  9
$PDSIZE
 40
0.0
  9
$PLINEWID
 40
0.0
  9
$SPLFRAME
 70
     0
  9
$SPLINETYPE
 70
     6
  9
$SPLINESEGS
 70
     8
  9
$HANDSEED
  5
199
  9
$SURFTAB1
 70
     6
  9
$SURFTAB2
 70
     6
  9
$SURFTYPE
 70
     6
  9
$SURFU
 70
     6
  9
$SURFV
 70
     6
  9
$UCSBASE
  2

  9
$UCSNAME
  2

  9
$UCSORG
 10
0.0
 20
0.0
 30
0.0
  9
$UCSXDIR
 10
1.0
 20
0.0
 30
0.0
  9
$UCSYDIR
 10
0.0
 20
1.0
 30
0.0
  9
$UCSORTHOREF
  2

  9
$UCSORTHOVIEW
 70
     0
  9
$UCSORGTOP
 10
0.0
 20
0.0
 30
0.0
  9
$UCSORGBOTTOM
 10
0.0
 20
0.0
 30
0.0
  9
$UCSORGLEFT
 10
0.0
 20
0.0
 30
0.0
  9
$UCSORGRIGHT
 10
0.0
 20
0.0
 30
0.0
  9
$UCSORGFRONT
 10
0.0
 20
0.0
 30
0.0
  9
$UCSORGBACK
 10
0.0
 20
0.0
 30
0.0
  9
$PUCSBASE
  2

  9
$PUCSNAME
  2

  9
$PUCSORG
 10
0.0
 20
0.0
 30
0.0
  9
$PUCSXDIR
 10
1.0
 20
0.0
 30
0.0
  9
$PUCSYDIR
 10
0.0
 20
1.0
 30
0.0
  9
$PUCSORTHOREF
  2

  9
$PUCSORTHOVIEW
 70
     0
  9
$PUCSORGTOP
 10
0.0
 20
0.0
 30
0.0
  9
$PUCSORGBOTTOM
 10
0.0
 20
0.0
 30
0.0
  9
$PUCSORGLEFT
 10
0.0
 20
0.0
 30
0.0
  9
$PUCSORGRIGHT
 10
0.0
 20
0.0
 30
0.0
  9
$PUCSORGFRONT
 10
0.0
 20
0.0
 30
0.0
  9
$PUCSORGBACK
 10
0.0
 20
0.0
 30
0.0
  9
$USERI1
 70
     0
  9
$USERI2
 70
     0
  9
$USERI3
 70
     0
  9
$USERI4
 70
     0
  9
$USERI5
 70
     0
  9
$USERR1
 40
0.0
  9
$USERR2
 40
0.0
  9
$USERR3
 40
0.0
  9
$USERR4
 40
0.0
  9
$USERR5
 40
0.0
  9
$WORLDVIEW
 70
     1
  9
$SHADEDGE
 70
     3
  9
$SHADEDIF
 70
    70
  9
$TILEMODE
 70
     1
  9
$MAXACTVP
 70
    64
  9
$PINSBASE
 10
0.0
 20
0.0
 30
0.0
  9
$PLIMCHECK
 70
     0
  9
$PEXTMIN
 10
1.000000000000000E+20
 20
1.000000000000000E+20
 30
1.000000000000000E+20
  9
$PEXTMAX
 10
-1.000000000000000E+20
 20
-1.000000000000000E+20
 30
-1.000000000000000E+20
  9
$PLIMMIN
 10
0.0
 20
0.0
  9
$PLIMMAX
 10
12.0
 20
9.0
  9
$UNITMODE
 70
     0
  9
$VISRETAIN
 70
     1
  9
$PLINEGEN
 70
     0
  9
$PSLTSCALE
 70
     1
  9
$TREEDEPTH
 70
  3020
  9
$CMLSTYLE
  2
Standard
  9
$CMLJUST
 70
     0
  9
$CMLSCALE
 40
1.0
  9
$PROXYGRAPHICS
 70
     1
  9
$MEASUREMENT
 70
     1
  9
$CELWEIGHT
370
    -1
  9
$ENDCAPS
280
     0
  9
$JOINSTYLE
280
     0
  9
$LWDISPLAY
290
     0
  9
$INSUNITS
 70
     5
  9
$HYPERLINKBASE
  1

  9
$STYLESHEET
  1

  9
$XEDIT
290
     1
  9
$CEPSNTYPE
380
     0
  9
$PSTYLEMODE
290
     1
  9
$FINGERPRINTGUID
  2
{3d5c2880-bfde-418c-accf-a3703233490d}
  9
$VERSIONGUID
  2
{FAEB1C32-E019-11D5-929B-00C0DF256EC4}
  9
$EXTNAMES
290
     1
  9
$PSVPSCALE
 40
0.0
  9
$OLESTARTUP
290
     0
  9
$SORTENTS
280
   127
  9
$INDEXCTL
280
     0
  9
$HIDETEXT
280
     1
  9
$XCLIPFRAME
290
     0
  9
$HALOGAP
280
     0
  9
$OBSCOLOR
 70
   257
  9
$OBSLTYPE
280
     0
  9
$INTERSECTIONDISPLAY
280
     0
  9
$INTERSECTIONCOLOR
 70
   257
  9
$DIMASSOC
280
     2
  9
$PROJECTNAME
  1

  9
$CAMERADISPLAY
290
     0
  9
$LENSLENGTH
 40
50.0
  9
$CAMERAHEIGHT
 40
0.0
  9
$STEPSPERSEC
 40
2.0
  9
$STEPSIZE
 40
6.0
  9
$3DDWFPREC
 40
2.0
  9
$PSOLWIDTH
 40
0.25
  9
$PSOLHEIGHT
 40
4.0
  9
$LOFTANG1
 40
1.570796326794897
  9
$LOFTANG2
 40
1.570796326794897
  9
$LOFTMAG1
 40
0.0
  9
$LOFTMAG2
 40
0.0
  9
$LOFTPARAM
 70
     7
  9
$LOFTNORMALS
280
     1
  9
$LATITUDE
 40
37.795
  9
$LONGITUDE
 40
-122.394
  9
$NORTHDIRECTION
 40
0.0
  9
$TIMEZONE
 70
 -8000
  9
$LIGHTGLYPHDISPLAY
280
     1
  9
$TILEMODELIGHTSYNCH
280
     1
  9
$CMATERIAL
347
44
  9
$SOLIDHIST
280
     0
  9
$SHOWHIST
280
     1
  9
$DWFFRAME
280
     2
  9
$DGNFRAME
280
     2
  9
$REALWORLDSCALE
290
     1
  9
$INTERFERECOLOR
 62
   256
  9
$CSHADOW
280
     0
  9
$SHADOWPLANELOCATION
 40
0.0
  0
ENDSEC
  0
SECTION
  2
CLASSES
  0
CLASS
  1
ACDBDICTIONARYWDFLT
  2
AcDbDictionaryWithDefault
  3
ObjectDBX Classes
 90
        0
 91
        3
280
     0
281
     0
  0
CLASS
  1
VISUALSTYLE
  2
AcDbVisualStyle
  3
ObjectDBX Classes
 90
     4095
 91
        3
280
     0
281
     0
  0
CLASS
  1
MATERIAL
  2
AcDbMaterial
  3
ObjectDBX Classes
 90
     1153
 91
        3
280
     0
281
     0
  0
CLASS
  1
SCALE
  2
AcDbScale
  3
ObjectDBX Classes
 90
     1153
 91
        3
280
     0
281
     0
  0
CLASS
  1
TABLESTYLE
  2
AcDbTableStyle
  3
ObjectDBX Classes
 90
     4095
 91
        3
280
     0
281
     0
  0
CLASS
  1
MLEADERSTYLE
  2
AcDbMLeaderStyle
  3
ACDB_MLEADERSTYLE_CLASS
 90
     4095
 91
        3
280
     0
281
     0
  0
CLASS
  1
SUN
  2
AcDbSun
  3
SCENEOE
 90
     1153
 91
        3
280
     0
281
     0
  0
CLASS
  1
DICTIONARYVAR
  2
AcDbDictionaryVar
  3
ObjectDBX Classes
 90
        0
 91
        3
280
     0
281
     0
  0
CLASS
  1
CELLSTYLEMAP
  2
AcDbCellStyleMap
  3
ObjectDBX Classes
 90
     1152
 91
        3
280
     0
281
     0
  0
ENDSEC
  0
SECTION
  2
TABLES
  0
TABLE
  2
VPORT
  5
8
330
0
100
AcDbSymbolTable
 70
     1
  0
VPORT
  5
29
330
8
100
AcDbSymbolTableRecord
100
AcDbViewportTableRecord
  2
*Active
 70
     0
 10
0.0
 20
0.0
 11
1.0
 21
1.0
 12
10.42990654205607
 22
4.5
 13
0.0
 23
0.0
 14
0.5
 24
0.5
 15
0.5
 25
0.5
 16
0.0
 26
0.0
 36
1.0
 17
0.0
 27
0.0
 37
0.0
 40
9.0
 41
1.972972972850329
 42
50.0
 43
0.0
 44
0.0
 50
0.0
 51
0.0
 71
     0
 72
   100
 73
     1
 74
     3
 75
     0
 76
     0
 77
     0
 78
     0
281
     0
 65
     1
110
0.0
120
0.0
130
0.0
111
1.0
121
0.0
131
0.0
112
0.0
122
1.0
132
0.0
 79
     0
146
0.0
348
2F
 60
     3
 61
     5
292
     1
282
     1
141
0.0
142
0.0
 63
   250
361
5D
  0
ENDTAB
  0
TABLE
  2
LTYPE
  5
5
330
0
100
AcDbSymbolTable
 70
     1
  0
LTYPE
  5
14
330
5
100
AcDbSymbolTableRecord
100
AcDbLinetypeTableRecord
  2
ByBlock
 70
     0
  3

 72
    65
 73
     0
 40
0.0
  0
LTYPE
  5
15
330
5
100
AcDbSymbolTableRecord
100
AcDbLinetypeTableRecord
  2
ByLayer
 70
     0
  3

 72
    65
 73
     0
 40
0.0
  0
LTYPE
  5
16
330
5
100
AcDbSymbolTableRecord
100
AcDbLinetypeTableRecord
  2
Continuous
 70
     0
  3
Solid line
 72
    65
 73
     0
 40
0.0
  0
ENDTAB
  0
TABLE
  2
LAYER
  5
2
330
0
100
AcDbSymbolTable
 70
     3
  0
LAYER
  5
10
330
2
100
AcDbSymbolTableRecord
100
AcDbLayerTableRecord
  2
0
 70
     0
 62
     7
  6
Continuous
370
    -3
390
F
347
46
  0
LAYER
  5
5F
330
2
100
AcDbSymbolTableRecord
100
AcDbLayerTableRecord
  2
图层 03
 70
     0
 62
     4
420
    65529
  6
Continuous
370
    -3
390
F
347
46
  0
LAYER
  5
155
330
2
100
AcDbSymbolTableRecord
100
AcDbLayerTableRecord
  2
图层01
 70
     0
 62
    12
420
 13107200
  6
Continuous
370
    -3
390
F
347
46
  0
ENDTAB
  0
TABLE
  2
STYLE
  5
3
330
0
100
AcDbSymbolTable
 70
     1
  0
STYLE
  5
11
330
3
100
AcDbSymbolTableRecord
100
AcDbTextStyleTableRecord
  2
Standard
 70
     0
 40
0.0
 41
1.0
 50
0.0
 71
     0
 42
0.2
  3
txt
  4

  0
ENDTAB
  0
TABLE
  2
VIEW
  5
6
330
0
100
AcDbSymbolTable
 70
     0
  0
ENDTAB
  0
TABLE
  2
UCS
  5
7
330
0
100
AcDbSymbolTable
 70
     0
  0
ENDTAB
  0
TABLE
  2
APPID
  5
9
330
0
100
AcDbSymbolTable
 70
     3
  0
APPID
  5
12
330
9
100
AcDbSymbolTableRecord
100
AcDbRegAppTableRecord
  2
ACAD
 70
     0
  0
APPID
  5
5E
330
9
100
AcDbSymbolTableRecord
100
AcDbRegAppTableRecord
  2
Rhino
 70
     0
  0
APPID
  5
191
330
9
100
AcDbSymbolTableRecord
100
AcDbRegAppTableRecord
  2
ACAD_MLEADERVER
 70
     0
  0
ENDTAB
  0
TABLE
  2
DIMSTYLE
  5
A
330
0
100
AcDbSymbolTable
 70
     1
100
AcDbDimStyleTable
  0
DIMSTYLE
105
27
330
A
100
AcDbSymbolTableRecord
100
AcDbDimStyleTableRecord
  2
STANDARD_ACAD
 70
     0
178
     0
340
11
  0
ENDTAB
  0
TABLE
  2
BLOCK_RECORD
  5
1
330
0
100
AcDbSymbolTable
 70
     1
  0
BLOCK_RECORD
  5
1F
330
1
100
AcDbSymbolTableRecord
100
AcDbBlockTableRecord
  2
*Model_Space
340
22
 70
     0
280
     1
281
     0
  0
BLOCK_RECORD
  5
1B
330
1
100
AcDbSymbolTableRecord
100
AcDbBlockTableRecord
  2
*Paper_Space
340
1E
 70
     0
280
     1
281
     0
  0
BLOCK_RECORD
  5
23
330
1
100
AcDbSymbolTableRecord
100
AcDbBlockTableRecord
  2
*Paper_Space0
340
26
 70
     0
280
     1
281
     0
  0
ENDTAB
  0
ENDSEC
  0
SECTION
  2
BLOCKS
  0
BLOCK
  5
20
330
1F
100
AcDbEntity
  8
0
100
AcDbBlockBegin
  2
*Model_Space
 70
     0
 10
0.0
 20
0.0
 30
0.0
  3
*Model_Space
  1

  0
ENDBLK
  5
21
330
1F
100
AcDbEntity
  8
0
100
AcDbBlockEnd
  0
BLOCK
  5
1C
330
1B
100
AcDbEntity
 67
     1
  8
0
100
AcDbBlockBegin
  2
*Paper_Space
 70
     0
 10
0.0
 20
0.0
 30
0.0
  3
*Paper_Space
  1

  0
ENDBLK
  5
1D
330
1B
100
AcDbEntity
 67
     1
  8
0
100
AcDbBlockEnd
  0
BLOCK
  5
24
330
23
100
AcDbEntity
  8
0
100
AcDbBlockBegin
  2
*Paper_Space0
 70
     0
 10
0.0
 20
0.0
 30
0.0
  3
*Paper_Space0
  1

  0
ENDBLK
  5
25
330
23
100
AcDbEntity
  8
0
100
AcDbBlockEnd
  0
ENDSEC
  0
SECTION
  2
ENTITIES
  0
SPLINE
  5
60
330
1F
100
AcDbEntity
  8
图层 03
100
AcDbSpline
210
0.0
220
0.0
230
1.0
 70
    11
 71
     3
 72
    29
 73
    25
 74
     0
 42
0.0000000001
 43
0.0000000001
 40
-15.70796326794897
 40
-15.70796326794897
 40
-15.70796326794897
 40
-15.70796326794897
 40
-14.72621556370216
 40
-13.74446785945534
 40
-12.76272015520853
 40
-12.27184630308513
 40
-11.78097245096172
 40
-11.29009859883832
 40
-10.79922474671491
 40
-9.817477042468102
 40
-8.835729338221292
 40
-8.344855486097888
 40
-7.853981633974483
 40
-7.363107781851078
 40
-6.872233929727672
 40
-5.890486225480862
 40
-4.908738521234051
 40
-4.417864669110646
 40
-3.926990816987241
 40
-3.436116964863836
 40
-2.945243112740431
 40
-1.963495408493621
 40
-0.9817477042468103
 40
0.0
 40
0.0
 40
0.0
 40
0.0
 10
3730.005116047503
 20
-26.92850497053109
 30
-0.0000000000004832
 10
3730.005116047498
 20
-27.28128254146964
 30
-0.0000000000004832
 10
3729.876882226023
 20
-28.04625555704911
 30
-0.0000000000004832
 10
3729.18947514482
 20
-29.1129163334233
 30
-0.0000000000004832
 10
3728.301442141699
 20
-29.6863452170719
 30
-0.0000000000004832
 10
3727.547020411382
 20
-29.89680180016376
 30
-0.0000000000004832
 10
3727.005112873791
 20
-29.9443598911846
 30
-0.0000000000004832
 10
3726.463224378473
 20
-29.89678845828405
 30
-0.0000000000004832
 10
3725.708726479065
 20
-29.68642082105612
 30
-0.0000000000004832
 10
3724.821017390891
 20
-29.11260383084073
 30
-0.0000000000004832
 10
3724.24719986798
 20
-28.22489425687513
 30
-0.0000000000004832
 10
3724.036833515008
 20
-27.47039743609821
 30
-0.0000000000004832
 10
3723.989257313751
 20
-26.92850497053132
 30
-0.0000000000004832
 10
3724.036833515008
 20
-26.38661250496375
 30
-0.0000000000004832
 10
3724.24719986798
 20
-25.63211568418672
 30
-0.0000000000004832
 10
3724.821017390891
 20
-24.74440611022146
 30
-0.0000000000004832
 10
3725.708726479065
 20
-24.17058912000539
 30
-0.0000000000004832
 10
3726.463224378473
 20
-23.96022148277768
 30
-0.0000000000004832
 10
3727.005112873791
 20
-23.9126500498777
 30
-0.0000000000004832
 10
3727.547020411382
 20
-23.96020814089775
 30
-0.0000000000004832
 10
3728.301442141699
 20
-24.1706647239904
 30
-0.0000000000004832
 10
3729.189475144819
 20
-24.74409360763775
 30
-0.0000000000004832
 10
3729.876882226023
 20
-25.81075438401422
 30
-0.0000000000004832
 10
3730.005116047498
 20
-26.57572739959062
 30
-0.0000000000004832
 10
3730.005116047503
 20
-26.92850497053109
 30
-0.0000000000004832
  0
SPLINE
  5
61
330
1F
100
AcDbEntity
  8
图层 03
100
AcDbSpline
210
0.0
220
0.0
230
1.0
 70
    11
 71
     3
 72
    29
 73
    25
 74
     0
 42
0.0000000001
 43
0.0000000001
 40
-15.70796326794897
 40
-15.70796326794897
 40
-15.70796326794897
 40
-15.70796326794897
 40
-14.72621556370216
 40
-13.74446785945534
 40
-12.76272015520853
 40
-12.27184630308513
 40
-11.78097245096172
 40
-11.29009859883832
 40
-10.79922474671491
 40
-9.817477042468102
 40
-8.835729338221292
 40
-8.344855486097888
 40
-7.853981633974483
 40
-7.363107781851078
 40
-6.872233929727672
 40
-5.890486225480862
 40
-4.908738521234051
 40
-4.417864669110646
 40
-3.926990816987241
 40
-3.436116964863836
 40
-2.945243112740431
 40
-1.963495408493621
 40
-0.9817477042468103
 40
0.0
 40
0.0
 40
0.0
 40
0.0
 10
3786.05006552645
 20
23.30430402091451
 30
-0.0000000000004832
 10
3786.050065526445
 20
22.95152644997552
 30
-0.0000000000004832
 10
3785.921831704969
 20
22.18655343439582
 30
-0.0000000000004832
 10
3785.234424623766
 20
21.11989265802197
 30
-0.0000000000004832
 10
3784.346391620646
 20
20.54646377437302
 30
-0.0000000000004832
 10
3783.591969890328
 20
20.33600719128174
 30
-0.0000000000004832
 10
3783.050062352738
 20
20.28844910026055
 30
-0.0000000000004832
 10
3782.508173857419
 20
20.33602053316167
 30
-0.0000000000004832
 10
3781.753675958011
 20
20.54638817038858
 30
-0.0000000000004832
 10
3780.865966869837
 20
21.12020516060466
 30
-0.0000000000004832
 10
3780.292149346927
 20
22.0079147345707
 30
-0.0000000000004832
 10
3780.081782993955
 20
22.76241155534706
 30
-0.0000000000004832
 10
3780.034206792697
 20
23.30430402091429
 30
-0.0000000000004832
 10
3780.081782993954
 20
23.8461964864814
 30
-0.0000000000004832
 10
3780.292149346927
 20
24.60069330725946
 30
-0.0000000000004832
 10
3780.865966869837
 20
25.48840288122369
 30
-0.0000000000004832
 10
3781.753675958011
 20
26.06221987144022
 30
-0.0000000000004832
 10
3782.508173857419
 20
26.2725875086677
 30
-0.0000000000004832
 10
3783.050062352738
 20
26.3201589415678
 30
-0.0000000000004832
 10
3783.591969890327
 20
26.27260085054741
 30
-0.0000000000004832
 10
3784.346391620647
 20
26.06214426745487
 30
-0.0000000000004832
 10
3785.234424623765
 20
25.48871538380763
 30
-0.0000000000004832
 10
3785.921831704969
 20
24.42205460743139
 30
-0.0000000000004832
 10
3786.050065526445
 20
23.65708159185442
 30
-0.0000000000004832
 10
3786.05006552645
 20
23.30430402091451
 30
-0.0000000000004832
  0
SPLINE
  5
62
330
1F
100
AcDbEntity
  8
图层 03
100
AcDbSpline
210
0.0
220
0.0
230
1.0
 70
    11
 71
     3
 72
    29
 73
    25
 74
     0
 42
0.0000000001
 43
0.0000000001
 40
-15.70796326794897
 40
-15.70796326794897
 40
-15.70796326794897
 40
-15.70796326794897
 40
-14.72621556370216
 40
-13.74446785945534
 40
-12.76272015520853
 40
-12.27184630308513
 40
-11.78097245096172
 40
-11.29009859883832
 40
-10.79922474671491
 40
-9.817477042468102
 40
-8.835729338221292
 40
-8.344855486097888
 40
-7.853981633974483
 40
-7.363107781851078
 40
-6.872233929727672
 40
-5.890486225480862
 40
-4.908738521234051
 40
-4.417864669110646
 40
-3.926990816987241
 40
-3.436116964863836
 40
-2.945243112740431
 40
-1.963495408493621
 40
-0.9817477042468103
 40
0.0
 40
0.0
 40
0.0
 40
0.0
 10
3877.784423830311
 20
79.64565312492641
 30
-0.0000000000004832
 10
3877.784423830306
 20
79.29287555398753
 30
-0.0000000000004832
 10
3877.656190008831
 20
78.52790253840794
 30
-0.0000000000004832
 10
3876.968782927627
 20
77.4612417620342
 30
-0.0000000000004832
 10
3876.080749924507
 20
76.8878128783856
 30
-0.0000000000004832
 10
3875.326328194189
 20
76.67735629529375
 30
-0.0000000000004832
 10
3874.784420656599
 20
76.62979820427336
 30
-0.0000000000004832
 10
3874.242532161281
 20
76.6773696371738
 30
-0.0000000000004832
 10
3873.488034261873
 20
76.88773727440139
 30
-0.0000000000004832
 10
3872.600325173698
 20
77.46155426461678
 30
-0.0000000000004832
 10
3872.026507650788
 20
78.34926383858237
 30
-0.0000000000004832
 10
3871.816141297816
 20
79.10376065935907
 30
-0.0000000000004832
 10
3871.768565096558
 20
79.64565312492618
 30
-0.0000000000004832
 10
3871.816141297816
 20
80.18754559049353
 30
-0.0000000000004832
 10
3872.026507650788
 20
80.9420424112709
 30
-0.0000000000004832
 10
3872.600325173698
 20
81.82975198523638
 30
-0.0000000000004832
 10
3873.488034261872
 20
82.40356897545166
 30
-0.0000000000004832
 10
3874.24253216128
 20
82.6139366126796
 30
-0.0000000000004832
 10
3874.784420656599
 20
82.6615080455797
 30
-0.0000000000004832
 10
3875.326328194189
 20
82.61394995455953
 30
-0.0000000000004832
 10
3876.080749924507
 20
82.40349337146688
 30
-0.0000000000004832
 10
3876.968782927627
 20
81.83006448781987
 30
-0.0000000000004832
 10
3877.656190008831
 20
80.76340371144374
 30
-0.0000000000004832
 10
3877.784423830306
 20
79.99843069586609
 30
-0.0000000000004832
 10
3877.784423830311
 20
79.64565312492641
 30
-0.0000000000004832
  0
SPLINE
  5
63
330
1F
100
AcDbEntity
  8
图层 03
100
AcDbSpline
210
0.0
220
0.0
230
1.0
 70
    11
 71
     3
 72
    29
 73
    25
 74
     0
 42
0.0000000001
 43
0.0000000001
 40
-15.70796326794897
 40
-15.70796326794897
 40
-15.70796326794897
 40
-15.70796326794897
 40
-14.72621556370216
 40
-13.74446785945534
 40
-12.76272015520853
 40
-12.27184630308513
 40
-11.78097245096172
 40
-11.29009859883832
 40
-10.79922474671491
 40
-9.817477042468102
 40
-8.835729338221292
 40
-8.344855486097888
 40
-7.853981633974483
 40
-7.363107781851078
 40
-6.872233929727672
 40
-5.890486225480862
 40
-4.908738521234051
 40
-4.417864669110646
 40
-3.926990816987241
 40
-3.436116964863836
 40
-2.945243112740431
 40
-1.963495408493621
 40
-0.9817477042468103
 40
0.0
 40
0.0
 40
0.0
 40
0.0
 10
3901.641028941241
 20
-11.14984513174693
 30
-0.0000000000004832
 10
3901.641028941236
 20
-11.50262270268706
 30
-0.0000000000004832
 10
3901.512795119761
 20
-12.2675957182646
 30
-0.0000000000004832
 10
3900.825388038557
 20
-13.33425649463959
 30
-0.0000000000004832
 10
3899.937355035438
 20
-13.90768537828831
 30
-0.0000000000004832
 10
3899.182933305119
 20
-14.11814196137971
 30
-0.0000000000004832
 10
3898.641025767529
 20
-14.16570005240033
 30
-0.0000000000004832
 10
3898.099137272211
 20
-14.11812861949988
 30
-0.0000000000004832
 10
3897.344639372802
 20
-13.90776098227218
 30
-0.0000000000004832
 10
3896.456930284628
 20
-13.33394399205667
 30
-0.0000000000004832
 10
3895.883112761718
 20
-12.44623441809131
 30
-0.0000000000004832
 10
3895.672746408746
 20
-11.69173759731473
 30
-0.0000000000004832
 10
3895.625170207489
 20
-11.14984513174704
 30
-0.0000000000004832
 10
3895.672746408746
 20
-10.6079526661797
 30
-0.0000000000004832
 10
3895.883112761718
 20
-9.85345584540255
 30
-0.0000000000004832
 10
3896.456930284628
 20
-8.965746271436956
 30
-0.0000000000004832
 10
3897.344639372803
 20
-8.391929281221792
 30
-0.0000000000004832
 10
3898.099137272211
 20
-8.18156164399386
 30
-0.0000000000004832
 10
3898.641025767529
 20
-8.133990211093987
 30
-0.0000000000004832
 10
3899.182933305119
 20
-8.181548302113924
 30
-0.0000000000004832
 10
3899.937355035438
 20
-8.392004885206006
 30
-0.0000000000004832
 10
3900.825388038557
 20
-8.965433768853927
 30
-0.0000000000004832
 10
3901.512795119761
 20
-10.03209454522971
 30
-0.0000000000004832
 10
3901.641028941236
 20
-10.79706756080736
 30
-0.0000000000004832
 10
3901.641028941241
 20
-11.14984513174693
 30
-0.0000000000004832
  0
SPLINE
  5
64
330
1F
100
AcDbEntity
  8
图层 03
100
AcDbSpline
210
0.0
220
0.0
230
1.0
 70
    11
 71
     3
 72
    29
 73
    25
 74
     0
 42
0.0000000001
 43
0.0000000001
 40
-15.70796326794897
 40
-15.70796326794897
 40
-15.70796326794897
 40
-15.70796326794897
 40
-14.72621556370216
 40
-13.74446785945534
 40
-12.76272015520853
 40
-12.27184630308513
 40
-11.78097245096172
 40
-11.29009859883832
 40
-10.79922474671491
 40
-9.817477042468102
 40
-8.835729338221292
 40
-8.344855486097888
 40
-7.853981633974483
 40
-7.363107781851078
 40
-6.872233929727672
 40
-5.890486225480862
 40
-4.908738521234051
 40
-4.417864669110646
 40
-3.926990816987241
 40
-3.436116964863836
 40
-2.945243112740431
 40
-1.963495408493621
 40
-0.9817477042468103
 40
0.0
 40
0.0
 40
0.0
 40
0.0
 10
3789.217430530733
 20
124.3880839130024
 30
-0.0000000000004832
 10
3789.217430530728
 20
124.0353063420637
 30
-0.0000000000004832
 10
3789.089196709253
 20
123.2703333264839
 30
-0.0000000000004832
 10
3788.401789628049
 20
122.2036725501107
 30
-0.0000000000004832
 10
3787.51375662493
 20
121.6302436664613
 30
-0.0000000000004832
 10
3786.759334894611
 20
121.4197870833696
 30
-0.0000000000004832
 10
3786.217427357021
 20
121.3722289923488
 30
-0.0000000000004832
 10
3785.675538861703
 20
121.4198004252494
 30
-0.0000000000004832
 10
3784.921040962295
 20
121.6301680624773
 30
-0.0000000000004832
 10
3784.033331874121
 20
122.2039850526924
 30
-0.0000000000004832
 10
3783.45951435121
 20
123.0916946266586
 30
-0.0000000000004832
 10
3783.249147998238
 20
123.8461914474351
 30
-0.0000000000004832
 10
3783.201571796981
 20
124.3880839130024
 30
-0.0000000000004832
 10
3783.249147998238
 20
124.9299763785696
 30
-0.0000000000004832
 10
3783.45951435121
 20
125.6844731993474
 30
-0.0000000000004832
 10
3784.03333187412
 20
126.5721827733116
 30
-0.0000000000004832
 10
3784.921040962295
 20
127.1459997635282
 30
-0.0000000000004832
 10
3785.675538861703
 20
127.3563674007559
 30
-0.0000000000004832
 10
3786.217427357021
 20
127.4039388336553
 30
-0.0000000000004832
 10
3786.759334894611
 20
127.3563807426355
 30
-0.0000000000004832
 10
3787.51375662493
 20
127.1459241595429
 30
-0.0000000000004832
 10
3788.401789628049
 20
126.5724952758959
 30
-0.0000000000004832
 10
3789.089196709253
 20
125.5058344995193
 30
-0.0000000000004832
 10
3789.217430530728
 20
124.7408614839424
 30
-0.0000000000004832
 10
3789.217430530733
 20
124.3880839130024
 30
-0.0000000000004832
  0
SPLINE
  5
65
330
1F
100
AcDbEntity
  8
图层 03
100
AcDbSpline
210
0.0
220
0.0
230
1.0
 70
    11
 71
     3
 72
    29
 73
    25
 74
     0
 42
0.0000000001
 43
0.0000000001
 40
-15.70796326794897
 40
-15.70796326794897
 40
-15.70796326794897
 40
-15.70796326794897
 40
-14.72621556370216
 40
-13.74446785945534
 40
-12.76272015520853
 40
-12.27184630308513
 40
-11.78097245096172
 40
-11.29009859883832
 40
-10.79922474671491
 40
-9.817477042468102
 40
-8.835729338221292
 40
-8.344855486097888
 40
-7.853981633974483
 40
-7.363107781851078
 40
-6.872233929727672
 40
-5.890486225480862
 40
-4.908738521234051
 40
-4.417864669110646
 40
-3.926990816987241
 40
-3.436116964863836
 40
-2.945243112740431
 40
-1.963495408493621
 40
-0.9817477042468103
 40
0.0
 40
0.0
 40
0.0
 40
0.0
 10
3733.100680401604
 20
62.63356788885335
 30
-0.0000000000004832
 10
3733.100680401599
 20
62.28079031791378
 30
-0.0000000000004832
 10
3732.972446580124
 20
61.51581730233534
 30
-0.0000000000004832
 10
3732.28503949892
 20
60.44915652596103
 30
-0.0000000000004832
 10
3731.3970064958
 20
59.87572764231254
 30
-0.0000000000004832
 10
3730.642584765482
 20
59.66527105922012
 30
-0.0000000000004832
 10
3730.100677227892
 20
59.61771296819984
 30
-0.0000000000004832
 10
3729.558788732574
 20
59.66528440110028
 30
-0.0000000000004832
 10
3728.804290833165
 20
59.87565203832764
 30
-0.0000000000004832
 10
3727.916581744992
 20
60.4494690285444
 30
-0.0000000000004832
 10
3727.34276422208
 20
61.33717860250908
 30
-0.0000000000004832
 10
3727.132397869109
 20
62.09167542328612
 30
-0.0000000000004832
 10
3727.084821667851
 20
62.63356788885312
 30
-0.0000000000004832
 10
3727.132397869109
 20
63.17546035442035
 30
-0.0000000000004832
 10
3727.342764222081
 20
63.92995717519773
 30
-0.0000000000004832
 10
3727.916581744991
 20
64.81766674916287
 30
-0.0000000000004832
 10
3728.804290833165
 20
65.39148373937905
 30
-0.0000000000004832
 10
3729.558788732574
 20
65.60185137660687
 30
-0.0000000000004832
 10
3730.100677227892
 20
65.64942280950663
 30
-0.0000000000004832
 10
3730.642584765482
 20
65.60186471848647
 30
-0.0000000000004832
 10
3731.3970064958
 20
65.39140813539325
 30
-0.0000000000004832
 10
3732.28503949892
 20
64.81797925174669
 30
-0.0000000000004832
 10
3732.972446580124
 20
63.75131847537057
 30
-0.0000000000004832
 10
3733.100680401599
 20
62.98634545979326
 30
-0.0000000000004832
 10
3733.100680401604
 20
62.63356788885335
 30
-0.0000000000004832
  0
SPLINE
  5
66
330
1F
100
AcDbEntity
  8
图层 03
100
AcDbSpline
210
0.0
220
0.0
230
1.0
 70
    11
 71
     3
 72
    29
 73
    25
 74
     0
 42
0.0000000001
 43
0.0000000001
 40
-15.70796326794897
 40
-15.70796326794897
 40
-15.70796326794897
 40
-15.70796326794897
 40
-14.72621556370216
 40
-13.74446785945534
 40
-12.76272015520853
 40
-12.27184630308513
 40
-11.78097245096172
 40
-11.29009859883832
 40
-10.79922474671491
 40
-9.817477042468102
 40
-8.835729338221292
 40
-8.344855486097888
 40
-7.853981633974483
 40
-7.363107781851078
 40
-6.872233929727672
 40
-5.890486225480862
 40
-4.908738521234051
 40
-4.417864669110646
 40
-3.926990816987241
 40
-3.436116964863836
 40
-2.945243112740431
 40
-1.963495408493621
 40
-0.9817477042468103
 40
0.0
 40
0.0
 40
0.0
 40
0.0
 10
3796.702265976903
 20
-41.26324928862459
 30
-0.0000000000004832
 10
3796.702265976898
 20
-41.61602685956404
 30
-0.0000000000004832
 10
3796.574032155423
 20
-42.38099987514317
 30
-0.0000000000004832
 10
3795.886625074219
 20
-43.44766065151725
 30
-0.0000000000004832
 10
3794.998592071099
 20
-44.02108953516574
 30
-0.0000000000004832
 10
3794.244170340781
 20
-44.2315461182576
 30
-0.0000000000004832
 10
3793.702262803191
 20
-44.27910420927856
 30
-0.0000000000004832
 10
3793.160374307873
 20
-44.23153277637778
 30
-0.0000000000004832
 10
3792.405876408464
 20
-44.02116513915064
 30
-0.0000000000004832
 10
3791.518167320291
 20
-43.44734814893468
 30
-0.0000000000004832
 10
3790.944349797379
 20
-42.55963857496818
 30
-0.0000000000004832
 10
3790.733983444408
 20
-41.80514175419262
 30
-0.0000000000004832
 10
3790.68640724315
 20
-41.26324928862482
 30
-0.0000000000004832
 10
3790.733983444407
 20
-40.72135682305748
 30
-0.0000000000004832
 10
3790.94434979738
 20
-39.96686000228055
 30
-0.0000000000004832
 10
3791.518167320291
 20
-39.07915042831496
 30
-0.0000000000004832
 10
3792.405876408464
 20
-38.50533343809957
 30
-0.0000000000004832
 10
3793.160374307873
 20
-38.29496580087107
 30
-0.0000000000004832
 10
3793.702262803191
 20
-38.24739436797154
 30
-0.0000000000004832
 10
3794.244170340781
 20
-38.29495245899159
 30
-0.0000000000004832
 10
3794.9985920711
 20
-38.50540904208412
 30
-0.0000000000004832
 10
3795.886625074219
 20
-39.0788379257317
 30
-0.0000000000004832
 10
3796.574032155422
 20
-40.14549870210737
 30
-0.0000000000004832
 10
3796.702265976898
 20
-40.91047171768537
 30
-0.0000000000004832
 10
3796.702265976903
 20
-41.26324928862459
 30
-0.0000000000004832
  0
SPLINE
  5
67
330
1F
100
AcDbEntity
  8
图层 03
100
AcDbSpline
210
0.0
220
0.0
230
1.0
 70
     8
 71
     3
 72
     8
 73
     4
 74
     0
 42
0.0000000001
 43
0.0000000001
 40
490.963052284722
 40
490.963052284722
 40
490.963052284722
 40
490.963052284722
 40
508.5450269676622
 40
508.5450269676622
 40
508.5450269676622
 40
508.5450269676622
 10
3852.395885821721
 20
22.51612631789715
 30
-0.0000000000004832
 10
3851.314728888273
 20
21.79620561129548
 30
-0.0000000000004832
 10
3850.236784536965
 20
21.07130996285071
 30
-0.0000000000004832
 10
3849.162025944245
 20
20.34172876295804
 30
-0.0000000000004832
  0
SPLINE
  5
68
330
1F
100
AcDbEntity
  8
图层 03
100
AcDbSpline
210
0.0
220
0.0
230
1.0
 70
     8
 71
     3
 72
    11
 73
     7
 74
     0
 42
0.0000000001
 43
0.0000000001
 40
508.5450269676622
 40
508.5450269676622
 40
508.5450269676622
 40
508.5450269676622
 40
512.7479353095732
 40
512.7479353095732
 40
512.7479353095732
 40
535.3939162107359
 40
535.3939162107359
 40
535.3939162107359
 40
535.3939162107359
 10
3849.162025944245
 20
20.34172876295804
 30
-0.0000000000004832
 10
3848.911542753236
 20
20.15797893472563
 30
-0.0000000000004832
 10
3848.661364279497
 20
19.97379966498977
 30
-0.0000000000004832
 10
3848.411490764854
 20
19.78919862794987
 30
-0.0000000000004832
 10
3847.05588813606
 20
18.80752680127694
 30
-0.0000000000004832
 10
3845.702507115649
 20
17.82268264746574
 30
-0.0000000000004832
 10
3844.351295401555
 20
16.83481909709394
 30
-0.0000000000004832
  0
SPLINE
  5
69
330
1F
100
AcDbEntity
  8
图层 03
100
AcDbSpline
210
0.0
220
0.0
230
1.0
 70
     8
 71
     3
 72
     8
 73
     4
 74
     0
 42
0.0000000001
 43
0.0000000001
 40
535.3939162107359
 40
535.3939162107359
 40
535.3939162107359
 40
535.3939162107359
 40
557.2207885182345
 40
557.2207885182345
 40
557.2207885182345
 40
557.2207885182345
 10
3844.351295401555
 20
16.83481909709394
 30
-0.0000000000004832
 10
3842.981251377018
 20
15.99064701124564
 30
-0.0000000000004832
 10
3841.590970759088
 20
15.16275519430837
 30
-0.0000000000004832
 10
3840.198720136062
 20
14.35593561866995
 30
-0.0000000000004832
  0
SPLINE
  5
6A
330
1F
100
AcDbEntity
  8
图层 03
100
AcDbSpline
210
0.0
220
0.0
230
1.0
 70
     8
 71
     3
 72
     8
 73
     4
 74
     0
 42
0.0000000001
 43
0.0000000001
 40
557.2207885182345
 40
557.2207885182345
 40
557.2207885182345
 40
557.2207885182345
 40
576.1158241388532
 40
576.1158241388532
 40
576.1158241388532
 40
576.1158241388532
 10
3840.198720136062
 20
14.35593561866995
 30
-0.0000000000004832
 10
3838.871338762781
 20
13.94359364715979
 30
-0.0000000000004832
 10
3837.506174606669
 20
13.5514055828653
 30
-0.0000000000004832
 10
3836.164035725391
 20
13.1849310224884
 30
-0.0000000000004832
  0
SPLINE
  5
6B
330
1F
100
AcDbEntity
  8
图层 03
100
AcDbSpline
210
0.0
220
0.0
230
1.0
 70
     8
 71
     3
 72
     8
 73
     4
 74
     0
 42
0.0000000001
 43
0.0000000001
 40
576.1158241388532
 40
576.1158241388532
 40
576.1158241388532
 40
576.1158241388532
 40
590.72248402084
 40
590.72248402084
 40
590.72248402084
 40
590.72248402084
 10
3836.164035725391
 20
13.1849310224884
 30
-0.0000000000004832
 10
3835.104627972788
 20
13.54358721847439
 30
-0.0000000000004832
 10
3834.047664847484
 20
13.91176158399765
 30
-0.0000000000004832
 10
3832.992532544795
 20
14.28581541204221
 30
-0.0000000000004832
  0
SPLINE
  5
6C
330
1F
100
AcDbEntity
  8
图层 03
100
AcDbSpline
210
0.0
220
0.0
230
1.0
 70
     8
 71
     3
 72
     8
 73
     4
 74
     0
 42
0.0000000001
 43
0.0000000001
 40
590.72248402084
 40
590.72248402084
 40
590.72248402084
 40
590.72248402084
 40
608.7503600002582
 40
608.7503600002582
 40
608.7503600002582
 40
608.7503600002582
 10
3832.992532544795
 20
14.28581541204221
 30
-0.0000000000004832
 10
3832.555147018559
 20
15.63405741326756
 30
-0.0000000000004832
 10
3832.129922411228
 20
16.98714399103051
 30
-0.0000000000004832
 10
3831.71651716869
 20
18.34215581677688
 30
-0.0000000000004832
  0
SPLINE
  5
6D
330
1F
100
AcDbEntity
  8
图层 03
100
AcDbSpline
210
0.0
220
0.0
230
1.0
 70
     8
 71
     3
 72
     8
 73
     4
 74
     0
 42
0.0000000001
 43
0.0000000001
 40
608.7503600002582
 40
608.7503600002582
 40
608.7503600002582
 40
608.7503600002582
 40
633.9835425336041
 40
633.9835425336041
 40
633.9835425336041
 40
633.9835425336041
 10
3831.71651716869
 20
18.34215581677688
 30
-0.0000000000004832
 10
3831.818867556884
 20
20.28970288759933
 30
-0.0000000000004832
 10
3831.930828925019
 20
22.23623270836481
 30
-0.0000000000004832
 10
3832.052690978027
 20
24.18139972462154
 30
-0.0000000000004832
  0
SPLINE
  5
6E
330
1F
100
AcDbEntity
  8
图层 03
100
AcDbSpline
210
0.0
220
0.0
230
1.0
 70
     8
 71
     3
 72
     8
 73
     4
 74
     0
 42
0.0000000001
 43
0.0000000001
 40
633.9835425336041
 40
633.9835425336041
 40
633.9835425336041
 40
633.9835425336041
 40
662.963326643719
 40
662.963326643719
 40
662.963326643719
 40
662.963326643719
 10
3832.052690978027
 20
24.18139972462154
 30
-0.0000000000004832
 10
3832.586058676446
 20
26.3285041509489
 30
-0.0000000000004832
 10
3833.119978719052
 20
28.47543235219689
 30
-0.0000000000004832
 10
3833.654446136692
 20
30.62218497289473
 30
-0.0000000000004832
  0
SPLINE
  5
6F
330
1F
100
AcDbEntity
  8
图层 03
100
AcDbSpline
210
0.0
220
0.0
230
1.0
 70
     8
 71
     3
 72
     8
 73
     4
 74
     0
 42
0.0000000001
 43
0.0000000001
 40
662.963326643719
 40
662.963326643719
 40
662.963326643719
 40
662.963326643719
 40
694.910174689856
 40
694.910174689856
 40
694.910174689856
 40
694.910174689856
 10
3833.654446136692
 20
30.62218497289473
 30
-0.0000000000004832
 10
3834.71155087233
 20
32.78388030759606
 30
-0.0000000000004832
 10
3835.766956390189
 20
34.9465383501672
 30
-0.0000000000004832
 10
3836.820623983603
 20
37.1101704540531
 30
-0.0000000000004832
  0
SPLINE
  5
70
330
1F
100
AcDbEntity
  8
图层 03
100
AcDbSpline
210
0.0
220
0.0
230
1.0
 70
     8
 71
     3
 72
     8
 73
     4
 74
     0
 42
0.0000000001
 43
0.0000000001
 40
694.910174689856
 40
694.910174689856
 40
694.910174689856
 40
694.910174689856
 40
730.0738755112081
 40
730.0738755112081
 40
730.0738755112081
 40
730.0738755112081
 10
3836.820623983603
 20
37.1101704540531
 30
-0.0000000000004832
 10
3838.528794654541
 20
39.08977899330466
 30
-0.0000000000004832
 10
3840.237386793621
 20
41.06899460329123
 30
-0.0000000000004832
 10
3841.94648924384
 20
43.04773324549501
 30
-0.0000000000004832
  0
SPLINE
  5
71
330
1F
100
AcDbEntity
  8
图层 03
100
AcDbSpline
210
0.0
220
0.0
230
1.0
 70
     8
 71
     3
 72
     8
 73
     4
 74
     0
 42
0.0000000001
 43
0.0000000001
 40
730.0738755112081
 40
730.0738755112081
 40
730.0738755112081
 40
730.0738755112081
 40
766.3648211907539
 40
766.3648211907539
 40
766.3648211907539
 40
766.3648211907539
 10
3841.94648924384
 20
43.04773324549501
 30
-0.0000000000004832
 10
3844.087128614309
 20
44.66510862914879
 30
-0.0000000000004832
 10
3846.227890729896
 20
46.28231639502451
 30
-0.0000000000004832
 10
3848.368794572521
 20
47.89933044791724
 30
-0.0000000000004832
  0
SPLINE
  5
72
330
1F
100
AcDbEntity
  8
图层 03
100
AcDbSpline
210
0.0
220
0.0
230
1.0
 70
     8
 71
     3
 72
     8
 73
     4
 74
     0
 42
0.0000000001
 43
0.0000000001
 40
766.3648211907539
 40
766.3648211907539
 40
766.3648211907539
 40
766.3648211907539
 40
800.0925857281045
 40
800.0925857281045
 40
800.0925857281045
 40
800.0925857281045
 10
3848.368794572521
 20
47.89933044791724
 30
-0.0000000000004832
 10
3850.630849623511
 20
48.94577771075296
 30
-0.0000000000004832
 10
3852.893269676282
 20
49.99145934610226
 30
-0.0000000000004832
 10
3855.156048676556
 20
51.03638457665875
 30
-0.0000000000004832
  0
SPLINE
  5
73
330
1F
100
AcDbEntity
  8
图层 03
100
AcDbSpline
210
0.0
220
0.0
230
1.0
 70
     8
 71
     3
 72
     8
 73
     4
 74
     0
 42
0.0000000001
 43
0.0000000001
 40
800.0925857281045
 40
800.0925857281045
 40
800.0925857281045
 40
800.0925857281045
 40
826.1233134785546
 40
826.1233134785546
 40
826.1233134785546
 40
826.1233134785546
 10
3855.156048676556
 20
51.03638457665875
 30
-0.0000000000004832
 10
3857.098768723126
 20
51.1581560145687
 30
-0.0000000000004832
 10
3859.042041904207
 20
51.27521010346618
 30
-0.0000000000004832
 10
3860.985821293893
 20
51.38737429430694
 30
-0.0000000000004832
  0
SPLINE
  5
74
330
1F
100
AcDbEntity
  8
图层 03
100
AcDbSpline
210
0.0
220
0.0
230
1.0
 70
     8
 71
     3
 72
     8
 73
     4
 74
     0
 42
0.0000000001
 43
0.0000000001
 40
826.1233134785546
 40
826.1233134785546
 40
826.1233134785546
 40
826.1233134785546
 40
845.9605830572286
 40
845.9605830572286
 40
845.9605830572286
 40
845.9605830572286
 10
3860.985821293893
 20
51.38737429430694
 30
-0.0000000000004832
 10
3862.147337035275
 20
50.35487991141122
 30
-0.0000000000004832
 10
3863.306223937527
 20
49.31912102997433
 30
-0.0000000000004832
 10
3864.461277805864
 20
48.27879817542316
 30
-0.0000000000004832
  0
SPLINE
  5
75
330
1F
100
AcDbEntity
  8
图层 03
100
AcDbSpline
210
0.0
220
0.0
230
1.0
 70
     8
 71
     3
 72
     8
 73
     4
 74
     0
 42
0.0000000001
 43
0.0000000001
 40
845.9605830572286
 40
845.9605830572286
 40
845.9605830572286
 40
845.9605830572286
 40
867.876660226293
 40
867.876660226293
 40
867.876660226293
 40
867.876660226293
 10
3864.461277805864
 20
48.27879817542316
 30
-0.0000000000004832
 10
3864.843725263921
 20
46.6035068526046
 30
-0.0000000000004832
 10
3865.216932527691
 20
44.92634330193141
 30
-0.0000000000004832
 10
3865.576971767024
 20
43.24708177867524
 30
-0.0000000000004832
  0
SPLINE
  5
76
330
1F
100
AcDbEntity
  8
图层 03
100
AcDbSpline
210
0.0
220
0.0
230
1.0
 70
     8
 71
     3
 72
     8
 73
     4
 74
     0
 42
0.0000000001
 43
0.0000000001
 40
867.876660226293
 40
867.876660226293
 40
867.876660226293
 40
867.876660226293
 40
892.0621824176401
 40
892.0621824176401
 40
892.0621824176401
 40
892.0621824176401
 10
3865.576971767024
 20
43.24708177867524
 30
-0.0000000000004832
 10
3865.326576512168
 20
41.40448795538282
 30
-0.0000000000004832
 10
3865.076922105775
 20
39.56174360310399
 30
-0.0000000000004832
 10
3864.828093000164
 20
37.71883377824497
 30
-0.0000000000004832
  0
SPLINE
  5
77
330
1F
100
AcDbEntity
  8
图层 03
100
AcDbSpline
210
0.0
220
0.0
230
1.0
 70
     8
 71
     3
 72
     8
 73
     4
 74
     0
 42
0.0000000001
 43
0.0000000001
 40
892.0621824176401
 40
892.0621824176401
 40
892.0621824176401
 40
892.0621824176401
 40
916.1834155981776
 40
916.1834155981776
 40
916.1834155981776
 40
916.1834155981776
 10
3864.828093000164
 20
37.71883377824497
 30
-0.0000000000004832
 10
3864.128640017732
 20
36.03465729584263
 30
-0.0000000000004832
 10
3863.438387035798
 20
34.34586767726876
 30
-0.0000000000004832
 10
3862.757384334987
 20
32.65257944499581
 30
-0.0000000000004832
  0
SPLINE
  5
78
330
1F
100
AcDbEntity
  8
图层 03
100
AcDbSpline
210
0.0
220
0.0
230
1.0
 70
     8
 71
     3
 72
     8
 73
     4
 74
     0
 42
0.0000000001
 43
0.0000000001
 40
916.1834155981776
 40
916.1834155981776
 40
916.1834155981776
 40
916.1834155981776
 40
938.4832676418007
 40
938.4832676418007
 40
938.4832676418007
 40
938.4832676418007
 10
3862.757384334987
 20
32.65257944499581
 30
-0.0000000000004832
 10
3861.814441109233
 20
31.27856938826471
 30
-0.0000000000004832
 10
3860.861027392787
 20
29.91258206368366
 30
-0.0000000000004832
 10
3859.896456241239
 20
28.55565786373893
 30
-0.0000000000004832
  0
SPLINE
  5
79
330
1F
100
AcDbEntity
  8
图层 03
100
AcDbSpline
210
0.0
220
0.0
230
1.0
 70
     8
 71
     3
 72
     8
 73
     4
 74
     0
 42
0.0000000001
 43
0.0000000001
 40
938.4832676418007
 40
938.4832676418007
 40
938.4832676418007
 40
938.4832676418007
 40
960.3898804230091
 40
960.3898804230091
 40
960.3898804230091
 40
960.3898804230091
 10
3859.896456241239
 20
28.55565786373893
 30
-0.0000000000004832
 10
3858.685262019674
 20
27.47661790033385
 30
-0.0000000000004832
 10
3857.47169801305
 20
26.40035334201946
 30
-0.0000000000004832
 10
3856.25556014254
 20
25.32717939164854
 30
-0.0000000000004832
  0
SPLINE
  5
7A
330
1F
100
AcDbEntity
  8
图层 03
100
AcDbSpline
210
0.0
220
0.0
230
1.0
 70
     8
 71
     3
 72
     8
 73
     4
 74
     0
 42
0.0000000001
 43
0.0000000001
 40
960.3898804230091
 40
960.3898804230091
 40
960.3898804230091
 40
960.3898804230091
 40
981.9242045576948
 40
981.9242045576948
 40
981.9242045576948
 40
981.9242045576948
 10
3856.25556014254
 20
25.32717939164854
 30
-0.0000000000004832
 10
3854.966099720452
 20
24.39427249200037
 30
-0.0000000000004832
 10
3853.679509038394
 20
23.45725232566849
 30
-0.0000000000004832
 10
3852.395885821721
 20
22.51612631789715
 30
-0.0000000000004832
  0
SPLINE
  5
7B
330
1F
100
AcDbEntity
  8
图层 03
100
AcDbSpline
210
0.0
220
0.0
230
1.0
 70
     8
 71
     3
 72
     8
 73
     4
 74
     0
 42
0.0000000001
 43
0.0000000001
 40
7094.477817065685
 40
7094.477817065685
 40
7094.477817065685
 40
7094.477817065685
 40
7104.460573094412
 40
7104.460573094412
 40
7104.460573094412
 40
7104.460573094412
 10
3671.952184198125
 20
-12.7287058521797
 30
-0.0000000000004832
 10
3672.701749464098
 20
-12.73658680918265
 30
-0.0000000000004832
 10
3673.449227863734
 20
-12.71986128083108
 30
-0.0000000000004832
 10
3674.195155844759
 20
-12.67959464089449
 30
-0.0000000000004832
  0
SPLINE
  5
7C
330
1F
100
AcDbEntity
  8
图层 03
100
AcDbSpline
210
0.0
220
0.0
230
1.0
 70
     8
 71
     3
 72
     8
 73
     4
 74
     0
 42
0.0000000001
 43
0.0000000001
 40
7104.460573094412
 40
7104.460573094412
 40
7104.460573094412
 40
7104.460573094412
 40
7114.263874010448
 40
7114.263874010448
 40
7114.263874010448
 40
7114.263874010448
 10
3674.195155844759
 20
-12.67959464089449
 30
-0.0000000000004832
 10
3674.931046191582
 20
-12.7111455247549
 30
-0.0000000000004832
 10
3675.668125222001
 20
-12.71245451705909
 30
-0.0000000000004832
 10
3676.4011936643
 20
-12.68889047084804
 30
-0.0000000000004832
  0
SPLINE
  5
7D
330
1F
100
AcDbEntity
  8
图层 03
100
AcDbSpline
210
0.0
220
0.0
230
1.0
 70
     8
 71
     3
 72
     8
 73
     4
 74
     0
 42
0.0000000001
 43
0.0000000001
 40
7114.263874010448
 40
7114.263874010448
 40
7114.263874010448
 40
7114.263874010448
 40
7138.348566450681
 40
7138.348566450681
 40
7138.348566450681
 40
7138.348566450681
 10
3676.4011936643
 20
-12.68889047084804
 30
-0.0000000000004832
 10
3677.782882293766
 20
-11.56414126748564
 30
-0.0000000000004832
 10
3679.175669006143
 20
-10.45322797568383
 30
-0.0000000000004832
 10
3680.577354604296
 20
-9.354645189128632
 30
-0.0000000000004832
  0
SPLINE
  5
7E
330
1F
100
AcDbEntity
  8
图层 03
100
AcDbSpline
210
0.0
220
0.0
230
1.0
 70
     8
 71
     3
 72
     8
 73
     4
 74
     0
 42
0.0000000001
 43
0.0000000001
 40
7138.348566450681
 40
7138.348566450681
 40
7138.348566450681
 40
7138.348566450681
 40
7141.95319173268
 40
7141.95319173268
 40
7141.95319173268
 40
7141.95319173268
 10
3680.577354604296
 20
-9.354645189128632
 30
-0.0000000000004832
 10
3680.690002713551
 20
-9.107107397330878
 30
-0.0000000000004832
 10
3680.802819465149
 20
-8.859658865551069
 30
-0.0000000000004832
 10
3680.9158052575
 20
-8.61230067212864
 30
-0.0000000000004832
  0
SPLINE
  5
7F
330
1F
100
AcDbEntity
  8
图层 03
100
AcDbSpline
210
0.0
220
0.0
230
1.0
 70
     8
 71
     3
 72
     8
 73
     4
 74
     0
 42
0.0000000001
 43
0.0000000001
 40
7141.95319173268
 40
7141.95319173268
 40
7141.95319173268
 40
7141.95319173268
 40
7171.218211378784
 40
7171.218211378784
 40
7171.218211378784
 40
7171.218211378784
 10
3680.9158052575
 20
-8.61230067212864
 30
-0.0000000000004832
 10
3682.017068574432
 20
-6.716082148682176
 30
-0.0000000000004832
 10
3683.169471933242
 20
-4.845149705676249
 30
-0.0000000000004832
 10
3684.356282885779
 20
-3.007923685402261
 30
-0.0000000000004832
  0
SPLINE
  5
80
330
1F
100
AcDbEntity
  8
图层 03
100
AcDbSpline
210
0.0
220
0.0
230
1.0
 70
     8
 71
     3
 72
     8
 73
     4
 74
     0
 42
0.0000000001
 43
0.0000000001
 40
7171.218211378784
 40
7171.218211378784
 40
7171.218211378784
 40
7171.218211378784
 40
7198.055024731906
 40
7198.055024731906
 40
7198.055024731906
 40
7198.055024731906
 10
3684.356282885779
 20
-3.007923685402261
 30
-0.0000000000004832
 10
3684.960443868236
 20
-1.058306723010219
 30
-0.0000000000004832
 10
3685.576308311214
 20
0.8869339408082624
 30
-0.0000000000004832
 10
3686.201394224537
 20
2.828359768297105
 30
-0.0000000000004832
  0
SPLINE
  5
81
330
1F
100
AcDbEntity
  8
图层 03
100
AcDbSpline
210
0.0
220
0.0
230
1.0
 70
     8
 71
     3
 72
     8
 73
     4
 74
     0
 42
0.0000000001
 43
0.0000000001
 40
7198.055024731906
 40
7198.055024731906
 40
7198.055024731906
 40
7198.055024731906
 40
7230.554412386877
 40
7230.554412386877
 40
7230.554412386877
 40
7230.554412386877
 10
3686.201394224537
 20
2.828359768297105
 30
-0.0000000000004832
 10
3687.316011324172
 20
5.004797450007686
 30
-0.0000000000004832
 10
3688.443419973498
 20
7.173815150566611
 30
-0.0000000000004832
 10
3689.578669446058
 20
9.337938788673227
 30
-0.0000000000004832
  0
SPLINE
  5
82
330
1F
100
AcDbEntity
  8
图层 03
100
AcDbSpline
210
0.0
220
0.0
230
1.0
 70
     8
 71
     3
 72
     8
 73
     4
 74
     0
 42
0.0000000001
 43
0.0000000001
 40
7230.554412386877
 40
7230.554412386877
 40
7230.554412386877
 40
7230.554412386877
 40
7245.979185233461
 40
7245.979185233461
 40
7245.979185233461
 40
7245.979185233461
 10
3689.578669446058
 20
9.337938788673227
 30
-0.0000000000004832
 10
3690.02114187937
 20
10.41727909815643
 30
-0.0000000000004832
 10
3690.462706955721
 20
11.49706066980127
 30
-0.0000000000004832
 10
3690.90355423271
 20
12.57718710690722
 30
-0.0000000000004832
  0
SPLINE
  5
83
330
1F
100
AcDbEntity
  8
图层 03
100
AcDbSpline
210
0.0
220
0.0
230
1.0
 70
     8
 71
     3
 72
     8
 73
     4
 74
     0
 42
0.0000000001
 43
0.0000000001
 40
7245.979185233461
 40
7245.979185233461
 40
7245.979185233461
 40
7245.979185233461
 40
7290.448078217483
 40
7290.448078217483
 40
7290.448078217483
 40
7290.448078217483
 10
3690.90355423271
 20
12.57718710690722
 30
-0.0000000000004832
 10
3692.876369420902
 20
15.24396738604389
 30
-0.0000000000004832
 10
3694.846601250636
 20
17.91285272279003
 30
-0.0000000000004832
 10
3696.815567221779
 20
20.58275827637374
 30
-0.0000000000004832
  0
SPLINE
  5
84
330
1F
100
AcDbEntity
  8
图层 03
100
AcDbSpline
210
0.0
220
0.0
230
1.0
 70
     8
 71
     3
 72
     8
 73
     4
 74
     0
 42
0.0000000001
 43
0.0000000001
 40
7290.448078217483
 40
7290.448078217483
 40
7290.448078217483
 40
7290.448078217483
 40
7335.065128277761
 40
7335.065128277761
 40
7335.065128277761
 40
7335.065128277761
 10
3696.815567221779
 20
20.58275827637374
 30
-0.0000000000004832
 10
3699.494193214997
 20
22.5057207294301
 30
-0.0000000000004832
 10
3702.17375916559
 20
24.42734096352251
 30
-0.0000000000004832
 10
3704.853893341554
 20
26.34814547272435
 30
-0.0000000000004832
  0
SPLINE
  5
85
330
1F
100
AcDbEntity
  8
图层 03
100
AcDbSpline
210
0.0
220
0.0
230
1.0
 70
     8
 71
     3
 72
     8
 73
     4
 74
     0
 42
0.0000000001
 43
0.0000000001
 40
7335.065128277761
 40
7335.065128277761
 40
7335.065128277761
 40
7335.065128277761
 40
7339.184096758932
 40
7339.184096758932
 40
7339.184096758932
 40
7339.184096758932
 10
3704.853893341554
 20
26.34814547272435
 30
-0.0000000000004832
 10
3705.133704031513
 20
26.46822346351871
 30
-0.0000000000004832
 10
3705.413434759353
 20
26.58848101316983
 30
-0.0000000000004832
 10
3705.693087698654
 20
26.70891166630531
 30
-0.0000000000004832
  0
SPLINE
  5
86
330
1F
100
AcDbEntity
  8
图层 03
100
AcDbSpline
210
0.0
220
0.0
230
1.0
 70
     8
 71
     3
 72
     8
 73
     4
 74
     0
 42
0.0000000001
 43
0.0000000001
 40
7339.184096758932
 40
7339.184096758932
 40
7339.184096758932
 40
7339.184096758932
 40
7380.155208285506
 40
7380.155208285506
 40
7380.155208285506
 40
7380.155208285506
 10
3705.693087698654
 20
26.70891166630531
 30
-0.0000000000004832
 10
3708.391893315313
 20
28.07895710459923
 30
-0.0000000000004832
 10
3711.096402652318
 20
29.43805359429393
 30
-0.0000000000004832
 10
3713.804447422451
 20
30.7900119909973
 30
-0.0000000000004832
  0
SPLINE
  5
87
330
1F
100
AcDbEntity
  8
图层 03
100
AcDbSpline
210
0.0
220
0.0
230
1.0
 70
     8
 71
     3
 72
     8
 73
     4
 74
     0
 42
0.0000000001
 43
0.0000000001
 40
7380.155208285506
 40
7380.155208285506
 40
7380.155208285506
 40
7380.155208285506
 40
7420.829768893124
 40
7420.829768893124
 40
7420.829768893124
 40
7420.829768893124
 10
3713.804447422451
 20
30.7900119909973
 30
-0.0000000000004832
 10
3716.641702345878
 20
31.79603439741743
 30
-0.0000000000004832
 10
3719.47295033201
 20
32.81815890430107
 30
-0.0000000000004832
 10
3722.29967873636
 20
33.85141214852035
 30
-0.0000000000004832
  0
SPLINE
  5
88
330
1F
100
AcDbEntity
  8
图层 03
100
AcDbSpline
210
0.0
220
0.0
230
1.0
 70
     8
 71
     3
 72
     8
 73
     4
 74
     0
 42
0.0000000001
 43
0.0000000001
 40
7420.829768893124
 40
7420.829768893124
 40
7420.829768893124
 40
7420.829768893124
 40
7453.181076773079
 40
7453.181076773079
 40
7453.181076773079
 40
7453.181076773079
 10
3722.29967873636
 20
33.85141214852035
 30
-0.0000000000004832
 10
3724.645101355391
 20
34.37331988810536
 30
-0.0000000000004832
 10
3726.986072635544
 20
34.91296718303875
 30
-0.0000000000004832
 10
3729.32297500311
 20
35.4665067898618
 30
-0.0000000000004832
  0
SPLINE
  5
89
330
1F
100
AcDbEntity
  8
图层 03
100
AcDbSpline
210
0.0
220
0.0
230
1.0
 70
     8
 71
     3
 72
     8
 73
     4
 74
     0
 42
0.0000000001
 43
0.0000000001
 40
7453.181076773079
 40
7453.181076773079
 40
7453.181076773079
 40
7453.181076773079
 40
7475.002855360181
 40
7475.002855360181
 40
7475.002855360181
 40
7475.002855360181
 10
3729.32297500311
 20
35.4665067898618
 30
-0.0000000000004832
 10
3730.96072625976
 20
35.45557307696788
 30
-0.0000000000004832
 10
3732.598088478275
 20
35.45409632854467
 30
-0.0000000000004832
 10
3734.234841613466
 20
35.46100777262234
 30
-0.0000000000004832
  0
SPLINE
  5
8A
330
1F
100
AcDbEntity
  8
图层 03
100
AcDbSpline
210
0.0
220
0.0
230
1.0
 70
     8
 71
     3
 72
     8
 73
     4
 74
     0
 42
0.0000000001
 43
0.0000000001
 40
7475.002855360181
 40
7475.002855360181
 40
7475.002855360181
 40
7475.002855360181
 40
7477.841942193516
 40
7477.841942193516
 40
7477.841942193516
 40
7477.841942193516
 10
3734.234841613466
 20
35.46100777262234
 30
-0.0000000000004832
 10
3734.410599137959
 20
35.32586924498423
 30
-0.0000000000004832
 10
3734.586399130484
 20
35.19079181228017
 30
-0.0000000000004832
 10
3734.762241231437
 20
35.0557752417385
 30
-0.0000000000004832
  0
SPLINE
  5
8B
330
1F
100
AcDbEntity
  8
图层 03
100
AcDbSpline
210
0.0
220
0.0
230
1.0
 70
     8
 71
     3
 72
     8
 73
     4
 74
     0
 42
0.0000000001
 43
0.0000000001
 40
7477.841942193516
 40
7477.841942193516
 40
7477.841942193516
 40
7477.841942193516
 40
7488.894875782061
 40
7488.894875782061
 40
7488.894875782061
 40
7488.894875782061
 10
3734.762241231437
 20
35.0557752417385
 30
-0.0000000000004832
 10
3735.475253636441
 20
34.57420482422424
 30
-0.0000000000004832
 10
3736.188067584275
 20
34.09230285123249
 30
-0.0000000000004832
 10
3736.900688323615
 20
33.61008018978487
 30
-0.0000000000004832
  0
SPLINE
  5
8C
330
1F
100
AcDbEntity
  8
图层 03
100
AcDbSpline
210
0.0
220
0.0
230
1.0
 70
     8
 71
     3
 72
     8
 73
     4
 74
     0
 42
0.0000000001
 43
0.0000000001
 40
7488.894875782061
 40
7488.894875782061
 40
7488.894875782061
 40
7488.894875782061
 40
7507.122857297843
 40
7507.122857297843
 40
7507.122857297843
 40
7507.122857297843
 10
3736.900688323615
 20
33.61008018978487
 30
-0.0000000000004832
 10
3736.987674964574
 20
32.19451015974516
 30
-0.0000000000004832
 10
3737.072232254824
 20
30.77891620192167
 30
-0.0000000000004832
 10
3737.15429102262
 20
29.36332544298102
 30
-0.0000000000004832
  0
SPLINE
  5
8D
330
1F
100
AcDbEntity
  8
图层 03
100
AcDbSpline
210
0.0
220
0.0
230
1.0
 70
     8
 71
     3
 72
     8
 73
     4
 74
     0
 42
0.0000000001
 43
0.0000000001
 40
7507.122857297843
 40
7507.122857297843
 40
7507.122857297843
 40
7507.122857297843
 40
7539.338109979067
 40
7539.338109979067
 40
7539.338109979067
 40
7539.338109979067
 10
3737.15429102262
 20
29.36332544298102
 30
-0.0000000000004832
 10
3736.427024285677
 20
27.02372027106026
 30
-0.0000000000004832
 10
3735.697196554042
 20
24.68509231177666
 30
-0.0000000000004832
 10
3734.9645486604
 20
22.3475623991701
 30
-0.0000000000004832
  0
SPLINE
  5
8E
330
1F
100
AcDbEntity
  8
图层 03
100
AcDbSpline
210
0.0
220
0.0
230
1.0
 70
     8
 71
     3
 72
     8
 73
     4
 74
     0
 42
0.0000000001
 43
0.0000000001
 40
7539.338109979067
 40
7539.338109979067
 40
7539.338109979067
 40
7539.338109979067
 40
7587.374261436747
 40
7587.374261436747
 40
7587.374261436747
 40
7587.374261436747
 10
3734.9645486604
 20
22.3475623991701
 30
-0.0000000000004832
 10
3733.457136522353
 20
19.05212782500678
 30
-0.0000000000004832
 10
3731.946850007475
 20
15.75821926994661
 30
-0.0000000000004832
 10
3730.433149627968
 20
12.46614693355491
 30
-0.0000000000004832
  0
SPLINE
  5
8F
330
1F
100
AcDbEntity
  8
图层 03
100
AcDbSpline
210
0.0
220
0.0
230
1.0
 70
     8
 71
     3
 72
     8
 73
     4
 74
     0
 42
0.0000000001
 43
0.0000000001
 40
7587.374261436747
 40
7587.374261436747
 40
7587.374261436747
 40
7587.374261436747
 40
7647.217794811457
 40
7647.217794811457
 40
7647.217794811457
 40
7647.217794811457
 10
3730.433149627968
 20
12.46614693355491
 30
-0.0000000000004832
 10
3728.237335618508
 20
8.546188375328711
 30
-0.0000000000004832
 10
3726.038026954621
 20
4.628443983566171
 30
-0.0000000000004832
 10
3723.834266725025
 20
0.7135552411609751
 30
-0.0000000000004832
  0
SPLINE
  5
90
330
1F
100
AcDbEntity
  8
图层 03
100
AcDbSpline
210
0.0
220
0.0
230
1.0
 70
     8
 71
     3
 72
     8
 73
     4
 74
     0
 42
0.0000000001
 43
0.0000000001
 40
7647.217794811457
 40
7647.217794811457
 40
7647.217794811457
 40
7647.217794811457
 40
7714.426078686848
 40
7714.426078686848
 40
7714.426078686848
 40
7714.426078686848
 10
3723.834266725025
 20
0.7135552411609751
 30
-0.0000000000004832
 10
3720.98583338439
 20
-3.421882126392461
 30
-0.0000000000004832
 10
3718.13397944788
 20
-7.554717443054528
 30
-0.0000000000004832
 10
3715.277493786883
 20
-11.68399062483559
 30
-0.0000000000004832
  0
SPLINE
  5
91
330
1F
100
AcDbEntity
  8
图层 03
100
AcDbSpline
210
0.0
220
0.0
230
1.0
 70
     8
 71
     3
 72
     8
 73
     4
 74
     0
 42
0.0000000001
 43
0.0000000001
 40
7714.426078686848
 40
7714.426078686848
 40
7714.426078686848
 40
7714.426078686848
 40
7787.95435535973
 40
7787.95435535973
 40
7787.95435535973
 40
7787.95435535973
 10
3715.277493786883
 20
-11.68399062483559
 30
-0.0000000000004832
 10
3711.541882590458
 20
-15.66472770854818
 30
-0.0000000000004832
 10
3707.816943727685
 20
-19.65633181191663
 30
-0.0000000000004832
 10
3704.107965171015
 20
-23.66362760871925
 30
-0.0000000000004832
  0
SPLINE
  5
92
330
1F
100
AcDbEntity
  8
图层 03
100
AcDbSpline
210
0.0
220
0.0
230
1.0
 70
     8
 71
     3
 72
     8
 73
     4
 74
     0
 42
0.0000000001
 43
0.0000000001
 40
7787.95435535973
 40
7787.95435535973
 40
7787.95435535973
 40
7787.95435535973
 40
7863.333466777563
 40
7863.333466777563
 40
7863.333466777563
 40
7863.333466777563
 10
3704.107965171015
 20
-23.66362760871925
 30
-0.0000000000004832
 10
3699.668398106843
 20
-27.03218194264298
 30
-0.0000000000004832
 10
3695.228161417468
 20
-30.39984274343783
 30
-0.0000000000004832
 10
3690.781303744596
 20
-33.75845040962008
 30
-0.0000000000004832
  0
SPLINE
  5
93
330
1F
100
AcDbEntity
  8
图层 03
100
AcDbSpline
210
0.0
220
0.0
230
1.0
 70
     8
 71
     3
 72
     8
 73
     4
 74
     0
 42
0.0000000001
 43
0.0000000001
 40
7863.333466777563
 40
7863.333466777563
 40
7863.333466777563
 40
7863.333466777563
 40
7944.695526484619
 40
7944.695526484619
 40
7944.695526484619
 40
7944.695526484619
 10
3690.781303744596
 20
-33.75845040962008
 30
-0.0000000000004832
 10
3686.061856883751
 20
-37.28718909140593
 30
-0.0000000000004832
 10
3681.095122245899
 20
-41.09514629636112
 30
-0.0000000000004832
 10
3676.527830769327
 20
-44.82672785190505
 30
-0.0000000000004832
  0
SPLINE
  5
94
330
1F
100
AcDbEntity
  8
图层 03
100
AcDbSpline
210
0.0
220
0.0
230
1.0
 70
     8
 71
     3
 72
     8
 73
     4
 74
     0
 42
0.0000000001
 43
0.0000000001
 40
7944.695526484619
 40
7944.695526484619
 40
7944.695526484619
 40
7944.695526484619
 40
7953.938577972534
 40
7953.938577972534
 40
7953.938577972534
 40
7953.938577972534
 10
3676.527830769327
 20
-44.82672785190505
 30
-0.0000000000004832
 10
3676.056183471886
 20
-45.32506389813352
 30
-0.0000000000004832
 10
3675.586080825125
 20
-45.82498006990727
 30
-0.0000000000004832
 10
3675.117587322927
 20
-46.32648613246647
 30
-0.0000000000004832
  0
SPLINE
  5
95
330
1F
100
AcDbEntity
  8
图层 03
100
AcDbSpline
210
0.0
220
0.0
230
1.0
 70
     8
 71
     3
 72
     8
 73
     4
 74
     0
 42
0.0000000001
 43
0.0000000001
 40
7953.938577972534
 40
7953.938577972534
 40
7953.938577972534
 40
7953.938577972534
 40
8039.41448374098
 40
8039.41448374098
 40
8039.41448374098
 40
8039.41448374098
 10
3675.117587322927
 20
-46.32648613246647
 30
-0.0000000000004832
 10
3670.677876281331
 20
-50.76318415259095
 30
-0.0000000000004832
 10
3666.179858275027
 20
-55.41094843595761
 30
-0.0000000000004832
 10
3661.951394601517
 20
-60.06409642478616
 30
-0.0000000000004832
  0
SPLINE
  5
96
330
1F
100
AcDbEntity
  8
图层 03
100
AcDbSpline
210
0.0
220
0.0
230
1.0
 70
     8
 71
     3
 72
    11
 73
     7
 74
     0
 42
0.0000000001
 43
0.0000000001
 40
8039.41448374098
 40
8039.41448374098
 40
8039.41448374098
 40
8039.41448374098
 40
8079.950406893637
 40
8079.950406893637
 40
8079.950406893637
 40
8145.849435928405
 40
8145.849435928405
 40
8145.849435928405
 40
8145.849435928405
 10
3661.951394601517
 20
-60.06409642478616
 30
-0.0000000000004832
 10
3660.40131801753
 20
-62.67838656087451
 30
-0.0000000000004832
 10
3658.863969686242
 20
-65.30136432623681
 30
-0.0000000000004832
 10
3657.342416050379
 20
-67.93443812922033
 30
-0.0000000000004832
 10
3654.915032632042
 20
-72.17321088993936
 30
-0.0000000000004832
 10
3652.443469900945
 20
-76.59873903039374
 30
-0.0000000000004832
 10
3650.146046920941
 20
-80.91941363857018
 30
-0.0000000000004832
  0
SPLINE
  5
97
330
1F
100
AcDbEntity
  8
图层 03
100
AcDbSpline
210
0.0
220
0.0
230
1.0
 70
     8
 71
     3
 72
     8
 73
     4
 74
     0
 42
0.0000000001
 43
0.0000000001
 40
8145.849435928405
 40
8145.849435928405
 40
8145.849435928405
 40
8145.849435928405
 40
8166.789218859742
 40
8166.789218859742
 40
8166.789218859742
 40
8166.789218859742
 10
3650.146046920941
 20
-80.91941363857018
 30
-0.0000000000004832
 10
3649.704027258334
 20
-82.45157634933253
 30
-0.0000000000004832
 10
3649.264566849439
 20
-83.98467196031356
 30
-0.0000000000004832
 10
3648.828108639846
 20
-85.51882595289021
 30
-0.0000000000004832
  0
SPLINE
  5
98
330
1F
100
AcDbEntity
  8
图层 03
100
AcDbSpline
210
0.0
220
0.0
230
1.0
 70
     8
 71
     3
 72
     8
 73
     4
 74
     0
 42
0.0000000001
 43
0.0000000001
 40
8166.789218859742
 40
8166.789218859742
 40
8166.789218859742
 40
8166.789218859742
 40
8230.374831295836
 40
8230.374831295836
 40
8230.374831295836
 40
8230.374831295836
 10
3648.828108639846
 20
-85.51882595289021
 30
-0.0000000000004832
 10
3648.020613972793
 20
-90.29820051507409
 30
-0.0000000000004832
 10
3647.311158985402
 20
-95.19469302310404
 30
-0.0000000000004832
 10
3646.843392936098
 20
-100.0430960195006
 30
-0.0000000000004832
  0
SPLINE
  5
99
330
1F
100
AcDbEntity
  8
图层 03
100
AcDbSpline
210
0.0
220
0.0
230
1.0
 70
     8
 71
     3
 72
     8
 73
     4
 74
     0
 42
0.0000000001
 43
0.0000000001
 40
8230.374831295836
 40
8230.374831295836
 40
8230.374831295836
 40
8230.374831295836
 40
8263.507867918735
 40
8263.507867918735
 40
8263.507867918735
 40
8263.507867918735
 10
3646.843392936098
 20
-100.0430960195006
 30
-0.0000000000004832
 10
3647.802912385517
 20
-102.4701383189185
 30
-0.0000000000004832
 10
3648.764773663805
 20
-104.8963191920723
 30
-0.0000000000004832
 10
3649.730947459684
 20
-107.3208704517826
 30
-0.0000000000004832
  0
SPLINE
  5
9A
330
1F
100
AcDbEntity
  8
图层 03
100
AcDbSpline
210
0.0
220
0.0
230
1.0
 70
     8
 71
     3
 72
     8
 73
     4
 74
     0
 42
0.0000000001
 43
0.0000000001
 40
8263.507867918735
 40
8263.507867918735
 40
8263.507867918735
 40
8263.507867918735
 40
8294.284467570544
 40
8294.284467570544
 40
8294.284467570544
 40
8294.284467570544
 10
3649.730947459684
 20
-107.3208704517826
 30
-0.0000000000004832
 10
3651.443013266356
 20
-109.0260258580777
 30
-0.0000000000004832
 10
3653.155056467625
 20
-110.7312056144776
 30
-0.0000000000004832
 10
3654.867073686726
 20
-112.4364133529541
 30
-0.0000000000004832
  0
SPLINE
  5
9B
330
1F
100
AcDbEntity
  8
图层 03
100
AcDbSpline
210
0.0
220
0.0
230
1.0
 70
     8
 71
     3
 72
     8
 73
     4
 74
     0
 42
0.0000000001
 43
0.0000000001
 40
8294.284467570544
 40
8294.284467570544
 40
8294.284467570544
 40
8294.284467570544
 40
8323.66290272813
 40
8323.66290272813
 40
8323.66290272813
 40
8323.66290272813
 10
3654.867073686726
 20
-112.4364133529541
 30
-0.0000000000004832
 10
3656.900412405987
 20
-113.443474277238
 30
-0.0000000000004832
 10
3658.93452041479
 20
-114.4487106369963
 30
-0.0000000000004832
 10
3660.969305382395
 20
-115.4523172837107
 30
-0.0000000000004832
  0
SPLINE
  5
9C
330
1F
100
AcDbEntity
  8
图层 03
100
AcDbSpline
210
0.0
220
0.0
230
1.0
 70
     8
 71
     3
 72
     8
 73
     4
 74
     0
 42
0.0000000001
 43
0.0000000001
 40
8323.66290272813
 40
8323.66290272813
 40
8323.66290272813
 40
8323.66290272813
 40
8353.916000612038
 40
8353.916000612038
 40
8353.916000612038
 40
8353.916000612038
 10
3660.969305382395
 20
-115.4523172837107
 30
-0.0000000000004832
 10
3663.24006872975
 20
-115.4722971667113
 30
-0.0000000000004832
 10
3665.511619988286
 20
-115.5072151147024
 30
-0.0000000000004832
 10
3667.783311248782
 20
-115.5502530367155
 30
-0.0000000000004832
  0
SPLINE
  5
9D
330
1F
100
AcDbEntity
  8
图层 03
100
AcDbSpline
210
0.0
220
0.0
230
1.0
 70
     8
 71
     3
 72
     8
 73
     4
 74
     0
 42
0.0000000001
 43
0.0000000001
 40
8353.916000612038
 40
8353.916000612038
 40
8353.916000612038
 40
8353.916000612038
 40
8408.511778930944
 40
8408.511778930944
 40
8408.511778930944
 40
8408.511778930944
 10
3667.783311248782
 20
-115.5502530367155
 30
-0.0000000000004832
 10
3671.068529463289
 20
-113.1991168583315
 30
-0.0000000000004832
 10
3674.07911734231
 20
-110.5088782880323
 30
-0.0000000000004832
 10
3676.930745572284
 20
-107.6329009425874
 30
-0.0000000000004832
  0
SPLINE
  5
9E
330
1F
100
AcDbEntity
  8
图层 03
100
AcDbSpline
210
0.0
220
0.0
230
1.0
 70
     8
 71
     3
 72
     8
 73
     4
 74
     0
 42
0.0000000001
 43
0.0000000001
 40
8408.511778930944
 40
8408.511778930944
 40
8408.511778930944
 40
8408.511778930944
 40
8426.745241211984
 40
8426.745241211984
 40
8426.745241211984
 40
8426.745241211984
 10
3676.930745572284
 20
-107.6329009425874
 30
-0.0000000000004832
 10
3677.787740235112
 20
-106.580304137646
 30
-0.0000000000004832
 10
3678.638430092846
 20
-105.5220335231634
 30
-0.0000000000004832
 10
3679.483618816833
 20
-104.4591285325444
 30
-0.0000000000004832
  0
SPLINE
  5
9F
330
1F
100
AcDbEntity
  8
图层 03
100
AcDbSpline
210
0.0
220
0.0
230
1.0
 70
     8
 71
     3
 72
     8
 73
     4
 74
     0
 42
0.0000000001
 43
0.0000000001
 40
8426.745241211984
 40
8426.745241211984
 40
8426.745241211984
 40
8426.745241211984
 40
8494.570989278973
 40
8494.570989278973
 40
8494.570989278973
 40
8494.570989278973
 10
3679.483618816833
 20
-104.4591285325444
 30
-0.0000000000004832
 10
3683.35873770204
 20
-101.4115357474236
 30
-0.0000000000004832
 10
3687.284627645623
 20
-98.01073541683468
 30
-0.0000000000004832
 10
3690.944729602699
 20
-94.69908116752117
 30
-0.0000000000004832
  0
SPLINE
  5
A0
330
1F
100
AcDbEntity
  8
图层 03
100
AcDbSpline
210
0.0
220
0.0
230
1.0
 70
     8
 71
     3
 72
     8
 73
     4
 74
     0
 42
0.0000000001
 43
0.0000000001
 40
8494.570989278973
 40
8494.570989278973
 40
8494.570989278973
 40
8494.570989278973
 40
8519.197410143688
 40
8519.197410143688
 40
8519.197410143688
 40
8519.197410143688
 10
3690.944729602699
 20
-94.69908116752117
 30
-0.0000000000004832
 10
3692.255879478176
 20
-93.42877528920326
 30
-0.0000000000004832
 10
3693.565791759813
 20
-92.15711142903297
 30
-0.0000000000004832
 10
3694.874698672713
 20
-90.88435574127834
 30
-0.0000000000004832
  0
SPLINE
  5
A1
330
1F
100
AcDbEntity
  8
图层 03
100
AcDbSpline
210
0.0
220
0.0
230
1.0
 70
     8
 71
     3
 72
     8
 73
     4
 74
     0
 42
0.0000000001
 43
0.0000000001
 40
8519.197410143688
 40
8519.197410143688
 40
8519.197410143688
 40
8519.197410143688
 40
8604.375580544754
 40
8604.375580544754
 40
8604.375580544754
 40
8604.375580544754
 10
3694.874698672713
 20
-90.88435574127834
 30
-0.0000000000004832
 10
3700.040155300558
 20
-87.28815657086852
 30
-0.0000000000004832
 10
3705.200681192959
 20
-83.68470029991954
 30
-0.0000000000004832
 10
3710.359079869909
 20
-80.07816269596219
 30
-0.0000000000004832
  0
SPLINE
  5
A2
330
1F
100
AcDbEntity
  8
图层 03
100
AcDbSpline
210
0.0
220
0.0
230
1.0
 70
     8
 71
     3
 72
    11
 73
     7
 74
     0
 42
0.0000000001
 43
0.0000000001
 40
8604.375580544754
 40
8604.375580544754
 40
8604.375580544754
 40
8604.375580544754
 40
8654.498131817852
 40
8654.498131817852
 40
8654.498131817852
 40
8681.39164613193
 40
8681.39164613193
 40
8681.39164613193
 40
8681.39164613193
 10
3710.359079869909
 20
-80.07816269596219
 30
-0.0000000000004832
 10
3713.55872115722
 20
-78.21607315475171
 30
-0.0000000000004832
 10
3716.763218295224
 20
-76.36228943481865
 30
-0.0000000000004832
 10
3719.97069802738
 20
-74.51376295952082
 30
-0.0000000000004832
 10
3721.679856486348
 20
-73.50162716321506
 30
-0.0000000000004832
 10
3723.390258831282
 20
-72.49159155229631
 30
-0.0000000000004832
 10
3725.101664523959
 20
-71.48327423435671
 30
-0.0000000000004832
  0
SPLINE
  5
A3
330
1F
100
AcDbEntity
  8
图层 03
100
AcDbSpline
210
0.0
220
0.0
230
1.0
 70
     8
 71
     3
 72
     8
 73
     4
 74
     0
 42
0.0000000001
 43
0.0000000001
 40
8681.39164613193
 40
8681.39164613193
 40
8681.39164613193
 40
8681.39164613193
 40
8749.13554882051
 40
8749.13554882051
 40
8749.13554882051
 40
8749.13554882051
 10
3725.101664523959
 20
-71.48327423435671
 30
-0.0000000000004832
 10
3729.351799480442
 20
-68.84229313227456
 30
-0.0000000000004832
 10
3733.614872812171
 20
-66.22212157682111
 30
-0.0000000000004832
 10
3737.88511668609
 20
-63.61414268043541
 30
-0.0000000000004832
  0
SPLINE
  5
A4
330
1F
100
AcDbEntity
  8
图层 03
100
AcDbSpline
210
0.0
220
0.0
230
1.0
 70
     8
 71
     3
 72
     8
 73
     4
 74
     0
 42
0.0000000001
 43
0.0000000001
 40
8749.13554882051
 40
8749.13554882051
 40
8749.13554882051
 40
8749.13554882051
 40
8808.528645433931
 40
8808.528645433931
 40
8808.528645433931
 40
8808.528645433931
 10
3737.88511668609
 20
-63.61414268043541
 30
-0.0000000000004832
 10
3741.272608601498
 20
-60.81520158099306
 30
-0.0000000000004832
 10
3744.674345030244
 20
-58.03405181277844
 30
-0.0000000000004832
 10
3748.084793457093
 20
-55.26438453942137
 30
-0.0000000000004832
  0
SPLINE
  5
A5
330
1F
100
AcDbEntity
  8
图层 03
100
AcDbSpline
210
0.0
220
0.0
230
1.0
 70
     8
 71
     3
 72
     8
 73
     4
 74
     0
 42
0.0000000001
 43
0.0000000001
 40
8808.528645433931
 40
8808.528645433931
 40
8808.528645433931
 40
8808.528645433931
 40
8860.014867238508
 40
8860.014867238508
 40
8860.014867238508
 40
8860.014867238508
 10
3748.084793457093
 20
-55.26438453942137
 30
-0.0000000000004832
 10
3750.695682741001
 20
-52.47210000161544
 30
-0.0000000000004832
 10
3753.319190133965
 20
-49.69234311564196
 30
-0.0000000000004832
 10
3755.951184656803
 20
-46.92142089686217
 30
-0.0000000000004832
  0
SPLINE
  5
A6
330
1F
100
AcDbEntity
  8
图层 03
100
AcDbSpline
210
0.0
220
0.0
230
1.0
 70
     8
 71
     3
 72
    11
 73
     7
 74
     0
 42
0.0000000001
 43
0.0000000001
 40
8860.014867238508
 40
8860.014867238508
 40
8860.014867238508
 40
8860.014867238508
 40
8902.337391813655
 40
8902.337391813655
 40
8902.337391813655
 40
8933.122261904859
 40
8933.122261904859
 40
8933.122261904859
 40
8933.122261904859
 10
3755.951184656803
 20
-46.92142089686217
 30
-0.0000000000004832
 10
3757.9330704859
 20
-44.47167862122114
 30
-0.0000000000004832
 10
3759.923559756972
 20
-42.02945433978425
 30
-0.0000000000004832
 10
3761.920372287384
 20
-39.59296749694681
 30
-0.0000000000004832
 10
3763.399693334599
 20
-37.84495398970944
 30
-0.0000000000004832
 10
3764.883015318364
 20
-36.10058865451401
 30
-0.0000000000004832
 10
3766.369559952765
 20
-34.35923496634678
 30
-0.0000000000004832
  0
SPLINE
  5
A7
330
1F
100
AcDbEntity
  8
图层 03
100
AcDbSpline
210
0.0
220
0.0
230
1.0
 70
     8
 71
     3
 72
     8
 73
     4
 74
     0
 42
0.0000000001
 43
0.0000000001
 40
8933.122261904859
 40
8933.122261904859
 40
8933.122261904859
 40
8933.122261904859
 40
8951.176108488457
 40
8951.176108488457
 40
8951.176108488457
 40
8951.176108488457
 10
3766.369559952765
 20
-34.35923496634678
 30
-0.0000000000004832
 10
3767.453730863203
 20
-33.58154481034194
 30
-0.0000000000004832
 10
3768.538693103383
 20
-32.80498337361814
 30
-0.0000000000004832
 10
3769.62435469697
 20
-32.02943080404816
 30
-0.0000000000004832
  0
SPLINE
  5
A8
330
1F
100
AcDbEntity
  8
图层 03
100
AcDbSpline
210
0.0
220
0.0
230
1.0
 70
     8
 71
     3
 72
     8
 73
     4
 74
     0
 42
0.0000000001
 43
0.0000000001
 40
8951.176108488457
 40
8951.176108488457
 40
8951.176108488457
 40
8951.176108488457
 40
8961.248868772638
 40
8961.248868772638
 40
8961.248868772638
 40
8961.248868772638
 10
3769.62435469697
 20
-32.02943080404816
 30
-0.0000000000004832
 10
3770.381096436602
 20
-32.09231088951503
 30
-0.0000000000004832
 10
3771.13784180808
 20
-32.15503361446781
 30
-0.0000000000004832
 10
3771.894590495393
 20
-32.21760502974053
 30
-0.0000000000004832
  0
SPLINE
  5
A9
330
1F
100
AcDbEntity
  8
图层 03
100
AcDbSpline
210
0.0
220
0.0
230
1.0
 70
     8
 71
     3
 72
     8
 73
     4
 74
     0
 42
0.0000000001
 43
0.0000000001
 40
8961.248868772638
 40
8961.248868772638
 40
8961.248868772638
 40
8961.248868772638
 40
8972.007680628563
 40
8972.007680628563
 40
8972.007680628563
 40
8972.007680628563
 10
3771.894590495393
 20
-32.21760502974053
 30
-0.0000000000004832
 10
3772.403225413229
 20
-32.8959815910257
 30
-0.0000000000004832
 10
3772.911967062457
 20
-33.57427536502132
 30
-0.0000000000004832
 10
3773.420818381487
 20
-34.25248388016553
 30
-0.0000000000004832
  0
SPLINE
  5
AA
330
1F
100
AcDbEntity
  8
图层 03
100
AcDbSpline
210
0.0
220
0.0
230
1.0
 70
     8
 71
     3
 72
     8
 73
     4
 74
     0
 42
0.0000000001
 43
0.0000000001
 40
8972.007680628563
 40
8972.007680628563
 40
8972.007680628563
 40
8972.007680628563
 40
8986.398935979661
 40
8986.398935979661
 40
8986.398935979661
 40
8986.398935979661
 10
3773.420818381487
 20
-34.25248388016553
 30
-0.0000000000004832
 10
3773.772692898664
 20
-35.32831264851859
 30
-0.0000000000004832
 10
3774.124584181074
 20
-36.40413645272884
 30
-0.0000000000004832
 10
3774.47649390661
 20
-37.47995479381291
 30
-0.0000000000004832
  0
SPLINE
  5
AB
330
1F
100
AcDbEntity
  8
图层 03
100
AcDbSpline
210
0.0
220
0.0
230
1.0
 70
     8
 71
     3
 72
     8
 73
     4
 74
     0
 42
0.0000000001
 43
0.0000000001
 40
8986.398935979661
 40
8986.398935979661
 40
8986.398935979661
 40
8986.398935979661
 40
9003.149346253998
 40
9003.149346253998
 40
9003.149346253998
 40
9003.149346253998
 10
3774.47649390661
 20
-37.47995479381291
 30
-0.0000000000004832
 10
3774.750637013031
 20
-38.7636618797917
 30
-0.0000000000004832
 10
3775.024778429275
 20
-40.04736925537895
 30
-0.0000000000004832
 10
3775.298917846699
 20
-41.33107697345008
 30
-0.0000000000004832
  0
SPLINE
  5
AC
330
1F
100
AcDbEntity
  8
图层 03
100
AcDbSpline
210
0.0
220
0.0
230
1.0
 70
     8
 71
     3
 72
     8
 73
     4
 74
     0
 42
0.0000000001
 43
0.0000000001
 40
9003.149346253998
 40
9003.149346253998
 40
9003.149346253998
 40
9003.149346253998
 40
9021.3550536875
 40
9021.3550536875
 40
9021.3550536875
 40
9021.3550536875
 10
3775.298917846699
 20
-41.33107697345008
 30
-0.0000000000004832
 10
3775.518987084997
 20
-42.73722955608162
 30
-0.0000000000004832
 10
3775.739129880264
 20
-44.14337410989913
 30
-0.0000000000004832
 10
3775.95936404637
 20
-45.54950865637602
 30
-0.0000000000004832
  0
SPLINE
  5
AD
330
1F
100
AcDbEntity
  8
图层 03
100
AcDbSpline
210
0.0
220
0.0
230
1.0
 70
     8
 71
     3
 72
     8
 73
     4
 74
     0
 42
0.0000000001
 43
0.0000000001
 40
9021.3550536875
 40
9021.3550536875
 40
9021.3550536875
 40
9021.3550536875
 40
9040.349698810272
 40
9040.349698810272
 40
9040.349698810272
 40
9040.349698810272
 10
3775.95936404637
 20
-45.54950865637602
 30
-0.0000000000004832
 10
3776.13612922304
 20
-47.02132648454062
 30
-0.0000000000004832
 10
3776.313576364485
 20
-48.49309737695728
 30
-0.0000000000004832
 10
3776.491880154627
 20
-49.96480649980208
 30
-0.0000000000004832
  0
SPLINE
  5
AE
330
1F
100
AcDbEntity
  8
图层 03
100
AcDbSpline
210
0.0
220
0.0
230
1.0
 70
     8
 71
     3
 72
     8
 73
     4
 74
     0
 42
0.0000000001
 43
0.0000000001
 40
9040.349698810272
 40
9040.349698810272
 40
9040.349698810272
 40
9040.349698810272
 40
9059.517751996857
 40
9059.517751996857
 40
9059.517751996857
 40
9059.517751996857
 10
3776.491880154627
 20
-49.96480649980208
 30
-0.0000000000004832
 10
3776.638883806246
 20
-51.45189075203621
 30
-0.0000000000004832
 10
3776.788645474779
 20
-52.93885660310843
 30
-0.0000000000004832
 10
3776.941759989618
 20
-54.42563533522332
 30
-0.0000000000004832
  0
SPLINE
  5
AF
330
1F
100
AcDbEntity
  8
图层 03
100
AcDbSpline
210
0.0
220
0.0
230
1.0
 70
     8
 71
     3
 72
     8
 73
     4
 74
     0
 42
0.0000000001
 43
0.0000000001
 40
9059.517751996857
 40
9059.517751996857
 40
9059.517751996857
 40
9059.517751996857
 40
9078.969954944601
 40
9078.969954944601
 40
9078.969954944601
 40
9078.969954944601
 10
3776.941759989618
 20
-54.42563533522332
 30
-0.0000000000004832
 10
3776.9916103223
 20
-55.93589447579916
 30
-0.0000000000004832
 10
3777.049162766735
 20
-57.44641423461576
 30
-0.0000000000004832
 10
3777.115472719623
 20
-58.95693210008687
 30
-0.0000000000004832
  0
SPLINE
  5
B0
330
1F
100
AcDbEntity
  8
图层 03
100
AcDbSpline
210
0.0
220
0.0
230
1.0
 70
     8
 71
     3
 72
     8
 73
     4
 74
     0
 42
0.0000000001
 43
0.0000000001
 40
9078.969954944601
 40
9078.969954944601
 40
9078.969954944601
 40
9078.969954944601
 40
9102.514547100398
 40
9102.514547100398
 40
9102.514547100398
 40
9102.514547100398
 10
3777.115472719623
 20
-58.95693210008687
 30
-0.0000000000004832
 10
3776.6658327783
 20
-60.69543995887238
 30
-0.0000000000004832
 10
3776.231162258264
 20
-62.44063394057207
 30
-0.0000000000004832
 10
3775.814385624498
 20
-64.18964989667825
 30
-0.0000000000004832
  0
SPLINE
  5
B1
330
1F
100
AcDbEntity
  8
图层 03
100
AcDbSpline
210
0.0
220
0.0
230
1.0
 70
     8
 71
     3
 72
     8
 73
     4
 74
     0
 42
0.0000000001
 43
0.0000000001
 40
9102.514547100398
 40
9102.514547100398
 40
9102.514547100398
 40
9102.514547100398
 40
9137.770435447514
 40
9137.770435447514
 40
9137.770435447514
 40
9137.770435447514
 10
3775.814385624498
 20
-64.18964989667825
 30
-0.0000000000004832
 10
3774.398914369844
 20
-66.41694445505573
 30
-0.0000000000004832
 10
3772.9997546061
 20
-68.656188746814
 30
-0.0000000000004832
 10
3771.621069976997
 20
-70.90905239538529
 30
-0.0000000000004832
  0
SPLINE
  5
B2
330
1F
100
AcDbEntity
  8
图层 03
100
AcDbSpline
210
0.0
220
0.0
230
1.0
 70
     8
 71
     3
 72
     8
 73
     4
 74
     0
 42
0.0000000001
 43
0.0000000001
 40
9137.770435447514
 40
9137.770435447514
 40
9137.770435447514
 40
9137.770435447514
 40
9193.34663248524
 40
9193.34663248524
 40
9193.34663248524
 40
9193.34663248524
 10
3771.621069976997
 20
-70.90905239538529
 30
-0.0000000000004832
 10
3768.796976329636
 20
-73.91733317986655
 30
-0.0000000000004832
 10
3765.982406488606
 20
-76.93532773025322
 30
-0.0000000000004832
 10
3763.181367352843
 20
-79.96657846413154
 30
-0.0000000000004832
  0
SPLINE
  5
B3
330
1F
100
AcDbEntity
  8
图层 03
100
AcDbSpline
210
0.0
220
0.0
230
1.0
 70
     8
 71
     3
 72
     8
 73
     4
 74
     0
 42
0.0000000001
 43
0.0000000001
 40
9193.34663248524
 40
9193.34663248524
 40
9193.34663248524
 40
9193.34663248524
 40
9205.664491749754
 40
9205.664491749754
 40
9205.664491749754
 40
9205.664491749754
 10
3763.181367352843
 20
-79.96657846413154
 30
-0.0000000000004832
 10
3762.50704133411
 20
-80.58115714178416
 30
-0.0000000000004832
 10
3761.832659633572
 20
-81.19567146938698
 30
-0.0000000000004832
 10
3761.158217878469
 20
-81.8101163222916
 30
-0.0000000000004832
  0
SPLINE
  5
B4
330
1F
100
AcDbEntity
  8
图层 03
100
AcDbSpline
210
0.0
220
0.0
230
1.0
 70
     8
 71
     3
 72
     8
 73
     4
 74
     0
 42
0.0000000001
 43
0.0000000001
 40
9205.664491749754
 40
9205.664491749754
 40
9205.664491749754
 40
9205.664491749754
 40
9273.497658287504
 40
9273.497658287504
 40
9273.497658287504
 40
9273.497658287504
 10
3761.158217878469
 20
-81.8101163222916
 30
-0.0000000000004832
 10
3757.450334631556
 20
-85.20095364261942
 30
-0.0000000000004832
 10
3753.743861750694
 20
-88.59342010233763
 30
-0.0000000000004832
 10
3750.039735268874
 20
-91.98858126216442
 30
-0.0000000000004832
  0
SPLINE
  5
B5
330
1F
100
AcDbEntity
  8
图层 03
100
AcDbSpline
210
0.0
220
0.0
230
1.0
 70
     8
 71
     3
 72
     8
 73
     4
 74
     0
 42
0.0000000001
 43
0.0000000001
 40
9273.497658287504
 40
9273.497658287504
 40
9273.497658287504
 40
9273.497658287504
 40
9348.785542092475
 40
9348.785542092475
 40
9348.785542092475
 40
9348.785542092475
 10
3750.039735268874
 20
-91.98858126216442
 30
-0.0000000000004832
 10
3745.930716699548
 20
-95.75936508775771
 30
-0.0000000000004832
 10
3741.817040303647
 20
-99.52484070985315
 30
-0.0000000000004832
 10
3737.694441466671
 20
-103.2799522247949
 30
-0.0000000000004832
  0
SPLINE
  5
B6
330
1F
100
AcDbEntity
  8
图层 03
100
AcDbSpline
210
0.0
220
0.0
230
1.0
 70
     8
 71
     3
 72
     8
 73
     4
 74
     0
 42
0.0000000001
 43
0.0000000001
 40
9348.785542092475
 40
9348.785542092475
 40
9348.785542092475
 40
9348.785542092475
 40
9365.772770960544
 40
9365.772770960544
 40
9365.772770960544
 40
9365.772770960544
 10
3737.694441466671
 20
-103.2799522247949
 30
-0.0000000000004832
 10
3736.786313615408
 20
-104.1521389893226
 30
-0.0000000000004832
 10
3735.878336495894
 20
-105.0244921532833
 30
-0.0000000000004832
 10
3734.970541202408
 20
-105.8970456352442
 30
-0.0000000000004832
  0
SPLINE
  5
B7
330
1F
100
AcDbEntity
  8
图层 03
100
AcDbSpline
210
0.0
220
0.0
230
1.0
 70
     8
 71
     3
 72
     8
 73
     4
 74
     0
 42
0.0000000001
 43
0.0000000001
 40
9365.772770960544
 40
9365.772770960544
 40
9365.772770960544
 40
9365.772770960544
 40
9421.842843386443
 40
9421.842843386443
 40
9421.842843386443
 40
9421.842843386443
 10
3734.970541202408
 20
-105.8970456352442
 30
-0.0000000000004832
 10
3732.09039447497
 20
-108.9006579740451
 30
-0.0000000000004832
 10
3729.20867123166
 20
-111.9026618037958
 30
-0.0000000000004832
 10
3726.323186030904
 20
-114.9007898638986
 30
-0.0000000000004832
  0
SPLINE
  5
B8
330
1F
100
AcDbEntity
  8
图层 03
100
AcDbSpline
210
0.0
220
0.0
230
1.0
 70
     8
 71
     3
 72
     8
 73
     4
 74
     0
 42
0.0000000001
 43
0.0000000001
 40
9421.842843386443
 40
9421.842843386443
 40
9421.842843386443
 40
9421.842843386443
 40
9444.700496460859
 40
9444.700496460859
 40
9444.700496460859
 40
9444.700496460859
 10
3726.323186030904
 20
-114.9007898638986
 30
-0.0000000000004832
 10
3725.257838046738
 20
-116.2282724050144
 30
-0.0000000000004832
 10
3724.195563942044
 20
-117.5584791506647
 30
-0.0000000000004832
 10
3723.138550330907
 20
-118.8931938030889
 30
-0.0000000000004832
  0
SPLINE
  5
B9
330
1F
100
AcDbEntity
  8
图层 03
100
AcDbSpline
210
0.0
220
0.0
230
1.0
 70
     8
 71
     3
 72
     8
 73
     4
 74
     0
 42
0.0000000001
 43
0.0000000001
 40
9444.700496460859
 40
9444.700496460859
 40
9444.700496460859
 40
9444.700496460859
 40
9456.153437542445
 40
9456.153437542445
 40
9456.153437542445
 40
9456.153437542445
 10
3723.138550330907
 20
-118.8931938030889
 30
-0.0000000000004832
 10
3722.648782664196
 20
-119.5945532242038
 30
-0.0000000000004832
 10
3722.157533073648
 20
-120.2947864206383
 30
-0.0000000000004832
 10
3721.663175468108
 20
-120.9925680535723
 30
-0.0000000000004832
  0
SPLINE
  5
BA
330
1F
100
AcDbEntity
  8
图层 03
100
AcDbSpline
210
0.0
220
0.0
230
1.0
 70
     8
 71
     3
 72
     8
 73
     4
 74
     0
 42
0.0000000001
 43
0.0000000001
 40
9456.153437542445
 40
9456.153437542445
 40
9456.153437542445
 40
9456.153437542445
 40
9472.013359812696
 40
9472.013359812696
 40
9472.013359812696
 40
9472.013359812696
 10
3721.663175468108
 20
-120.9925680535723
 30
-0.0000000000004832
 10
3721.289348679192
 20
-122.1381690992637
 30
-0.0000000000004832
 10
3720.925396978967
 20
-123.2877974180258
 30
-0.0000000000004832
 10
3720.565771522983
 20
-124.4389309732298
 30
-0.0000000000004832
  0
SPLINE
  5
BB
330
1F
100
AcDbEntity
  8
图层 03
100
AcDbSpline
210
0.0
220
0.0
230
1.0
 70
     8
 71
     3
 72
     8
 73
     4
 74
     0
 42
0.0000000001
 43
0.0000000001
 40
9472.013359812696
 40
9472.013359812696
 40
9472.013359812696
 40
9472.013359812696
 40
9483.16032140901
 40
9483.16032140901
 40
9483.16032140901
 40
9483.16032140901
 10
3720.565771522983
 20
-124.4389309732298
 30
-0.0000000000004832
 10
3720.947684220017
 20
-125.230643582019
 30
-0.0000000000004832
 10
3721.329927779261
 20
-126.0222010433833
 30
-0.0000000000004832
 10
3721.712424588943
 20
-126.8136389126055
 30
-0.0000000000004832
  0
SPLINE
  5
BC
330
1F
100
AcDbEntity
  8
图层 03
100
AcDbSpline
210
0.0
220
0.0
230
1.0
 70
     8
 71
     3
 72
     8
 73
     4
 74
     0
 42
0.0000000001
 43
0.0000000001
 40
9483.16032140901
 40
9483.16032140901
 40
9483.16032140901
 40
9483.16032140901
 40
9498.617904156414
 40
9498.617904156414
 40
9498.617904156414
 40
9498.617904156414
 10
3721.712424588943
 20
-126.8136389126055
 30
-0.0000000000004832
 10
3722.855234911018
 20
-127.0956804575551
 30
-0.0000000000004832
 10
3723.998014378239
 20
-127.3778953009057
 30
-0.0000000000004832
 10
3725.140753167039
 20
-127.6603373323326
 30
-0.0000000000004832
  0
SPLINE
  5
BD
330
1F
100
AcDbEntity
  8
图层 03
100
AcDbSpline
210
0.0
220
0.0
230
1.0
 70
     8
 71
     3
 72
     8
 73
     4
 74
     0
 42
0.0000000001
 43
0.0000000001
 40
9498.617904156414
 40
9498.617904156414
 40
9498.617904156414
 40
9498.617904156414
 40
9521.202443612823
 40
9521.202443612823
 40
9521.202443612823
 40
9521.202443612823
 10
3725.140753167039
 20
-127.6603373323326
 30
-0.0000000000004832
 10
3726.812745321406
 20
-127.4581878926379
 30
-0.0000000000004832
 10
3728.484460751698
 20
-127.2543412204607
 30
-0.0000000000004832
 10
3730.155524111457
 20
-127.0467046103788
 30
-0.0000000000004832
  0
SPLINE
  5
BE
330
1F
100
AcDbEntity
  8
图层 03
100
AcDbSpline
210
0.0
220
0.0
230
1.0
 70
     8
 71
     3
 72
     8
 73
     4
 74
     0
 42
0.0000000001
 43
0.0000000001
 40
9521.202443612823
 40
9521.202443612823
 40
9521.202443612823
 40
9521.202443612823
 40
9535.643720156426
 40
9535.643720156426
 40
9535.643720156426
 40
9535.643720156426
 10
3730.155524111457
 20
-127.0467046103788
 30
-0.0000000000004832
 10
3731.181237954805
 20
-126.7414077004557
 30
-0.0000000000004832
 10
3732.204967627337
 20
-126.4299749871705
 30
-0.0000000000004832
 10
3733.227675896508
 20
-126.1156953204829
 30
-0.0000000000004832
  0
SPLINE
  5
BF
330
1F
100
AcDbEntity
  8
图层 03
100
AcDbSpline
210
0.0
220
0.0
230
1.0
 70
     8
 71
     3
 72
     8
 73
     4
 74
     0
 42
0.0000000001
 43
0.0000000001
 40
9535.643720156426
 40
9535.643720156426
 40
9535.643720156426
 40
9535.643720156426
 40
9565.157455937697
 40
9565.157455937697
 40
9565.157455937697
 40
9565.157455937697
 10
3733.227675896508
 20
-126.1156953204829
 30
-0.0000000000004832
 10
3735.333272484223
 20
-125.5208372440841
 30
-0.0000000000004832
 10
3737.434180153121
 20
-124.9107401450376
 30
-0.0000000000004832
 10
3739.532042456213
 20
-124.2919123104246
 30
-0.0000000000004832
  0
SPLINE
  5
C0
330
1F
100
AcDbEntity
  8
图层 03
100
AcDbSpline
210
0.0
220
0.0
230
1.0
 70
     8
 71
     3
 72
     8
 73
     4
 74
     0
 42
0.0000000001
 43
0.0000000001
 40
9565.157455937697
 40
9565.157455937697
 40
9565.157455937697
 40
9565.157455937697
 40
9632.6562667014
 40
9632.6562667014
 40
9632.6562667014
 40
9632.6562667014
 10
3739.532042456213
 20
-124.2919123104246
 30
-0.0000000000004832
 10
3744.20074015792
 20
-122.5209389356244
 30
-0.0000000000004832
 10
3748.855619739628
 20
-120.7150528357763
 30
-0.0000000000004832
 10
3753.504126415539
 20
-118.8947929704239
 30
-0.0000000000004832
  0
SPLINE
  5
C1
330
1F
100
AcDbEntity
  8
图层 03
100
AcDbSpline
210
0.0
220
0.0
230
1.0
 70
     8
 71
     3
 72
     8
 73
     4
 74
     0
 42
0.0000000001
 43
0.0000000001
 40
9632.6562667014
 40
9632.6562667014
 40
9632.6562667014
 40
9632.6562667014
 40
9653.862080566676
 40
9653.862080566676
 40
9653.862080566676
 40
9653.862080566676
 10
3753.504126415539
 20
-118.8947929704239
 30
-0.0000000000004832
 10
3754.984764858079
 20
-118.3740236692586
 30
-0.0000000000004832
 10
3756.465033981242
 20
-117.8522727631687
 30
-0.0000000000004832
 10
3757.944994759798
 20
-117.3297107122082
 30
-0.0000000000004832
  0
SPLINE
  5
C2
330
1F
100
AcDbEntity
  8
图层 03
100
AcDbSpline
210
0.0
220
0.0
230
1.0
 70
     8
 71
     3
 72
     8
 73
     4
 74
     0
 42
0.0000000001
 43
0.0000000001
 40
9653.862080566676
 40
9653.862080566676
 40
9653.862080566676
 40
9653.862080566676
 40
9740.839068962048
 40
9740.839068962048
 40
9740.839068962048
 40
9740.839068962048
 10
3757.944994759798
 20
-117.3297107122082
 30
-0.0000000000004832
 10
3763.897850084538
 20
-114.8954618523812
 30
-0.0000000000004832
 10
3769.845504196981
 20
-112.4490146933695
 30
-0.0000000000004832
 10
3775.790377749592
 20
-109.9962324383616
 30
-0.0000000000004832
  0
SPLINE
  5
C3
330
1F
100
AcDbEntity
  8
图层 03
100
AcDbSpline
210
0.0
220
0.0
230
1.0
 70
     8
 71
     3
 72
     8
 73
     4
 74
     0
 42
0.0000000001
 43
0.0000000001
 40
9740.839068962048
 40
9740.839068962048
 40
9740.839068962048
 40
9740.839068962048
 40
9824.503103136869
 40
9824.503103136869
 40
9824.503103136869
 40
9824.503103136869
 10
3775.790377749592
 20
-109.9962324383616
 30
-0.0000000000004832
 10
3781.555508947857
 20
-107.7476118514435
 30
-0.0000000000004832
 10
3787.320280045911
 20
-105.4981158220485
 30
-0.0000000000004832
 10
3793.084841667175
 20
-103.2481116487627
 30
-0.0000000000004832
  0
SPLINE
  5
C4
330
1F
100
AcDbEntity
  8
图层 03
100
AcDbSpline
210
0.0
220
0.0
230
1.0
 70
     8
 71
     3
 72
     8
 73
     4
 74
     0
 42
0.0000000001
 43
0.0000000001
 40
9824.503103136869
 40
9824.503103136869
 40
9824.503103136869
 40
9824.503103136869
 40
9832.8847074486
 40
9832.8847074486
 40
9832.8847074486
 40
9832.8847074486
 10
3793.084841667175
 20
-103.2481116487627
 30
-0.0000000000004832
 10
3793.652293851898
 20
-102.9994846255806
 30
-0.0000000000004832
 10
3794.219715953876
 20
-102.7507913724519
 30
-0.0000000000004832
 10
3794.787109324366
 20
-102.5020349669246
 30
-0.0000000000004832
  0
SPLINE
  5
C5
330
1F
100
AcDbEntity
  8
图层 03
100
AcDbSpline
210
0.0
220
0.0
230
1.0
 70
     8
 71
     3
 72
     8
 73
     4
 74
     0
 42
0.0000000001
 43
0.0000000001
 40
9832.8847074486
 40
9832.8847074486
 40
9832.8847074486
 40
9832.8847074486
 40
9894.256503481587
 40
9894.256503481587
 40
9894.256503481587
 40
9894.256503481587
 10
3794.787109324366
 20
-102.5020349669246
 30
-0.0000000000004832
 10
3798.865253072106
 20
-100.5199256864078
 30
-0.0000000000004832
 10
3802.948730444695
 20
-98.54847922527097
 30
-0.0000000000004832
 10
3807.035791849215
 20
-96.58443953731307
 30
-0.0000000000004832
  0
SPLINE
  5
C6
330
1F
100
AcDbEntity
  8
图层 03
100
AcDbSpline
210
0.0
220
0.0
230
1.0
 70
     8
 71
     3
 72
     8
 73
     4
 74
     0
 42
0.0000000001
 43
0.0000000001
 40
9894.256503481587
 40
9894.256503481587
 40
9894.256503481587
 40
9894.256503481587
 40
9932.447549666083
 40
9932.447549666083
 40
9932.447549666083
 40
9932.447549666083
 10
3807.035791849215
 20
-96.58443953731307
 30
-0.0000000000004832
 10
3809.413207564605
 20
-95.06577360003416
 30
-0.0000000000004832
 10
3811.802780396522
 20
-93.56599633570067
 30
-0.0000000000004832
 10
3814.201293018944
 20
-92.08141301958312
 30
-0.0000000000004832
  0
SPLINE
  5
C7
330
1F
100
AcDbEntity
  8
图层 03
100
AcDbSpline
210
0.0
220
0.0
230
1.0
 70
     8
 71
     3
 72
     8
 73
     4
 74
     0
 42
0.0000000001
 43
0.0000000001
 40
9932.447549666083
 40
9932.447549666083
 40
9932.447549666083
 40
9932.447549666083
 40
9957.889030447717
 40
9957.889030447717
 40
9957.889030447717
 40
9957.889030447717
 10
3814.201293018944
 20
-92.08141301958312
 30
-0.0000000000004832
 10
3815.596456723493
 20
-90.81683514231872
 30
-0.0000000000004832
 10
3817.011018857317
 20
-89.56899855387132
 30
-0.0000000000004832
 10
3818.436456498277
 20
-88.3404075475894
 30
-0.0000000000004832
  0
SPLINE
  5
C8
330
1F
100
AcDbEntity
  8
图层 03
100
AcDbSpline
210
0.0
220
0.0
230
1.0
 70
     8
 71
     3
 72
     8
 73
     4
 74
     0
 42
0.0000000001
 43
0.0000000001
 40
9957.889030447717
 40
9957.889030447717
 40
9957.889030447717
 40
9957.889030447717
 40
9979.925711433763
 40
9979.925711433763
 40
9979.925711433763
 40
9979.925711433763
 10
3818.436456498277
 20
-88.3404075475894
 30
-0.0000000000004832
 10
3819.586587819744
 20
-87.17962469001009
 30
-0.0000000000004832
 10
3820.755211781952
 20
-86.03619949993231
 30
-0.0000000000004832
 10
3821.937813208867
 20
-84.91061416877324
 30
-0.0000000000004832
  0
SPLINE
  5
C9
330
1F
100
AcDbEntity
  8
图层 03
100
AcDbSpline
210
0.0
220
0.0
230
1.0
 70
     8
 71
     3
 72
    11
 73
     7
 74
     0
 42
0.0000000001
 43
0.0000000001
 40
9979.925711433763
 40
9979.925711433763
 40
9979.925711433763
 40
9979.925711433763
 40
10005.82846275103
 40
10005.82846275103
 40
10005.82846275103
 40
10037.14226972736
 40
10037.14226972736
 40
10037.14226972736
 40
10037.14226972736
 10
3821.937813208867
 20
-84.91061416877324
 30
-0.0000000000004832
 10
3823.438984544797
 20
-83.72146924702702
 30
-0.0000000000004832
 10
3824.956354929471
 20
-82.55081784220556
 30
-0.0000000000004832
 10
3826.48534493539
 20
-81.39894295396107
 30
-0.0000000000004832
 10
3828.333124599276
 20
-80.00450189221624
 30
-0.0000000000004832
 10
3830.194179925019
 20
-78.62774353173018
 30
-0.0000000000004832
 10
3832.066654839168
 20
-77.26787194049007
 30
-0.0000000000004832
  0
SPLINE
  5
CA
330
1F
100
AcDbEntity
  8
图层 03
100
AcDbSpline
210
0.0
220
0.0
230
1.0
 70
     8
 71
     3
 72
     8
 73
     4
 74
     0
 42
0.0000000001
 43
0.0000000001
 40
10037.14226972736
 40
10037.14226972736
 40
10037.14226972736
 40
10037.14226972736
 40
10070.10050420813
 40
10070.10050420813
 40
10070.10050420813
 40
10070.10050420813
 10
3832.066654839168
 20
-77.26787194049007
 30
-0.0000000000004832
 10
3833.900026046537
 20
-75.65775019438843
 30
-0.0000000000004832
 10
3835.743236242182
 20
-74.05917770249835
 30
-0.0000000000004832
 10
3837.595717193158
 20
-72.47223973065843
 30
-0.0000000000004832
  0
SPLINE
  5
CB
330
1F
100
AcDbEntity
  8
图层 03
100
AcDbSpline
210
0.0
220
0.0
230
1.0
 70
     8
 71
     3
 72
     8
 73
     4
 74
     0
 42
0.0000000001
 43
0.0000000001
 40
10070.10050420813
 40
10070.10050420813
 40
10070.10050420813
 40
10070.10050420813
 40
10073.97970012749
 40
10073.97970012749
 40
10073.97970012749
 40
10073.97970012749
 10
3837.595717193158
 20
-72.47223973065843
 30
-0.0000000000004832
 10
3837.801602734713
 20
-72.27143052332985
 30
-0.0000000000004832
 10
3838.007606459378
 20
-72.07074969363134
 30
-0.0000000000004832
 10
3838.213728294784
 20
-71.8701979995501
 30
-0.0000000000004832
  0
SPLINE
  5
CC
330
1F
100
AcDbEntity
  8
图层 03
100
AcDbSpline
210
0.0
220
0.0
230
1.0
 70
     8
 71
     3
 72
     8
 73
     4
 74
     0
 42
0.0000000001
 43
0.0000000001
 40
10073.97970012749
 40
10073.97970012749
 40
10073.97970012749
 40
10073.97970012749
 40
10117.55224442997
 40
10117.55224442997
 40
10117.55224442997
 40
10117.55224442997
 10
3838.213728294784
 20
-71.8701979995501
 30
-0.0000000000004832
 10
3840.199907195542
 20
-69.30131260427629
 30
-0.0000000000004832
 10
3842.200262636502
 20
-66.74419465194092
 30
-0.0000000000004832
 10
3844.216069311115
 20
-64.20075834550585
 30
-0.0000000000004832
  0
SPLINE
  5
CD
330
1F
100
AcDbEntity
  8
图层 03
100
AcDbSpline
210
0.0
220
0.0
230
1.0
 70
     8
 71
     3
 72
     8
 73
     4
 74
     0
 42
0.0000000001
 43
0.0000000001
 40
10117.55224442997
 40
10117.55224442997
 40
10117.55224442997
 40
10117.55224442997
 40
10168.80028396591
 40
10168.80028396591
 40
10168.80028396591
 40
10168.80028396591
 10
3844.216069311115
 20
-64.20075834550585
 30
-0.0000000000004832
 10
3846.20361324804
 20
-60.91445605418062
 30
-0.0000000000004832
 10
3848.214177665714
 20
-57.64335796524711
 30
-0.0000000000004832
 10
3850.252844891996
 20
-54.3926161430345
 30
-0.0000000000004832
  0
SPLINE
  5
CE
330
1F
100
AcDbEntity
  8
图层 03
100
AcDbSpline
210
0.0
220
0.0
230
1.0
 70
     8
 71
     3
 72
     8
 73
     4
 74
     0
 42
0.0000000001
 43
0.0000000001
 40
10168.80028396591
 40
10168.80028396591
 40
10168.80028396591
 40
10168.80028396591
 40
10223.3157353535
 40
10223.3157353535
 40
10223.3157353535
 40
10223.3157353535
 10
3850.252844891996
 20
-54.3926161430345
 30
-0.0000000000004832
 10
3852.333189651973
 20
-50.87394769858554
 30
-0.0000000000004832
 10
3854.438582277229
 20
-47.37144442340161
 30
-0.0000000000004832
 10
3856.576509460948
 20
-43.89208617593658
 30
-0.0000000000004832
  0
SPLINE
  5
CF
330
1F
100
AcDbEntity
  8
图层 03
100
AcDbSpline
210
0.0
220
0.0
230
1.0
 70
     8
 71
     3
 72
     8
 73
     4
 74
     0
 42
0.0000000001
 43
0.0000000001
 40
10223.3157353535
 40
10223.3157353535
 40
10223.3157353535
 40
10223.3157353535
 40
10274.83372199621
 40
10274.83372199621
 40
10274.83372199621
 40
10274.83372199621
 10
3856.576509460948
 20
-43.89208617593658
 30
-0.0000000000004832
 10
3858.751781232389
 20
-40.71587611642462
 30
-0.0000000000004832
 10
3860.930656986629
 20
-37.54239072493783
 30
-0.0000000000004832
 10
3863.1141818303
 20
-34.37247216012281
 30
-0.0000000000004832
  0
SPLINE
  5
D0
330
1F
100
AcDbEntity
  8
图层 03
100
AcDbSpline
210
0.0
220
0.0
230
1.0
 70
     8
 71
     3
 72
     8
 73
     4
 74
     0
 42
0.0000000001
 43
0.0000000001
 40
10274.83372199621
 40
10274.83372199621
 40
10274.83372199621
 40
10274.83372199621
 40
10317.26572411145
 40
10317.26572411145
 40
10317.26572411145
 40
10317.26572411145
 10
3863.1141818303
 20
-34.37247216012281
 30
-0.0000000000004832
 10
3865.219621834386
 20
-32.02746787936337
 30
-0.0000000000004832
 10
3867.292029675165
 20
-29.64556125739659
 30
-0.0000000000004832
 10
3869.320816464267
 20
-27.22859982420221
 30
-0.0000000000004832
  0
SPLINE
  5
D1
330
1F
100
AcDbEntity
  8
图层 03
100
AcDbSpline
210
0.0
220
0.0
230
1.0
 70
     8
 71
     3
 72
     8
 73
     4
 74
     0
 42
0.0000000001
 43
0.0000000001
 40
10317.26572411145
 40
10317.26572411145
 40
10317.26572411145
 40
10317.26572411145
 40
10328.84617808277
 40
10328.84617808277
 40
10328.84617808277
 40
10328.84617808277
 10
3869.320816464267
 20
-27.22859982420221
 30
-0.0000000000004832
 10
3870.028445462111
 20
-26.74767616590418
 30
-0.0000000000004832
 10
3870.731841913193
 20
-26.26022312199029
 30
-0.0000000000004832
 10
3871.430765756835
 20
-25.76654239993286
 30
-0.0000000000004832
  0
SPLINE
  5
D2
330
1F
100
AcDbEntity
  8
图层 03
100
AcDbSpline
210
0.0
220
0.0
230
1.0
 70
     8
 71
     3
 72
     8
 73
     4
 74
     0
 42
0.0000000001
 43
0.0000000001
 40
10328.84617808277
 40
10328.84617808277
 40
10328.84617808277
 40
10328.84617808277
 40
10347.03233252863
 40
10347.03233252863
 40
10347.03233252863
 40
10347.03233252863
 10
3871.430765756835
 20
-25.76654239993286
 30
-0.0000000000004832
 10
3872.424182762331
 20
-24.85696567153366
 30
-0.0000000000004832
 10
3873.431355979482
 20
-23.96257441513694
 30
-0.0000000000004832
 10
3874.450220810006
 20
-23.08308379799166
 30
-0.0000000000004832
  0
SPLINE
  5
D3
330
1F
100
AcDbEntity
  8
图层 03
100
AcDbSpline
210
0.0
220
0.0
230
1.0
 70
     8
 71
     3
 72
     8
 73
     4
 74
     0
 42
0.0000000001
 43
0.0000000001
 40
10347.03233252863
 40
10347.03233252863
 40
10347.03233252863
 40
10347.03233252863
 40
10368.66672124427
 40
10368.66672124427
 40
10368.66672124427
 40
10368.66672124427
 10
3874.450220810006
 20
-23.08308379799166
 30
-0.0000000000004832
 10
3875.955297771075
 20
-22.5482652200443
 30
-0.0000000000004832
 10
3877.516868418453
 20
-22.14179347766253
 30
-0.0000000000004832
 10
3879.090404246496
 20
-21.83299454508017
 30
-0.0000000000004832
  0
SPLINE
  5
D4
330
1F
100
AcDbEntity
  8
图层 03
100
AcDbSpline
210
0.0
220
0.0
230
1.0
 70
     8
 71
     3
 72
     8
 73
     4
 74
     0
 42
0.0000000001
 43
0.0000000001
 40
10368.66672124427
 40
10368.66672124427
 40
10368.66672124427
 40
10368.66672124427
 40
10372.53058980284
 40
10372.53058980284
 40
10372.53058980284
 40
10372.53058980284
 10
3879.090404246496
 20
-21.83299454508017
 30
-0.0000000000004832
 10
3879.375973136383
 20
-21.90365713270046
 30
-0.0000000000004832
 10
3879.660400321368
 20
-21.98135046266566
 30
-0.0000000000004832
 10
3879.943284354652
 20
-22.06524610459758
 30
-0.0000000000004832
  0
SPLINE
  5
D5
330
1F
100
AcDbEntity
  8
图层 03
100
AcDbSpline
210
0.0
220
0.0
230
1.0
 70
     8
 71
     3
 72
     8
 73
     4
 74
     0
 42
0.0000000001
 43
0.0000000001
 40
10372.53058980284
 40
10372.53058980284
 40
10372.53058980284
 40
10372.53058980284
 40
10389.75908857622
 40
10389.75908857622
 40
10389.75908857622
 40
10389.75908857622
 10
3879.943284354652
 20
-22.06524610459758
 30
-0.0000000000004832
 10
3881.214558543082
 20
-22.30820061052555
 30
-0.0000000000004832
 10
3882.509251121564
 20
-22.65802765599278
 30
-0.0000000000004832
 10
3883.752340476174
 20
-23.04967028921305
 30
-0.0000000000004832
  0
SPLINE
  5
D6
330
1F
100
AcDbEntity
  8
图层 03
100
AcDbSpline
210
0.0
220
0.0
230
1.0
 70
     8
 71
     3
 72
     8
 73
     4
 74
     0
 42
0.0000000001
 43
0.0000000001
 40
10389.75908857622
 40
10389.75908857622
 40
10389.75908857622
 40
10389.75908857622
 40
10415.03070269269
 40
10415.03070269269
 40
10415.03070269269
 40
10415.03070269269
 10
3883.752340476174
 20
-23.04967028921305
 30
-0.0000000000004832
 10
3885.326304822641
 20
-24.21810664246175
 30
-0.0000000000004832
 10
3886.889293415735
 20
-25.46355237835473
 30
-0.0000000000004832
 10
3888.399017710534
 20
-26.72170915845277
 30
-0.0000000000004832
  0
SPLINE
  5
D7
330
1F
100
AcDbEntity
  8
图层 03
100
AcDbSpline
210
0.0
220
0.0
230
1.0
 70
     8
 71
     3
 72
     8
 73
     4
 74
     0
 42
0.0000000001
 43
0.0000000001
 40
10415.03070269269
 40
10415.03070269269
 40
10415.03070269269
 40
10415.03070269269
 40
10444.2563807734
 40
10444.2563807734
 40
10444.2563807734
 40
10444.2563807734
 10
3888.399017710534
 20
-26.72170915845277
 30
-0.0000000000004832
 10
3889.773472465927
 20
-28.57005469977037
 30
-0.0000000000004832
 10
3891.15067600277
 20
-30.41630029711769
 30
-0.0000000000004832
 10
3892.530954986649
 20
-32.26014419185685
 30
-0.0000000000004832
  0
SPLINE
  5
D8
330
1F
100
AcDbEntity
  8
图层 03
100
AcDbSpline
210
0.0
220
0.0
230
1.0
 70
     8
 71
     3
 72
     8
 73
     4
 74
     0
 42
0.0000000001
 43
0.0000000001
 40
10444.2563807734
 40
10444.2563807734
 40
10444.2563807734
 40
10444.2563807734
 40
10475.26150161247
 40
10475.26150161247
 40
10475.26150161247
 40
10475.26150161247
 10
3892.530954986649
 20
-32.26014419185685
 30
-0.0000000000004832
 10
3893.563070351217
 20
-34.4761438351195
 30
-0.0000000000004832
 10
3894.603305362849
 20
-36.68857146026494
 30
-0.0000000000004832
 10
3895.65415932473
 20
-38.89597447661617
 30
-0.0000000000004832
  0
SPLINE
  5
D9
330
1F
100
AcDbEntity
  8
图层 03
100
AcDbSpline
210
0.0
220
0.0
230
1.0
 70
     8
 71
     3
 72
     8
 73
     4
 74
     0
 42
0.0000000001
 43
0.0000000001
 40
10475.26150161247
 40
10475.26150161247
 40
10475.26150161247
 40
10475.26150161247
 40
10507.5777474091
 40
10507.5777474091
 40
10507.5777474091
 40
10507.5777474091
 10
3895.65415932473
 20
-38.89597447661617
 30
-0.0000000000004832
 10
3896.215340827395
 20
-41.36675976613708
 30
-0.0000000000004832
 10
3896.758440966876
 20
-43.84118763172387
 30
-0.0000000000004832
 10
3897.281210423139
 20
-46.31866108204758
 30
-0.0000000000004832
  0
SPLINE
  5
DA
330
1F
100
AcDbEntity
  8
图层 03
100
AcDbSpline
210
0.0
220
0.0
230
1.0
 70
     8
 71
     3
 72
     8
 73
     4
 74
     0
 42
0.0000000001
 43
0.0000000001
 40
10507.5777474091
 40
10507.5777474091
 40
10507.5777474091
 40
10507.5777474091
 40
10510.28733584291
 40
10510.28733584291
 40
10510.28733584291
 40
10510.28733584291
 10
3897.281210423139
 20
-46.31866108204758
 30
-0.0000000000004832
 10
3897.278568917853
 20
-46.52857504263238
 30
-0.0000000000004832
 10
3897.27564483245
 20
-46.73846923934241
 30
-0.0000000000004832
 10
3897.272438141703
 20
-46.94834124172144
 30
-0.0000000000004832
  0
SPLINE
  5
DB
330
1F
100
AcDbEntity
  8
图层 03
100
AcDbSpline
210
0.0
220
0.0
230
1.0
 70
     8
 71
     3
 72
     8
 73
     4
 74
     0
 42
0.0000000001
 43
0.0000000001
 40
10510.28733584291
 40
10510.28733584291
 40
10510.28733584291
 40
10510.28733584291
 40
10543.01072126382
 40
10543.01072126382
 40
10543.01072126382
 40
10543.01072126382
 10
3897.272438141703
 20
-46.94834124172144
 30
-0.0000000000004832
 10
3897.62744274901
 20
-49.33823772903406
 30
-0.0000000000004832
 10
3897.700340486044
 20
-52.1655135555751
 30
-0.0000000000004832
 10
3897.686629695712
 20
-54.55513989180236
 30
-0.0000000000004832
  0
SPLINE
  5
DC
330
1F
100
AcDbEntity
  8
图层 03
100
AcDbSpline
210
0.0
220
0.0
230
1.0
 70
     8
 71
     3
 72
     8
 73
     4
 74
     0
 42
0.0000000001
 43
0.0000000001
 40
10543.01072126382
 40
10543.01072126382
 40
10543.01072126382
 40
10543.01072126382
 40
10564.26421425661
 40
10564.26421425661
 40
10564.26421425661
 40
10564.26421425661
 10
3897.686629695712
 20
-54.55513989180236
 30
-0.0000000000004832
 10
3897.460285263402
 20
-56.18147144489342
 30
-0.0000000000004832
 10
3897.181175647343
 20
-57.77062961646936
 30
-0.0000000000004832
 10
3896.83887305096
 20
-59.36861589097657
 30
-0.0000000000004832
  0
SPLINE
  5
DD
330
1F
100
AcDbEntity
  8
图层 03
100
AcDbSpline
210
0.0
220
0.0
230
1.0
 70
     8
 71
     3
 72
     8
 73
     4
 74
     0
 42
0.0000000001
 43
0.0000000001
 40
10564.26421425661
 40
10564.26421425661
 40
10564.26421425661
 40
10564.26421425661
 40
10591.59384184695
 40
10591.59384184695
 40
10591.59384184695
 40
10591.59384184695
 10
3896.83887305096
 20
-59.36861589097657
 30
-0.0000000000004832
 10
3896.495579736356
 20
-61.43753114586912
 30
-0.0000000000004832
 10
3896.140335739567
 20
-63.50387282173483
 30
-0.0000000000004832
 10
3895.765231066433
 20
-65.56499283816652
 30
-0.0000000000004832
  0
SPLINE
  5
DE
330
1F
100
AcDbEntity
  8
图层 03
100
AcDbSpline
210
0.0
220
0.0
230
1.0
 70
     8
 71
     3
 72
     8
 73
     4
 74
     0
 42
0.0000000001
 43
0.0000000001
 40
10591.59384184695
 40
10591.59384184695
 40
10591.59384184695
 40
10591.59384184695
 40
10605.78086115756
 40
10605.78086115756
 40
10605.78086115756
 40
10605.78086115756
 10
3895.765231066433
 20
-65.56499283816652
 30
-0.0000000000004832
 10
3895.816264732987
 20
-66.66672425745287
 30
-0.0000000000004832
 10
3895.867868867163
 20
-67.76846160105401
 30
-0.0000000000004832
 10
3895.920071922664
 20
-68.87020314544748
 30
-0.0000000000004832
  0
SPLINE
  5
DF
330
1F
100
AcDbEntity
  8
图层 03
100
AcDbSpline
210
0.0
220
0.0
230
1.0
 70
     8
 71
     3
 72
     8
 73
     4
 74
     0
 42
0.0000000001
 43
0.0000000001
 40
10605.78086115756
 40
10605.78086115756
 40
10605.78086115756
 40
10605.78086115756
 40
10611.5028547795
 40
10611.5028547795
 40
10611.5028547795
 40
10611.5028547795
 10
3895.920071922664
 20
-68.87020314544748
 30
-0.0000000000004832
 10
3895.862929224143
 20
-69.30655409262522
 30
-0.0000000000004832
 10
3895.80421489207
 20
-69.74260596848922
 30
-0.0000000000004832
 10
3895.743782628768
 20
-70.17828985937149
 30
-0.0000000000004832
  0
SPLINE
  5
E0
330
1F
100
AcDbEntity
  8
图层 03
100
AcDbSpline
210
0.0
220
0.0
230
1.0
 70
     8
 71
     3
 72
     8
 73
     4
 74
     0
 42
0.0000000001
 43
0.0000000001
 40
10611.5028547795
 40
10611.5028547795
 40
10611.5028547795
 40
10611.5028547795
 40
10627.79882525119
 40
10627.79882525119
 40
10627.79882525119
 40
10627.79882525119
 10
3895.743782628768
 20
-70.17828985937149
 30
-0.0000000000004832
 10
3895.868536548412
 20
-71.4425620816121
 30
-0.0000000000004832
 10
3895.990013508162
 20
-72.70700554564473
 30
-0.0000000000004832
 10
3896.107600577057
 20
-73.97158303801939
 30
-0.0000000000004832
  0
SPLINE
  5
E1
330
1F
100
AcDbEntity
  8
图层 03
100
AcDbSpline
210
0.0
220
0.0
230
1.0
 70
     8
 71
     3
 72
     8
 73
     4
 74
     0
 42
0.0000000001
 43
0.0000000001
 40
10627.79882525119
 40
10627.79882525119
 40
10627.79882525119
 40
10627.79882525119
 40
10638.17678627449
 40
10638.17678627449
 40
10638.17678627449
 40
10638.17678627449
 10
3896.107600577057
 20
-73.97158303801939
 30
-0.0000000000004832
 10
3896.455564796297
 20
-74.71388037853558
 30
-0.0000000000004832
 10
3896.781119609365
 20
-75.46092306593823
 30
-0.0000000000004832
 10
3897.088161848753
 20
-76.22030690199813
 30
-0.0000000000004832
  0
SPLINE
  5
E2
330
1F
100
AcDbEntity
  8
图层 03
100
AcDbSpline
210
0.0
220
0.0
230
1.0
 70
     8
 71
     3
 72
     8
 73
     4
 74
     0
 42
0.0000000001
 43
0.0000000001
 40
10638.17678627449
 40
10638.17678627449
 40
10638.17678627449
 40
10638.17678627449
 40
10640.43917484872
 40
10640.43917484872
 40
10640.43917484872
 40
10640.43917484872
 10
3897.088161848753
 20
-76.22030690199813
 30
-0.0000000000004832
 10
3897.130267572607
 20
-76.39273439464137
 30
-0.0000000000004832
 10
3897.1718206336
 20
-76.56527860545361
 30
-0.0000000000004832
 10
3897.212789892747
 20
-76.73793301646197
 30
-0.0000000000004832
  0
SPLINE
  5
E3
330
1F
100
AcDbEntity
  8
图层 03
100
AcDbSpline
210
0.0
220
0.0
230
1.0
 70
     8
 71
     3
 72
     8
 73
     4
 74
     0
 42
0.0000000001
 43
0.0000000001
 40
10640.43917484872
 40
10640.43917484872
 40
10640.43917484872
 40
10640.43917484872
 40
10650.92550333037
 40
10650.92550333037
 40
10650.92550333037
 40
10650.92550333037
 10
3897.212789892747
 20
-76.73793301646197
 30
-0.0000000000004832
 10
3897.733264477605
 20
-77.37667511568338
 30
-0.0000000000004832
 10
3898.248711309757
 20
-78.02672892172382
 30
-0.0000000000004832
 10
3898.749798303055
 20
-78.68144839513116
 30
-0.0000000000004832
  0
SPLINE
  5
E4
330
1F
100
AcDbEntity
  8
图层 03
100
AcDbSpline
210
0.0
220
0.0
230
1.0
 70
     8
 71
     3
 72
     8
 73
     4
 74
     0
 42
0.0000000001
 43
0.0000000001
 40
10650.92550333037
 40
10650.92550333037
 40
10650.92550333037
 40
10650.92550333037
 40
10660.99200965014
 40
10660.99200965014
 40
10660.99200965014
 40
10660.99200965014
 10
3898.749798303055
 20
-78.68144839513116
 30
-0.0000000000004832
 10
3899.464333535872
 20
-78.97980869770186
 30
-0.0000000000004832
 10
3900.178881141625
 20
-79.27813301756282
 30
-0.0000000000004832
 10
3900.893442516302
 20
-79.57641725422036
 30
-0.0000000000004832
  0
SPLINE
  5
E5
330
1F
100
AcDbEntity
  8
图层 03
100
AcDbSpline
210
0.0
220
0.0
230
1.0
 70
     8
 71
     3
 72
     8
 73
     4
 74
     0
 42
0.0000000001
 43
0.0000000001
 40
10660.99200965014
 40
10660.99200965014
 40
10660.99200965014
 40
10660.99200965014
 40
10673.74738841126
 40
10673.74738841126
 40
10673.74738841126
 40
10673.74738841126
 10
3900.893442516302
 20
-79.57641725422036
 30
-0.0000000000004832
 10
3901.814568717579
 20
-79.3570381430959
 30
-0.0000000000004832
 10
3902.735082097864
 20
-79.13539438145585
 30
-0.0000000000004832
 10
3903.654941875973
 20
-78.91145699059985
 30
-0.0000000000004832
  0
SPLINE
  5
E6
330
1F
100
AcDbEntity
  8
图层 03
100
AcDbSpline
210
0.0
220
0.0
230
1.0
 70
     8
 71
     3
 72
    11
 73
     7
 74
     0
 42
0.0000000001
 43
0.0000000001
 40
10673.74738841126
 40
10673.74738841126
 40
10673.74738841126
 40
10673.74738841126
 40
10684.51563226156
 40
10684.51563226156
 40
10684.51563226156
 40
10694.97726454167
 40
10694.97726454167
 40
10694.97726454167
 40
10694.97726454167
 10
3903.654941875973
 20
-78.91145699059985
 30
-0.0000000000004832
 10
3904.27096570257
 20
-78.40634015387172
 30
-0.0000000000004832
 10
3904.885360799691
 20
-77.89913554396094
 30
-0.0000000000004832
 10
3905.498200237419
 20
-77.39000641132316
 30
-0.0000000000004832
 10
3906.0916649329
 20
-76.89296009164195
 30
-0.0000000000004832
 10
3906.683162791793
 20
-76.3934353111988
 30
-0.0000000000004832
 10
3907.272821695923
 20
-75.89169136530495
 30
-0.0000000000004832
  0
SPLINE
  5
E7
330
1F
100
AcDbEntity
  8
图层 03
100
AcDbSpline
210
0.0
220
0.0
230
1.0
 70
     8
 71
     3
 72
     8
 73
     4
 74
     0
 42
0.0000000001
 43
0.0000000001
 40
10694.97726454167
 40
10694.97726454167
 40
10694.97726454167
 40
10694.97726454167
 40
10729.79261648216
 40
10729.79261648216
 40
10729.79261648216
 40
10729.79261648216
 10
3907.272821695923
 20
-75.89169136530495
 30
-0.0000000000004832
 10
3908.851549266652
 20
-73.83214749112472
 30
-0.0000000000004832
 10
3910.414922295626
 20
-71.75949274456138
 30
-0.0000000000004832
 10
3911.967017229562
 20
-69.67796647665614
 30
-0.0000000000004832
  0
SPLINE
  5
E8
330
1F
100
AcDbEntity
  8
图层 03
100
AcDbSpline
210
0.0
220
0.0
230
1.0
 70
     8
 71
     3
 72
     8
 73
     4
 74
     0
 42
0.0000000001
 43
0.0000000001
 40
10729.79261648216
 40
10729.79261648216
 40
10729.79261648216
 40
10729.79261648216
 40
10777.36844817634
 40
10777.36844817634
 40
10777.36844817634
 40
10777.36844817634
 10
3911.967017229562
 20
-69.67796647665614
 30
-0.0000000000004832
 10
3913.811848459457
 20
-66.6268575174995
 30
-0.0000000000004832
 10
3915.643972108208
 20
-63.56702009431524
 30
-0.0000000000004832
 10
3917.467612819401
 20
-60.50163619063619
 30
-0.0000000000004832
  0
SPLINE
  5
E9
330
1F
100
AcDbEntity
  8
图层 03
100
AcDbSpline
210
0.0
220
0.0
230
1.0
 70
     8
 71
     3
 72
     8
 73
     4
 74
     0
 42
0.0000000001
 43
0.0000000001
 40
10777.36844817634
 40
10777.36844817634
 40
10777.36844817634
 40
10777.36844817634
 40
10778.02662263923
 40
10778.02662263923
 40
10778.02662263923
 40
10778.02662263923
 10
3917.467612819401
 20
-60.50163619063619
 30
-0.0000000000004832
 10
3917.491972270591
 20
-60.45865731240065
 30
-0.0000000000004832
 10
3917.516330758518
 20
-60.4156778149852
 30
-0.0000000000004832
 10
3917.540688288909
 20
-60.3726977022443
 30
-0.0000000000004832
  0
SPLINE
  5
EA
330
1F
100
AcDbEntity
  8
图层 03
100
AcDbSpline
210
0.0
220
0.0
230
1.0
 70
     8
 71
     3
 72
     8
 73
     4
 74
     0
 42
0.0000000001
 43
0.0000000001
 40
10778.02662263923
 40
10778.02662263923
 40
10778.02662263923
 40
10778.02662263923
 40
10830.61920760412
 40
10830.61920760412
 40
10830.61920760412
 40
10830.61920760412
 10
3917.540688288909
 20
-60.3726977022443
 30
-0.0000000000004832
 10
3919.215928620577
 20
-56.77803751068132
 30
-0.0000000000004832
 10
3920.901058738067
 20
-53.18869991487054
 30
-0.0000000000004832
 10
3922.592090966859
 20
-49.60265645411209
 30
-0.0000000000004832
  0
SPLINE
  5
EB
330
1F
100
AcDbEntity
  8
图层 03
100
AcDbSpline
210
0.0
220
0.0
230
1.0
 70
     8
 71
     3
 72
     8
 73
     4
 74
     0
 42
0.0000000001
 43
0.0000000001
 40
10830.61920760412
 40
10830.61920760412
 40
10830.61920760412
 40
10830.61920760412
 40
10883.49984780375
 40
10883.49984780375
 40
10883.49984780375
 40
10883.49984780375
 10
3922.592090966859
 20
-49.60265645411209
 30
-0.0000000000004832
 10
3923.87868053007
 20
-45.84799300643135
 30
-0.0000000000004832
 10
3925.28162790748
 20
-41.99579488700169
 30
-0.0000000000004832
 10
3926.675131919795
 20
-38.28764198879799
 30
-0.0000000000004832
  0
SPLINE
  5
EC
330
1F
100
AcDbEntity
  8
图层 03
100
AcDbSpline
210
0.0
220
0.0
230
1.0
 70
     8
 71
     3
 72
     8
 73
     4
 74
     0
 42
0.0000000001
 43
0.0000000001
 40
10883.49984780375
 40
10883.49984780375
 40
10883.49984780375
 40
10883.49984780375
 40
10896.45515996111
 40
10896.45515996111
 40
10896.45515996111
 40
10896.45515996111
 10
3926.675131919795
 20
-38.28764198879799
 30
-0.0000000000004832
 10
3926.886163443785
 20
-37.3194641680609
 30
-0.0000000000004832
 10
3927.098791482317
 20
-36.35174051962258
 30
-0.0000000000004832
 10
3927.313283797892
 20
-35.38456863963938
 30
-0.0000000000004832
  0
SPLINE
  5
ED
330
1F
100
AcDbEntity
  8
图层 03
100
AcDbSpline
210
0.0
220
0.0
230
1.0
 70
     8
 71
     3
 72
     8
 73
     4
 74
     0
 42
0.0000000001
 43
0.0000000001
 40
10896.45515996111
 40
10896.45515996111
 40
10896.45515996111
 40
10896.45515996111
 40
10926.64785805195
 40
10926.64785805195
 40
10926.64785805195
 40
10926.64785805195
 10
3927.313283797892
 20
-35.38456863963938
 30
-0.0000000000004832
 10
3927.693398681776
 20
-33.09905201789843
 30
-0.0000000000004832
 10
3928.074483914446
 20
-30.81376199434044
 30
-0.0000000000004832
 10
3928.456464084449
 20
-28.52868338396911
 30
-0.0000000000004832
  0
SPLINE
  5
EE
330
1F
100
AcDbEntity
  8
图层 03
100
AcDbSpline
210
0.0
220
0.0
230
1.0
 70
     8
 71
     3
 72
     8
 73
     4
 74
     0
 42
0.0000000001
 43
0.0000000001
 40
10926.64785805195
 40
10926.64785805195
 40
10926.64785805195
 40
10926.64785805195
 40
10964.34620332229
 40
10964.34620332229
 40
10964.34620332229
 40
10964.34620332229
 10
3928.456464084449
 20
-28.52868338396911
 30
-0.0000000000004832
 10
3928.540607488547
 20
-25.61200400648079
 30
-0.0000000000004832
 10
3928.616796091844
 20
-22.69457924547532
 30
-0.0000000000004832
 10
3928.685955396084
 20
-19.7766147653017
 30
-0.0000000000004832
  0
SPLINE
  5
EF
330
1F
100
AcDbEntity
  8
图层 03
100
AcDbSpline
210
0.0
220
0.0
230
1.0
 70
     8
 71
     3
 72
    11
 73
     7
 74
     0
 42
0.0000000001
 43
0.0000000001
 40
10964.34620332229
 40
10964.34620332229
 40
10964.34620332229
 40
10964.34620332229
 40
11000.43195710906
 40
11000.43195710906
 40
11000.43195710906
 40
11036.4844803589
 40
11036.4844803589
 40
11036.4844803589
 40
11036.4844803589
 10
3928.685955396084
 20
-19.7766147653017
 30
-0.0000000000004832
 10
3928.546968369513
 20
-16.97427074573511
 30
-0.0000000000004832
 10
3928.3874362224
 20
-14.17159106717634
 30
-0.0000000000004832
 10
3928.21120925601
 20
-11.36939402560756
 30
-0.0000000000004832
 10
3928.070783122641
 20
-8.56958931176257
 30
-0.0000000000004832
 10
3927.916338435987
 20
-5.769602591622856
 30
-0.0000000000004832
 10
3927.749582122324
 20
-2.969840892639922
 30
-0.0000000000004832
  0
SPLINE
  5
F0
330
1F
100
AcDbEntity
  8
图层 03
100
AcDbSpline
210
0.0
220
0.0
230
1.0
 70
     8
 71
     3
 72
     8
 73
     4
 74
     0
 42
0.0000000001
 43
0.0000000001
 40
11036.4844803589
 40
11036.4844803589
 40
11036.4844803589
 40
11036.4844803589
 40
11073.86382176634
 40
11073.86382176634
 40
11073.86382176634
 40
11073.86382176634
 10
3927.749582122324
 20
-2.969840892639922
 30
-0.0000000000004832
 10
3927.865512896802
 20
-0.0816569238439797
 30
-0.0000000000004832
 10
3928.015235399743
 20
2.805028255754223
 30
-0.0000000000004832
 10
3928.202683105926
 20
5.685027714534272
 30
-0.0000000000004832
  0
SPLINE
  5
F1
330
1F
100
AcDbEntity
  8
图层 03
100
AcDbSpline
210
0.0
220
0.0
230
1.0
 70
     8
 71
     3
 72
     8
 73
     4
 74
     0
 42
0.0000000001
 43
0.0000000001
 40
11073.86382176634
 40
11073.86382176634
 40
11073.86382176634
 40
11073.86382176634
 40
11112.06224731863
 40
11112.06224731863
 40
11112.06224731863
 40
11112.06224731863
 10
3928.202683105926
 20
5.685027714534272
 30
-0.0000000000004832
 10
3928.646392299454
 20
8.584889772330143
 30
-0.0000000000004832
 10
3929.156916928006
 20
11.46948038160122
 30
-0.0000000000004832
 10
3929.743229711529
 20
14.33418741229571
 30
-0.0000000000004832
  0
SPLINE
  5
F2
330
1F
100
AcDbEntity
  8
图层 03
100
AcDbSpline
210
0.0
220
0.0
230
1.0
 70
     8
 71
     3
 72
     8
 73
     4
 74
     0
 42
0.0000000001
 43
0.0000000001
 40
11112.06224731863
 40
11112.06224731863
 40
11112.06224731863
 40
11112.06224731863
 40
11145.03932461673
 40
11145.03932461673
 40
11145.03932461673
 40
11145.03932461673
 10
3929.743229711529
 20
14.33418741229571
 30
-0.0000000000004832
 10
3930.376309433796
 20
16.7693164381576
 30
-0.0000000000004832
 10
3931.056018272525
 20
19.18733089392435
 30
-0.0000000000004832
 10
3931.78568585518
 20
21.58829479977408
 30
-0.0000000000004832
  0
SPLINE
  5
F3
330
1F
100
AcDbEntity
  8
图层 03
100
AcDbSpline
210
0.0
220
0.0
230
1.0
 70
     8
 71
     3
 72
     8
 73
     4
 74
     0
 42
0.0000000001
 43
0.0000000001
 40
11145.03932461673
 40
11145.03932461673
 40
11145.03932461673
 40
11145.03932461673
 40
11149.15825908918
 40
11149.15825908918
 40
11149.15825908918
 40
11149.15825908918
 10
3931.78568585518
 20
21.58829479977408
 30
-0.0000000000004832
 10
3931.863866779879
 20
21.89269653950873
 30
-0.0000000000004832
 10
3931.94264723474
 20
22.19690365226427
 30
-0.0000000000004832
 10
3932.02202614255
 20
22.50090855856365
 30
-0.0000000000004832
  0
SPLINE
  5
F4
330
1F
100
AcDbEntity
  8
图层 03
100
AcDbSpline
210
0.0
220
0.0
230
1.0
 70
     8
 71
     3
 72
     8
 73
     4
 74
     0
 42
0.0000000001
 43
0.0000000001
 40
11149.15825908918
 40
11149.15825908918
 40
11149.15825908918
 40
11149.15825908918
 40
11182.07634542344
 40
11182.07634542344
 40
11182.07634542344
 40
11182.07634542344
 10
3932.02202614255
 20
22.50090855856365
 30
-0.0000000000004832
 10
3932.765989025182
 20
24.89123622089789
 30
-0.0000000000004832
 10
3933.531749407671
 20
27.2730854326968
 30
-0.0000000000004832
 10
3934.318721855383
 20
29.64643791475646
 30
-0.0000000000004832
  0
SPLINE
  5
F5
330
1F
100
AcDbEntity
  8
图层 03
100
AcDbSpline
210
0.0
220
0.0
230
1.0
 70
     8
 71
     3
 72
     8
 73
     4
 74
     0
 42
0.0000000001
 43
0.0000000001
 40
11182.07634542344
 40
11182.07634542344
 40
11182.07634542344
 40
11182.07634542344
 40
11210.62947601388
 40
11210.62947601388
 40
11210.62947601388
 40
11210.62947601388
 10
3934.318721855383
 20
29.64643791475646
 30
-0.0000000000004832
 10
3935.122991815668
 20
31.65151506437633
 30
-0.0000000000004832
 10
3935.937059052651
 20
33.65201682133761
 30
-0.0000000000004832
 10
3936.760286704894
 20
35.64791928461329
 30
-0.0000000000004832
  0
SPLINE
  5
F6
330
1F
100
AcDbEntity
  8
图层 03
100
AcDbSpline
210
0.0
220
0.0
230
1.0
 70
     8
 71
     3
 72
     8
 73
     4
 74
     0
 42
0.0000000001
 43
0.0000000001
 40
11210.62947601388
 40
11210.62947601388
 40
11210.62947601388
 40
11210.62947601388
 40
11235.84670266644
 40
11235.84670266644
 40
11235.84670266644
 40
11235.84670266644
 10
3936.760286704894
 20
35.64791928461329
 30
-0.0000000000004832
 10
3937.625751099608
 20
37.33635098582897
 30
-0.0000000000004832
 10
3938.494005961208
 20
39.02314961863306
 30
-0.0000000000004832
 10
3939.364902863142
 20
40.70836822906142
 30
-0.0000000000004832
  0
SPLINE
  5
F7
330
1F
100
AcDbEntity
  8
图层 03
100
AcDbSpline
210
0.0
220
0.0
230
1.0
 70
     8
 71
     3
 72
     8
 73
     4
 74
     0
 42
0.0000000001
 43
0.0000000001
 40
11235.84670266644
 40
11235.84670266644
 40
11235.84670266644
 40
11235.84670266644
 40
11259.40315118559
 40
11259.40315118559
 40
11259.40315118559
 40
11259.40315118559
 10
3939.364902863142
 20
40.70836822906142
 30
-0.0000000000004832
 10
3940.323584202146
 20
42.18734219316536
 30
-0.0000000000004832
 10
3941.282296198371
 20
43.66629397684983
 30
-0.0000000000004832
 10
3942.241038682212
 20
45.14522369732174
 30
-0.0000000000004832
  0
SPLINE
  5
F8
330
1F
100
AcDbEntity
  8
图层 03
100
AcDbSpline
210
0.0
220
0.0
230
1.0
 70
     8
 71
     3
 72
     8
 73
     4
 74
     0
 42
0.0000000001
 43
0.0000000001
 40
11259.40315118559
 40
11259.40315118559
 40
11259.40315118559
 40
11259.40315118559
 40
11283.21740306547
 40
11283.21740306547
 40
11283.21740306547
 40
11283.21740306547
 10
3942.241038682212
 20
45.14522369732174
 30
-0.0000000000004832
 10
3943.348900240745
 20
46.53008038411508
 30
-0.0000000000004832
 10
3944.456788757461
 20
47.91491356022652
 30
-0.0000000000004832
 10
3945.564706658994
 20
49.29972110353549
 30
-0.0000000000004832
  0
SPLINE
  5
F9
330
1F
100
AcDbEntity
  8
图层 03
100
AcDbSpline
210
0.0
220
0.0
230
1.0
 70
     8
 71
     3
 72
     8
 73
     4
 74
     0
 42
0.0000000001
 43
0.0000000001
 40
11283.21740306547
 40
11283.21740306547
 40
11283.21740306547
 40
11283.21740306547
 40
11309.31006647718
 40
11309.31006647718
 40
11309.31006647718
 40
11309.31006647718
 10
3945.564706658994
 20
49.29972110353549
 30
-0.0000000000004832
 10
3946.887517508168
 20
50.71520011903999
 30
-0.0000000000004832
 10
3948.210979465506
 20
52.13002797885588
 30
-0.0000000000004832
 10
3949.535249119141
 20
53.54404362739888
 30
-0.0000000000004832
  0
SPLINE
  5
FA
330
1F
100
AcDbEntity
  8
图层 03
100
AcDbSpline
210
0.0
220
0.0
230
1.0
 70
     8
 71
     3
 72
    11
 73
     7
 74
     0
 42
0.0000000001
 43
0.0000000001
 40
11309.31006647718
 40
11309.31006647718
 40
11309.31006647718
 40
11309.31006647718
 40
11339.24226052414
 40
11339.24226052414
 40
11339.24226052414
 40
11374.18431043124
 40
11374.18431043124
 40
11374.18431043124
 40
11374.18431043124
 10
3949.535249119141
 20
53.54404362739888
 30
-0.0000000000004832
 10
3951.097139247121
 20
55.12214583681111
 30
-0.0000000000004832
 10
3952.660408676764
 20
56.69879919035873
 30
-0.0000000000004832
 10
3954.225603919004
 20
58.27340719556423
 30
-0.0000000000004832
 10
3956.03286839995
 20
60.13242109332759
 30
-0.0000000000004832
 10
3957.8430646767
 20
61.98841670714785
 30
-0.0000000000004832
 10
3959.657843077891
 20
63.83959382583976
 30
-0.0000000000004832
  0
SPLINE
  5
FB
330
1F
100
AcDbEntity
  8
图层 03
100
AcDbSpline
210
0.0
220
0.0
230
1.0
 70
     8
 71
     3
 72
     8
 73
     4
 74
     0
 42
0.0000000001
 43
0.0000000001
 40
11374.18431043124
 40
11374.18431043124
 40
11374.18431043124
 40
11374.18431043124
 40
11414.82938781419
 40
11414.82938781419
 40
11414.82938781419
 40
11414.82938781419
 10
3959.657843077891
 20
63.83959382583976
 30
-0.0000000000004832
 10
3961.697961882182
 20
66.06481363826128
 30
-0.0000000000004832
 10
3963.74288637963
 20
68.28536210092875
 30
-0.0000000000004832
 10
3965.796401512105
 20
70.49728937203554
 30
-0.0000000000004832
  0
SPLINE
  5
FC
330
1F
100
AcDbEntity
  8
图层 03
100
AcDbSpline
210
0.0
220
0.0
230
1.0
 70
     8
 71
     3
 72
     8
 73
     4
 74
     0
 42
0.0000000001
 43
0.0000000001
 40
11414.82938781419
 40
11414.82938781419
 40
11414.82938781419
 40
11414.82938781419
 40
11460.41622212442
 40
11460.41622212442
 40
11460.41622212442
 40
11460.41622212442
 10
3965.796401512105
 20
70.49728937203554
 30
-0.0000000000004832
 10
3967.999392946402
 20
73.07437046843609
 30
-0.0000000000004832
 10
3970.20685822518
 20
75.64736572650054
 30
-0.0000000000004832
 10
3972.423638460235
 20
78.21160342695805
 30
-0.0000000000004832
  0
SPLINE
  5
FD
330
1F
100
AcDbEntity
  8
图层 03
100
AcDbSpline
210
0.0
220
0.0
230
1.0
 70
     8
 71
     3
 72
     8
 73
     4
 74
     0
 42
0.0000000001
 43
0.0000000001
 40
11460.41622212442
 40
11460.41622212442
 40
11460.41622212442
 40
11460.41622212442
 40
11506.99690943545
 40
11506.99690943545
 40
11506.99690943545
 40
11506.99690943545
 10
3972.423638460235
 20
78.21160342695805
 30
-0.0000000000004832
 10
3974.603201615337
 20
80.90935604484753
 30
-0.0000000000004832
 10
3976.784661019879
 20
83.60545100000354
 30
-0.0000000000004832
 10
3978.970675618796
 20
86.29751025168423
 30
-0.0000000000004832
  0
SPLINE
  5
FE
330
1F
100
AcDbEntity
  8
图层 03
100
AcDbSpline
210
0.0
220
0.0
230
1.0
 70
     8
 71
     3
 72
     8
 73
     4
 74
     0
 42
0.0000000001
 43
0.0000000001
 40
11506.99690943545
 40
11506.99690943545
 40
11506.99690943545
 40
11506.99690943545
 40
11550.31182559297
 40
11550.31182559297
 40
11550.31182559297
 40
11550.31182559297
 10
3978.970675618796
 20
86.29751025168423
 30
-0.0000000000004832
 10
3980.915880999641
 20
88.87573091874117
 30
-0.0000000000004832
 10
3982.859714034238
 20
91.45509428798971
 30
-0.0000000000004832
 10
3984.799885452457
 20
94.03747226494784
 30
-0.0000000000004832
  0
SPLINE
  5
FF
330
1F
100
AcDbEntity
  8
图层 03
100
AcDbSpline
210
0.0
220
0.0
230
1.0
 70
     8
 71
     3
 72
     8
 73
     4
 74
     0
 42
0.0000000001
 43
0.0000000001
 40
11550.31182559297
 40
11550.31182559297
 40
11550.31182559297
 40
11550.31182559297
 40
11586.56225482443
 40
11586.56225482443
 40
11586.56225482443
 40
11586.56225482443
 10
3984.799885452457
 20
94.03747226494784
 30
-0.0000000000004832
 10
3986.303167318931
 20
96.29291041032116
 30
-0.0000000000004832
 10
3987.802538983611
 20
98.55130358487145
 30
-0.0000000000004832
 10
3989.291628800611
 20
100.8171808302916
 30
-0.0000000000004832
  0
SPLINE
  5
100
330
1F
100
AcDbEntity
  8
图层 03
100
AcDbSpline
210
0.0
220
0.0
230
1.0
 70
     8
 71
     3
 72
     8
 73
     4
 74
     0
 42
0.0000000001
 43
0.0000000001
 40
11586.56225482443
 40
11586.56225482443
 40
11586.56225482443
 40
11586.56225482443
 40
11612.73876192372
 40
11612.73876192372
 40
11612.73876192372
 40
11612.73876192372
 10
3989.291628800611
 20
100.8171808302916
 30
-0.0000000000004832
 10
3990.168898844083
 20
102.5820993364703
 30
-0.0000000000004832
 10
3991.042678657201
 20
104.3490525358684
 30
-0.0000000000004832
 10
3991.909244539613
 20
106.120048773129
 30
-0.0000000000004832
  0
SPLINE
  5
101
330
1F
100
AcDbEntity
  8
图层 03
100
AcDbSpline
210
0.0
220
0.0
230
1.0
 70
     8
 71
     3
 72
     8
 73
     4
 74
     0
 42
0.0000000001
 43
0.0000000001
 40
11612.73876192372
 40
11612.73876192372
 40
11612.73876192372
 40
11612.73876192372
 40
11629.2054495532
 40
11629.2054495532
 40
11629.2054495532
 40
11629.2054495532
 10
3991.909244539613
 20
106.120048773129
 30
-0.0000000000004832
 10
3992.101867522711
 20
107.3698846409545
 30
-0.0000000000004832
 10
3992.294113285029
 20
108.6198043226563
 30
-0.0000000000004832
 10
3992.485863298544
 20
109.8698330799904
 30
-0.0000000000004832
  0
SPLINE
  5
102
330
1F
100
AcDbEntity
  8
图层 03
100
AcDbSpline
210
0.0
220
0.0
230
1.0
 70
     8
 71
     3
 72
     8
 73
     4
 74
     0
 42
0.0000000001
 43
0.0000000001
 40
11629.2054495532
 40
11629.2054495532
 40
11629.2054495532
 40
11629.2054495532
 40
11640.68466710001
 40
11640.68466710001
 40
11640.68466710001
 40
11640.68466710001
 10
3992.485863298544
 20
109.8698330799904
 30
-0.0000000000004832
 10
3991.980868624823
 20
110.6211594333104
 30
-0.0000000000004832
 10
3991.476657340848
 20
111.3730249658573
 30
-0.0000000000004832
 10
3990.973032115393
 20
112.1252879855847
 30
-0.0000000000004832
  0
SPLINE
  5
103
330
1F
100
AcDbEntity
  8
图层 03
100
AcDbSpline
210
0.0
220
0.0
230
1.0
 70
     8
 71
     3
 72
     8
 73
     4
 74
     0
 42
0.0000000001
 43
0.0000000001
 40
11640.68466710001
 40
11640.68466710001
 40
11640.68466710001
 40
11640.68466710001
 40
11657.06019945968
 40
11657.06019945968
 40
11657.06019945968
 40
11657.06019945968
 10
3990.973032115393
 20
112.1252879855847
 30
-0.0000000000004832
 10
3989.760822643869
 20
112.4150235339423
 30
-0.0000000000004832
 10
3988.550862300143
 20
112.7187103545926
 30
-0.0000000000004832
 10
3987.342366572976
 20
113.0287611405868
 30
-0.0000000000004832
  0
SPLINE
  5
104
330
1F
100
AcDbEntity
  8
图层 03
100
AcDbSpline
210
0.0
220
0.0
230
1.0
 70
     8
 71
     3
 72
     8
 73
     4
 74
     0
 42
0.0000000001
 43
0.0000000001
 40
11657.06019945968
 40
11657.06019945968
 40
11657.06019945968
 40
11657.06019945968
 40
11682.44402626541
 40
11682.44402626541
 40
11682.44402626541
 40
11682.44402626541
 10
3987.342366572976
 20
113.0287611405868
 30
-0.0000000000004832
 10
3985.446359301865
 20
112.9246136994367
 30
-0.0000000000004832
 10
3983.548401755166
 20
112.8377864710694
 30
-0.0000000000004832
 10
3981.650061888613
 20
112.7574612189683
 30
-0.0000000000004832
  0
SPLINE
  5
105
330
1F
100
AcDbEntity
  8
图层 03
100
AcDbSpline
210
0.0
220
0.0
230
1.0
 70
     8
 71
     3
 72
     8
 73
     4
 74
     0
 42
0.0000000001
 43
0.0000000001
 40
11682.44402626541
 40
11682.44402626541
 40
11682.44402626541
 40
11682.44402626541
 40
11716.17273632051
 40
11716.17273632051
 40
11716.17273632051
 40
11716.17273632051
 10
3981.650061888613
 20
112.7574612189683
 30
-0.0000000000004832
 10
3979.17300535058
 20
112.3489990000954
 30
-0.0000000000004832
 10
3976.694983885183
 20
111.9451544520991
 30
-0.0000000000004832
 10
3974.216619762586
 20
111.5430422059599
 30
-0.0000000000004832
  0
SPLINE
  5
106
330
1F
100
AcDbEntity
  8
图层 03
100
AcDbSpline
210
0.0
220
0.0
230
1.0
 70
     8
 71
     3
 72
     8
 73
     4
 74
     0
 42
0.0000000001
 43
0.0000000001
 40
11716.17273632051
 40
11716.17273632051
 40
11716.17273632051
 40
11716.17273632051
 40
11756.43999651013
 40
11756.43999651013
 40
11756.43999651013
 40
11756.43999651013
 10
3974.216619762586
 20
111.5430422059599
 30
-0.0000000000004832
 10
3971.295558080931
 20
110.8999229982767
 30
-0.0000000000004832
 10
3968.375455064597
 20
110.2530761531322
 30
-0.0000000000004832
 10
3965.455761062582
 20
109.6046841376633
 30
-0.0000000000004832
  0
SPLINE
  5
107
330
1F
100
AcDbEntity
  8
图层 03
100
AcDbSpline
210
0.0
220
0.0
230
1.0
 70
     8
 71
     3
 72
     8
 73
     4
 74
     0
 42
0.0000000001
 43
0.0000000001
 40
11756.43999651013
 40
11756.43999651013
 40
11756.43999651013
 40
11756.43999651013
 40
11800.94450300827
 40
11800.94450300827
 40
11800.94450300827
 40
11800.94450300827
 10
3965.455761062582
 20
109.6046841376633
 30
-0.0000000000004832
 10
3962.248873580108
 20
108.8140977215639
 30
-0.0000000000004832
 10
3959.042653815542
 20
108.0211394257889
 30
-0.0000000000004832
 10
3955.836754177976
 20
107.2270609153441
 30
-0.0000000000004832
  0
SPLINE
  5
108
330
1F
100
AcDbEntity
  8
图层 03
100
AcDbSpline
210
0.0
220
0.0
230
1.0
 70
     8
 71
     3
 72
     8
 73
     4
 74
     0
 42
0.0000000001
 43
0.0000000001
 40
11800.94450300827
 40
11800.94450300827
 40
11800.94450300827
 40
11800.94450300827
 40
11846.94418772015
 40
11846.94418772015
 40
11846.94418772015
 40
11846.94418772015
 10
3955.836754177976
 20
107.2270609153441
 30
-0.0000000000004832
 10
3952.519741470029
 20
106.4184210799261
 30
-0.0000000000004832
 10
3949.200933458017
 20
105.6161612171659
 30
-0.0000000000004832
 10
3945.881196077686
 20
104.8173357821456
 30
-0.0000000000004832
  0
SPLINE
  5
109
330
1F
100
AcDbEntity
  8
图层 03
100
AcDbSpline
210
0.0
220
0.0
230
1.0
 70
     8
 71
     3
 72
     8
 73
     4
 74
     0
 42
0.0000000001
 43
0.0000000001
 40
11846.94418772015
 40
11846.94418772015
 40
11846.94418772015
 40
11846.94418772015
 40
11891.45951498685
 40
11891.45951498685
 40
11891.45951498685
 40
11891.45951498685
 10
3945.881196077686
 20
104.8173357821456
 30
-0.0000000000004832
 10
3942.640368646056
 20
104.1525905454546
 30
-0.0000000000004832
 10
3939.396732486008
 20
103.4991774630096
 30
-0.0000000000004832
 10
3936.151535852917
 20
102.8525868883937
 30
-0.0000000000004832
  0
SPLINE
  5
10A
330
1F
100
AcDbEntity
  8
图层 03
100
AcDbSpline
210
0.0
220
0.0
230
1.0
 70
     8
 71
     3
 72
     8
 73
     4
 74
     0
 42
0.0000000001
 43
0.0000000001
 40
11891.45951498685
 40
11891.45951498685
 40
11891.45951498685
 40
11891.45951498685
 40
11932.15251365462
 40
11932.15251365462
 40
11932.15251365462
 40
11932.15251365462
 10
3936.151535852917
 20
102.8525868883937
 30
-0.0000000000004832
 10
3933.141211800875
 20
102.4749068603894
 30
-0.0000000000004832
 10
3930.129149354322
 20
102.1071688926512
 30
-0.0000000000004832
 10
3927.116052729556
 20
101.7460103333176
 30
-0.0000000000004832
  0
SPLINE
  5
10B
330
1F
100
AcDbEntity
  8
图层 03
100
AcDbSpline
210
0.0
220
0.0
230
1.0
 70
     8
 71
     3
 72
     8
 73
     4
 74
     0
 42
0.0000000001
 43
0.0000000001
 40
11932.15251365462
 40
11932.15251365462
 40
11932.15251365462
 40
11932.15251365462
 40
11967.41914973894
 40
11967.41914973894
 40
11967.41914973894
 40
11967.41914973894
 10
3927.116052729556
 20
101.7460103333176
 30
-0.0000000000004832
 10
3924.468584583949
 20
101.7772750327815
 30
-0.0000000000004832
 10
3921.820897905343
 20
101.8132788737728
 30
-0.0000000000004832
 10
3919.173084899315
 20
101.8527367619806
 30
-0.0000000000004832
  0
SPLINE
  5
10C
330
1F
100
AcDbEntity
  8
图层 03
100
AcDbSpline
210
0.0
220
0.0
230
1.0
 70
     8
 71
     3
 72
     8
 73
     4
 74
     0
 42
0.0000000001
 43
0.0000000001
 40
11967.41914973894
 40
11967.41914973894
 40
11967.41914973894
 40
11967.41914973894
 40
11997.31188450328
 40
11997.31188450328
 40
11997.31188450328
 40
11997.31188450328
 10
3919.173084899315
 20
101.8527367619806
 30
-0.0000000000004832
 10
3916.95958947414
 20
102.37823453344
 30
-0.0000000000004832
 10
3914.74623406418
 20
102.9045613836199
 30
-0.0000000000004832
 10
3912.532993908793
 20
103.4315621141766
 30
-0.0000000000004832
  0
SPLINE
  5
10D
330
1F
100
AcDbEntity
  8
图层 03
100
AcDbSpline
210
0.0
220
0.0
230
1.0
 70
     8
 71
     3
 72
     8
 73
     4
 74
     0
 42
0.0000000001
 43
0.0000000001
 40
11997.31188450328
 40
11997.31188450328
 40
11997.31188450328
 40
11997.31188450328
 40
12025.46373274294
 40
12025.46373274294
 40
12025.46373274294
 40
12025.46373274294
 10
3912.532993908793
 20
103.4315621141766
 30
-0.0000000000004832
 10
3910.602061179291
 20
104.4370591066063
 30
-0.0000000000004832
 10
3908.671512662884
 20
105.4434206121527
 30
-0.0000000000004832
 10
3906.741314027298
 20
106.4505637539049
 30
-0.0000000000004832
  0
SPLINE
  5
10E
330
1F
100
AcDbEntity
  8
图层 03
100
AcDbSpline
210
0.0
220
0.0
230
1.0
 70
     8
 71
     3
 72
     8
 73
     4
 74
     0
 42
0.0000000001
 43
0.0000000001
 40
12025.46373274294
 40
12025.46373274294
 40
12025.46373274294
 40
12025.46373274294
 40
12055.88840915437
 40
12055.88840915437
 40
12055.88840915437
 40
12055.88840915437
 10
3906.741314027298
 20
106.4505637539049
 30
-0.0000000000004832
 10
3904.871216093565
 20
107.9178006129684
 30
-0.0000000000004832
 10
3903.004832610441
 20
109.390321009533
 30
-0.0000000000004832
 10
3901.142231950381
 20
110.8680235866126
 30
-0.0000000000004832
  0
SPLINE
  5
10F
330
1F
100
AcDbEntity
  8
图层 03
100
AcDbSpline
210
0.0
220
0.0
230
1.0
 70
     8
 71
     3
 72
    11
 73
     7
 74
     0
 42
0.0000000001
 43
0.0000000001
 40
12055.88840915437
 40
12055.88840915437
 40
12055.88840915437
 40
12055.88840915437
 40
12090.15562707694
 40
12090.15562707694
 40
12090.15562707694
 40
12096.15309301299
 40
12096.15309301299
 40
12096.15309301299
 40
12096.15309301299
 10
3901.142231950381
 20
110.8680235866126
 30
-0.0000000000004832
 10
3899.199135944139
 20
112.7265424688553
 30
-0.0000000000004832
 10
3897.286608681254
 20
114.6171757482879
 30
-0.0000000000004832
 10
3895.402867185839
 20
116.5401831214899
 30
-0.0000000000004832
 10
3895.068617807963
 20
116.8717986474629
 30
-0.0000000000004832
 10
3894.735317538669
 20
117.2044526102013
 30
-0.0000000000004832
 10
3894.40302445218
 20
117.5381647195532
 30
-0.0000000000004832
  0
SPLINE
  5
110
330
1F
100
AcDbEntity
  8
图层 03
100
AcDbSpline
210
0.0
220
0.0
230
1.0
 70
     8
 71
     3
 72
     8
 73
     4
 74
     0
 42
0.0000000001
 43
0.0000000001
 40
12096.15309301299
 40
12096.15309301299
 40
12096.15309301299
 40
12096.15309301299
 40
12113.64132310202
 40
12113.64132310202
 40
12113.64132310202
 40
12113.64132310202
 10
3894.40302445218
 20
117.5381647195532
 30
-0.0000000000004832
 10
3893.772133033041
 20
118.7648000570809
 30
-0.0000000000004832
 10
3893.139690084089
 20
119.9906590765802
 30
-0.0000000000004832
 10
3892.504647019547
 20
121.215181329582
 30
-0.0000000000004832
  0
SPLINE
  5
111
330
1F
100
AcDbEntity
  8
图层 03
100
AcDbSpline
210
0.0
220
0.0
230
1.0
 70
     8
 71
     3
 72
     8
 73
     4
 74
     0
 42
0.0000000001
 43
0.0000000001
 40
12113.64132310202
 40
12113.64132310202
 40
12113.64132310202
 40
12113.64132310202
 40
12137.28054932175
 40
12137.28054932175
 40
12137.28054932175
 40
12137.28054932175
 10
3892.504647019547
 20
121.215181329582
 30
-0.0000000000004832
 10
3891.578070988282
 20
122.8335319727947
 30
-0.0000000000004832
 10
3890.650934230561
 20
124.4515628667568
 30
-0.0000000000004832
 10
3889.722826158312
 20
126.0690359140203
 30
-0.0000000000004832
  0
SPLINE
  5
112
330
1F
100
AcDbEntity
  8
图层 03
100
AcDbSpline
210
0.0
220
0.0
230
1.0
 70
     8
 71
     3
 72
     8
 73
     4
 74
     0
 42
0.0000000001
 43
0.0000000001
 40
12137.28054932175
 40
12137.28054932175
 40
12137.28054932175
 40
12137.28054932175
 40
12139.41379969879
 40
12139.41379969879
 40
12139.41379969879
 40
12139.41379969879
 10
3889.722826158312
 20
126.0690359140203
 30
-0.0000000000004832
 10
3889.767638031263
 20
126.2252046929913
 30
-0.0000000000004832
 10
3889.81222192337
 20
126.3814559941973
 30
-0.0000000000004832
 10
3889.856576845941
 20
126.53778789809
 30
-0.0000000000004832
  0
SPLINE
  5
113
330
1F
100
AcDbEntity
  8
图层 03
100
AcDbSpline
210
0.0
220
0.0
230
1.0
 70
     8
 71
     3
 72
     8
 73
     4
 74
     0
 42
0.0000000001
 43
0.0000000001
 40
12139.41379969879
 40
12139.41379969879
 40
12139.41379969879
 40
12139.41379969879
 40
12169.65161234476
 40
12169.65161234476
 40
12169.65161234476
 40
12169.65161234476
 10
3889.856576845941
 20
126.53778789809
 30
-0.0000000000004832
 10
3889.32103725471
 20
128.8406159909116
 30
-0.0000000000004832
 10
3888.847762955648
 20
131.175231010219
 30
-0.0000000000004832
 10
3888.482773419364
 20
133.5042403727334
 30
-0.0000000000004832
  0
SPLINE
  5
114
330
1F
100
AcDbEntity
  8
图层 03
100
AcDbSpline
210
0.0
220
0.0
230
1.0
 70
     8
 71
     3
 72
     8
 73
     4
 74
     0
 42
0.0000000001
 43
0.0000000001
 40
12169.65161234476
 40
12169.65161234476
 40
12169.65161234476
 40
12169.65161234476
 40
12175.07662040994
 40
12175.07662040994
 40
12175.07662040994
 40
12175.07662040994
 10
3888.482773419364
 20
133.5042403727334
 30
-0.0000000000004832
 10
3888.436446485573
 20
133.9248698096674
 30
-0.0000000000004832
 10
3888.390897066464
 20
134.345547453112
 30
-0.0000000000004832
 10
3888.346034055231
 20
134.7662596252239
 30
-0.0000000000004832
  0
SPLINE
  5
115
330
1F
100
AcDbEntity
  8
图层 03
100
AcDbSpline
210
0.0
220
0.0
230
1.0
 70
     8
 71
     3
 72
     8
 73
     4
 74
     0
 42
0.0000000001
 43
0.0000000001
 40
12175.07662040994
 40
12175.07662040994
 40
12175.07662040994
 40
12175.07662040994
 40
12202.15870037386
 40
12202.15870037386
 40
12202.15870037386
 40
12202.15870037386
 10
3888.346034055231
 20
134.7662596252239
 30
-0.0000000000004832
 10
3887.363050502885
 20
136.6597677027195
 30
-0.0000000000004832
 10
3886.472195461883
 20
138.6064689397055
 30
-0.0000000000004832
 10
3885.66022169295
 20
140.5764141926031
 30
-0.0000000000004832
  0
SPLINE
  5
116
330
1F
100
AcDbEntity
  8
图层 03
100
AcDbSpline
210
0.0
220
0.0
230
1.0
 70
     8
 71
     3
 72
     8
 73
     4
 74
     0
 42
0.0000000001
 43
0.0000000001
 40
12202.15870037386
 40
12202.15870037386
 40
12202.15870037386
 40
12202.15870037386
 40
12205.32464008141
 40
12205.32464008141
 40
12205.32464008141
 40
12205.32464008141
 10
3885.66022169295
 20
140.5764141926031
 30
-0.0000000000004832
 10
3885.513376728505
 20
140.7781925578918
 30
-0.0000000000004832
 10
3885.367352432891
 20
140.9805965438034
 30
-0.0000000000004832
 10
3885.222153015719
 20
141.1835934819222
 30
-0.0000000000004832
  0
SPLINE
  5
117
330
1F
100
AcDbEntity
  8
图层 03
100
AcDbSpline
210
0.0
220
0.0
230
1.0
 70
     8
 71
     3
 72
     8
 73
     4
 74
     0
 42
0.0000000001
 43
0.0000000001
 40
12205.32464008141
 40
12205.32464008141
 40
12205.32464008141
 40
12205.32464008141
 40
12231.87618810236
 40
12231.87618810236
 40
12231.87618810236
 40
12231.87618810236
 10
3885.222153015719
 20
141.1835934819222
 30
-0.0000000000004832
 10
3883.688802018118
 20
142.5848900534407
 30
-0.0000000000004832
 10
3882.238759706934
 20
144.0971197665669
 30
-0.0000000000004832
 10
3880.872416726233
 20
145.6713294209201
 30
-0.0000000000004832
  0
SPLINE
  5
118
330
1F
100
AcDbEntity
  8
图层 03
100
AcDbSpline
210
0.0
220
0.0
230
1.0
 70
     8
 71
     3
 72
     8
 73
     4
 74
     0
 42
0.0000000001
 43
0.0000000001
 40
12231.87618810236
 40
12231.87618810236
 40
12231.87618810236
 40
12231.87618810236
 40
12253.74947730333
 40
12253.74947730333
 40
12253.74947730333
 40
12253.74947730333
 10
3880.872416726233
 20
145.6713294209201
 30
-0.0000000000004832
 10
3879.500282689332
 20
146.685317547324
 30
-0.0000000000004832
 10
3878.15085654484
 20
147.7343818522188
 30
-0.0000000000004832
 10
3876.824436486189
 20
148.8135160321591
 30
-0.0000000000004832
  0
SPLINE
  5
119
330
1F
100
AcDbEntity
  8
图层 03
100
AcDbSpline
210
0.0
220
0.0
230
1.0
 70
     8
 71
     3
 72
     8
 73
     4
 74
     0
 42
0.0000000001
 43
0.0000000001
 40
12253.74947730333
 40
12253.74947730333
 40
12253.74947730333
 40
12253.74947730333
 40
12269.14528115059
 40
12269.14528115059
 40
12269.14528115059
 40
12269.14528115059
 10
3876.824436486189
 20
148.8135160321591
 30
-0.0000000000004832
 10
3875.770156024531
 20
149.3665270241563
 30
-0.0000000000004832
 10
3874.724048634853
 20
149.9394255638533
 30
-0.0000000000004832
 10
3873.687127775176
 20
150.5292820172236
 30
-0.0000000000004832
  0
SPLINE
  5
11A
330
1F
100
AcDbEntity
  8
图层 03
100
AcDbSpline
210
0.0
220
0.0
230
1.0
 70
     8
 71
     3
 72
     8
 73
     4
 74
     0
 42
0.0000000001
 43
0.0000000001
 40
12269.14528115059
 40
12269.14528115059
 40
12269.14528115059
 40
12269.14528115059
 40
12317.34406307191
 40
12317.34406307191
 40
12317.34406307191
 40
12317.34406307191
 10
3873.687127775176
 20
150.5292820172236
 30
-0.0000000000004832
 10
3870.199306604178
 20
151.7289702255354
 30
-0.0000000000004832
 10
3866.715160701735
 20
152.9820790321708
 30
-0.0000000000004832
 10
3863.253026160646
 20
154.2714723377334
 30
-0.0000000000004832
  0
SPLINE
  5
11B
330
1F
100
AcDbEntity
  8
图层 03
100
AcDbSpline
210
0.0
220
0.0
230
1.0
 70
     8
 71
     3
 72
     8
 73
     4
 74
     0
 42
0.0000000001
 43
0.0000000001
 40
12317.34406307191
 40
12317.34406307191
 40
12317.34406307191
 40
12317.34406307191
 40
12319.2104130104
 40
12319.2104130104
 40
12319.2104130104
 40
12319.2104130104
 10
3863.253026160646
 20
154.2714723377334
 30
-0.0000000000004832
 10
3863.113371127738
 20
154.2930425670594
 30
-0.0000000000004832
 10
3862.97371465819
 20
154.3145969100178
 30
-0.0000000000004832
 10
3862.834056769223
 20
154.3361354423118
 30
-0.0000000000004832
  0
SPLINE
  5
11C
330
1F
100
AcDbEntity
  8
图层 03
100
AcDbSpline
210
0.0
220
0.0
230
1.0
 70
     8
 71
     3
 72
     8
 73
     4
 74
     0
 42
0.0000000001
 43
0.0000000001
 40
12319.2104130104
 40
12319.2104130104
 40
12319.2104130104
 40
12319.2104130104
 40
12380.85083810439
 40
12380.85083810439
 40
12380.85083810439
 40
12380.85083810439
 10
3862.834056769223
 20
154.3361354423118
 30
-0.0000000000004832
 10
3858.204944158168
 20
154.7798192920491
 30
-0.0000000000004832
 10
3853.57435195988
 20
155.1887646390311
 30
-0.0000000000004832
 10
3848.943709323159
 20
155.5748629886375
 30
-0.0000000000004832
  0
SPLINE
  5
11D
330
1F
100
AcDbEntity
  8
图层 03
100
AcDbSpline
210
0.0
220
0.0
230
1.0
 70
     8
 71
     3
 72
     8
 73
     4
 74
     0
 42
0.0000000001
 43
0.0000000001
 40
12380.85083810439
 40
12380.85083810439
 40
12380.85083810439
 40
12380.85083810439
 40
12413.72469399904
 40
12413.72469399904
 40
12413.72469399904
 40
12413.72469399904
 10
3848.943709323159
 20
155.5748629886375
 30
-0.0000000000004832
 10
3846.524775735982
 20
155.1999395385748
 30
-0.0000000000004832
 10
3844.102106503143
 20
154.8429020346503
 30
-0.0000000000004832
 10
3841.676704213976
 20
154.5021386929618
 30
-0.0000000000004832
  0
SPLINE
  5
11E
330
1F
100
AcDbEntity
  8
图层 03
100
AcDbSpline
210
0.0
220
0.0
230
1.0
 70
     8
 71
     3
 72
     8
 73
     4
 74
     0
 42
0.0000000001
 43
0.0000000001
 40
12413.72469399904
 40
12413.72469399904
 40
12413.72469399904
 40
12413.72469399904
 40
12446.66016457051
 40
12446.66016457051
 40
12446.66016457051
 40
12446.66016457051
 10
3841.676704213976
 20
154.5021386929618
 30
-0.0000000000004832
 10
3839.239249984086
 20
154.2350927877744
 30
-0.0000000000004832
 10
3836.776969857787
 20
154.0280146469265
 30
-0.0000000000004832
 10
3834.325575682254
 20
153.8636077168857
 30
-0.0000000000004832
  0
SPLINE
  5
11F
330
1F
100
AcDbEntity
  8
图层 03
100
AcDbSpline
210
0.0
220
0.0
230
1.0
 70
     8
 71
     3
 72
     8
 73
     4
 74
     0
 42
0.0000000001
 43
0.0000000001
 40
12446.66016457051
 40
12446.66016457051
 40
12446.66016457051
 40
12446.66016457051
 40
12463.66583770134
 40
12463.66583770134
 40
12463.66583770134
 40
12463.66583770134
 10
3834.325575682254
 20
153.8636077168857
 30
-0.0000000000004832
 10
3835.20527459478
 20
152.8945349187717
 30
-0.0000000000004832
 10
3836.402789505226
 20
152.1787478764043
 30
-0.0000000000004832
 10
3837.548425984146
 20
151.6433578294761
 30
-0.0000000000004832
  0
SPLINE
  5
120
330
1F
100
AcDbEntity
  8
图层 03
100
AcDbSpline
210
0.0
220
0.0
230
1.0
 70
     8
 71
     3
 72
     8
 73
     4
 74
     0
 42
0.0000000001
 43
0.0000000001
 40
12463.66583770134
 40
12463.66583770134
 40
12463.66583770134
 40
12463.66583770134
 40
12477.14784505397
 40
12477.14784505397
 40
12477.14784505397
 40
12477.14784505397
 10
3837.548425984146
 20
151.6433578294761
 30
-0.0000000000004832
 10
3837.838383936535
 20
150.6260449669217
 30
-0.0000000000004832
 10
3838.19605660351
 20
149.6247561397436
 30
-0.0000000000004832
 10
3838.635535022305
 20
148.6578670665007
 30
-0.0000000000004832
  0
SPLINE
  5
121
330
1F
100
AcDbEntity
  8
图层 03
100
AcDbSpline
210
0.0
220
0.0
230
1.0
 70
     8
 71
     3
 72
     8
 73
     4
 74
     0
 42
0.0000000001
 43
0.0000000001
 40
12477.14784505397
 40
12477.14784505397
 40
12477.14784505397
 40
12477.14784505397
 40
12517.91878538293
 40
12517.91878538293
 40
12517.91878538293
 40
12517.91878538293
 10
3838.635535022305
 20
148.6578670665007
 30
-0.0000000000004832
 10
3841.541509528043
 20
147.5736786817549
 30
-0.0000000000004832
 10
3844.534508627771
 20
146.5033033584068
 30
-0.0000000000004832
 10
3847.47119638534
 20
145.5280065433832
 30
-0.0000000000004832
  0
SPLINE
  5
122
330
1F
100
AcDbEntity
  8
图层 03
100
AcDbSpline
210
0.0
220
0.0
230
1.0
 70
     8
 71
     3
 72
     8
 73
     4
 74
     0
 42
0.0000000001
 43
0.0000000001
 40
12517.91878538293
 40
12517.91878538293
 40
12517.91878538293
 40
12517.91878538293
 40
12537.76305148086
 40
12537.76305148086
 40
12537.76305148086
 40
12537.76305148086
 10
3847.47119638534
 20
145.5280065433832
 30
-0.0000000000004832
 10
3848.650599669981
 20
144.533461525897
 30
-0.0000000000004832
 10
3849.867312867257
 20
143.5380355715442
 30
-0.0000000000004832
 10
3851.081561981745
 20
142.5905881425508
 30
-0.0000000000004832
  0
SPLINE
  5
123
330
1F
100
AcDbEntity
  8
图层 03
100
AcDbSpline
210
0.0
220
0.0
230
1.0
 70
     8
 71
     3
 72
     8
 73
     4
 74
     0
 42
0.0000000001
 43
0.0000000001
 40
12537.76305148086
 40
12537.76305148086
 40
12537.76305148086
 40
12537.76305148086
 40
12563.06947801104
 40
12563.06947801104
 40
12563.06947801104
 40
12563.06947801104
 10
3851.081561981745
 20
142.5905881425508
 30
-0.0000000000004832
 10
3852.821430911469
 20
141.736443432138
 30
-0.0000000000004832
 10
3854.62105516474
 20
140.9042063881676
 30
-0.0000000000004832
 10
3856.403395701069
 20
140.1612738680336
 30
-0.0000000000004832
  0
SPLINE
  5
124
330
1F
100
AcDbEntity
  8
图层 03
100
AcDbSpline
210
0.0
220
0.0
230
1.0
 70
     8
 71
     3
 72
     8
 73
     4
 74
     0
 42
0.0000000001
 43
0.0000000001
 40
12563.06947801104
 40
12563.06947801104
 40
12563.06947801104
 40
12563.06947801104
 40
12578.82059459372
 40
12578.82059459372
 40
12578.82059459372
 40
12578.82059459372
 10
3856.403395701069
 20
140.1612738680336
 30
-0.0000000000004832
 10
3857.217611272005
 20
139.2436867196836
 30
-0.0000000000004832
 10
3858.063795454575
 20
138.3056073247791
 30
-0.0000000000004832
 10
3858.897618018883
 20
137.4068304554385
 30
-0.0000000000004832
  0
SPLINE
  5
125
330
1F
100
AcDbEntity
  8
图层 03
100
AcDbSpline
210
0.0
220
0.0
230
1.0
 70
     8
 71
     3
 72
     8
 73
     4
 74
     0
 42
0.0000000001
 43
0.0000000001
 40
12578.82059459372
 40
12578.82059459372
 40
12578.82059459372
 40
12578.82059459372
 40
12596.36421102348
 40
12596.36421102348
 40
12596.36421102348
 40
12596.36421102348
 10
3858.897618018883
 20
137.4068304554385
 30
-0.0000000000004832
 10
3859.996314390465
 20
136.6119030867409
 30
-0.0000000000004832
 10
3861.14251989685
 20
135.826265640801
 30
-0.0000000000004832
 10
3862.288605734171
 20
135.1101229631646
 30
-0.0000000000004832
  0
SPLINE
  5
126
330
1F
100
AcDbEntity
  8
图层 03
100
AcDbSpline
210
0.0
220
0.0
230
1.0
 70
     8
 71
     3
 72
     8
 73
     4
 74
     0
 42
0.0000000001
 43
0.0000000001
 40
12596.36421102348
 40
12596.36421102348
 40
12596.36421102348
 40
12596.36421102348
 40
12606.65030281269
 40
12606.65030281269
 40
12606.65030281269
 40
12606.65030281269
 10
3862.288605734171
 20
135.1101229631646
 30
-0.0000000000004832
 10
3862.630678838833
 20
134.3784070402778
 30
-0.0000000000004832
 10
3862.964155601622
 20
133.6321567883265
 30
-0.0000000000004832
 10
3863.27561150511
 20
132.8873823256637
 30
-0.0000000000004832
  0
SPLINE
  5
127
330
1F
100
AcDbEntity
  8
图层 03
100
AcDbSpline
210
0.0
220
0.0
230
1.0
 70
     8
 71
     3
 72
     8
 73
     4
 74
     0
 42
0.0000000001
 43
0.0000000001
 40
12606.65030281269
 40
12606.65030281269
 40
12606.65030281269
 40
12606.65030281269
 40
12619.59356866573
 40
12619.59356866573
 40
12619.59356866573
 40
12619.59356866573
 10
3863.27561150511
 20
132.8873823256637
 30
-0.0000000000004832
 10
3863.96389325172
 20
132.1382788800323
 30
-0.0000000000004832
 10
3864.660160033645
 20
131.3954802170496
 30
-0.0000000000004832
 10
3865.363666256682
 20
130.6615730473426
 30
-0.0000000000004832
  0
SPLINE
  5
128
330
1F
100
AcDbEntity
  8
图层 03
100
AcDbSpline
210
0.0
220
0.0
230
1.0
 70
     8
 71
     3
 72
     8
 73
     4
 74
     0
 42
0.0000000001
 43
0.0000000001
 40
12619.59356866573
 40
12619.59356866573
 40
12619.59356866573
 40
12619.59356866573
 40
12634.18215446953
 40
12634.18215446953
 40
12634.18215446953
 40
12634.18215446953
 10
3865.363666256682
 20
130.6615730473426
 30
-0.0000000000004832
 10
3865.331164986326
 20
129.541037084529
 30
-0.0000000000004832
 10
3865.271864000428
 20
128.398627752657
 30
-0.0000000000004832
 10
3865.198287684014
 20
127.2826443484807
 30
-0.0000000000004832
  0
SPLINE
  5
129
330
1F
100
AcDbEntity
  8
图层 03
100
AcDbSpline
210
0.0
220
0.0
230
1.0
 70
     8
 71
     3
 72
     8
 73
     4
 74
     0
 42
0.0000000001
 43
0.0000000001
 40
12634.18215446953
 40
12634.18215446953
 40
12634.18215446953
 40
12634.18215446953
 40
12640.94311344991
 40
12640.94311344991
 40
12640.94311344991
 40
12640.94311344991
 10
3865.198287684014
 20
127.2826443484807
 30
-0.0000000000004832
 10
3865.462496562684
 20
126.82093977258
 30
-0.0000000000004832
 10
3865.7360492429
 20
126.3598221573837
 30
-0.0000000000004832
 10
3866.012822984031
 20
125.9055748865889
 30
-0.0000000000004832
  0
SPLINE
  5
12A
330
1F
100
AcDbEntity
  8
图层 03
100
AcDbSpline
210
0.0
220
0.0
230
1.0
 70
     8
 71
     3
 72
     8
 73
     4
 74
     0
 42
0.0000000001
 43
0.0000000001
 40
12640.94311344991
 40
12640.94311344991
 40
12640.94311344991
 40
12640.94311344991
 40
12678.55597486633
 40
12678.55597486633
 40
12678.55597486633
 40
12678.55597486633
 10
3866.012822984031
 20
125.9055748865889
 30
-0.0000000000004832
 10
3864.031882382424
 20
124.0305808530987
 30
-0.0000000000004832
 10
3861.792857594109
 20
122.1816731574052
 30
-0.0000000000004832
 10
3859.645911387331
 20
120.5114867561313
 30
-0.0000000000004832
  0
SPLINE
  5
12B
330
1F
100
AcDbEntity
  8
图层 03
100
AcDbSpline
210
0.0
220
0.0
230
1.0
 70
     8
 71
     3
 72
     8
 73
     4
 74
     0
 42
0.0000000001
 43
0.0000000001
 40
12678.55597486633
 40
12678.55597486633
 40
12678.55597486633
 40
12678.55597486633
 40
12678.80120391806
 40
12678.80120391806
 40
12678.80120391806
 40
12678.80120391806
 10
3859.645911387331
 20
120.5114867561313
 30
-0.0000000000004832
 10
3859.628179176802
 20
120.5073536187202
 30
-0.0000000000004832
 10
3859.610444937921
 20
120.503227977774
 30
-0.0000000000004832
 10
3859.592708696848
 20
120.4991098042331
 30
-0.0000000000004832
  0
SPLINE
  5
12C
330
1F
100
AcDbEntity
  8
图层 03
100
AcDbSpline
210
0.0
220
0.0
230
1.0
 70
     8
 71
     3
 72
     8
 73
     4
 74
     0
 42
0.0000000001
 43
0.0000000001
 40
12678.80120391806
 40
12678.80120391806
 40
12678.80120391806
 40
12678.80120391806
 40
12728.06521855805
 40
12728.06521855805
 40
12728.06521855805
 40
12728.06521855805
 10
3859.592708696848
 20
120.4991098042331
 30
-0.0000000000004832
 10
3855.977860650395
 20
119.8891762259025
 30
-0.0000000000004832
 10
3852.352015427734
 20
119.3278670662417
 30
-0.0000000000004832
 10
3848.718583933139
 20
118.8114333126225
 30
-0.0000000000004832
  0
SPLINE
  5
12D
330
1F
100
AcDbEntity
  8
图层 03
100
AcDbSpline
210
0.0
220
0.0
230
1.0
 70
     8
 71
     3
 72
     8
 73
     4
 74
     0
 42
0.0000000001
 43
0.0000000001
 40
12728.06521855805
 40
12728.06521855805
 40
12728.06521855805
 40
12728.06521855805
 40
12773.13475310055
 40
12773.13475310055
 40
12773.13475310055
 40
12773.13475310055
 10
3848.718583933139
 20
118.8114333126225
 30
-0.0000000000004832
 10
3845.331716582662
 20
118.9971369207829
 30
-0.0000000000004832
 10
3841.944826325961
 20
119.1869347056775
 30
-0.0000000000004832
 10
3838.557940692679
 20
119.3807075142895
 30
-0.0000000000004832
  0
SPLINE
  5
12E
330
1F
100
AcDbEntity
  8
图层 03
100
AcDbSpline
210
0.0
220
0.0
230
1.0
 70
     8
 71
     3
 72
     8
 73
     4
 74
     0
 42
0.0000000001
 43
0.0000000001
 40
12773.13475310055
 40
12773.13475310055
 40
12773.13475310055
 40
12773.13475310055
 40
12816.45022145767
 40
12816.45022145767
 40
12816.45022145767
 40
12816.45022145767
 10
3838.557940692679
 20
119.3807075142895
 30
-0.0000000000004832
 10
3835.333485761107
 20
120.0301822719882
 30
-0.0000000000004832
 10
3832.109253484048
 20
120.6813178242662
 30
-0.0000000000004832
 10
3828.885269229473
 20
121.3342614618233
 30
-0.0000000000004832
  0
SPLINE
  5
12F
330
1F
100
AcDbEntity
  8
图层 03
100
AcDbSpline
210
0.0
220
0.0
230
1.0
 70
     8
 71
     3
 72
     8
 73
     4
 74
     0
 42
0.0000000001
 43
0.0000000001
 40
12816.45022145767
 40
12816.45022145767
 40
12816.45022145767
 40
12816.45022145767
 40
12856.05265431201
 40
12856.05265431201
 40
12856.05265431201
 40
12856.05265431201
 10
3828.885269229473
 20
121.3342614618233
 30
-0.0000000000004832
 10
3826.031852464666
 20
122.3746377041761
 30
-0.0000000000004832
 10
3823.179561495047
 20
123.4189097838266
 30
-0.0000000000004832
 10
3820.328769172387
 20
124.4681999933358
 30
-0.0000000000004832
  0
SPLINE
  5
130
330
1F
100
AcDbEntity
  8
图层 03
100
AcDbSpline
210
0.0
220
0.0
230
1.0
 70
     8
 71
     3
 72
     8
 73
     4
 74
     0
 42
0.0000000001
 43
0.0000000001
 40
12856.05265431201
 40
12856.05265431201
 40
12856.05265431201
 40
12856.05265431201
 40
12891.49588742954
 40
12891.49588742954
 40
12891.49588742954
 40
12891.49588742954
 10
3820.328769172387
 20
124.4681999933358
 30
-0.0000000000004832
 10
3817.959424249925
 20
125.8629768693718
 30
-0.0000000000004832
 10
3815.595852810849
 20
127.2694102106951
 30
-0.0000000000004832
 10
3813.242097946358
 20
128.6939516758637
 30
-0.0000000000004832
  0
SPLINE
  5
131
330
1F
100
AcDbEntity
  8
图层 03
100
AcDbSpline
210
0.0
220
0.0
230
1.0
 70
     8
 71
     3
 72
     8
 73
     4
 74
     0
 42
0.0000000001
 43
0.0000000001
 40
12891.49588742954
 40
12891.49588742954
 40
12891.49588742954
 40
12891.49588742954
 40
12924.26960111822
 40
12924.26960111822
 40
12924.26960111822
 40
12924.26960111822
 10
3813.242097946358
 20
128.6939516758637
 30
-0.0000000000004832
 10
3811.235073839935
 20
130.2583036297133
 30
-0.0000000000004832
 10
3809.201037992628
 20
131.8645577135629
 30
-0.0000000000004832
 10
3807.219196396371
 20
133.4639939685259
 30
-0.0000000000004832
  0
SPLINE
  5
132
330
1F
100
AcDbEntity
  8
图层 03
100
AcDbSpline
210
0.0
220
0.0
230
1.0
 70
     8
 71
     3
 72
    11
 73
     7
 74
     0
 42
0.0000000001
 43
0.0000000001
 40
12924.26960111822
 40
12924.26960111822
 40
12924.26960111822
 40
12924.26960111822
 40
12927.42103967366
 40
12927.42103967366
 40
12927.42103967366
 40
12965.28896552264
 40
12965.28896552264
 40
12965.28896552264
 40
12965.28896552264
 10
3807.219196396371
 20
133.4639939685259
 30
-0.0000000000004832
 10
3807.034669605398
 20
133.6280135969647
 30
-0.0000000000004832
 10
3806.850912611735
 20
133.7929942194728
 30
-0.0000000000004832
 10
3806.668023870425
 20
133.9589864141411
 30
-0.0000000000004832
 10
3804.471271375553
 20
135.9124794546921
 30
-0.0000000000004832
 10
3802.26952879738
 20
137.983402426757
 30
-0.0000000000004832
 10
3800.23704907489
 20
140.1216557148758
 30
-0.0000000000004832
  0
SPLINE
  5
133
330
1F
100
AcDbEntity
  8
图层 03
100
AcDbSpline
210
0.0
220
0.0
230
1.0
 70
     8
 71
     3
 72
     8
 73
     4
 74
     0
 42
0.0000000001
 43
0.0000000001
 40
12965.28896552264
 40
12965.28896552264
 40
12965.28896552264
 40
12965.28896552264
 40
12967.26060522739
 40
12967.26060522739
 40
12967.26060522739
 40
12967.26060522739
 10
3800.23704907489
 20
140.1216557148758
 30
-0.0000000000004832
 10
3800.173954515015
 20
140.2636942168317
 30
-0.0000000000004832
 10
3800.112917438539
 20
140.406572142715
 30
-0.0000000000004832
 10
3800.054015015317
 20
140.5503184373856
 30
-0.0000000000004832
  0
SPLINE
  5
134
330
1F
100
AcDbEntity
  8
图层 03
100
AcDbSpline
210
0.0
220
0.0
230
1.0
 70
     8
 71
     3
 72
     8
 73
     4
 74
     0
 42
0.0000000001
 43
0.0000000001
 40
12967.26060522739
 40
12967.26060522739
 40
12967.26060522739
 40
12967.26060522739
 40
12988.48068214436
 40
12988.48068214436
 40
12988.48068214436
 40
12988.48068214436
 10
3800.054015015317
 20
140.5503184373856
 30
-0.0000000000004832
 10
3799.049877218086
 20
141.890051028061
 30
-0.0000000000004832
 10
3798.072334525407
 20
143.2426166910033
 30
-0.0000000000004832
 10
3797.118494877854
 20
144.619725366098
 30
-0.0000000000004832
  0
SPLINE
  5
135
330
1F
100
AcDbEntity
  8
图层 03
100
AcDbSpline
210
0.0
220
0.0
230
1.0
 70
     8
 71
     3
 72
     8
 73
     4
 74
     0
 42
0.0000000001
 43
0.0000000001
 40
12988.48068214436
 40
12988.48068214436
 40
12988.48068214436
 40
12988.48068214436
 40
13011.87954208573
 40
13011.87954208573
 40
13011.87954208573
 40
13011.87954208573
 10
3797.118494877854
 20
144.619725366098
 30
-0.0000000000004832
 10
3797.98708155021
 20
146.1364440646672
 30
-0.0000000000004832
 10
3798.751844106481
 20
147.7445203252075
 30
-0.0000000000004832
 10
3799.426202294694
 20
149.3703214516438
 30
-0.0000000000004832
  0
SPLINE
  5
136
330
1F
100
AcDbEntity
  8
图层 03
100
AcDbSpline
210
0.0
220
0.0
230
1.0
 70
     8
 71
     3
 72
     8
 73
     4
 74
     0
 42
0.0000000001
 43
0.0000000001
 40
13011.87954208573
 40
13011.87954208573
 40
13011.87954208573
 40
13011.87954208573
 40
13045.67778645234
 40
13045.67778645234
 40
13045.67778645234
 40
13045.67778645234
 10
3799.426202294694
 20
149.3703214516438
 30
-0.0000000000004832
 10
3801.921539634837
 20
149.7118471420522
 30
-0.0000000000004832
 10
3804.419313871336
 20
150.0405286095262
 30
-0.0000000000004832
 10
3806.919139500918
 20
150.3564467965501
 30
-0.0000000000004832
  0
SPLINE
  5
137
330
1F
100
AcDbEntity
  8
图层 03
100
AcDbSpline
210
0.0
220
0.0
230
1.0
 70
     8
 71
     3
 72
    15
 73
    11
 74
     0
 42
0.0000000001
 43
0.0000000001
 40
13045.67778645234
 40
13045.67778645234
 40
13045.67778645234
 40
13045.67778645234
 40
13048.52797428738
 40
13051.37816212242
 40
13054.22834995746
 40
13057.0785377925
 40
13060.151259942
 40
13063.2239820915
 40
13066.296704241
 40
13069.3694263905
 40
13069.3694263905
 40
13069.3694263905
 40
13069.3694263905
 10
3806.919139500918
 20
150.3564467965501
 30
-0.0000000000004832
 10
3806.799536022611
 20
150.5421288295993
 30
-0.0000000000004832
 10
3806.489331436078
 20
150.8769538630925
 30
-0.0000000000004832
 10
3805.894766840473
 20
151.2787098665898
 30
-0.0000000000004832
 10
3805.243586761286
 20
151.592804850004
 30
-0.0000000000004832
 10
3804.62832438534
 20
151.8261872883662
 30
-0.0000000000004832
 10
3804.032480208784
 20
152.0182572835197
 30
-0.0000000000004832
 10
3803.378450816637
 20
152.1991024189056
 30
-0.0000000000004832
 10
3802.725718472971
 20
152.3565484800266
 30
-0.0000000000004832
 10
3802.299172248243
 20
152.4483007888065
 30
-0.0000000000004832
 10
3802.091712624182
 20
152.4908977846183
 30
-0.0000000000004832
  0
SPLINE
  5
138
330
1F
100
AcDbEntity
  8
图层 03
100
AcDbSpline
210
0.0
220
0.0
230
1.0
 70
     8
 71
     3
 72
     8
 73
     4
 74
     0
 42
0.0000000001
 43
0.0000000001
 40
13069.3694263905
 40
13069.3694263905
 40
13069.3694263905
 40
13069.3694263905
 40
13130.01818431124
 40
13130.01818431124
 40
13130.01818431124
 40
13130.01818431124
 10
3802.091712624182
 20
152.4908977846183
 30
-0.0000000000004832
 10
3797.635191057324
 20
152.7417978267521
 30
-0.0000000000004832
 10
3792.880499050401
 20
153.2973352289554
 30
-0.0000000000004832
 10
3788.43957011865
 20
153.9135416694925
 30
-0.0000000000004832
  0
SPLINE
  5
139
330
1F
100
AcDbEntity
  8
图层 03
100
AcDbSpline
210
0.0
220
0.0
230
1.0
 70
     8
 71
     3
 72
     8
 73
     4
 74
     0
 42
0.0000000001
 43
0.0000000001
 40
13130.01818431124
 40
13130.01818431124
 40
13130.01818431124
 40
13130.01818431124
 40
13167.26471910876
 40
13167.26471910876
 40
13167.26471910876
 40
13167.26471910876
 10
3788.43957011865
 20
153.9135416694925
 30
-0.0000000000004832
 10
3785.691238029928
 20
153.5283192485512
 30
-0.0000000000004832
 10
3782.942374506059
 20
153.1459441202932
 30
-0.0000000000004832
 10
3780.192962176599
 20
152.7666065280407
 30
-0.0000000000004832
  0
SPLINE
  5
13A
330
1F
100
AcDbEntity
  8
图层 03
100
AcDbSpline
210
0.0
220
0.0
230
1.0
 70
     8
 71
     3
 72
     8
 73
     4
 74
     0
 42
0.0000000001
 43
0.0000000001
 40
13167.26471910876
 40
13167.26471910876
 40
13167.26471910876
 40
13167.26471910876
 40
13188.0092660339
 40
13188.0092660339
 40
13188.0092660339
 40
13188.0092660339
 10
3780.192962176599
 20
152.7666065280407
 30
-0.0000000000004832
 10
3778.643870381786
 20
152.6776897756455
 30
-0.0000000000004832
 10
3777.095531831049
 20
152.5812647266542
 30
-0.0000000000004832
 10
3775.548262227068
 20
152.4765121188921
 30
-0.0000000000004832
  0
SPLINE
  5
13B
330
1F
100
AcDbEntity
  8
图层 03
100
AcDbSpline
210
0.0
220
0.0
230
1.0
 70
     8
 71
     3
 72
     8
 73
     4
 74
     0
 42
0.0000000001
 43
0.0000000001
 40
13188.0092660339
 40
13188.0092660339
 40
13188.0092660339
 40
13188.0092660339
 40
13238.45545063793
 40
13238.45545063793
 40
13238.45545063793
 40
13238.45545063793
 10
3775.548262227068
 20
152.4765121188921
 30
-0.0000000000004832
 10
3771.897827220489
 20
151.6368819112494
 30
-0.0000000000004832
 10
3768.254533486651
 20
150.7689468345604
 30
-0.0000000000004832
 10
3764.621379200296
 20
149.8672378554411
 30
-0.0000000000004832
  0
SPLINE
  5
13C
330
1F
100
AcDbEntity
  8
图层 03
100
AcDbSpline
210
0.0
220
0.0
230
1.0
 70
     8
 71
     3
 72
     8
 73
     4
 74
     0
 42
0.0000000001
 43
0.0000000001
 40
13238.45545063793
 40
13238.45545063793
 40
13238.45545063793
 40
13238.45545063793
 40
13278.69630131742
 40
13278.69630131742
 40
13278.69630131742
 40
13278.69630131742
 10
3764.621379200296
 20
149.8672378554411
 30
-0.0000000000004832
 10
3761.880691630947
 20
148.6561824453476
 30
-0.0000000000004832
 10
3759.186570101618
 20
147.5026352666201
 30
-0.0000000000004832
 10
3756.418640255296
 20
146.3526904666987
 30
-0.0000000000004832
  0
SPLINE
  5
13D
330
1F
100
AcDbEntity
  8
图层 03
100
AcDbSpline
210
0.0
220
0.0
230
1.0
 70
     8
 71
     3
 72
     8
 73
     4
 74
     0
 42
0.0000000001
 43
0.0000000001
 40
13278.69630131742
 40
13278.69630131742
 40
13278.69630131742
 40
13278.69630131742
 40
13306.60475600793
 40
13306.60475600793
 40
13306.60475600793
 40
13306.60475600793
 10
3756.418640255296
 20
146.3526904666987
 30
-0.0000000000004832
 10
3754.747180949568
 20
145.1514559870114
 30
-0.0000000000004832
 10
3753.089522687037
 20
143.9092610271716
 30
-0.0000000000004832
 10
3751.478889748813
 20
142.6248534174691
 30
-0.0000000000004832
  0
SPLINE
  5
13E
330
1F
100
AcDbEntity
  8
图层 03
100
AcDbSpline
210
0.0
220
0.0
230
1.0
 70
     8
 71
     3
 72
     8
 73
     4
 74
     0
 42
0.0000000001
 43
0.0000000001
 40
13306.60475600793
 40
13306.60475600793
 40
13306.60475600793
 40
13306.60475600793
 40
13328.47904233291
 40
13328.47904233291
 40
13328.47904233291
 40
13328.47904233291
 10
3751.478889748813
 20
142.6248534174691
 30
-0.0000000000004832
 10
3750.376971229347
 20
141.4274897417323
 30
-0.0000000000004832
 10
3749.32544454509
 20
140.1930920323171
 30
-0.0000000000004832
 10
3748.320770087036
 20
138.9062730285326
 30
-0.0000000000004832
  0
SPLINE
  5
13F
330
1F
100
AcDbEntity
  8
图层 03
100
AcDbSpline
210
0.0
220
0.0
230
1.0
 70
     8
 71
     3
 72
     8
 73
     4
 74
     0
 42
0.0000000001
 43
0.0000000001
 40
13328.47904233291
 40
13328.47904233291
 40
13328.47904233291
 40
13328.47904233291
 40
13347.05984561441
 40
13347.05984561441
 40
13347.05984561441
 40
13347.05984561441
 10
3748.320770087036
 20
138.9062730285326
 30
-0.0000000000004832
 10
3747.637525825081
 20
137.685904677816
 30
-0.0000000000004832
 10
3747.026451198609
 20
136.4346860953667
 30
-0.0000000000004832
 10
3746.481172023841
 20
135.1365261201701
 30
-0.0000000000004832
  0
SPLINE
  5
140
330
1F
100
AcDbEntity
  8
图层 03
100
AcDbSpline
210
0.0
220
0.0
230
1.0
 70
     8
 71
     3
 72
     8
 73
     4
 74
     0
 42
0.0000000001
 43
0.0000000001
 40
13347.05984561441
 40
13347.05984561441
 40
13347.05984561441
 40
13347.05984561441
 40
13351.32474259651
 40
13351.32474259651
 40
13351.32474259651
 40
13351.32474259651
 10
3746.481172023841
 20
135.1365261201701
 30
-0.0000000000004832
 10
3746.414811920633
 20
134.8168487264928
 30
-0.0000000000004832
 10
3746.355071976362
 20
134.4956278181278
 30
-0.0000000000004832
 10
3746.30177845877
 20
134.1726203409487
 30
-0.0000000000004832
  0
SPLINE
  5
141
330
1F
100
AcDbEntity
  8
图层 03
100
AcDbSpline
210
0.0
220
0.0
230
1.0
 70
     8
 71
     3
 72
     8
 73
     4
 74
     0
 42
0.0000000001
 43
0.0000000001
 40
13351.32474259651
 40
13351.32474259651
 40
13351.32474259651
 40
13351.32474259651
 40
13372.89563635264
 40
13372.89563635264
 40
13372.89563635264
 40
13372.89563635264
 10
3746.30177845877
 20
134.1726203409487
 30
-0.0000000000004832
 10
3745.72795461695
 20
132.6357736142221
 30
-0.0000000000004832
 10
3745.306607563955
 20
131.0568070455226
 30
-0.0000000000004832
 10
3744.991570949539
 20
129.4298367320674
 30
-0.0000000000004832
  0
SPLINE
  5
142
330
1F
100
AcDbEntity
  8
图层 03
100
AcDbSpline
210
0.0
220
0.0
230
1.0
 70
     8
 71
     3
 72
     8
 73
     4
 74
     0
 42
0.0000000001
 43
0.0000000001
 40
13372.89563635264
 40
13372.89563635264
 40
13372.89563635264
 40
13372.89563635264
 40
13386.94518093538
 40
13386.94518093538
 40
13386.94518093538
 40
13386.94518093538
 10
3744.991570949539
 20
129.4298367320674
 30
-0.0000000000004832
 10
3744.917779631765
 20
128.3488455095421
 30
-0.0000000000004832
 10
3744.905723721879
 20
127.2573453834621
 30
-0.0000000000004832
 10
3744.938155613434
 20
126.1682493607263
 30
-0.0000000000004832
  0
SPLINE
  5
143
330
1F
100
AcDbEntity
  8
图层 03
100
AcDbSpline
210
0.0
220
0.0
230
1.0
 70
     8
 71
     3
 72
     8
 73
     4
 74
     0
 42
0.0000000001
 43
0.0000000001
 40
13386.94518093538
 40
13386.94518093538
 40
13386.94518093538
 40
13386.94518093538
 40
13423.08251219967
 40
13423.08251219967
 40
13423.08251219967
 40
13423.08251219967
 10
3744.938155613434
 20
126.1682493607263
 30
-0.0000000000004832
 10
3744.203110717895
 20
123.5686075484149
 30
-0.0000000000004832
 10
3743.534741188148
 20
120.7837636629131
 30
-0.0000000000004832
 10
3742.945059267602
 20
118.1377101907758
 30
-0.0000000000004832
  0
SPLINE
  5
144
330
1F
100
AcDbEntity
  8
图层 03
100
AcDbSpline
210
0.0
220
0.0
230
1.0
 70
     8
 71
     3
 72
     8
 73
     4
 74
     0
 42
0.0000000001
 43
0.0000000001
 40
13423.08251219967
 40
13423.08251219967
 40
13423.08251219967
 40
13423.08251219967
 40
13468.45123553241
 40
13468.45123553241
 40
13468.45123553241
 40
13468.45123553241
 10
3742.945059267602
 20
118.1377101907758
 30
-0.0000000000004832
 10
3741.391086056778
 20
115.0982085176576
 30
-0.0000000000004832
 10
3739.84549865573
 20
112.0537559350387
 30
-0.0000000000004832
 10
3738.304029874248
 20
109.0069586003362
 30
-0.0000000000004832
  0
SPLINE
  5
145
330
1F
100
AcDbEntity
  8
图层 03
100
AcDbSpline
210
0.0
220
0.0
230
1.0
 70
     8
 71
     3
 72
     8
 73
     4
 74
     0
 42
0.0000000001
 43
0.0000000001
 40
13468.45123553241
 40
13468.45123553241
 40
13468.45123553241
 40
13468.45123553241
 40
13527.15999526894
 40
13527.15999526894
 40
13527.15999526894
 40
13527.15999526894
 10
3738.304029874248
 20
109.0069586003362
 30
-0.0000000000004832
 10
3735.691548442184
 20
105.492683030745
 30
-0.0000000000004832
 10
3733.07915541637
 20
101.9783352245096
 30
-0.0000000000004832
 10
3730.466823334349
 20
98.463937634883
 30
-0.0000000000004832
  0
SPLINE
  5
146
330
1F
100
AcDbEntity
  8
图层 03
100
AcDbSpline
210
0.0
220
0.0
230
1.0
 70
     8
 71
     3
 72
     8
 73
     4
 74
     0
 42
0.0000000001
 43
0.0000000001
 40
13527.15999526894
 40
13527.15999526894
 40
13527.15999526894
 40
13527.15999526894
 40
13599.99720249995
 40
13599.99720249995
 40
13599.99720249995
 40
13599.99720249995
 10
3730.466823334349
 20
98.463937634883
 30
-0.0000000000004832
 10
3726.817836521723
 20
94.46939864000535
 30
-0.0000000000004832
 10
3723.166763147404
 20
90.47690483791598
 30
-0.0000000000004832
 10
3719.513650517765
 20
86.48642142591552
 30
-0.0000000000004832
  0
SPLINE
  5
147
330
1F
100
AcDbEntity
  8
图层 03
100
AcDbSpline
210
0.0
220
0.0
230
1.0
 70
     8
 71
     3
 72
    17
 73
    13
 74
     0
 42
0.0000000001
 43
0.0000000001
 40
13599.99720249995
 40
13599.99720249995
 40
13599.99720249995
 40
13599.99720249995
 40
13680.86808511304
 40
13680.86808511304
 40
13680.86808511304
 40
13761.87726191331
 40
13761.87726191331
 40
13761.87726191331
 40
13828.28637893881
 40
13828.28637893881
 40
13828.28637893881
 40
13835.22051353106
 40
13835.22051353106
 40
13835.22051353106
 40
13835.22051353106
 10
3719.513650517765
 20
86.48642142591552
 30
-0.0000000000004832
 10
3715.296248275714
 20
82.22005342543252
 30
-0.0000000000004832
 10
3711.072878263274
 20
77.95993742186442
 30
-0.0000000000004832
 10
3706.842021205873
 20
73.70779768624232
 30
-0.0000000000004832
 10
3702.589433628184
 20
69.46379230533432
 30
-0.0000000000004832
 10
3698.327986418137
 20
65.22913806447605
 30
-0.0000000000004832
 10
3694.053249806452
 20
61.00890038308478
 30
-0.0000000000004832
 10
3690.60694173595
 20
57.48774806946039
 30
-0.0000000000004832
 10
3687.152389091694
 20
53.97509772128262
 30
-0.0000000000004832
 10
3683.684584809383
 20
50.47655842748213
 30
-0.0000000000004832
 10
3683.322709063761
 20
50.11102132803433
 30
-0.0000000000004832
 10
3682.960677330787
 20
49.74564852657329
 30
-0.0000000000004832
 10
3682.598481993254
 20
49.38044887219814
 30
-0.0000000000004832
  0
SPLINE
  5
148
330
1F
100
AcDbEntity
  8
图层 03
100
AcDbSpline
210
0.0
220
0.0
230
1.0
 70
     8
 71
     3
 72
     8
 73
     4
 74
     0
 42
0.0000000001
 43
0.0000000001
 40
13835.22051353106
 40
13835.22051353106
 40
13835.22051353106
 40
13835.22051353106
 40
13894.4451321592
 40
13894.4451321592
 40
13894.4451321592
 40
13894.4451321592
 10
3682.598481993254
 20
49.38044887219814
 30
-0.0000000000004832
 10
3679.619577406591
 20
46.14416840919887
 30
-0.0000000000004832
 10
3676.634789765612
 20
42.91363656780754
 30
-0.0000000000004832
 10
3673.639191482675
 20
39.69396135967827
 30
-0.0000000000004832
  0
SPLINE
  5
149
330
1F
100
AcDbEntity
  8
图层 03
100
AcDbSpline
210
0.0
220
0.0
230
1.0
 70
     8
 71
     3
 72
     8
 73
     4
 74
     0
 42
0.0000000001
 43
0.0000000001
 40
13894.4451321592
 40
13894.4451321592
 40
13894.4451321592
 40
13894.4451321592
 40
13940.10868121565
 40
13940.10868121565
 40
13940.10868121565
 40
13940.10868121565
 10
3673.639191482675
 20
39.6939613596785
 30
-0.0000000000004832
 10
3671.450721338671
 20
37.0957768566758
 30
-0.0000000000004832
 10
3669.260331788958
 20
34.49933609615914
 30
-0.0000000000004832
 10
3667.066145213592
 20
31.90638599190925
 30
-0.0000000000004832
  0
SPLINE
  5
14A
330
1F
100
AcDbEntity
  8
图层 03
100
AcDbSpline
210
0.0
220
0.0
230
1.0
 70
     8
 71
     3
 72
     8
 73
     4
 74
     0
 42
0.0000000001
 43
0.0000000001
 40
13940.10868121565
 40
13940.10868121565
 40
13940.10868121565
 40
13940.10868121565
 40
13974.36589619485
 40
13974.36589619485
 40
13974.36589619485
 40
13974.36589619485
 10
3667.066145213592
 20
31.90638599190925
 30
-0.0000000000004832
 10
3665.539701281937
 20
29.8574290926914
 30
-0.0000000000004832
 10
3664.013870626215
 20
27.80796915840074
 30
-0.0000000000004832
 10
3662.489195846899
 20
25.75756561057608
 30
-0.0000000000004832
  0
SPLINE
  5
14B
330
1F
100
AcDbEntity
  8
图层 03
100
AcDbSpline
210
0.0
220
0.0
230
1.0
 70
     8
 71
     3
 72
     8
 73
     4
 74
     0
 42
0.0000000001
 43
0.0000000001
 40
13974.36589619485
 40
13974.36589619485
 40
13974.36589619485
 40
13974.36589619485
 40
13999.52859743711
 40
13999.52859743711
 40
13999.52859743711
 40
13999.52859743711
 10
3662.489195846899
 20
25.75756561057608
 30
-0.0000000000004832
 10
3661.498248805858
 20
24.15429453363538
 30
-0.0000000000004832
 10
3660.510393422902
 20
22.54885474543039
 30
-0.0000000000004832
 10
3659.527549392073
 20
20.94000110952118
 30
-0.0000000000004832
  0
SPLINE
  5
14C
330
1F
100
AcDbEntity
  8
图层 03
100
AcDbSpline
210
0.0
220
0.0
230
1.0
 70
     8
 71
     3
 72
     8
 73
     4
 74
     0
 42
0.0000000001
 43
0.0000000001
 40
13999.52859743711
 40
13999.52859743711
 40
13999.52859743711
 40
13999.52859743711
 40
14018.20886885053
 40
14018.20886885053
 40
14018.20886885053
 40
14018.20886885053
 10
3659.527549392073
 20
20.94000110952118
 30
-0.0000000000004832
 10
3658.960428299129
 20
19.64849017591189
 30
-0.0000000000004832
 10
3658.39768089412
 20
18.35469071197269
 30
-0.0000000000004832
 10
3657.840417053679
 20
17.05817093876192
 30
-0.0000000000004832
  0
SPLINE
  5
14D
330
1F
100
AcDbEntity
  8
图层 03
100
AcDbSpline
210
0.0
220
0.0
230
1.0
 70
     8
 71
     3
 72
     8
 73
     4
 74
     0
 42
0.0000000001
 43
0.0000000001
 40
14018.20886885053
 40
14018.20886885053
 40
14018.20886885053
 40
14018.20886885053
 40
14033.76953283203
 40
14033.76953283203
 40
14033.76953283203
 40
14033.76953283203
 10
3657.840417053679
 20
17.05817093876192
 30
-0.0000000000004832
 10
3657.663918559267
 20
15.87589363299344
 30
-0.0000000000004832
 10
3657.488600006599
 20
14.69335910026348
 30
-0.0000000000004832
 10
3657.314349350868
 20
13.51059850874162
 30
-0.0000000000004832
  0
SPLINE
  5
14E
330
1F
100
AcDbEntity
  8
图层 03
100
AcDbSpline
210
0.0
220
0.0
230
1.0
 70
     8
 71
     3
 72
     8
 73
     4
 74
     0
 42
0.0000000001
 43
0.0000000001
 40
14033.76953283203
 40
14033.76953283203
 40
14033.76953283203
 40
14033.76953283203
 40
14050.45179173264
 40
14050.45179173264
 40
14050.45179173264
 40
14050.45179173264
 10
3657.314349350868
 20
13.51059850874162
 30
-0.0000000000004832
 10
3657.506941076675
 20
12.22116282709726
 30
-0.0000000000004832
 10
3657.703685282386
 20
10.93213053073055
 30
-0.0000000000004832
 10
3657.903557162192
 20
9.643465478614644
 30
-0.0000000000004832
  0
SPLINE
  5
14F
330
1F
100
AcDbEntity
  8
图层 03
100
AcDbSpline
210
0.0
220
0.0
230
1.0
 70
     8
 71
     3
 72
     8
 73
     4
 74
     0
 42
0.0000000001
 43
0.0000000001
 40
14050.45179173264
 40
14050.45179173264
 40
14050.45179173264
 40
14050.45179173264
 40
14072.10434297694
 40
14072.10434297694
 40
14072.10434297694
 40
14072.10434297694
 10
3657.903557162192
 20
9.643465478614644
 30
-0.0000000000004832
 10
3658.445385218601
 20
8.029831205664891
 30
-0.0000000000004832
 10
3659.023161817673
 20
6.423745973098562
 30
-0.0000000000004832
 10
3659.628107324999
 20
4.830991747905387
 30
-0.0000000000004832
  0
SPLINE
  5
150
330
1F
100
AcDbEntity
  8
图层 03
100
AcDbSpline
210
0.0
220
0.0
230
1.0
 70
     8
 71
     3
 72
     8
 73
     4
 74
     0
 42
0.0000000001
 43
0.0000000001
 40
14072.10434297694
 40
14072.10434297694
 40
14072.10434297694
 40
14072.10434297694
 40
14101.15645490738
 40
14101.15645490738
 40
14101.15645490738
 40
14101.15645490738
 10
3659.628107324999
 20
4.830991747905387
 30
-0.0000000000004832
 10
3660.506551823174
 20
2.718713095157
 30
-0.0000000000004832
 10
3661.439203676092
 20
0.6239790264248768
 30
-0.0000000000004832
 10
3662.430984568347
 20
-1.439586499011853
 30
-0.0000000000004832
  0
SPLINE
  5
151
330
1F
100
AcDbEntity
  8
图层 03
100
AcDbSpline
210
0.0
220
0.0
230
1.0
 70
     8
 71
     3
 72
     8
 73
     4
 74
     0
 42
0.0000000001
 43
0.0000000001
 40
14101.15645490738
 40
14101.15645490738
 40
14101.15645490738
 40
14101.15645490738
 40
14105.22119078594
 40
14105.22119078594
 40
14105.22119078594
 40
14105.22119078594
 10
3662.430984568347
 20
-1.439586499011853
 30
-0.0000000000004832
 10
3662.544599454319
 20
-1.73882109313945
 30
-0.0000000000004832
 10
3662.659239536767
 20
-2.037699670482766
 30
-0.0000000000004832
 10
3662.774934052657
 20
-2.336184357009415
 30
-0.0000000000004832
  0
SPLINE
  5
152
330
1F
100
AcDbEntity
  8
图层 03
100
AcDbSpline
210
0.0
220
0.0
230
1.0
 70
     8
 71
     3
 72
     8
 73
     4
 74
     0
 42
0.0000000001
 43
0.0000000001
 40
14105.22119078594
 40
14105.22119078594
 40
14105.22119078594
 40
14105.22119078594
 40
14134.89988265982
 40
14134.89988265982
 40
14134.89988265982
 40
14134.89988265982
 10
3662.774934052657
 20
-2.336184357009415
 30
-0.0000000000004832
 10
3664.050973613612
 20
-4.280975535534708
 30
-0.0000000000004832
 10
3665.405171748144
 20
-6.22468076614814
 30
-0.0000000000004832
 10
3666.816951809954
 20
-8.07121303444444
 30
-0.0000000000004832
  0
SPLINE
  5
153
330
1F
100
AcDbEntity
  8
图层 03
100
AcDbSpline
210
0.0
220
0.0
230
1.0
 70
     8
 71
     3
 72
     8
 73
     4
 74
     0
 42
0.0000000001
 43
0.0000000001
 40
14134.89988265982
 40
14134.89988265982
 40
14134.89988265982
 40
14134.89988265982
 40
14140.89869845323
 40
14140.89869845323
 40
14140.89869845323
 40
14140.89869845323
 10
3666.816951809954
 20
-8.07121303444444
 30
-0.0000000000004832
 10
3667.036179545941
 20
-8.49040025679767
 30
-0.0000000000004832
 10
3667.259055171534
 20
-8.908089235737634
 30
-0.0000000000004832
 10
3667.485545644703
 20
-9.323442165168785
 30
-0.0000000000004832
  0
SPLINE
  5
154
330
1F
100
AcDbEntity
  8
图层 03
100
AcDbSpline
210
0.0
220
0.0
230
1.0
 70
     8
 71
     3
 72
     8
 73
     4
 74
     0
 42
0.0000000001
 43
0.0000000001
 40
14140.89869845323
 40
14140.89869845323
 40
14140.89869845323
 40
14140.89869845323
 40
14164.92716629231
 40
14164.92716629231
 40
14164.92716629231
 40
14164.92716629231
 10
3667.485545644703
 20
-9.323442165168785
 30
-0.0000000000004832
 10
3668.893650604952
 20
-10.55937919732821
 30
-0.0000000000004832
 10
3670.386997081628
 20
-11.72121538110946
 30
-0.0000000000004832
 10
3671.952184198125
 20
-12.7287058521797
 30
-0.0000000000004832
  0
POLYLINE
  5
156
330
1F
100
AcDbEntity
  8
图层01
100
AcDb2dPolyline
 66
     1
 10
0.0
 20
0.0
 30
0.0
 70
     1
  0
VERTEX
  5
157
330
156
100
AcDbEntity
  8
图层01
100
AcDbVertex
100
AcDb2dVertex
 10
3610.0
 20
-200.0
 30
0.0
  0
VERTEX
  5
158
330
156
100
AcDbEntity
  8
图层01
100
AcDbVertex
100
AcDb2dVertex
 10
4010.0
 20
-200.0
 30
0.0
  0
VERTEX
  5
159
330
156
100
AcDbEntity
  8
图层01
100
AcDbVertex
100
AcDb2dVertex
 10
4010.0
 20
200.0
 30
0.0
  0
VERTEX
  5
15A
330
156
100
AcDbEntity
  8
图层01
100
AcDbVertex
100
AcDb2dVertex
 10
3610.0
 20
200.0
 30
0.0
  0
SEQEND
  5
15B
330
156
100
AcDbEntity
  8
图层01
  0
ENDSEC
  0
SECTION
  2
OBJECTS
  0
DICTIONARY
  5
C
330
0
100
AcDbDictionary
281
     1
  3
ACAD_DETAILVIEWSTYLE
350
197
  3
ACAD_GROUP
350
D
  3
ACAD_LAYOUT
350
1A
  3
ACAD_MATERIAL
350
43
  3
ACAD_MLEADERSTYLE
350
5B
  3
ACAD_MLINESTYLE
350
17
  3
ACAD_PLOTSETTINGS
350
19
  3
ACAD_PLOTSTYLENAME
350
E
  3
ACAD_SCALELIST
350
47
  3
ACAD_SECTIONVIEWSTYLE
350
198
  3
ACAD_TABLESTYLE
350
59
  3
ACAD_VISUALSTYLE
350
2A
  3
ACDB_RECOMPOSE_DATA
350
194
  3
AcDbVariableDictionary
350
15C
  0
SUN
  5
5D
330
29
100
AcDbSun
 90
        1
290
     0
 63
     7
421
 16777215
 40
1.0
291
     1
 91
  2455826
 92
 54000000
292
     0
 70
     2
 71
   256
280
     1
  0
DICTIONARY
  5
197
102
{ACAD_REACTORS
330
C
102
}
330
C
100
AcDbDictionary
281
     1
  0
DICTIONARY
  5
D
102
{ACAD_REACTORS
330
C
102
}
330
C
100
AcDbDictionary
281
     1
  0
DICTIONARY
  5
1A
102
{ACAD_REACTORS
330
C
102
}
330
C
100
AcDbDictionary
281
     1
  3
Layout1
350
1E
  3
Layout2
350
26
  3
Model
350
22
  0
DICTIONARY
  5
43
102
{ACAD_REACTORS
330
C
102
}
330
C
100
AcDbDictionary
281
     1
  3
ByBlock
350
45
  3
ByLayer
350
44
  3
Global
350
46
  0
DICTIONARY
  5
5B
102
{ACAD_REACTORS
330
C
102
}
330
C
100
AcDbDictionary
281
     1
  3
Standard
350
5C
  0
DICTIONARY
  5
17
102
{ACAD_REACTORS
330
C
102
}
330
C
100
AcDbDictionary
281
     1
  3
Standard
350
18
  0
DICTIONARY
  5
19
102
{ACAD_REACTORS
330
C
102
}
330
C
100
AcDbDictionary
281
     1
  0
ACDBDICTIONARYWDFLT
  5
E
102
{ACAD_REACTORS
330
C
102
}
330
C
100
AcDbDictionary
281
     1
  3
Normal
350
F
100
AcDbDictionaryWithDefault
340
F
  0
DICTIONARY
  5
47
102
{ACAD_REACTORS
330
C
102
}
330
C
100
AcDbDictionary
281
     1
  3
A0
350
48
  3
A1
350
49
  3
A2
350
4A
  3
A3
350
4B
  3
A4
350
4C
  3
A5
350
4D
  3
A6
350
4E
  3
A7
350
4F
  3
A8
350
50
  3
A9
350
51
  3
B1
350
52
  3
B2
350
53
  3
B3
350
54
  3
B4
350
55
  3
B5
350
56
  3
B6
350
57
  3
B7
350
58
  0
DICTIONARY
  5
198
102
{ACAD_REACTORS
330
C
102
}
330
C
100
AcDbDictionary
281
     1
  0
DICTIONARY
  5
59
102
{ACAD_REACTORS
330
C
102
}
330
C
100
AcDbDictionary
281
     1
  3
Standard
350
5A
  0
DICTIONARY
  5
2A
102
{ACAD_REACTORS
330
C
102
}
330
C
100
AcDbDictionary
281
     1
  3
2dWireframe
350
2F
  3
Basic
350
32
  3
Brighten
350
36
  3
ColorChange
350
3A
  3
Conceptual
350
34
  3
Dim
350
35
  3
EdgeColorOff
350
3D
  3
Facepattern
350
39
  3
Flat
350
2B
  3
FlatWithEdges
350
2C
  3
Gouraud
350
2D
  3
GouraudWithEdges
350
2E
  3
Hidden
350
31
  3
JitterOff
350
3B
  3
Linepattern
350
38
  3
OverhangOff
350
3C
  3
Realistic
350
33
  3
Shaded
350
42
  3
Shaded with edges
350
41
  3
Shades of Gray
350
3E
  3
Sketchy
350
3F
  3
Thicken
350
37
  3
Wireframe
350
30
  3
X-Ray
350
40
  0
XRECORD
  5
194
102
{ACAD_REACTORS
330
C
102
}
330
C
100
AcDbXrecord
280
     1
 90
        1
330
5A
  0
DICTIONARY
  5
15C
102
{ACAD_REACTORS
330
C
102
}
330
C
100
AcDbDictionary
281
     1
  3
CANNOSCALE
350
15D
  3
CMLEADERSTYLE
350
196
  3
CTABLESTYLE
350
195
  3
XCLIPFRAME
350
15E
  0
LAYOUT
  5
1E
102
{ACAD_REACTORS
330
1A
102
}
330
1A
100
AcDbPlotSettings
  1

  2
none_device
  4

  6

 40
0.0
 41
0.0
 42
0.0
 43
0.0
 44
0.0
 45
0.0
 46
0.0
 47
0.0
 48
0.0
 49
0.0
140
0.0
141
0.0
142
1.0
143
1.0
 70
   688
 72
     0
 73
     0
 74
     5
  7

 75
    16
 76
     0
 77
     2
 78
   300
147
1.0
148
0.0
149
0.0
100
AcDbLayout
  1
Layout1
 70
     1
 71
     1
 10
0.0
 20
0.0
 11
12.0
 21
9.0
 12
0.0
 22
0.0
 32
0.0
 14
1.000000000000000E+20
 24
1.000000000000000E+20
 34
1.000000000000000E+20
 15
-1.000000000000000E+20
 25
-1.000000000000000E+20
 35
-1.000000000000000E+20
146
0.0
 13
0.0
 23
0.0
 33
0.0
 16
1.0
 26
0.0
 36
0.0
 17
0.0
 27
1.0
 37
0.0
 76
     0
330
1B
  0
LAYOUT
  5
26
102
{ACAD_REACTORS
330
1A
102
}
330
1A
100
AcDbPlotSettings
  1

  2
none_device
  4

  6

 40
0.0
 41
0.0
 42
0.0
 43
0.0
 44
0.0
 45
0.0
 46
0.0
 47
0.0
 48
0.0
 49
0.0
140
0.0
141
0.0
142
1.0
143
1.0
 70
   688
 72
     0
 73
     0
 74
     5
  7

 75
    16
 76
     0
 77
     2
 78
   300
147
1.0
148
0.0
149
0.0
100
AcDbLayout
  1
Layout2
 70
     1
 71
     2
 10
0.0
 20
0.0
 11
0.0
 21
0.0
 12
0.0
 22
0.0
 32
0.0
 14
0.0
 24
0.0
 34
0.0
 15
0.0
 25
0.0
 35
0.0
146
0.0
 13
0.0
 23
0.0
 33
0.0
 16
1.0
 26
0.0
 36
0.0
 17
0.0
 27
1.0
 37
0.0
 76
     0
330
23
  0
LAYOUT
  5
22
102
{ACAD_REACTORS
330
1A
102
}
330
1A
100
AcDbPlotSettings
  1

  2
none_device
  4
Letter_(8.50_x_11.00_Inches)
  6

 40
6.35
 41
6.35
 42
6.35000508
 43
6.35000508
 44
215.9
 45
279.4
 46
0.0
 47
0.0
 48
0.0
 49
0.0
140
0.0
141
0.0
142
1.0
143
1.0
 70
  1712
 72
     0
 73
     0
 74
     0
  7

 75
     0
 76
     0
 77
     2
 78
   300
147
1.0
148
0.0
149
0.0
100
AcDbLayout
  1
Model
 70
     1
 71
     0
 10
0.0
 20
0.0
 11
12.0
 21
9.0
 12
0.0
 22
0.0
 32
0.0
 14
1.000000000000000E+20
 24
1.000000000000000E+20
 34
1.000000000000000E+20
 15
-1.000000000000000E+20
 25
-1.000000000000000E+20
 35
-1.000000000000000E+20
146
0.0
 13
0.0
 23
0.0
 33
0.0
 16
1.0
 26
0.0
 36
0.0
 17
0.0
 27
1.0
 37
0.0
 76
     0
330
1F
331
29
  0
MATERIAL
  5
45
102
{ACAD_REACTORS
330
43
102
}
330
43
100
AcDbMaterial
  1
ByBlock
 72
     1
 94
      127
  0
MATERIAL
  5
44
102
{ACAD_REACTORS
330
43
102
}
330
43
100
AcDbMaterial
  1
ByLayer
 72
     1
 94
      127
  0
MATERIAL
  5
46
102
{ACAD_REACTORS
330
43
102
}
330
43
100
AcDbMaterial
  1
Global
 72
     1
 94
      127
  0
MLEADERSTYLE
  5
5C
102
{ACAD_REACTORS
330
5B
102
}
102
{ACAD_XDICTIONARY
360
192
102
}
330
5B
100
AcDbMLeaderStyle
170
     2
171
     1
172
     0
 90
        2
 40
0.0
 41
0.0
173
     1
 91
-1056964608
340
14
 92
       -2
290
     1
 42
0.09
291
     1
 43
0.36
  3
Standard
341
0
 44
0.18
300

342
11
174
     1
178
     6
175
     1
176
     0
 93
-1056964608
 45
0.18
292
     0
297
     0
 46
0.18
343
0
 94
-1056964608
 47
1.0
 49
1.0
140
1.0
293
     1
141
0.0
294
     1
177
     0
142
1.0
295
     0
296
     0
143
0.125
1001
ACAD_MLEADERVER
1070
     2
  0
MLINESTYLE
  5
18
102
{ACAD_REACTORS
330
17
102
}
330
17
100
AcDbMlineStyle
  2
Standard
 70
     0
  3

 62
   256
 51
90.0
 52
90.0
 71
     2
 49
0.5
 62
   256
  6
BYLAYER
 49
-0.5
 62
   256
  6
BYLAYER
  0
ACDBPLACEHOLDER
  5
F
102
{ACAD_REACTORS
330
E
102
}
330
E
  0
SCALE
  5
48
102
{ACAD_REACTORS
330
47
102
}
330
47
100
AcDbScale
 70
     0
300
1:1
140
1.0
141
1.0
290
     1
  0
SCALE
  5
49
102
{ACAD_REACTORS
330
47
102
}
330
47
100
AcDbScale
 70
     0
300
1/128" = 1'-0"
140
0.0078125
141
12.0
290
     0
  0
SCALE
  5
4A
102
{ACAD_REACTORS
330
47
102
}
330
47
100
AcDbScale
 70
     0
300
1/64" = 1'-0"
140
0.015625
141
12.0
290
     0
  0
SCALE
  5
4B
102
{ACAD_REACTORS
330
47
102
}
330
47
100
AcDbScale
 70
     0
300
1/32" = 1'-0"
140
0.03125
141
12.0
290
     0
  0
SCALE
  5
4C
102
{ACAD_REACTORS
330
47
102
}
330
47
100
AcDbScale
 70
     0
300
1/16" = 1'-0"
140
0.0625
141
12.0
290
     0
  0
SCALE
  5
4D
102
{ACAD_REACTORS
330
47
102
}
330
47
100
AcDbScale
 70
     0
300
3/32" = 1'-0"
140
0.09375
141
12.0
290
     0
  0
SCALE
  5
4E
102
{ACAD_REACTORS
330
47
102
}
330
47
100
AcDbScale
 70
     0
300
1/8" = 1'-0"
140
0.125
141
12.0
290
     0
  0
SCALE
  5
4F
102
{ACAD_REACTORS
330
47
102
}
330
47
100
AcDbScale
 70
     0
300
3/16" = 1'-0"
140
0.1875
141
12.0
290
     0
  0
SCALE
  5
50
102
{ACAD_REACTORS
330
47
102
}
330
47
100
AcDbScale
 70
     0
300
1/4" = 1'-0"
140
0.25
141
12.0
290
     0
  0
SCALE
  5
51
102
{ACAD_REACTORS
330
47
102
}
330
47
100
AcDbScale
 70
     0
300
3/8" = 1'-0"
140
0.375
141
12.0
290
     0
  0
SCALE
  5
52
102
{ACAD_REACTORS
330
47
102
}
330
47
100
AcDbScale
 70
     0
300
1/2" = 1'-0"
140
0.5
141
12.0
290
     0
  0
SCALE
  5
53
102
{ACAD_REACTORS
330
47
102
}
330
47
100
AcDbScale
 70
     0
300
3/4" = 1'-0"
140
0.75
141
12.0
290
     0
  0
SCALE
  5
54
102
{ACAD_REACTORS
330
47
102
}
330
47
100
AcDbScale
 70
     0
300
1" = 1'-0"
140
1.0
141
12.0
290
     0
  0
SCALE
  5
55
102
{ACAD_REACTORS
330
47
102
}
330
47
100
AcDbScale
 70
     0
300
1-1/2" = 1'-0"
140
1.5
141
12.0
290
     0
  0
SCALE
  5
56
102
{ACAD_REACTORS
330
47
102
}
330
47
100
AcDbScale
 70
     0
300
3" = 1'-0"
140
3.0
141
12.0
290
     0
  0
SCALE
  5
57
102
{ACAD_REACTORS
330
47
102
}
330
47
100
AcDbScale
 70
     0
300
6" = 1'-0"
140
6.0
141
12.0
290
     0
  0
SCALE
  5
58
102
{ACAD_REACTORS
330
47
102
}
330
47
100
AcDbScale
 70
     0
300
1'-0" = 1'-0"
140
12.0
141
12.0
290
     0
  0
TABLESTYLE
  5
5A
102
{ACAD_REACTORS
330
59
102
}
102
{ACAD_XDICTIONARY
360
18F
102
}
330
59
100
AcDbTableStyle
  3
Standard
 70
     0
 71
     0
 40
0.06
 41
0.06
280
     0
281
     0
  7
Standard
140
0.18
170
     2
 62
     0
 63
   257
283
     0
 90
        4
 91
        0
  1

274
    -2
284
     1
 64
     0
275
    -2
285
     1
 65
     0
276
    -2
286
     1
 66
     0
277
    -2
287
     1
 67
     0
278
    -2
288
     1
 68
     0
279
    -2
289
     1
 69
     0
  7
Standard
140
0.25
170
     5
 62
     0
 63
   257
283
     0
 90
        4
 91
        0
  1

274
    -2
284
     1
 64
     0
275
    -2
285
     1
 65
     0
276
    -2
286
     1
 66
     0
277
    -2
287
     1
 67
     0
278
    -2
288
     1
 68
     0
279
    -2
289
     1
 69
     0
  7
Standard
140
0.18
170
     5
 62
     0
 63
   257
283
     0
 90
        4
 91
        0
  1

274
    -2
284
     1
 64
     0
275
    -2
285
     1
 65
     0
276
    -2
286
     1
 66
     0
277
    -2
287
     1
 67
     0
278
    -2
288
     1
 68
     0
279
    -2
289
     1
 69
     0
  0
VISUALSTYLE
  5
2F
102
{ACAD_REACTORS
330
2A
102
}
102
{ACAD_XDICTIONARY
360
167
102
}
330
2A
100
AcDbVisualStyle
  2
2dWireframe
 70
     4
 71
     0
 72
     2
 73
     0
 90
        0
 40
0.6
 41
30.0
 62
     5
 63
     7
421
 16777215
 74
     1
 91
        4
 64
     7
 65
   257
 75
     1
175
     1
 42
1.0
 92
        0
 66
   257
 43
1.0
 76
     1
 77
     6
 78
     2
 67
     7
 79
     5
170
     0
171
     0
290
     0
174
     0
 93
        1
 44
0.0
173
     0
291
     0
 45
0.0
  0
VISUALSTYLE
  5
32
102
{ACAD_REACTORS
330
2A
102
}
102
{ACAD_XDICTIONARY
360
16D
102
}
330
2A
100
AcDbVisualStyle
  2
Basic
 70
     7
 71
     1
 72
     0
 73
     1
 90
        0
 40
0.6
 41
30.0
 62
     5
 63
     7
421
 16777215
 74
     0
 91
        4
 64
     7
 65
   257
 75
     1
175
     1
 42
1.0
 92
        8
 66
     7
 43
1.0
 76
     1
 77
     6
 78
     2
 67
     7
 79
     5
170
     0
171
     0
290
     0
174
     0
 93
        1
 44
0.0
173
     0
291
     1
 45
0.0
  0
VISUALSTYLE
  5
36
102
{ACAD_REACTORS
330
2A
102
}
102
{ACAD_XDICTIONARY
360
175
102
}
330
2A
100
AcDbVisualStyle
  2
Brighten
 70
    12
 71
     2
 72
     2
 73
     0
 90
        0
 40
0.6
 41
30.0
 62
     5
 63
     7
421
 16777215
 74
     1
 91
        4
 64
     7
 65
   257
 75
     1
175
     1
 42
1.0
 92
        8
 66
     7
 43
1.0
 76
     1
 77
     6
 78
     2
 67
     7
 79
     5
170
     0
171
     0
290
     0
174
     0
 93
        1
 44
50.0
173
     0
291
     1
 45
0.0
  0
VISUALSTYLE
  5
3A
102
{ACAD_REACTORS
330
2A
102
}
102
{ACAD_XDICTIONARY
360
17D
102
}
330
2A
100
AcDbVisualStyle
  2
ColorChange
 70
    16
 71
     2
 72
     2
 73
     3
 90
        0
 40
0.6
 41
30.0
 62
     5
 63
     8
421
  8421504
 74
     1
 91
        4
 64
     7
 65
   257
 75
     1
175
     1
 42
1.0
 92
        8
 66
     8
424
  8421504
 43
1.0
 76
     1
 77
     6
 78
     2
 67
     7
 79
     5
170
     0
171
     0
290
     0
174
     0
 93
        1
 44
0.0
173
     0
291
     1
 45
0.0
  0
VISUALSTYLE
  5
34
102
{ACAD_REACTORS
330
2A
102
}
102
{ACAD_XDICTIONARY
360
171
102
}
330
2A
100
AcDbVisualStyle
  2
Conceptual
 70
     9
 71
     3
 72
     2
 73
     0
 90
        0
 40
0.6
 41
30.0
 62
     5
 63
     7
421
 16777215
 74
     2
 91
        2
 64
     7
 65
   257
 75
     1
175
     1
 42
179.0
 92
        8
 66
     7
 43
1.0
 76
     1
 77
     6
 78
     2
 67
     7
 79
     3
170
     0
171
     0
290
     0
174
     0
 93
        1
 44
0.0
173
     0
291
     0
 45
0.0
  0
VISUALSTYLE
  5
35
102
{ACAD_REACTORS
330
2A
102
}
102
{ACAD_XDICTIONARY
360
173
102
}
330
2A
100
AcDbVisualStyle
  2
Dim
 70
    11
 71
     2
 72
     2
 73
     0
 90
        0
 40
0.6
 41
30.0
 62
     5
 63
     7
421
 16777215
 74
     1
 91
        4
 64
     7
 65
   257
 75
     1
175
     1
 42
1.0
 92
        8
 66
     7
 43
1.0
 76
     1
 77
     6
 78
     2
 67
     7
 79
     5
170
     0
171
     0
290
     0
174
     0
 93
        1
 44
-50.0
173
     0
291
     1
 45
0.0
  0
VISUALSTYLE
  5
3D
102
{ACAD_REACTORS
330
2A
102
}
102
{ACAD_XDICTIONARY
360
183
102
}
330
2A
100
AcDbVisualStyle
  2
EdgeColorOff
 70
    22
 71
     2
 72
     2
 73
     0
 90
        0
 40
0.6
 41
30.0
 62
     5
 63
     7
421
 16777215
 74
     1
 91
        4
 64
     7
 65
   257
 75
     1
175
     1
 42
1.0
 92
        8
 66
     7
 43
1.0
 76
     1
 77
     6
 78
     2
 67
     7
 79
     5
170
     0
171
     0
290
     0
174
     0
 93
        1
 44
0.0
173
     0
291
     1
 45
0.0
  0
VISUALSTYLE
  5
39
102
{ACAD_REACTORS
330
2A
102
}
102
{ACAD_XDICTIONARY
360
17B
102
}
330
2A
100
AcDbVisualStyle
  2
Facepattern
 70
    15
 71
     2
 72
     2
 73
     0
 90
        0
 40
0.6
 41
30.0
 62
     5
 63
     7
421
 16777215
 74
     1
 91
        4
 64
     7
 65
   257
 75
     1
175
     1
 42
1.0
 92
        8
 66
     7
 43
1.0
 76
     1
 77
     6
 78
     2
 67
     7
 79
     5
170
     0
171
     0
290
     0
174
     0
 93
        1
 44
0.0
173
     0
291
     1
 45
0.0
  0
VISUALSTYLE
  5
2B
102
{ACAD_REACTORS
330
2A
102
}
102
{ACAD_XDICTIONARY
360
15F
102
}
330
2A
100
AcDbVisualStyle
  2
Flat
 70
     0
 71
     2
 72
     1
 73
     1
 90
        2
 40
0.6
 41
30.0
 62
     5
 63
     7
421
 16777215
 74
     0
 91
        0
 64
     7
 65
   257
 75
     1
175
     1
 42
1.0
 92
        8
 66
     7
 43
1.0
 76
     1
 77
     6
 78
     2
 67
     7
 79
     5
170
     0
171
     0
290
     0
174
     0
 93
       13
 44
0.0
173
     0
291
     1
 45
0.0
  0
VISUALSTYLE
  5
2C
102
{ACAD_REACTORS
330
2A
102
}
102
{ACAD_XDICTIONARY
360
161
102
}
330
2A
100
AcDbVisualStyle
  2
FlatWithEdges
 70
     1
 71
     2
 72
     1
 73
     1
 90
        2
 40
0.6
 41
30.0
 62
     5
 63
     7
421
 16777215
 74
     1
 91
        0
 64
     7
 65
   257
 75
     1
175
     1
 42
1.0
 92
        0
 66
   257
 43
1.0
 76
     1
 77
     6
 78
     2
 67
     7
 79
     5
170
     0
171
     0
290
     0
174
     0
 93
       13
 44
0.0
173
     0
291
     1
 45
0.0
  0
VISUALSTYLE
  5
2D
102
{ACAD_REACTORS
330
2A
102
}
102
{ACAD_XDICTIONARY
360
163
102
}
330
2A
100
AcDbVisualStyle
  2
Gouraud
 70
     2
 71
     2
 72
     2
 73
     1
 90
        2
 40
0.6
 41
30.0
 62
     5
 63
     7
421
 16777215
 74
     0
 91
        0
 64
     7
 65
   257
 75
     1
175
     1
 42
1.0
 92
        0
 66
     7
 43
1.0
 76
     1
 77
     6
 78
     2
 67
     7
 79
     5
170
     0
171
     0
290
     0
174
     0
 93
       13
 44
0.0
173
     0
291
     1
 45
0.0
  0
VISUALSTYLE
  5
2E
102
{ACAD_REACTORS
330
2A
102
}
102
{ACAD_XDICTIONARY
360
165
102
}
330
2A
100
AcDbVisualStyle
  2
GouraudWithEdges
 70
     3
 71
     2
 72
     2
 73
     1
 90
        2
 40
0.6
 41
30.0
 62
     5
 63
     7
421
 16777215
 74
     1
 91
        0
 64
     7
 65
   257
 75
     1
175
     1
 42
1.0
 92
        0
 66
   257
 43
1.0
 76
     1
 77
     6
 78
     2
 67
     7
 79
     5
170
     0
171
     0
290
     0
174
     0
 93
       13
 44
0.0
173
     0
291
     1
 45
0.0
  0
VISUALSTYLE
  5
31
102
{ACAD_REACTORS
330
2A
102
}
102
{ACAD_XDICTIONARY
360
16B
102
}
330
2A
100
AcDbVisualStyle
  2
Hidden
 70
     6
 71
     1
 72
     2
 73
     2
 90
        0
 40
0.6
 41
30.0
 62
     5
 63
     7
421
 16777215
 74
     2
 91
        2
 64
     7
 65
   257
 75
     2
175
     1
 42
40.0
 92
        0
 66
   257
 43
1.0
 76
     1
 77
     6
 78
     2
 67
     7
 79
     3
170
     0
171
     0
290
     0
174
     0
 93
        1
 44
0.0
173
     0
291
     0
 45
0.0
  0
VISUALSTYLE
  5
3B
102
{ACAD_REACTORS
330
2A
102
}
102
{ACAD_XDICTIONARY
360
17F
102
}
330
2A
100
AcDbVisualStyle
  2
JitterOff
 70
    20
 71
     2
 72
     2
 73
     0
 90
        0
 40
0.6
 41
30.0
 62
     5
 63
     7
421
 16777215
 74
     1
 91
        4
 64
     7
 65
   257
 75
     1
175
     1
 42
1.0
 92
       10
 66
     7
 43
1.0
 76
     1
 77
     6
 78
     2
 67
     7
 79
     5
170
     0
171
     0
290
     0
174
     0
 93
        1
 44
0.0
173
     0
291
     1
 45
0.0
  0
VISUALSTYLE
  5
38
102
{ACAD_REACTORS
330
2A
102
}
102
{ACAD_XDICTIONARY
360
179
102
}
330
2A
100
AcDbVisualStyle
  2
Linepattern
 70
    14
 71
     2
 72
     2
 73
     0
 90
        0
 40
0.6
 41
30.0
 62
     5
 63
     7
421
 16777215
 74
     1
 91
        4
 64
     7
 65
   257
 75
     7
175
     7
 42
1.0
 92
        8
 66
     7
 43
1.0
 76
     1
 77
     6
 78
     2
 67
     7
 79
     5
170
     0
171
     0
290
     0
174
     0
 93
        1
 44
0.0
173
     0
291
     1
 45
0.0
  0
VISUALSTYLE
  5
3C
102
{ACAD_REACTORS
330
2A
102
}
102
{ACAD_XDICTIONARY
360
181
102
}
330
2A
100
AcDbVisualStyle
  2
OverhangOff
 70
    21
 71
     2
 72
     2
 73
     0
 90
        0
 40
0.6
 41
30.0
 62
     5
 63
     7
421
 16777215
 74
     1
 91
        4
 64
     7
 65
   257
 75
     1
175
     1
 42
1.0
 92
        9
 66
     7
 43
1.0
 76
     1
 77
     6
 78
     2
 67
     7
 79
     5
170
     0
171
     0
290
     0
174
     0
 93
        1
 44
0.0
173
     0
291
     1
 45
0.0
  0
VISUALSTYLE
  5
33
102
{ACAD_REACTORS
330
2A
102
}
102
{ACAD_XDICTIONARY
360
16F
102
}
330
2A
100
AcDbVisualStyle
  2
Realistic
 70
     8
 71
     2
 72
     3
 73
     0
 90
        2
 40
0.6
 41
30.0
 62
     5
 63
     7
421
 16777215
 74
     0
 91
        0
 64
     7
 65
   257
 75
     1
175
     1
 42
1.0
 92
        8
 66
   257
 43
1.0
 76
     1
 77
     6
 78
     2
 67
     7
 79
     3
170
     0
171
     0
290
     0
174
     0
 93
       13
 44
0.0
173
     0
291
     0
 45
0.0
  0
VISUALSTYLE
  5
42
102
{ACAD_REACTORS
330
2A
102
}
102
{ACAD_XDICTIONARY
360
18D
102
}
330
2A
100
AcDbVisualStyle
  2
Shaded
 70
    27
 71
     2
 72
     2
 73
     1
 90
        2
 40
0.6
 41
30.0
 62
     5
 63
     7
421
 16777215
 74
     0
 91
        4
 64
     7
 65
   257
 75
     1
175
     1
 42
1.0
 92
        8
 66
   257
 43
1.0
 76
     1
 77
     6
 78
     2
 67
     8
425
  7895160
 79
     3
170
     0
171
     0
290
     0
174
     0
 93
        5
 44
0.0
173
     0
291
     0
 45
0.0
  0
VISUALSTYLE
  5
41
102
{ACAD_REACTORS
330
2A
102
}
102
{ACAD_XDICTIONARY
360
18B
102
}
330
2A
100
AcDbVisualStyle
  2
Shaded with edges
 70
    26
 71
     2
 72
     2
 73
     1
 90
        2
 40
0.6
 41
30.0
 62
     5
 63
     7
421
 16777215
 74
     1
 91
       10
 64
     7
 65
   257
 75
     2
175
     1
 42
1.0
 92
        8
 66
   257
 43
1.0
 76
     1
 77
     6
 78
     2
 67
     7
 79
     3
170
     0
171
     0
290
     0
174
     0
 93
        5
 44
0.0
173
     0
291
     0
 45
0.0
  0
VISUALSTYLE
  5
3E
102
{ACAD_REACTORS
330
2A
102
}
102
{ACAD_XDICTIONARY
360
185
102
}
330
2A
100
AcDbVisualStyle
  2
Shades of Gray
 70
    23
 71
     2
 72
     2
 73
     3
 90
        0
 40
0.6
 41
30.0
 62
     5
 63
     7
421
 16777215
 74
     2
 91
        2
 64
     7
 65
     7
 75
     1
175
     1
 42
40.0
 92
        8
 66
     7
 43
1.0
 76
     1
 77
     6
 78
     2
 67
     7
 79
     3
170
     0
171
     0
290
     0
174
     0
 93
        1
 44
0.0
173
     0
291
     0
 45
0.0
  0
VISUALSTYLE
  5
3F
102
{ACAD_REACTORS
330
2A
102
}
102
{ACAD_XDICTIONARY
360
187
102
}
330
2A
100
AcDbVisualStyle
  2
Sketchy
 70
    24
 71
     1
 72
     2
 73
     2
 90
        0
 40
0.6
 41
30.0
 62
     5
 63
     7
421
 16777215
 74
     2
 91
        2
 64
     7
 65
     7
 75
     1
175
     1
 42
40.0
 92
       11
 66
     7
 43
1.0
 76
     1
 77
     6
 78
     2
 67
     7
 79
     6
170
     0
171
     0
290
     0
174
     0
 93
        1
 44
0.0
173
     0
291
     0
 45
0.0
  0
VISUALSTYLE
  5
37
102
{ACAD_REACTORS
330
2A
102
}
102
{ACAD_XDICTIONARY
360
177
102
}
330
2A
100
AcDbVisualStyle
  2
Thicken
 70
    13
 71
     2
 72
     2
 73
     0
 90
        0
 40
0.6
 41
30.0
 62
     5
 63
     7
421
 16777215
 74
     1
 91
        4
 64
     7
 65
   257
 75
     1
175
     1
 42
1.0
 92
       12
 66
     7
 43
1.0
 76
     1
 77
     6
 78
     2
 67
     7
 79
     5
170
     0
171
     0
290
     0
174
     0
 93
        1
 44
0.0
173
     0
291
     1
 45
0.0
  0
VISUALSTYLE
  5
30
102
{ACAD_REACTORS
330
2A
102
}
102
{ACAD_XDICTIONARY
360
169
102
}
330
2A
100
AcDbVisualStyle
  2
Wireframe
 70
     5
 71
     0
 72
     2
 73
     0
 90
        0
 40
0.6
 41
30.0
 62
     5
 63
     7
421
 16777215
 74
     1
 91
        4
 64
     7
 65
   257
 75
     1
175
     1
 42
1.0
 92
        0
 66
   257
 43
1.0
 76
     1
 77
     6
 78
     2
 67
     7
 79
     3
170
     0
171
     0
290
     0
174
     0
 93
        1
 44
0.0
173
     0
291
     0
 45
0.0
  0
VISUALSTYLE
  5
40
102
{ACAD_REACTORS
330
2A
102
}
102
{ACAD_XDICTIONARY
360
189
102
}
330
2A
100
AcDbVisualStyle
  2
X-Ray
 70
    25
 71
     2
 72
     2
 73
     1
 90
        1
 40
0.5
 41
30.0
 62
     5
 63
     7
421
 16777215
 74
     1
 91
        0
 64
     7
 65
   257
 75
     1
175
     1
 42
1.0
 92
        8
 66
     7
 43
1.0
 76
     1
 77
     6
 78
     2
 67
     7
 79
     3
170
     0
171
     0
290
     0
174
     0
 93
       13
 44
0.0
173
     0
291
     0
 45
0.0
  0
DICTIONARYVAR
  5
15D
102
{ACAD_REACTORS
330
15C
102
}
330
15C
100
DictionaryVariables
280
     0
  1
1:1
  0
DICTIONARYVAR
  5
196
102
{ACAD_REACTORS
330
15C
102
}
330
15C
100
DictionaryVariables
280
     0
  1
Standard
  0
DICTIONARYVAR
  5
195
102
{ACAD_REACTORS
330
15C
102
}
330
15C
100
DictionaryVariables
280
     0
  1
Standard
  0
DICTIONARYVAR
  5
15E
102
{ACAD_REACTORS
330
15C
102
}
330
15C
100
DictionaryVariables
280
     0
  1
2
  0
DICTIONARY
  5
192
330
5C
100
AcDbDictionary
280
     1
281
     1
  3
ACAD_XREC_ROUNDTRIP
360
193
  0
DICTIONARY
  5
18F
330
5A
100
AcDbDictionary
280
     1
281
     1
  3
ACAD_ROUNDTRIP_2008_TABLESTYLE_CELLSTYLEMAP
360
190
  0
DICTIONARY
  5
167
330
2F
100
AcDbDictionary
280
     1
281
     1
  3
ACAD_XREC_ROUNDTRIP
360
168
  0
DICTIONARY
  5
16D
330
32
100
AcDbDictionary
280
     1
281
     1
  3
ACAD_XREC_ROUNDTRIP
360
16E
  0
DICTIONARY
  5
175
330
36
100
AcDbDictionary
280
     1
281
     1
  3
ACAD_XREC_ROUNDTRIP
360
176
  0
DICTIONARY
  5
17D
330
3A
100
AcDbDictionary
280
     1
281
     1
  3
ACAD_XREC_ROUNDTRIP
360
17E
  0
DICTIONARY
  5
171
330
34
100
AcDbDictionary
280
     1
281
     1
  3
ACAD_XREC_ROUNDTRIP
360
172
  0
DICTIONARY
  5
173
330
35
100
AcDbDictionary
280
     1
281
     1
  3
ACAD_XREC_ROUNDTRIP
360
174
  0
DICTIONARY
  5
183
330
3D
100
AcDbDictionary
280
     1
281
     1
  3
ACAD_XREC_ROUNDTRIP
360
184
  0
DICTIONARY
  5
17B
330
39
100
AcDbDictionary
280
     1
281
     1
  3
ACAD_XREC_ROUNDTRIP
360
17C
  0
DICTIONARY
  5
15F
330
2B
100
AcDbDictionary
280
     1
281
     1
  3
ACAD_XREC_ROUNDTRIP
360
160
  0
DICTIONARY
  5
161
330
2C
100
AcDbDictionary
280
     1
281
     1
  3
ACAD_XREC_ROUNDTRIP
360
162
  0
DICTIONARY
  5
163
330
2D
100
AcDbDictionary
280
     1
281
     1
  3
ACAD_XREC_ROUNDTRIP
360
164
  0
DICTIONARY
  5
165
330
2E
100
AcDbDictionary
280
     1
281
     1
  3
ACAD_XREC_ROUNDTRIP
360
166
  0
DICTIONARY
  5
16B
330
31
100
AcDbDictionary
280
     1
281
     1
  3
ACAD_XREC_ROUNDTRIP
360
16C
  0
DICTIONARY
  5
17F
330
3B
100
AcDbDictionary
280
     1
281
     1
  3
ACAD_XREC_ROUNDTRIP
360
180
  0
DICTIONARY
  5
179
330
38
100
AcDbDictionary
280
     1
281
     1
  3
ACAD_XREC_ROUNDTRIP
360
17A
  0
DICTIONARY
  5
181
330
3C
100
AcDbDictionary
280
     1
281
     1
  3
ACAD_XREC_ROUNDTRIP
360
182
  0
DICTIONARY
  5
16F
330
33
100
AcDbDictionary
280
     1
281
     1
  3
ACAD_XREC_ROUNDTRIP
360
170
  0
DICTIONARY
  5
18D
330
42
100
AcDbDictionary
280
     1
281
     1
  3
ACAD_XREC_ROUNDTRIP
360
18E
  0
DICTIONARY
  5
18B
330
41
100
AcDbDictionary
280
     1
281
     1
  3
ACAD_XREC_ROUNDTRIP
360
18C
  0
DICTIONARY
  5
185
330
3E
100
AcDbDictionary
280
     1
281
     1
  3
ACAD_XREC_ROUNDTRIP
360
186
  0
DICTIONARY
  5
187
330
3F
100
AcDbDictionary
280
     1
281
     1
  3
ACAD_XREC_ROUNDTRIP
360
188
  0
DICTIONARY
  5
177
330
37
100
AcDbDictionary
280
     1
281
     1
  3
ACAD_XREC_ROUNDTRIP
360
178
  0
DICTIONARY
  5
169
330
30
100
AcDbDictionary
280
     1
281
     1
  3
ACAD_XREC_ROUNDTRIP
360
16A
  0
DICTIONARY
  5
189
330
40
100
AcDbDictionary
280
     1
281
     1
  3
ACAD_XREC_ROUNDTRIP
360
18A
  0
XRECORD
  5
193
102
{ACAD_REACTORS
330
192
102
}
330
192
100
AcDbXrecord
280
     1
102
ACAD_ROUNDTRIP_2010_MLEADER_STYLE
  0
CELLSTYLEMAP
  5
190
102
{ACAD_REACTORS
330
18F
102
}
330
18F
100
AcDbCellStyleMap
 90
        3
300
CELLSTYLE
  1
TABLEFORMAT_BEGIN
 90
        5
170
     1
 91
        0
 92
    32768
 62
   257
 93
        1
300
CONTENTFORMAT
  1
CONTENTFORMAT_BEGIN
 90
        0
 91
        0
 92
        4
 93
        0
300

 40
0.0
140
1.0
 94
        5
 62
     0
340
11
144
0.25
309
CONTENTFORMAT_END
171
     1
301
MARGIN
  1
CELLMARGIN_BEGIN
 40
0.06
 40
0.06
 40
0.06
 40
0.06
 40
0.06
 40
0.06
309
CELLMARGIN_END
 94
        6
 95
        1
302
GRIDFORMAT
  1
GRIDFORMAT_BEGIN
 90
        0
 91
        1
 62
     0
 92
       -2
340
14
 93
        0
 40
0.045
309
GRIDFORMAT_END
 95
        2
302
GRIDFORMAT
  1
GRIDFORMAT_BEGIN
 90
        0
 91
        1
 62
     0
 92
       -2
340
14
 93
        0
 40
0.045
309
GRIDFORMAT_END
 95
        4
302
GRIDFORMAT
  1
GRIDFORMAT_BEGIN
 90
        0
 91
        1
 62
     0
 92
       -2
340
14
 93
        0
 40
0.045
309
GRIDFORMAT_END
 95
        8
302
GRIDFORMAT
  1
GRIDFORMAT_BEGIN
 90
        0
 91
        1
 62
     0
 92
       -2
340
14
 93
        0
 40
0.045
309
GRIDFORMAT_END
 95
       16
302
GRIDFORMAT
  1
GRIDFORMAT_BEGIN
 90
        0
 91
        1
 62
     0
 92
       -2
340
14
 93
        0
 40
0.045
309
GRIDFORMAT_END
 95
       32
302
GRIDFORMAT
  1
GRIDFORMAT_BEGIN
 90
        0
 91
        1
 62
     0
 92
       -2
340
14
 93
        0
 40
0.045
309
GRIDFORMAT_END
309
TABLEFORMAT_END
  1
CELLSTYLE_BEGIN
 90
        1
 91
        1
300
_TITLE
309
CELLSTYLE_END
300
CELLSTYLE
  1
TABLEFORMAT_BEGIN
 90
        5
170
     1
 91
        0
 92
        0
 62
   257
 93
        1
300
CONTENTFORMAT
  1
CONTENTFORMAT_BEGIN
 90
        0
 91
        0
 92
        4
 93
        0
300

 40
0.0
140
1.0
 94
        5
 62
     0
340
11
144
0.18
309
CONTENTFORMAT_END
171
     1
301
MARGIN
  1
CELLMARGIN_BEGIN
 40
0.06
 40
0.06
 40
0.06
 40
0.06
 40
0.06
 40
0.06
309
CELLMARGIN_END
 94
        6
 95
        1
302
GRIDFORMAT
  1
GRIDFORMAT_BEGIN
 90
        0
 91
        1
 62
     0
 92
       -2
340
14
 93
        0
 40
0.045
309
GRIDFORMAT_END
 95
        2
302
GRIDFORMAT
  1
GRIDFORMAT_BEGIN
 90
        0
 91
        1
 62
     0
 92
       -2
340
14
 93
        0
 40
0.045
309
GRIDFORMAT_END
 95
        4
302
GRIDFORMAT
  1
GRIDFORMAT_BEGIN
 90
        0
 91
        1
 62
     0
 92
       -2
340
14
 93
        0
 40
0.045
309
GRIDFORMAT_END
 95
        8
302
GRIDFORMAT
  1
GRIDFORMAT_BEGIN
 90
        0
 91
        1
 62
     0
 92
       -2
340
14
 93
        0
 40
0.045
309
GRIDFORMAT_END
 95
       16
302
GRIDFORMAT
  1
GRIDFORMAT_BEGIN
 90
        0
 91
        1
 62
     0
 92
       -2
340
14
 93
        0
 40
0.045
309
GRIDFORMAT_END
 95
       32
302
GRIDFORMAT
  1
GRIDFORMAT_BEGIN
 90
        0
 91
        1
 62
     0
 92
       -2
340
14
 93
        0
 40
0.045
309
GRIDFORMAT_END
309
TABLEFORMAT_END
  1
CELLSTYLE_BEGIN
 90
        2
 91
        1
300
_HEADER
309
CELLSTYLE_END
300
CELLSTYLE
  1
TABLEFORMAT_BEGIN
 90
        5
170
     1
 91
        0
 92
        0
 62
   257
 93
        1
300
CONTENTFORMAT
  1
CONTENTFORMAT_BEGIN
 90
        0
 91
        0
 92
        4
 93
        0
300

 40
0.0
140
1.0
 94
        2
 62
     0
340
11
144
0.18
309
CONTENTFORMAT_END
171
     1
301
MARGIN
  1
CELLMARGIN_BEGIN
 40
0.06
 40
0.06
 40
0.06
 40
0.06
 40
0.06
 40
0.06
309
CELLMARGIN_END
 94
        6
 95
        1
302
GRIDFORMAT
  1
GRIDFORMAT_BEGIN
 90
        0
 91
        1
 62
     0
 92
       -2
340
14
 93
        0
 40
0.045
309
GRIDFORMAT_END
 95
        2
302
GRIDFORMAT
  1
GRIDFORMAT_BEGIN
 90
        0
 91
        1
 62
     0
 92
       -2
340
14
 93
        0
 40
0.045
309
GRIDFORMAT_END
 95
        4
302
GRIDFORMAT
  1
GRIDFORMAT_BEGIN
 90
        0
 91
        1
 62
     0
 92
       -2
340
14
 93
        0
 40
0.045
309
GRIDFORMAT_END
 95
        8
302
GRIDFORMAT
  1
GRIDFORMAT_BEGIN
 90
        0
 91
        1
 62
     0
 92
       -2
340
14
 93
        0
 40
0.045
309
GRIDFORMAT_END
 95
       16
302
GRIDFORMAT
  1
GRIDFORMAT_BEGIN
 90
        0
 91
        1
 62
     0
 92
       -2
340
14
 93
        0
 40
0.045
309
GRIDFORMAT_END
 95
       32
302
GRIDFORMAT
  1
GRIDFORMAT_BEGIN
 90
        0
 91
        1
 62
     0
 92
       -2
340
14
 93
        0
 40
0.045
309
GRIDFORMAT_END
309
TABLEFORMAT_END
  1
CELLSTYLE_BEGIN
 90
        3
 91
        2
300
_DATA
309
CELLSTYLE_END
  0
XRECORD
  5
168
102
{ACAD_REACTORS
330
167
102
}
330
167
100
AcDbXrecord
280
     1
102
RTVSPropertyOp0
 70
     1
102
RTVSPropertyOp1
 70
     1
102
RTVSPropertyOp2
 70
     1
102
RTVSPropertyOp3
 70
     1
102
RTVSPropertyOp4
 70
     1
102
RTVSPropertyOp5
 70
     1
102
RTVSPropertyOp6
 70
     1
102
RTVSPropertyOp7
 70
     1
102
RTVSPropertyOp8
 70
     1
102
RTVSPropertyOp9
 70
     1
102
RTVSPropertyOp10
 70
     1
102
RTVSPropertyOp11
 70
     1
102
RTVSPropertyOp12
 70
     1
102
RTVSPropertyOp13
 70
     1
102
RTVSPropertyOp14
 70
     1
102
RTVSPropertyOp15
 70
     1
102
RTVSPropertyOp16
 70
     1
102
RTVSPropertyOp17
 70
     1
102
RTVSPropertyOp18
 70
     1
102
RTVSPropertyOp19
 70
     1
102
RTVSPropertyOp20
 70
     1
102
RTVSPropertyOp21
 70
     1
102
RTVSPropertyOp22
 70
     1
102
RTVSPropertyOp23
 70
     1
102
RTVSPropertyOp24
 70
     1
102
RTVSPropertyOp25
 70
     1
102
RTVSPropertyOp26
 70
     1
102
RTVSPropertyOp27
 70
     1
102
RTVSPropertyOp28
 70
     1
102
RTVSPropertyOp29
 70
     1
102
RTVSPropertyOp30
 70
     1
102
RTVSPropertyOp31
 70
     1
102
RTVSPropertyOp32
 70
     1
102
RTVSPropertyOp33
 70
     1
102
RTVSPropertyOp34
 70
     1
102
RTVSPropertyOp35
 70
     1
102
RTVSPropertyOp36
 70
     1
102
RTVSPropertyOp37
 70
     1
102
RTVSPropertyOp38
 70
     1
102
RTVSPropertyOp39
 70
     1
102
RTVSPropertyOp40
 70
     1
102
RTVSPropertyOp41
 70
     1
102
RTVSPropertyOp42
 70
     1
102
RTVSPropertyOp43
 70
     1
102
RTVSPropertyOp44
 70
     1
102
RTVSPropertyOp45
 70
     1
102
RTVSPropertyOp46
 70
     1
102
RTVSPropertyOp47
 70
     1
102
RTVSPropertyOp48
 70
     1
102
RTVSPropertyOp49
 70
     1
102
RTVSPropertyOp50
 70
     1
102
RTVSPropertyOp51
 70
     0
102
RTVSPropertyOp52
 70
     0
102
RTVSPropertyOp53
 70
     1
102
RTVSPropertyOp54
 70
     1
102
RTVSPropertyOp55
 70
     1
102
RTVSPropertyOp56
 70
     1
102
RTVSPropertyOp57
 70
     1
102
RTVSPost2010Prop28
280
     1
102
RTVSPost2010PropOp28
 70
     1
102
RTVSPost2010Prop29
280
     1
102
RTVSPost2010PropOp29
 70
     1
102
RTVSPost2010Prop30
280
     0
102
RTVSPost2010PropOp30
 70
     1
102
RTVSPost2010Prop31
280
     0
102
RTVSPost2010PropOp31
 70
     1
102
RTVSPost2010Prop32
280
     0
102
RTVSPost2010PropOp32
 70
     1
102
RTVSPost2010Prop33
280
     0
102
RTVSPost2010PropOp33
 70
     1
102
RTVSPost2010Prop34
280
     0
102
RTVSPost2010PropOp34
 70
     1
102
RTVSPost2010Prop35
280
     0
102
RTVSPost2010PropOp35
 70
     1
102
RTVSPost2010Prop36
280
     0
102
RTVSPost2010PropOp36
 70
     1
102
RTVSPost2010Prop37
 90
       50
102
RTVSPost2010PropOp37
 70
     1
102
RTVSPost2010Prop38
140
0.0
102
RTVSPost2010PropOp38
 70
     1
102
RTVSPost2010Prop39
140
1.0
102
RTVSPost2010PropOp39
 70
     1
102
RTVSPost2010Prop40
 90
        0
102
RTVSPost2010PropOp40
 70
     1
102
RTVSPost2010Prop41ColorIndex
 90
       18
102
RTVSPost2010Prop41ColorRGB
 90
        0
102
RTVSPost2010PropOp41
 70
     1
102
RTVSPost2010Prop42
 90
       50
102
RTVSPost2010PropOp42
 70
     1
102
RTVSPost2010Prop43
 90
        3
102
RTVSPost2010PropOp43
 70
     1
102
RTVSPost2010Prop44ColorIndex
 90
        5
102
RTVSPost2010Prop44ColorRGB
 90
      255
102
RTVSPost2010PropOp44
 70
     1
102
RTVSPost2010Prop45
280
     0
102
RTVSPost2010PropOp45
 70
     1
102
RTVSPost2010Prop46
 90
       50
102
RTVSPost2010PropOp46
 70
     1
102
RTVSPost2010Prop47
 90
       50
102
RTVSPost2010PropOp47
 70
     1
102
RTVSPost2010Prop48
 90
       50
102
RTVSPost2010PropOp48
 70
     1
102
RTVSPost2010Prop49
280
     0
102
RTVSPost2010PropOp49
 70
     1
102
RTVSPost2010Prop50
 90
       50
102
RTVSPost2010PropOp50
 70
     1
102
RTVSPost2010Prop51ColorIndex
 90
      256
102
RTVSPost2010Prop51ColorRGB
 90
-16777216
102
RTVSPost2010PropOp51
 70
     0
102
RTVSPost2010Prop52
140
1.0
102
RTVSPost2010PropOp52
 70
     0
102
RTVSPost2010Prop53
 90
        2
102
RTVSPost2010PropOp53
 70
     1
102
RTVSPost2010Prop54
  1
strokes_ogs.tif
102
RTVSPost2010PropOp54
 70
     1
102
RTVSPost2010Prop55
280
     0
102
RTVSPost2010PropOp55
 70
     1
102
RTVSPost2010Prop56
140
1.0
102
RTVSPost2010PropOp56
 70
     1
102
RTVSPost2010Prop57
140
1.0
102
RTVSPost2010PropOp57
 70
     1
  0
XRECORD
  5
16E
102
{ACAD_REACTORS
330
16D
102
}
330
16D
100
AcDbXrecord
280
     1
102
RTVSPropertyOp0
 70
     1
102
RTVSPropertyOp1
 70
     1
102
RTVSPropertyOp2
 70
     1
102
RTVSPropertyOp3
 70
     1
102
RTVSPropertyOp4
 70
     1
102
RTVSPropertyOp5
 70
     1
102
RTVSPropertyOp6
 70
     1
102
RTVSPropertyOp7
 70
     1
102
RTVSPropertyOp8
 70
     1
102
RTVSPropertyOp9
 70
     1
102
RTVSPropertyOp10
 70
     1
102
RTVSPropertyOp11
 70
     1
102
RTVSPropertyOp12
 70
     1
102
RTVSPropertyOp13
 70
     1
102
RTVSPropertyOp14
 70
     1
102
RTVSPropertyOp15
 70
     1
102
RTVSPropertyOp16
 70
     1
102
RTVSPropertyOp17
 70
     1
102
RTVSPropertyOp18
 70
     1
102
RTVSPropertyOp19
 70
     1
102
RTVSPropertyOp20
 70
     1
102
RTVSPropertyOp21
 70
     1
102
RTVSPropertyOp22
 70
     1
102
RTVSPropertyOp23
 70
     1
102
RTVSPropertyOp24
 70
     1
102
RTVSPropertyOp25
 70
     1
102
RTVSPropertyOp26
 70
     1
102
RTVSPropertyOp27
 70
     1
102
RTVSPropertyOp28
 70
     1
102
RTVSPropertyOp29
 70
     1
102
RTVSPropertyOp30
 70
     1
102
RTVSPropertyOp31
 70
     1
102
RTVSPropertyOp32
 70
     1
102
RTVSPropertyOp33
 70
     1
102
RTVSPropertyOp34
 70
     1
102
RTVSPropertyOp35
 70
     1
102
RTVSPropertyOp36
 70
     1
102
RTVSPropertyOp37
 70
     1
102
RTVSPropertyOp38
 70
     1
102
RTVSPropertyOp39
 70
     1
102
RTVSPropertyOp40
 70
     1
102
RTVSPropertyOp41
 70
     1
102
RTVSPropertyOp42
 70
     1
102
RTVSPropertyOp43
 70
     1
102
RTVSPropertyOp44
 70
     1
102
RTVSPropertyOp45
 70
     1
102
RTVSPropertyOp46
 70
     1
102
RTVSPropertyOp47
 70
     1
102
RTVSPropertyOp48
 70
     1
102
RTVSPropertyOp49
 70
     1
102
RTVSPropertyOp50
 70
     1
102
RTVSPropertyOp51
 70
     0
102
RTVSPropertyOp52
 70
     0
102
RTVSPropertyOp53
 70
     1
102
RTVSPropertyOp54
 70
     1
102
RTVSPropertyOp55
 70
     1
102
RTVSPropertyOp56
 70
     1
102
RTVSPropertyOp57
 70
     1
102
RTVSPost2010Prop28
280
     0
102
RTVSPost2010PropOp28
 70
     1
102
RTVSPost2010Prop29
280
     1
102
RTVSPost2010PropOp29
 70
     1
102
RTVSPost2010Prop30
280
     1
102
RTVSPost2010PropOp30
 70
     1
102
RTVSPost2010Prop31
280
     0
102
RTVSPost2010PropOp31
 70
     1
102
RTVSPost2010Prop32
280
     0
102
RTVSPost2010PropOp32
 70
     1
102
RTVSPost2010Prop33
280
     0
102
RTVSPost2010PropOp33
 70
     1
102
RTVSPost2010Prop34
280
     0
102
RTVSPost2010PropOp34
 70
     1
102
RTVSPost2010Prop35
280
     0
102
RTVSPost2010PropOp35
 70
     1
102
RTVSPost2010Prop36
280
     0
102
RTVSPost2010PropOp36
 70
     1
102
RTVSPost2010Prop37
 90
       50
102
RTVSPost2010PropOp37
 70
     1
102
RTVSPost2010Prop38
140
0.0
102
RTVSPost2010PropOp38
 70
     1
102
RTVSPost2010Prop39
140
1.0
102
RTVSPost2010PropOp39
 70
     1
102
RTVSPost2010Prop40
 90
        0
102
RTVSPost2010PropOp40
 70
     1
102
RTVSPost2010Prop41ColorIndex
 90
       18
102
RTVSPost2010Prop41ColorRGB
 90
        0
102
RTVSPost2010PropOp41
 70
     1
102
RTVSPost2010Prop42
 90
       50
102
RTVSPost2010PropOp42
 70
     1
102
RTVSPost2010Prop43
 90
        3
102
RTVSPost2010PropOp43
 70
     1
102
RTVSPost2010Prop44ColorIndex
 90
        5
102
RTVSPost2010Prop44ColorRGB
 90
      255
102
RTVSPost2010PropOp44
 70
     1
102
RTVSPost2010Prop45
280
     0
102
RTVSPost2010PropOp45
 70
     1
102
RTVSPost2010Prop46
 90
       50
102
RTVSPost2010PropOp46
 70
     1
102
RTVSPost2010Prop47
 90
       50
102
RTVSPost2010PropOp47
 70
     1
102
RTVSPost2010Prop48
 90
       50
102
RTVSPost2010PropOp48
 70
     1
102
RTVSPost2010Prop49
280
     0
102
RTVSPost2010PropOp49
 70
     1
102
RTVSPost2010Prop50
 90
       50
102
RTVSPost2010PropOp50
 70
     1
102
RTVSPost2010Prop51ColorIndex
 90
      256
102
RTVSPost2010Prop51ColorRGB
 90
-16777216
102
RTVSPost2010PropOp51
 70
     0
102
RTVSPost2010Prop52
140
1.0
102
RTVSPost2010PropOp52
 70
     0
102
RTVSPost2010Prop53
 90
        2
102
RTVSPost2010PropOp53
 70
     1
102
RTVSPost2010Prop54
  1
strokes_ogs.tif
102
RTVSPost2010PropOp54
 70
     1
102
RTVSPost2010Prop55
280
     0
102
RTVSPost2010PropOp55
 70
     1
102
RTVSPost2010Prop56
140
1.0
102
RTVSPost2010PropOp56
 70
     1
102
RTVSPost2010Prop57
140
1.0
102
RTVSPost2010PropOp57
 70
     1
  0
XRECORD
  5
176
102
{ACAD_REACTORS
330
175
102
}
330
175
100
AcDbXrecord
280
     1
102
RTVSPropertyOp0
 70
     1
102
RTVSPropertyOp1
 70
     1
102
RTVSPropertyOp2
 70
     1
102
RTVSPropertyOp3
 70
     1
102
RTVSPropertyOp4
 70
     1
102
RTVSPropertyOp5
 70
     1
102
RTVSPropertyOp6
 70
     1
102
RTVSPropertyOp7
 70
     1
102
RTVSPropertyOp8
 70
     1
102
RTVSPropertyOp9
 70
     1
102
RTVSPropertyOp10
 70
     1
102
RTVSPropertyOp11
 70
     1
102
RTVSPropertyOp12
 70
     1
102
RTVSPropertyOp13
 70
     1
102
RTVSPropertyOp14
 70
     1
102
RTVSPropertyOp15
 70
     1
102
RTVSPropertyOp16
 70
     1
102
RTVSPropertyOp17
 70
     1
102
RTVSPropertyOp18
 70
     1
102
RTVSPropertyOp19
 70
     1
102
RTVSPropertyOp20
 70
     1
102
RTVSPropertyOp21
 70
     1
102
RTVSPropertyOp22
 70
     1
102
RTVSPropertyOp23
 70
     1
102
RTVSPropertyOp24
 70
     1
102
RTVSPropertyOp25
 70
     1
102
RTVSPropertyOp26
 70
     1
102
RTVSPropertyOp27
 70
     1
102
RTVSPropertyOp28
 70
     1
102
RTVSPropertyOp29
 70
     1
102
RTVSPropertyOp30
 70
     1
102
RTVSPropertyOp31
 70
     1
102
RTVSPropertyOp32
 70
     1
102
RTVSPropertyOp33
 70
     1
102
RTVSPropertyOp34
 70
     1
102
RTVSPropertyOp35
 70
     1
102
RTVSPropertyOp36
 70
     1
102
RTVSPropertyOp37
 70
     1
102
RTVSPropertyOp38
 70
     1
102
RTVSPropertyOp39
 70
     1
102
RTVSPropertyOp40
 70
     1
102
RTVSPropertyOp41
 70
     1
102
RTVSPropertyOp42
 70
     1
102
RTVSPropertyOp43
 70
     1
102
RTVSPropertyOp44
 70
     1
102
RTVSPropertyOp45
 70
     1
102
RTVSPropertyOp46
 70
     1
102
RTVSPropertyOp47
 70
     1
102
RTVSPropertyOp48
 70
     1
102
RTVSPropertyOp49
 70
     1
102
RTVSPropertyOp50
 70
     1
102
RTVSPropertyOp51
 70
     0
102
RTVSPropertyOp52
 70
     0
102
RTVSPropertyOp53
 70
     1
102
RTVSPropertyOp54
 70
     1
102
RTVSPropertyOp55
 70
     1
102
RTVSPropertyOp56
 70
     1
102
RTVSPropertyOp57
 70
     1
102
RTVSPost2010Prop28
280
     0
102
RTVSPost2010PropOp28
 70
     1
102
RTVSPost2010Prop29
280
     1
102
RTVSPost2010PropOp29
 70
     1
102
RTVSPost2010Prop30
280
     1
102
RTVSPost2010PropOp30
 70
     1
102
RTVSPost2010Prop31
280
     0
102
RTVSPost2010PropOp31
 70
     1
102
RTVSPost2010Prop32
280
     0
102
RTVSPost2010PropOp32
 70
     1
102
RTVSPost2010Prop33
280
     0
102
RTVSPost2010PropOp33
 70
     1
102
RTVSPost2010Prop34
280
     0
102
RTVSPost2010PropOp34
 70
     1
102
RTVSPost2010Prop35
280
     0
102
RTVSPost2010PropOp35
 70
     1
102
RTVSPost2010Prop36
280
     0
102
RTVSPost2010PropOp36
 70
     1
102
RTVSPost2010Prop37
 90
       50
102
RTVSPost2010PropOp37
 70
     1
102
RTVSPost2010Prop38
140
0.0
102
RTVSPost2010PropOp38
 70
     1
102
RTVSPost2010Prop39
140
1.0
102
RTVSPost2010PropOp39
 70
     1
102
RTVSPost2010Prop40
 90
        0
102
RTVSPost2010PropOp40
 70
     1
102
RTVSPost2010Prop41ColorIndex
 90
       18
102
RTVSPost2010Prop41ColorRGB
 90
        0
102
RTVSPost2010PropOp41
 70
     1
102
RTVSPost2010Prop42
 90
       50
102
RTVSPost2010PropOp42
 70
     1
102
RTVSPost2010Prop43
 90
        3
102
RTVSPost2010PropOp43
 70
     1
102
RTVSPost2010Prop44ColorIndex
 90
        5
102
RTVSPost2010Prop44ColorRGB
 90
      255
102
RTVSPost2010PropOp44
 70
     1
102
RTVSPost2010Prop45
280
     0
102
RTVSPost2010PropOp45
 70
     1
102
RTVSPost2010Prop46
 90
       50
102
RTVSPost2010PropOp46
 70
     1
102
RTVSPost2010Prop47
 90
       50
102
RTVSPost2010PropOp47
 70
     1
102
RTVSPost2010Prop48
 90
       50
102
RTVSPost2010PropOp48
 70
     1
102
RTVSPost2010Prop49
280
     0
102
RTVSPost2010PropOp49
 70
     1
102
RTVSPost2010Prop50
 90
       50
102
RTVSPost2010PropOp50
 70
     1
102
RTVSPost2010Prop51ColorIndex
 90
      256
102
RTVSPost2010Prop51ColorRGB
 90
-16777216
102
RTVSPost2010PropOp51
 70
     0
102
RTVSPost2010Prop52
140
1.0
102
RTVSPost2010PropOp52
 70
     0
102
RTVSPost2010Prop53
 90
        2
102
RTVSPost2010PropOp53
 70
     1
102
RTVSPost2010Prop54
  1
strokes_ogs.tif
102
RTVSPost2010PropOp54
 70
     1
102
RTVSPost2010Prop55
280
     0
102
RTVSPost2010PropOp55
 70
     1
102
RTVSPost2010Prop56
140
1.0
102
RTVSPost2010PropOp56
 70
     1
102
RTVSPost2010Prop57
140
1.0
102
RTVSPost2010PropOp57
 70
     1
  0
XRECORD
  5
17E
102
{ACAD_REACTORS
330
17D
102
}
330
17D
100
AcDbXrecord
280
     1
102
RTVSPropertyOp0
 70
     1
102
RTVSPropertyOp1
 70
     1
102
RTVSPropertyOp2
 70
     1
102
RTVSPropertyOp3
 70
     1
102
RTVSPropertyOp4
 70
     1
102
RTVSPropertyOp5
 70
     1
102
RTVSPropertyOp6
 70
     1
102
RTVSPropertyOp7
 70
     1
102
RTVSPropertyOp8
 70
     1
102
RTVSPropertyOp9
 70
     1
102
RTVSPropertyOp10
 70
     1
102
RTVSPropertyOp11
 70
     1
102
RTVSPropertyOp12
 70
     1
102
RTVSPropertyOp13
 70
     1
102
RTVSPropertyOp14
 70
     1
102
RTVSPropertyOp15
 70
     1
102
RTVSPropertyOp16
 70
     1
102
RTVSPropertyOp17
 70
     1
102
RTVSPropertyOp18
 70
     1
102
RTVSPropertyOp19
 70
     1
102
RTVSPropertyOp20
 70
     1
102
RTVSPropertyOp21
 70
     1
102
RTVSPropertyOp22
 70
     1
102
RTVSPropertyOp23
 70
     1
102
RTVSPropertyOp24
 70
     1
102
RTVSPropertyOp25
 70
     1
102
RTVSPropertyOp26
 70
     1
102
RTVSPropertyOp27
 70
     1
102
RTVSPropertyOp28
 70
     1
102
RTVSPropertyOp29
 70
     1
102
RTVSPropertyOp30
 70
     1
102
RTVSPropertyOp31
 70
     1
102
RTVSPropertyOp32
 70
     1
102
RTVSPropertyOp33
 70
     1
102
RTVSPropertyOp34
 70
     1
102
RTVSPropertyOp35
 70
     1
102
RTVSPropertyOp36
 70
     1
102
RTVSPropertyOp37
 70
     1
102
RTVSPropertyOp38
 70
     1
102
RTVSPropertyOp39
 70
     1
102
RTVSPropertyOp40
 70
     1
102
RTVSPropertyOp41
 70
     1
102
RTVSPropertyOp42
 70
     1
102
RTVSPropertyOp43
 70
     1
102
RTVSPropertyOp44
 70
     1
102
RTVSPropertyOp45
 70
     1
102
RTVSPropertyOp46
 70
     1
102
RTVSPropertyOp47
 70
     1
102
RTVSPropertyOp48
 70
     1
102
RTVSPropertyOp49
 70
     1
102
RTVSPropertyOp50
 70
     1
102
RTVSPropertyOp51
 70
     0
102
RTVSPropertyOp52
 70
     0
102
RTVSPropertyOp53
 70
     1
102
RTVSPropertyOp54
 70
     1
102
RTVSPropertyOp55
 70
     1
102
RTVSPropertyOp56
 70
     1
102
RTVSPropertyOp57
 70
     1
102
RTVSPost2010Prop28
280
     0
102
RTVSPost2010PropOp28
 70
     1
102
RTVSPost2010Prop29
280
     1
102
RTVSPost2010PropOp29
 70
     1
102
RTVSPost2010Prop30
280
     1
102
RTVSPost2010PropOp30
 70
     1
102
RTVSPost2010Prop31
280
     0
102
RTVSPost2010PropOp31
 70
     1
102
RTVSPost2010Prop32
280
     0
102
RTVSPost2010PropOp32
 70
     1
102
RTVSPost2010Prop33
280
     0
102
RTVSPost2010PropOp33
 70
     1
102
RTVSPost2010Prop34
280
     0
102
RTVSPost2010PropOp34
 70
     1
102
RTVSPost2010Prop35
280
     0
102
RTVSPost2010PropOp35
 70
     1
102
RTVSPost2010Prop36
280
     0
102
RTVSPost2010PropOp36
 70
     1
102
RTVSPost2010Prop37
 90
       50
102
RTVSPost2010PropOp37
 70
     1
102
RTVSPost2010Prop38
140
0.0
102
RTVSPost2010PropOp38
 70
     1
102
RTVSPost2010Prop39
140
1.0
102
RTVSPost2010PropOp39
 70
     1
102
RTVSPost2010Prop40
 90
        0
102
RTVSPost2010PropOp40
 70
     1
102
RTVSPost2010Prop41ColorIndex
 90
       18
102
RTVSPost2010Prop41ColorRGB
 90
        0
102
RTVSPost2010PropOp41
 70
     1
102
RTVSPost2010Prop42
 90
       50
102
RTVSPost2010PropOp42
 70
     1
102
RTVSPost2010Prop43
 90
        3
102
RTVSPost2010PropOp43
 70
     1
102
RTVSPost2010Prop44ColorIndex
 90
        5
102
RTVSPost2010Prop44ColorRGB
 90
      255
102
RTVSPost2010PropOp44
 70
     1
102
RTVSPost2010Prop45
280
     0
102
RTVSPost2010PropOp45
 70
     1
102
RTVSPost2010Prop46
 90
       50
102
RTVSPost2010PropOp46
 70
     1
102
RTVSPost2010Prop47
 90
       50
102
RTVSPost2010PropOp47
 70
     1
102
RTVSPost2010Prop48
 90
       50
102
RTVSPost2010PropOp48
 70
     1
102
RTVSPost2010Prop49
280
     0
102
RTVSPost2010PropOp49
 70
     1
102
RTVSPost2010Prop50
 90
       50
102
RTVSPost2010PropOp50
 70
     1
102
RTVSPost2010Prop51ColorIndex
 90
      256
102
RTVSPost2010Prop51ColorRGB
 90
-16777216
102
RTVSPost2010PropOp51
 70
     0
102
RTVSPost2010Prop52
140
1.0
102
RTVSPost2010PropOp52
 70
     0
102
RTVSPost2010Prop53
 90
        2
102
RTVSPost2010PropOp53
 70
     1
102
RTVSPost2010Prop54
  1
strokes_ogs.tif
102
RTVSPost2010PropOp54
 70
     1
102
RTVSPost2010Prop55
280
     0
102
RTVSPost2010PropOp55
 70
     1
102
RTVSPost2010Prop56
140
1.0
102
RTVSPost2010PropOp56
 70
     1
102
RTVSPost2010Prop57
140
1.0
102
RTVSPost2010PropOp57
 70
     1
  0
XRECORD
  5
172
102
{ACAD_REACTORS
330
171
102
}
330
171
100
AcDbXrecord
280
     1
102
RTVSPropertyOp0
 70
     1
102
RTVSPropertyOp1
 70
     1
102
RTVSPropertyOp2
 70
     1
102
RTVSPropertyOp3
 70
     1
102
RTVSPropertyOp4
 70
     1
102
RTVSPropertyOp5
 70
     1
102
RTVSPropertyOp6
 70
     1
102
RTVSPropertyOp7
 70
     1
102
RTVSPropertyOp8
 70
     1
102
RTVSPropertyOp9
 70
     1
102
RTVSPropertyOp10
 70
     1
102
RTVSPropertyOp11
 70
     1
102
RTVSPropertyOp12
 70
     1
102
RTVSPropertyOp13
 70
     1
102
RTVSPropertyOp14
 70
     1
102
RTVSPropertyOp15
 70
     1
102
RTVSPropertyOp16
 70
     1
102
RTVSPropertyOp17
 70
     1
102
RTVSPropertyOp18
 70
     1
102
RTVSPropertyOp19
 70
     1
102
RTVSPropertyOp20
 70
     1
102
RTVSPropertyOp21
 70
     1
102
RTVSPropertyOp22
 70
     1
102
RTVSPropertyOp23
 70
     1
102
RTVSPropertyOp24
 70
     1
102
RTVSPropertyOp25
 70
     1
102
RTVSPropertyOp26
 70
     1
102
RTVSPropertyOp27
 70
     1
102
RTVSPropertyOp28
 70
     1
102
RTVSPropertyOp29
 70
     1
102
RTVSPropertyOp30
 70
     1
102
RTVSPropertyOp31
 70
     1
102
RTVSPropertyOp32
 70
     1
102
RTVSPropertyOp33
 70
     1
102
RTVSPropertyOp34
 70
     1
102
RTVSPropertyOp35
 70
     1
102
RTVSPropertyOp36
 70
     1
102
RTVSPropertyOp37
 70
     1
102
RTVSPropertyOp38
 70
     1
102
RTVSPropertyOp39
 70
     1
102
RTVSPropertyOp40
 70
     1
102
RTVSPropertyOp41
 70
     1
102
RTVSPropertyOp42
 70
     1
102
RTVSPropertyOp43
 70
     1
102
RTVSPropertyOp44
 70
     1
102
RTVSPropertyOp45
 70
     1
102
RTVSPropertyOp46
 70
     1
102
RTVSPropertyOp47
 70
     1
102
RTVSPropertyOp48
 70
     1
102
RTVSPropertyOp49
 70
     1
102
RTVSPropertyOp50
 70
     1
102
RTVSPropertyOp51
 70
     0
102
RTVSPropertyOp52
 70
     0
102
RTVSPropertyOp53
 70
     1
102
RTVSPropertyOp54
 70
     1
102
RTVSPropertyOp55
 70
     1
102
RTVSPropertyOp56
 70
     1
102
RTVSPropertyOp57
 70
     1
102
RTVSPost2010Prop28
280
     0
102
RTVSPost2010PropOp28
 70
     1
102
RTVSPost2010Prop29
280
     1
102
RTVSPost2010PropOp29
 70
     1
102
RTVSPost2010Prop30
280
     1
102
RTVSPost2010PropOp30
 70
     1
102
RTVSPost2010Prop31
280
     0
102
RTVSPost2010PropOp31
 70
     1
102
RTVSPost2010Prop32
280
     0
102
RTVSPost2010PropOp32
 70
     1
102
RTVSPost2010Prop33
280
     0
102
RTVSPost2010PropOp33
 70
     1
102
RTVSPost2010Prop34
280
     0
102
RTVSPost2010PropOp34
 70
     1
102
RTVSPost2010Prop35
280
     0
102
RTVSPost2010PropOp35
 70
     1
102
RTVSPost2010Prop36
280
     0
102
RTVSPost2010PropOp36
 70
     1
102
RTVSPost2010Prop37
 90
       50
102
RTVSPost2010PropOp37
 70
     1
102
RTVSPost2010Prop38
140
0.0
102
RTVSPost2010PropOp38
 70
     1
102
RTVSPost2010Prop39
140
1.0
102
RTVSPost2010PropOp39
 70
     1
102
RTVSPost2010Prop40
 90
        0
102
RTVSPost2010PropOp40
 70
     1
102
RTVSPost2010Prop41ColorIndex
 90
       18
102
RTVSPost2010Prop41ColorRGB
 90
        0
102
RTVSPost2010PropOp41
 70
     1
102
RTVSPost2010Prop42
 90
       50
102
RTVSPost2010PropOp42
 70
     1
102
RTVSPost2010Prop43
 90
        3
102
RTVSPost2010PropOp43
 70
     1
102
RTVSPost2010Prop44ColorIndex
 90
        5
102
RTVSPost2010Prop44ColorRGB
 90
      255
102
RTVSPost2010PropOp44
 70
     1
102
RTVSPost2010Prop45
280
     0
102
RTVSPost2010PropOp45
 70
     1
102
RTVSPost2010Prop46
 90
       50
102
RTVSPost2010PropOp46
 70
     1
102
RTVSPost2010Prop47
 90
       50
102
RTVSPost2010PropOp47
 70
     1
102
RTVSPost2010Prop48
 90
       50
102
RTVSPost2010PropOp48
 70
     1
102
RTVSPost2010Prop49
280
     0
102
RTVSPost2010PropOp49
 70
     1
102
RTVSPost2010Prop50
 90
       50
102
RTVSPost2010PropOp50
 70
     1
102
RTVSPost2010Prop51ColorIndex
 90
      256
102
RTVSPost2010Prop51ColorRGB
 90
-16777216
102
RTVSPost2010PropOp51
 70
     0
102
RTVSPost2010Prop52
140
1.0
102
RTVSPost2010PropOp52
 70
     0
102
RTVSPost2010Prop53
 90
        2
102
RTVSPost2010PropOp53
 70
     1
102
RTVSPost2010Prop54
  1
strokes_ogs.tif
102
RTVSPost2010PropOp54
 70
     1
102
RTVSPost2010Prop55
280
     0
102
RTVSPost2010PropOp55
 70
     1
102
RTVSPost2010Prop56
140
1.0
102
RTVSPost2010PropOp56
 70
     1
102
RTVSPost2010Prop57
140
1.0
102
RTVSPost2010PropOp57
 70
     1
  0
XRECORD
  5
174
102
{ACAD_REACTORS
330
173
102
}
330
173
100
AcDbXrecord
280
     1
102
RTVSPropertyOp0
 70
     1
102
RTVSPropertyOp1
 70
     1
102
RTVSPropertyOp2
 70
     1
102
RTVSPropertyOp3
 70
     1
102
RTVSPropertyOp4
 70
     1
102
RTVSPropertyOp5
 70
     1
102
RTVSPropertyOp6
 70
     1
102
RTVSPropertyOp7
 70
     1
102
RTVSPropertyOp8
 70
     1
102
RTVSPropertyOp9
 70
     1
102
RTVSPropertyOp10
 70
     1
102
RTVSPropertyOp11
 70
     1
102
RTVSPropertyOp12
 70
     1
102
RTVSPropertyOp13
 70
     1
102
RTVSPropertyOp14
 70
     1
102
RTVSPropertyOp15
 70
     1
102
RTVSPropertyOp16
 70
     1
102
RTVSPropertyOp17
 70
     1
102
RTVSPropertyOp18
 70
     1
102
RTVSPropertyOp19
 70
     1
102
RTVSPropertyOp20
 70
     1
102
RTVSPropertyOp21
 70
     1
102
RTVSPropertyOp22
 70
     1
102
RTVSPropertyOp23
 70
     1
102
RTVSPropertyOp24
 70
     1
102
RTVSPropertyOp25
 70
     1
102
RTVSPropertyOp26
 70
     1
102
RTVSPropertyOp27
 70
     1
102
RTVSPropertyOp28
 70
     1
102
RTVSPropertyOp29
 70
     1
102
RTVSPropertyOp30
 70
     1
102
RTVSPropertyOp31
 70
     1
102
RTVSPropertyOp32
 70
     1
102
RTVSPropertyOp33
 70
     1
102
RTVSPropertyOp34
 70
     1
102
RTVSPropertyOp35
 70
     1
102
RTVSPropertyOp36
 70
     1
102
RTVSPropertyOp37
 70
     1
102
RTVSPropertyOp38
 70
     1
102
RTVSPropertyOp39
 70
     1
102
RTVSPropertyOp40
 70
     1
102
RTVSPropertyOp41
 70
     1
102
RTVSPropertyOp42
 70
     1
102
RTVSPropertyOp43
 70
     1
102
RTVSPropertyOp44
 70
     1
102
RTVSPropertyOp45
 70
     1
102
RTVSPropertyOp46
 70
     1
102
RTVSPropertyOp47
 70
     1
102
RTVSPropertyOp48
 70
     1
102
RTVSPropertyOp49
 70
     1
102
RTVSPropertyOp50
 70
     1
102
RTVSPropertyOp51
 70
     0
102
RTVSPropertyOp52
 70
     0
102
RTVSPropertyOp53
 70
     1
102
RTVSPropertyOp54
 70
     1
102
RTVSPropertyOp55
 70
     1
102
RTVSPropertyOp56
 70
     1
102
RTVSPropertyOp57
 70
     1
102
RTVSPost2010Prop28
280
     0
102
RTVSPost2010PropOp28
 70
     1
102
RTVSPost2010Prop29
280
     1
102
RTVSPost2010PropOp29
 70
     1
102
RTVSPost2010Prop30
280
     1
102
RTVSPost2010PropOp30
 70
     1
102
RTVSPost2010Prop31
280
     0
102
RTVSPost2010PropOp31
 70
     1
102
RTVSPost2010Prop32
280
     0
102
RTVSPost2010PropOp32
 70
     1
102
RTVSPost2010Prop33
280
     0
102
RTVSPost2010PropOp33
 70
     1
102
RTVSPost2010Prop34
280
     0
102
RTVSPost2010PropOp34
 70
     1
102
RTVSPost2010Prop35
280
     0
102
RTVSPost2010PropOp35
 70
     1
102
RTVSPost2010Prop36
280
     0
102
RTVSPost2010PropOp36
 70
     1
102
RTVSPost2010Prop37
 90
       50
102
RTVSPost2010PropOp37
 70
     1
102
RTVSPost2010Prop38
140
0.0
102
RTVSPost2010PropOp38
 70
     1
102
RTVSPost2010Prop39
140
1.0
102
RTVSPost2010PropOp39
 70
     1
102
RTVSPost2010Prop40
 90
        0
102
RTVSPost2010PropOp40
 70
     1
102
RTVSPost2010Prop41ColorIndex
 90
       18
102
RTVSPost2010Prop41ColorRGB
 90
        0
102
RTVSPost2010PropOp41
 70
     1
102
RTVSPost2010Prop42
 90
       50
102
RTVSPost2010PropOp42
 70
     1
102
RTVSPost2010Prop43
 90
        3
102
RTVSPost2010PropOp43
 70
     1
102
RTVSPost2010Prop44ColorIndex
 90
        5
102
RTVSPost2010Prop44ColorRGB
 90
      255
102
RTVSPost2010PropOp44
 70
     1
102
RTVSPost2010Prop45
280
     0
102
RTVSPost2010PropOp45
 70
     1
102
RTVSPost2010Prop46
 90
       50
102
RTVSPost2010PropOp46
 70
     1
102
RTVSPost2010Prop47
 90
       50
102
RTVSPost2010PropOp47
 70
     1
102
RTVSPost2010Prop48
 90
       50
102
RTVSPost2010PropOp48
 70
     1
102
RTVSPost2010Prop49
280
     0
102
RTVSPost2010PropOp49
 70
     1
102
RTVSPost2010Prop50
 90
       50
102
RTVSPost2010PropOp50
 70
     1
102
RTVSPost2010Prop51ColorIndex
 90
      256
102
RTVSPost2010Prop51ColorRGB
 90
-16777216
102
RTVSPost2010PropOp51
 70
     0
102
RTVSPost2010Prop52
140
1.0
102
RTVSPost2010PropOp52
 70
     0
102
RTVSPost2010Prop53
 90
        2
102
RTVSPost2010PropOp53
 70
     1
102
RTVSPost2010Prop54
  1
strokes_ogs.tif
102
RTVSPost2010PropOp54
 70
     1
102
RTVSPost2010Prop55
280
     0
102
RTVSPost2010PropOp55
 70
     1
102
RTVSPost2010Prop56
140
1.0
102
RTVSPost2010PropOp56
 70
     1
102
RTVSPost2010Prop57
140
1.0
102
RTVSPost2010PropOp57
 70
     1
  0
XRECORD
  5
184
102
{ACAD_REACTORS
330
183
102
}
330
183
100
AcDbXrecord
280
     1
102
RTVSPropertyOp0
 70
     0
102
RTVSPropertyOp1
 70
     0
102
RTVSPropertyOp2
 70
     0
102
RTVSPropertyOp3
 70
     0
102
RTVSPropertyOp4
 70
     0
102
RTVSPropertyOp5
 70
     0
102
RTVSPropertyOp6
 70
     0
102
RTVSPropertyOp7
 70
     0
102
RTVSPropertyOp8
 70
     0
102
RTVSPropertyOp9
 70
     0
102
RTVSPropertyOp10
 70
     0
102
RTVSPropertyOp11
 70
     0
102
RTVSPropertyOp12
 70
     0
102
RTVSPropertyOp13
 70
     0
102
RTVSPropertyOp14
 70
     2
102
RTVSPropertyOp15
 70
     0
102
RTVSPropertyOp16
 70
     0
102
RTVSPropertyOp17
 70
     0
102
RTVSPropertyOp18
 70
     0
102
RTVSPropertyOp19
 70
     0
102
RTVSPropertyOp20
 70
     0
102
RTVSPropertyOp21
 70
     0
102
RTVSPropertyOp22
 70
     0
102
RTVSPropertyOp23
 70
     0
102
RTVSPropertyOp24
 70
     0
102
RTVSPropertyOp25
 70
     0
102
RTVSPropertyOp26
 70
     0
102
RTVSPropertyOp27
 70
     0
102
RTVSPropertyOp28
 70
     0
102
RTVSPropertyOp29
 70
     0
102
RTVSPropertyOp30
 70
     0
102
RTVSPropertyOp31
 70
     0
102
RTVSPropertyOp32
 70
     0
102
RTVSPropertyOp33
 70
     0
102
RTVSPropertyOp34
 70
     0
102
RTVSPropertyOp35
 70
     0
102
RTVSPropertyOp36
 70
     0
102
RTVSPropertyOp37
 70
     0
102
RTVSPropertyOp38
 70
     0
102
RTVSPropertyOp39
 70
     0
102
RTVSPropertyOp40
 70
     0
102
RTVSPropertyOp41
 70
     0
102
RTVSPropertyOp42
 70
     0
102
RTVSPropertyOp43
 70
     0
102
RTVSPropertyOp44
 70
     0
102
RTVSPropertyOp45
 70
     0
102
RTVSPropertyOp46
 70
     0
102
RTVSPropertyOp47
 70
     0
102
RTVSPropertyOp48
 70
     0
102
RTVSPropertyOp49
 70
     0
102
RTVSPropertyOp50
 70
     0
102
RTVSPropertyOp51
 70
     0
102
RTVSPropertyOp52
 70
     0
102
RTVSPropertyOp53
 70
     0
102
RTVSPropertyOp54
 70
     0
102
RTVSPropertyOp55
 70
     0
102
RTVSPropertyOp56
 70
     0
102
RTVSPropertyOp57
 70
     0
102
RTVSPost2010Prop28
280
     0
102
RTVSPost2010PropOp28
 70
     0
102
RTVSPost2010Prop29
280
     1
102
RTVSPost2010PropOp29
 70
     0
102
RTVSPost2010Prop30
280
     1
102
RTVSPost2010PropOp30
 70
     0
102
RTVSPost2010Prop31
280
     0
102
RTVSPost2010PropOp31
 70
     0
102
RTVSPost2010Prop32
280
     0
102
RTVSPost2010PropOp32
 70
     0
102
RTVSPost2010Prop33
280
     0
102
RTVSPost2010PropOp33
 70
     0
102
RTVSPost2010Prop34
280
     0
102
RTVSPost2010PropOp34
 70
     0
102
RTVSPost2010Prop35
280
     0
102
RTVSPost2010PropOp35
 70
     0
102
RTVSPost2010Prop36
280
     0
102
RTVSPost2010PropOp36
 70
     0
102
RTVSPost2010Prop37
 90
       50
102
RTVSPost2010PropOp37
 70
     0
102
RTVSPost2010Prop38
140
0.0
102
RTVSPost2010PropOp38
 70
     0
102
RTVSPost2010Prop39
140
1.0
102
RTVSPost2010PropOp39
 70
     0
102
RTVSPost2010Prop40
 90
        0
102
RTVSPost2010PropOp40
 70
     0
102
RTVSPost2010Prop41ColorIndex
 90
       18
102
RTVSPost2010Prop41ColorRGB
 90
        0
102
RTVSPost2010PropOp41
 70
     0
102
RTVSPost2010Prop42
 90
       50
102
RTVSPost2010PropOp42
 70
     0
102
RTVSPost2010Prop43
 90
        3
102
RTVSPost2010PropOp43
 70
     0
102
RTVSPost2010Prop44ColorIndex
 90
        5
102
RTVSPost2010Prop44ColorRGB
 90
      255
102
RTVSPost2010PropOp44
 70
     0
102
RTVSPost2010Prop45
280
     0
102
RTVSPost2010PropOp45
 70
     0
102
RTVSPost2010Prop46
 90
       50
102
RTVSPost2010PropOp46
 70
     0
102
RTVSPost2010Prop47
 90
       50
102
RTVSPost2010PropOp47
 70
     0
102
RTVSPost2010Prop48
 90
       50
102
RTVSPost2010PropOp48
 70
     0
102
RTVSPost2010Prop49
280
     0
102
RTVSPost2010PropOp49
 70
     0
102
RTVSPost2010Prop50
 90
       50
102
RTVSPost2010PropOp50
 70
     0
102
RTVSPost2010Prop51ColorIndex
 90
      256
102
RTVSPost2010Prop51ColorRGB
 90
-16777216
102
RTVSPost2010PropOp51
 70
     0
102
RTVSPost2010Prop52
140
1.0
102
RTVSPost2010PropOp52
 70
     0
102
RTVSPost2010Prop53
 90
        2
102
RTVSPost2010PropOp53
 70
     0
102
RTVSPost2010Prop54
  1
strokes_ogs.tif
102
RTVSPost2010PropOp54
 70
     0
102
RTVSPost2010Prop55
280
     0
102
RTVSPost2010PropOp55
 70
     0
102
RTVSPost2010Prop56
140
1.0
102
RTVSPost2010PropOp56
 70
     0
102
RTVSPost2010Prop57
140
1.0
102
RTVSPost2010PropOp57
 70
     0
  0
XRECORD
  5
17C
102
{ACAD_REACTORS
330
17B
102
}
330
17B
100
AcDbXrecord
280
     1
102
RTVSPropertyOp0
 70
     1
102
RTVSPropertyOp1
 70
     1
102
RTVSPropertyOp2
 70
     1
102
RTVSPropertyOp3
 70
     1
102
RTVSPropertyOp4
 70
     1
102
RTVSPropertyOp5
 70
     1
102
RTVSPropertyOp6
 70
     1
102
RTVSPropertyOp7
 70
     1
102
RTVSPropertyOp8
 70
     1
102
RTVSPropertyOp9
 70
     1
102
RTVSPropertyOp10
 70
     1
102
RTVSPropertyOp11
 70
     1
102
RTVSPropertyOp12
 70
     1
102
RTVSPropertyOp13
 70
     1
102
RTVSPropertyOp14
 70
     1
102
RTVSPropertyOp15
 70
     1
102
RTVSPropertyOp16
 70
     1
102
RTVSPropertyOp17
 70
     1
102
RTVSPropertyOp18
 70
     1
102
RTVSPropertyOp19
 70
     1
102
RTVSPropertyOp20
 70
     1
102
RTVSPropertyOp21
 70
     1
102
RTVSPropertyOp22
 70
     1
102
RTVSPropertyOp23
 70
     1
102
RTVSPropertyOp24
 70
     1
102
RTVSPropertyOp25
 70
     1
102
RTVSPropertyOp26
 70
     1
102
RTVSPropertyOp27
 70
     1
102
RTVSPropertyOp28
 70
     1
102
RTVSPropertyOp29
 70
     1
102
RTVSPropertyOp30
 70
     1
102
RTVSPropertyOp31
 70
     1
102
RTVSPropertyOp32
 70
     1
102
RTVSPropertyOp33
 70
     1
102
RTVSPropertyOp34
 70
     1
102
RTVSPropertyOp35
 70
     1
102
RTVSPropertyOp36
 70
     1
102
RTVSPropertyOp37
 70
     1
102
RTVSPropertyOp38
 70
     1
102
RTVSPropertyOp39
 70
     1
102
RTVSPropertyOp40
 70
     1
102
RTVSPropertyOp41
 70
     1
102
RTVSPropertyOp42
 70
     1
102
RTVSPropertyOp43
 70
     1
102
RTVSPropertyOp44
 70
     1
102
RTVSPropertyOp45
 70
     1
102
RTVSPropertyOp46
 70
     1
102
RTVSPropertyOp47
 70
     1
102
RTVSPropertyOp48
 70
     1
102
RTVSPropertyOp49
 70
     1
102
RTVSPropertyOp50
 70
     1
102
RTVSPropertyOp51
 70
     0
102
RTVSPropertyOp52
 70
     0
102
RTVSPropertyOp53
 70
     1
102
RTVSPropertyOp54
 70
     1
102
RTVSPropertyOp55
 70
     1
102
RTVSPropertyOp56
 70
     1
102
RTVSPropertyOp57
 70
     1
102
RTVSPost2010Prop28
280
     0
102
RTVSPost2010PropOp28
 70
     1
102
RTVSPost2010Prop29
280
     1
102
RTVSPost2010PropOp29
 70
     1
102
RTVSPost2010Prop30
280
     1
102
RTVSPost2010PropOp30
 70
     1
102
RTVSPost2010Prop31
280
     0
102
RTVSPost2010PropOp31
 70
     1
102
RTVSPost2010Prop32
280
     0
102
RTVSPost2010PropOp32
 70
     1
102
RTVSPost2010Prop33
280
     0
102
RTVSPost2010PropOp33
 70
     1
102
RTVSPost2010Prop34
280
     0
102
RTVSPost2010PropOp34
 70
     1
102
RTVSPost2010Prop35
280
     0
102
RTVSPost2010PropOp35
 70
     1
102
RTVSPost2010Prop36
280
     0
102
RTVSPost2010PropOp36
 70
     1
102
RTVSPost2010Prop37
 90
       50
102
RTVSPost2010PropOp37
 70
     1
102
RTVSPost2010Prop38
140
0.0
102
RTVSPost2010PropOp38
 70
     1
102
RTVSPost2010Prop39
140
1.0
102
RTVSPost2010PropOp39
 70
     1
102
RTVSPost2010Prop40
 90
        0
102
RTVSPost2010PropOp40
 70
     1
102
RTVSPost2010Prop41ColorIndex
 90
       18
102
RTVSPost2010Prop41ColorRGB
 90
        0
102
RTVSPost2010PropOp41
 70
     1
102
RTVSPost2010Prop42
 90
       50
102
RTVSPost2010PropOp42
 70
     1
102
RTVSPost2010Prop43
 90
        3
102
RTVSPost2010PropOp43
 70
     1
102
RTVSPost2010Prop44ColorIndex
 90
        5
102
RTVSPost2010Prop44ColorRGB
 90
      255
102
RTVSPost2010PropOp44
 70
     1
102
RTVSPost2010Prop45
280
     0
102
RTVSPost2010PropOp45
 70
     1
102
RTVSPost2010Prop46
 90
       50
102
RTVSPost2010PropOp46
 70
     1
102
RTVSPost2010Prop47
 90
       50
102
RTVSPost2010PropOp47
 70
     1
102
RTVSPost2010Prop48
 90
       50
102
RTVSPost2010PropOp48
 70
     1
102
RTVSPost2010Prop49
280
     0
102
RTVSPost2010PropOp49
 70
     1
102
RTVSPost2010Prop50
 90
       50
102
RTVSPost2010PropOp50
 70
     1
102
RTVSPost2010Prop51ColorIndex
 90
      256
102
RTVSPost2010Prop51ColorRGB
 90
-16777216
102
RTVSPost2010PropOp51
 70
     0
102
RTVSPost2010Prop52
140
1.0
102
RTVSPost2010PropOp52
 70
     0
102
RTVSPost2010Prop53
 90
        2
102
RTVSPost2010PropOp53
 70
     1
102
RTVSPost2010Prop54
  1
strokes_ogs.tif
102
RTVSPost2010PropOp54
 70
     1
102
RTVSPost2010Prop55
280
     0
102
RTVSPost2010PropOp55
 70
     1
102
RTVSPost2010Prop56
140
1.0
102
RTVSPost2010PropOp56
 70
     1
102
RTVSPost2010Prop57
140
1.0
102
RTVSPost2010PropOp57
 70
     1
  0
XRECORD
  5
160
102
{ACAD_REACTORS
330
15F
102
}
330
15F
100
AcDbXrecord
280
     1
102
RTVSPropertyOp0
 70
     1
102
RTVSPropertyOp1
 70
     1
102
RTVSPropertyOp2
 70
     1
102
RTVSPropertyOp3
 70
     1
102
RTVSPropertyOp4
 70
     1
102
RTVSPropertyOp5
 70
     1
102
RTVSPropertyOp6
 70
     1
102
RTVSPropertyOp7
 70
     1
102
RTVSPropertyOp8
 70
     1
102
RTVSPropertyOp9
 70
     1
102
RTVSPropertyOp10
 70
     1
102
RTVSPropertyOp11
 70
     1
102
RTVSPropertyOp12
 70
     1
102
RTVSPropertyOp13
 70
     1
102
RTVSPropertyOp14
 70
     1
102
RTVSPropertyOp15
 70
     1
102
RTVSPropertyOp16
 70
     1
102
RTVSPropertyOp17
 70
     1
102
RTVSPropertyOp18
 70
     1
102
RTVSPropertyOp19
 70
     1
102
RTVSPropertyOp20
 70
     1
102
RTVSPropertyOp21
 70
     1
102
RTVSPropertyOp22
 70
     1
102
RTVSPropertyOp23
 70
     1
102
RTVSPropertyOp24
 70
     1
102
RTVSPropertyOp25
 70
     1
102
RTVSPropertyOp26
 70
     1
102
RTVSPropertyOp27
 70
     1
102
RTVSPropertyOp28
 70
     1
102
RTVSPropertyOp29
 70
     1
102
RTVSPropertyOp30
 70
     1
102
RTVSPropertyOp31
 70
     1
102
RTVSPropertyOp32
 70
     1
102
RTVSPropertyOp33
 70
     1
102
RTVSPropertyOp34
 70
     1
102
RTVSPropertyOp35
 70
     1
102
RTVSPropertyOp36
 70
     1
102
RTVSPropertyOp37
 70
     1
102
RTVSPropertyOp38
 70
     1
102
RTVSPropertyOp39
 70
     1
102
RTVSPropertyOp40
 70
     1
102
RTVSPropertyOp41
 70
     1
102
RTVSPropertyOp42
 70
     1
102
RTVSPropertyOp43
 70
     1
102
RTVSPropertyOp44
 70
     1
102
RTVSPropertyOp45
 70
     1
102
RTVSPropertyOp46
 70
     1
102
RTVSPropertyOp47
 70
     1
102
RTVSPropertyOp48
 70
     1
102
RTVSPropertyOp49
 70
     1
102
RTVSPropertyOp50
 70
     1
102
RTVSPropertyOp51
 70
     0
102
RTVSPropertyOp52
 70
     0
102
RTVSPropertyOp53
 70
     1
102
RTVSPropertyOp54
 70
     1
102
RTVSPropertyOp55
 70
     1
102
RTVSPropertyOp56
 70
     1
102
RTVSPropertyOp57
 70
     1
102
RTVSPost2010Prop28
280
     0
102
RTVSPost2010PropOp28
 70
     1
102
RTVSPost2010Prop29
280
     1
102
RTVSPost2010PropOp29
 70
     1
102
RTVSPost2010Prop30
280
     1
102
RTVSPost2010PropOp30
 70
     1
102
RTVSPost2010Prop31
280
     0
102
RTVSPost2010PropOp31
 70
     1
102
RTVSPost2010Prop32
280
     0
102
RTVSPost2010PropOp32
 70
     1
102
RTVSPost2010Prop33
280
     0
102
RTVSPost2010PropOp33
 70
     1
102
RTVSPost2010Prop34
280
     0
102
RTVSPost2010PropOp34
 70
     1
102
RTVSPost2010Prop35
280
     0
102
RTVSPost2010PropOp35
 70
     1
102
RTVSPost2010Prop36
280
     0
102
RTVSPost2010PropOp36
 70
     1
102
RTVSPost2010Prop37
 90
       50
102
RTVSPost2010PropOp37
 70
     1
102
RTVSPost2010Prop38
140
0.0
102
RTVSPost2010PropOp38
 70
     1
102
RTVSPost2010Prop39
140
1.0
102
RTVSPost2010PropOp39
 70
     1
102
RTVSPost2010Prop40
 90
        0
102
RTVSPost2010PropOp40
 70
     1
102
RTVSPost2010Prop41ColorIndex
 90
       18
102
RTVSPost2010Prop41ColorRGB
 90
        0
102
RTVSPost2010PropOp41
 70
     1
102
RTVSPost2010Prop42
 90
       50
102
RTVSPost2010PropOp42
 70
     1
102
RTVSPost2010Prop43
 90
        3
102
RTVSPost2010PropOp43
 70
     1
102
RTVSPost2010Prop44ColorIndex
 90
        5
102
RTVSPost2010Prop44ColorRGB
 90
      255
102
RTVSPost2010PropOp44
 70
     1
102
RTVSPost2010Prop45
280
     0
102
RTVSPost2010PropOp45
 70
     1
102
RTVSPost2010Prop46
 90
       50
102
RTVSPost2010PropOp46
 70
     1
102
RTVSPost2010Prop47
 90
       50
102
RTVSPost2010PropOp47
 70
     1
102
RTVSPost2010Prop48
 90
       50
102
RTVSPost2010PropOp48
 70
     1
102
RTVSPost2010Prop49
280
     0
102
RTVSPost2010PropOp49
 70
     1
102
RTVSPost2010Prop50
 90
       50
102
RTVSPost2010PropOp50
 70
     1
102
RTVSPost2010Prop51ColorIndex
 90
      256
102
RTVSPost2010Prop51ColorRGB
 90
-16777216
102
RTVSPost2010PropOp51
 70
     0
102
RTVSPost2010Prop52
140
1.0
102
RTVSPost2010PropOp52
 70
     0
102
RTVSPost2010Prop53
 90
        2
102
RTVSPost2010PropOp53
 70
     1
102
RTVSPost2010Prop54
  1
strokes_ogs.tif
102
RTVSPost2010PropOp54
 70
     1
102
RTVSPost2010Prop55
280
     0
102
RTVSPost2010PropOp55
 70
     1
102
RTVSPost2010Prop56
140
1.0
102
RTVSPost2010PropOp56
 70
     1
102
RTVSPost2010Prop57
140
1.0
102
RTVSPost2010PropOp57
 70
     1
  0
XRECORD
  5
162
102
{ACAD_REACTORS
330
161
102
}
330
161
100
AcDbXrecord
280
     1
102
RTVSPropertyOp0
 70
     1
102
RTVSPropertyOp1
 70
     1
102
RTVSPropertyOp2
 70
     1
102
RTVSPropertyOp3
 70
     1
102
RTVSPropertyOp4
 70
     1
102
RTVSPropertyOp5
 70
     1
102
RTVSPropertyOp6
 70
     1
102
RTVSPropertyOp7
 70
     1
102
RTVSPropertyOp8
 70
     1
102
RTVSPropertyOp9
 70
     1
102
RTVSPropertyOp10
 70
     1
102
RTVSPropertyOp11
 70
     1
102
RTVSPropertyOp12
 70
     1
102
RTVSPropertyOp13
 70
     1
102
RTVSPropertyOp14
 70
     1
102
RTVSPropertyOp15
 70
     1
102
RTVSPropertyOp16
 70
     1
102
RTVSPropertyOp17
 70
     1
102
RTVSPropertyOp18
 70
     1
102
RTVSPropertyOp19
 70
     1
102
RTVSPropertyOp20
 70
     1
102
RTVSPropertyOp21
 70
     1
102
RTVSPropertyOp22
 70
     1
102
RTVSPropertyOp23
 70
     1
102
RTVSPropertyOp24
 70
     1
102
RTVSPropertyOp25
 70
     1
102
RTVSPropertyOp26
 70
     1
102
RTVSPropertyOp27
 70
     1
102
RTVSPropertyOp28
 70
     1
102
RTVSPropertyOp29
 70
     1
102
RTVSPropertyOp30
 70
     1
102
RTVSPropertyOp31
 70
     1
102
RTVSPropertyOp32
 70
     1
102
RTVSPropertyOp33
 70
     1
102
RTVSPropertyOp34
 70
     1
102
RTVSPropertyOp35
 70
     1
102
RTVSPropertyOp36
 70
     1
102
RTVSPropertyOp37
 70
     1
102
RTVSPropertyOp38
 70
     1
102
RTVSPropertyOp39
 70
     1
102
RTVSPropertyOp40
 70
     1
102
RTVSPropertyOp41
 70
     1
102
RTVSPropertyOp42
 70
     1
102
RTVSPropertyOp43
 70
     1
102
RTVSPropertyOp44
 70
     1
102
RTVSPropertyOp45
 70
     1
102
RTVSPropertyOp46
 70
     1
102
RTVSPropertyOp47
 70
     1
102
RTVSPropertyOp48
 70
     1
102
RTVSPropertyOp49
 70
     1
102
RTVSPropertyOp50
 70
     1
102
RTVSPropertyOp51
 70
     0
102
RTVSPropertyOp52
 70
     0
102
RTVSPropertyOp53
 70
     1
102
RTVSPropertyOp54
 70
     1
102
RTVSPropertyOp55
 70
     1
102
RTVSPropertyOp56
 70
     1
102
RTVSPropertyOp57
 70
     1
102
RTVSPost2010Prop28
280
     0
102
RTVSPost2010PropOp28
 70
     1
102
RTVSPost2010Prop29
280
     1
102
RTVSPost2010PropOp29
 70
     1
102
RTVSPost2010Prop30
280
     1
102
RTVSPost2010PropOp30
 70
     1
102
RTVSPost2010Prop31
280
     0
102
RTVSPost2010PropOp31
 70
     1
102
RTVSPost2010Prop32
280
     0
102
RTVSPost2010PropOp32
 70
     1
102
RTVSPost2010Prop33
280
     0
102
RTVSPost2010PropOp33
 70
     1
102
RTVSPost2010Prop34
280
     0
102
RTVSPost2010PropOp34
 70
     1
102
RTVSPost2010Prop35
280
     0
102
RTVSPost2010PropOp35
 70
     1
102
RTVSPost2010Prop36
280
     0
102
RTVSPost2010PropOp36
 70
     1
102
RTVSPost2010Prop37
 90
       50
102
RTVSPost2010PropOp37
 70
     1
102
RTVSPost2010Prop38
140
0.0
102
RTVSPost2010PropOp38
 70
     1
102
RTVSPost2010Prop39
140
1.0
102
RTVSPost2010PropOp39
 70
     1
102
RTVSPost2010Prop40
 90
        0
102
RTVSPost2010PropOp40
 70
     1
102
RTVSPost2010Prop41ColorIndex
 90
       18
102
RTVSPost2010Prop41ColorRGB
 90
        0
102
RTVSPost2010PropOp41
 70
     1
102
RTVSPost2010Prop42
 90
       50
102
RTVSPost2010PropOp42
 70
     1
102
RTVSPost2010Prop43
 90
        3
102
RTVSPost2010PropOp43
 70
     1
102
RTVSPost2010Prop44ColorIndex
 90
        5
102
RTVSPost2010Prop44ColorRGB
 90
      255
102
RTVSPost2010PropOp44
 70
     1
102
RTVSPost2010Prop45
280
     0
102
RTVSPost2010PropOp45
 70
     1
102
RTVSPost2010Prop46
 90
       50
102
RTVSPost2010PropOp46
 70
     1
102
RTVSPost2010Prop47
 90
       50
102
RTVSPost2010PropOp47
 70
     1
102
RTVSPost2010Prop48
 90
       50
102
RTVSPost2010PropOp48
 70
     1
102
RTVSPost2010Prop49
280
     0
102
RTVSPost2010PropOp49
 70
     1
102
RTVSPost2010Prop50
 90
       50
102
RTVSPost2010PropOp50
 70
     1
102
RTVSPost2010Prop51ColorIndex
 90
      256
102
RTVSPost2010Prop51ColorRGB
 90
-16777216
102
RTVSPost2010PropOp51
 70
     0
102
RTVSPost2010Prop52
140
1.0
102
RTVSPost2010PropOp52
 70
     0
102
RTVSPost2010Prop53
 90
        2
102
RTVSPost2010PropOp53
 70
     1
102
RTVSPost2010Prop54
  1
strokes_ogs.tif
102
RTVSPost2010PropOp54
 70
     1
102
RTVSPost2010Prop55
280
     0
102
RTVSPost2010PropOp55
 70
     1
102
RTVSPost2010Prop56
140
1.0
102
RTVSPost2010PropOp56
 70
     1
102
RTVSPost2010Prop57
140
1.0
102
RTVSPost2010PropOp57
 70
     1
  0
XRECORD
  5
164
102
{ACAD_REACTORS
330
163
102
}
330
163
100
AcDbXrecord
280
     1
102
RTVSPropertyOp0
 70
     1
102
RTVSPropertyOp1
 70
     1
102
RTVSPropertyOp2
 70
     1
102
RTVSPropertyOp3
 70
     1
102
RTVSPropertyOp4
 70
     1
102
RTVSPropertyOp5
 70
     1
102
RTVSPropertyOp6
 70
     1
102
RTVSPropertyOp7
 70
     1
102
RTVSPropertyOp8
 70
     1
102
RTVSPropertyOp9
 70
     1
102
RTVSPropertyOp10
 70
     1
102
RTVSPropertyOp11
 70
     1
102
RTVSPropertyOp12
 70
     1
102
RTVSPropertyOp13
 70
     1
102
RTVSPropertyOp14
 70
     1
102
RTVSPropertyOp15
 70
     1
102
RTVSPropertyOp16
 70
     1
102
RTVSPropertyOp17
 70
     1
102
RTVSPropertyOp18
 70
     1
102
RTVSPropertyOp19
 70
     1
102
RTVSPropertyOp20
 70
     1
102
RTVSPropertyOp21
 70
     1
102
RTVSPropertyOp22
 70
     1
102
RTVSPropertyOp23
 70
     1
102
RTVSPropertyOp24
 70
     1
102
RTVSPropertyOp25
 70
     1
102
RTVSPropertyOp26
 70
     1
102
RTVSPropertyOp27
 70
     1
102
RTVSPropertyOp28
 70
     1
102
RTVSPropertyOp29
 70
     1
102
RTVSPropertyOp30
 70
     1
102
RTVSPropertyOp31
 70
     1
102
RTVSPropertyOp32
 70
     1
102
RTVSPropertyOp33
 70
     1
102
RTVSPropertyOp34
 70
     1
102
RTVSPropertyOp35
 70
     1
102
RTVSPropertyOp36
 70
     1
102
RTVSPropertyOp37
 70
     1
102
RTVSPropertyOp38
 70
     1
102
RTVSPropertyOp39
 70
     1
102
RTVSPropertyOp40
 70
     1
102
RTVSPropertyOp41
 70
     1
102
RTVSPropertyOp42
 70
     1
102
RTVSPropertyOp43
 70
     1
102
RTVSPropertyOp44
 70
     1
102
RTVSPropertyOp45
 70
     1
102
RTVSPropertyOp46
 70
     1
102
RTVSPropertyOp47
 70
     1
102
RTVSPropertyOp48
 70
     1
102
RTVSPropertyOp49
 70
     1
102
RTVSPropertyOp50
 70
     1
102
RTVSPropertyOp51
 70
     0
102
RTVSPropertyOp52
 70
     0
102
RTVSPropertyOp53
 70
     1
102
RTVSPropertyOp54
 70
     1
102
RTVSPropertyOp55
 70
     1
102
RTVSPropertyOp56
 70
     1
102
RTVSPropertyOp57
 70
     1
102
RTVSPost2010Prop28
280
     0
102
RTVSPost2010PropOp28
 70
     1
102
RTVSPost2010Prop29
280
     1
102
RTVSPost2010PropOp29
 70
     1
102
RTVSPost2010Prop30
280
     1
102
RTVSPost2010PropOp30
 70
     1
102
RTVSPost2010Prop31
280
     0
102
RTVSPost2010PropOp31
 70
     1
102
RTVSPost2010Prop32
280
     0
102
RTVSPost2010PropOp32
 70
     1
102
RTVSPost2010Prop33
280
     0
102
RTVSPost2010PropOp33
 70
     1
102
RTVSPost2010Prop34
280
     0
102
RTVSPost2010PropOp34
 70
     1
102
RTVSPost2010Prop35
280
     0
102
RTVSPost2010PropOp35
 70
     1
102
RTVSPost2010Prop36
280
     0
102
RTVSPost2010PropOp36
 70
     1
102
RTVSPost2010Prop37
 90
       50
102
RTVSPost2010PropOp37
 70
     1
102
RTVSPost2010Prop38
140
0.0
102
RTVSPost2010PropOp38
 70
     1
102
RTVSPost2010Prop39
140
1.0
102
RTVSPost2010PropOp39
 70
     1
102
RTVSPost2010Prop40
 90
        0
102
RTVSPost2010PropOp40
 70
     1
102
RTVSPost2010Prop41ColorIndex
 90
       18
102
RTVSPost2010Prop41ColorRGB
 90
        0
102
RTVSPost2010PropOp41
 70
     1
102
RTVSPost2010Prop42
 90
       50
102
RTVSPost2010PropOp42
 70
     1
102
RTVSPost2010Prop43
 90
        3
102
RTVSPost2010PropOp43
 70
     1
102
RTVSPost2010Prop44ColorIndex
 90
        5
102
RTVSPost2010Prop44ColorRGB
 90
      255
102
RTVSPost2010PropOp44
 70
     1
102
RTVSPost2010Prop45
280
     0
102
RTVSPost2010PropOp45
 70
     1
102
RTVSPost2010Prop46
 90
       50
102
RTVSPost2010PropOp46
 70
     1
102
RTVSPost2010Prop47
 90
       50
102
RTVSPost2010PropOp47
 70
     1
102
RTVSPost2010Prop48
 90
       50
102
RTVSPost2010PropOp48
 70
     1
102
RTVSPost2010Prop49
280
     0
102
RTVSPost2010PropOp49
 70
     1
102
RTVSPost2010Prop50
 90
       50
102
RTVSPost2010PropOp50
 70
     1
102
RTVSPost2010Prop51ColorIndex
 90
      256
102
RTVSPost2010Prop51ColorRGB
 90
-16777216
102
RTVSPost2010PropOp51
 70
     0
102
RTVSPost2010Prop52
140
1.0
102
RTVSPost2010PropOp52
 70
     0
102
RTVSPost2010Prop53
 90
        2
102
RTVSPost2010PropOp53
 70
     1
102
RTVSPost2010Prop54
  1
strokes_ogs.tif
102
RTVSPost2010PropOp54
 70
     1
102
RTVSPost2010Prop55
280
     0
102
RTVSPost2010PropOp55
 70
     1
102
RTVSPost2010Prop56
140
1.0
102
RTVSPost2010PropOp56
 70
     1
102
RTVSPost2010Prop57
140
1.0
102
RTVSPost2010PropOp57
 70
     1
  0
XRECORD
  5
166
102
{ACAD_REACTORS
330
165
102
}
330
165
100
AcDbXrecord
280
     1
102
RTVSPropertyOp0
 70
     1
102
RTVSPropertyOp1
 70
     1
102
RTVSPropertyOp2
 70
     1
102
RTVSPropertyOp3
 70
     1
102
RTVSPropertyOp4
 70
     1
102
RTVSPropertyOp5
 70
     1
102
RTVSPropertyOp6
 70
     1
102
RTVSPropertyOp7
 70
     1
102
RTVSPropertyOp8
 70
     1
102
RTVSPropertyOp9
 70
     1
102
RTVSPropertyOp10
 70
     1
102
RTVSPropertyOp11
 70
     1
102
RTVSPropertyOp12
 70
     1
102
RTVSPropertyOp13
 70
     1
102
RTVSPropertyOp14
 70
     1
102
RTVSPropertyOp15
 70
     1
102
RTVSPropertyOp16
 70
     1
102
RTVSPropertyOp17
 70
     1
102
RTVSPropertyOp18
 70
     1
102
RTVSPropertyOp19
 70
     1
102
RTVSPropertyOp20
 70
     1
102
RTVSPropertyOp21
 70
     1
102
RTVSPropertyOp22
 70
     1
102
RTVSPropertyOp23
 70
     1
102
RTVSPropertyOp24
 70
     1
102
RTVSPropertyOp25
 70
     1
102
RTVSPropertyOp26
 70
     1
102
RTVSPropertyOp27
 70
     1
102
RTVSPropertyOp28
 70
     1
102
RTVSPropertyOp29
 70
     1
102
RTVSPropertyOp30
 70
     1
102
RTVSPropertyOp31
 70
     1
102
RTVSPropertyOp32
 70
     1
102
RTVSPropertyOp33
 70
     1
102
RTVSPropertyOp34
 70
     1
102
RTVSPropertyOp35
 70
     1
102
RTVSPropertyOp36
 70
     1
102
RTVSPropertyOp37
 70
     1
102
RTVSPropertyOp38
 70
     1
102
RTVSPropertyOp39
 70
     1
102
RTVSPropertyOp40
 70
     1
102
RTVSPropertyOp41
 70
     1
102
RTVSPropertyOp42
 70
     1
102
RTVSPropertyOp43
 70
     1
102
RTVSPropertyOp44
 70
     1
102
RTVSPropertyOp45
 70
     1
102
RTVSPropertyOp46
 70
     1
102
RTVSPropertyOp47
 70
     1
102
RTVSPropertyOp48
 70
     1
102
RTVSPropertyOp49
 70
     1
102
RTVSPropertyOp50
 70
     1
102
RTVSPropertyOp51
 70
     0
102
RTVSPropertyOp52
 70
     0
102
RTVSPropertyOp53
 70
     1
102
RTVSPropertyOp54
 70
     1
102
RTVSPropertyOp55
 70
     1
102
RTVSPropertyOp56
 70
     1
102
RTVSPropertyOp57
 70
     1
102
RTVSPost2010Prop28
280
     0
102
RTVSPost2010PropOp28
 70
     1
102
RTVSPost2010Prop29
280
     1
102
RTVSPost2010PropOp29
 70
     1
102
RTVSPost2010Prop30
280
     1
102
RTVSPost2010PropOp30
 70
     1
102
RTVSPost2010Prop31
280
     0
102
RTVSPost2010PropOp31
 70
     1
102
RTVSPost2010Prop32
280
     0
102
RTVSPost2010PropOp32
 70
     1
102
RTVSPost2010Prop33
280
     0
102
RTVSPost2010PropOp33
 70
     1
102
RTVSPost2010Prop34
280
     0
102
RTVSPost2010PropOp34
 70
     1
102
RTVSPost2010Prop35
280
     0
102
RTVSPost2010PropOp35
 70
     1
102
RTVSPost2010Prop36
280
     0
102
RTVSPost2010PropOp36
 70
     1
102
RTVSPost2010Prop37
 90
       50
102
RTVSPost2010PropOp37
 70
     1
102
RTVSPost2010Prop38
140
0.0
102
RTVSPost2010PropOp38
 70
     1
102
RTVSPost2010Prop39
140
1.0
102
RTVSPost2010PropOp39
 70
     1
102
RTVSPost2010Prop40
 90
        0
102
RTVSPost2010PropOp40
 70
     1
102
RTVSPost2010Prop41ColorIndex
 90
       18
102
RTVSPost2010Prop41ColorRGB
 90
        0
102
RTVSPost2010PropOp41
 70
     1
102
RTVSPost2010Prop42
 90
       50
102
RTVSPost2010PropOp42
 70
     1
102
RTVSPost2010Prop43
 90
        3
102
RTVSPost2010PropOp43
 70
     1
102
RTVSPost2010Prop44ColorIndex
 90
        5
102
RTVSPost2010Prop44ColorRGB
 90
      255
102
RTVSPost2010PropOp44
 70
     1
102
RTVSPost2010Prop45
280
     0
102
RTVSPost2010PropOp45
 70
     1
102
RTVSPost2010Prop46
 90
       50
102
RTVSPost2010PropOp46
 70
     1
102
RTVSPost2010Prop47
 90
       50
102
RTVSPost2010PropOp47
 70
     1
102
RTVSPost2010Prop48
 90
       50
102
RTVSPost2010PropOp48
 70
     1
102
RTVSPost2010Prop49
280
     0
102
RTVSPost2010PropOp49
 70
     1
102
RTVSPost2010Prop50
 90
       50
102
RTVSPost2010PropOp50
 70
     1
102
RTVSPost2010Prop51ColorIndex
 90
      256
102
RTVSPost2010Prop51ColorRGB
 90
-16777216
102
RTVSPost2010PropOp51
 70
     0
102
RTVSPost2010Prop52
140
1.0
102
RTVSPost2010PropOp52
 70
     0
102
RTVSPost2010Prop53
 90
        2
102
RTVSPost2010PropOp53
 70
     1
102
RTVSPost2010Prop54
  1
strokes_ogs.tif
102
RTVSPost2010PropOp54
 70
     1
102
RTVSPost2010Prop55
280
     0
102
RTVSPost2010PropOp55
 70
     1
102
RTVSPost2010Prop56
140
1.0
102
RTVSPost2010PropOp56
 70
     1
102
RTVSPost2010Prop57
140
1.0
102
RTVSPost2010PropOp57
 70
     1
  0
XRECORD
  5
16C
102
{ACAD_REACTORS
330
16B
102
}
330
16B
100
AcDbXrecord
280
     1
102
RTVSPropertyOp0
 70
     1
102
RTVSPropertyOp1
 70
     1
102
RTVSPropertyOp2
 70
     1
102
RTVSPropertyOp3
 70
     1
102
RTVSPropertyOp4
 70
     1
102
RTVSPropertyOp5
 70
     1
102
RTVSPropertyOp6
 70
     1
102
RTVSPropertyOp7
 70
     1
102
RTVSPropertyOp8
 70
     1
102
RTVSPropertyOp9
 70
     1
102
RTVSPropertyOp10
 70
     1
102
RTVSPropertyOp11
 70
     1
102
RTVSPropertyOp12
 70
     1
102
RTVSPropertyOp13
 70
     1
102
RTVSPropertyOp14
 70
     1
102
RTVSPropertyOp15
 70
     1
102
RTVSPropertyOp16
 70
     1
102
RTVSPropertyOp17
 70
     1
102
RTVSPropertyOp18
 70
     1
102
RTVSPropertyOp19
 70
     1
102
RTVSPropertyOp20
 70
     1
102
RTVSPropertyOp21
 70
     1
102
RTVSPropertyOp22
 70
     1
102
RTVSPropertyOp23
 70
     1
102
RTVSPropertyOp24
 70
     1
102
RTVSPropertyOp25
 70
     1
102
RTVSPropertyOp26
 70
     1
102
RTVSPropertyOp27
 70
     1
102
RTVSPropertyOp28
 70
     1
102
RTVSPropertyOp29
 70
     1
102
RTVSPropertyOp30
 70
     1
102
RTVSPropertyOp31
 70
     1
102
RTVSPropertyOp32
 70
     1
102
RTVSPropertyOp33
 70
     1
102
RTVSPropertyOp34
 70
     1
102
RTVSPropertyOp35
 70
     1
102
RTVSPropertyOp36
 70
     1
102
RTVSPropertyOp37
 70
     1
102
RTVSPropertyOp38
 70
     1
102
RTVSPropertyOp39
 70
     1
102
RTVSPropertyOp40
 70
     1
102
RTVSPropertyOp41
 70
     1
102
RTVSPropertyOp42
 70
     1
102
RTVSPropertyOp43
 70
     1
102
RTVSPropertyOp44
 70
     1
102
RTVSPropertyOp45
 70
     1
102
RTVSPropertyOp46
 70
     1
102
RTVSPropertyOp47
 70
     1
102
RTVSPropertyOp48
 70
     1
102
RTVSPropertyOp49
 70
     1
102
RTVSPropertyOp50
 70
     1
102
RTVSPropertyOp51
 70
     0
102
RTVSPropertyOp52
 70
     0
102
RTVSPropertyOp53
 70
     1
102
RTVSPropertyOp54
 70
     1
102
RTVSPropertyOp55
 70
     1
102
RTVSPropertyOp56
 70
     1
102
RTVSPropertyOp57
 70
     1
102
RTVSPost2010Prop28
280
     0
102
RTVSPost2010PropOp28
 70
     1
102
RTVSPost2010Prop29
280
     1
102
RTVSPost2010PropOp29
 70
     1
102
RTVSPost2010Prop30
280
     1
102
RTVSPost2010PropOp30
 70
     1
102
RTVSPost2010Prop31
280
     0
102
RTVSPost2010PropOp31
 70
     1
102
RTVSPost2010Prop32
280
     0
102
RTVSPost2010PropOp32
 70
     1
102
RTVSPost2010Prop33
280
     0
102
RTVSPost2010PropOp33
 70
     1
102
RTVSPost2010Prop34
280
     0
102
RTVSPost2010PropOp34
 70
     1
102
RTVSPost2010Prop35
280
     0
102
RTVSPost2010PropOp35
 70
     1
102
RTVSPost2010Prop36
280
     0
102
RTVSPost2010PropOp36
 70
     1
102
RTVSPost2010Prop37
 90
       50
102
RTVSPost2010PropOp37
 70
     1
102
RTVSPost2010Prop38
140
0.0
102
RTVSPost2010PropOp38
 70
     1
102
RTVSPost2010Prop39
140
1.0
102
RTVSPost2010PropOp39
 70
     1
102
RTVSPost2010Prop40
 90
        0
102
RTVSPost2010PropOp40
 70
     1
102
RTVSPost2010Prop41ColorIndex
 90
       18
102
RTVSPost2010Prop41ColorRGB
 90
        0
102
RTVSPost2010PropOp41
 70
     1
102
RTVSPost2010Prop42
 90
       50
102
RTVSPost2010PropOp42
 70
     1
102
RTVSPost2010Prop43
 90
        3
102
RTVSPost2010PropOp43
 70
     1
102
RTVSPost2010Prop44ColorIndex
 90
        5
102
RTVSPost2010Prop44ColorRGB
 90
      255
102
RTVSPost2010PropOp44
 70
     1
102
RTVSPost2010Prop45
280
     0
102
RTVSPost2010PropOp45
 70
     1
102
RTVSPost2010Prop46
 90
       50
102
RTVSPost2010PropOp46
 70
     1
102
RTVSPost2010Prop47
 90
       50
102
RTVSPost2010PropOp47
 70
     1
102
RTVSPost2010Prop48
 90
       50
102
RTVSPost2010PropOp48
 70
     1
102
RTVSPost2010Prop49
280
     0
102
RTVSPost2010PropOp49
 70
     1
102
RTVSPost2010Prop50
 90
       50
102
RTVSPost2010PropOp50
 70
     1
102
RTVSPost2010Prop51ColorIndex
 90
      256
102
RTVSPost2010Prop51ColorRGB
 90
-16777216
102
RTVSPost2010PropOp51
 70
     0
102
RTVSPost2010Prop52
140
1.0
102
RTVSPost2010PropOp52
 70
     0
102
RTVSPost2010Prop53
 90
        2
102
RTVSPost2010PropOp53
 70
     1
102
RTVSPost2010Prop54
  1
strokes_ogs.tif
102
RTVSPost2010PropOp54
 70
     1
102
RTVSPost2010Prop55
280
     0
102
RTVSPost2010PropOp55
 70
     1
102
RTVSPost2010Prop56
140
1.0
102
RTVSPost2010PropOp56
 70
     1
102
RTVSPost2010Prop57
140
1.0
102
RTVSPost2010PropOp57
 70
     1
  0
XRECORD
  5
180
102
{ACAD_REACTORS
330
17F
102
}
330
17F
100
AcDbXrecord
280
     1
102
RTVSPropertyOp0
 70
     0
102
RTVSPropertyOp1
 70
     0
102
RTVSPropertyOp2
 70
     0
102
RTVSPropertyOp3
 70
     0
102
RTVSPropertyOp4
 70
     0
102
RTVSPropertyOp5
 70
     0
102
RTVSPropertyOp6
 70
     0
102
RTVSPropertyOp7
 70
     0
102
RTVSPropertyOp8
 70
     0
102
RTVSPropertyOp9
 70
     0
102
RTVSPropertyOp10
 70
     0
102
RTVSPropertyOp11
 70
     0
102
RTVSPropertyOp12
 70
     0
102
RTVSPropertyOp13
 70
     0
102
RTVSPropertyOp14
 70
     2
102
RTVSPropertyOp15
 70
     0
102
RTVSPropertyOp16
 70
     0
102
RTVSPropertyOp17
 70
     0
102
RTVSPropertyOp18
 70
     0
102
RTVSPropertyOp19
 70
     0
102
RTVSPropertyOp20
 70
     0
102
RTVSPropertyOp21
 70
     0
102
RTVSPropertyOp22
 70
     0
102
RTVSPropertyOp23
 70
     0
102
RTVSPropertyOp24
 70
     0
102
RTVSPropertyOp25
 70
     0
102
RTVSPropertyOp26
 70
     0
102
RTVSPropertyOp27
 70
     0
102
RTVSPropertyOp28
 70
     0
102
RTVSPropertyOp29
 70
     0
102
RTVSPropertyOp30
 70
     0
102
RTVSPropertyOp31
 70
     0
102
RTVSPropertyOp32
 70
     0
102
RTVSPropertyOp33
 70
     0
102
RTVSPropertyOp34
 70
     0
102
RTVSPropertyOp35
 70
     0
102
RTVSPropertyOp36
 70
     0
102
RTVSPropertyOp37
 70
     0
102
RTVSPropertyOp38
 70
     0
102
RTVSPropertyOp39
 70
     0
102
RTVSPropertyOp40
 70
     0
102
RTVSPropertyOp41
 70
     0
102
RTVSPropertyOp42
 70
     0
102
RTVSPropertyOp43
 70
     0
102
RTVSPropertyOp44
 70
     0
102
RTVSPropertyOp45
 70
     0
102
RTVSPropertyOp46
 70
     0
102
RTVSPropertyOp47
 70
     0
102
RTVSPropertyOp48
 70
     0
102
RTVSPropertyOp49
 70
     0
102
RTVSPropertyOp50
 70
     0
102
RTVSPropertyOp51
 70
     0
102
RTVSPropertyOp52
 70
     0
102
RTVSPropertyOp53
 70
     0
102
RTVSPropertyOp54
 70
     0
102
RTVSPropertyOp55
 70
     0
102
RTVSPropertyOp56
 70
     0
102
RTVSPropertyOp57
 70
     0
102
RTVSPost2010Prop28
280
     0
102
RTVSPost2010PropOp28
 70
     0
102
RTVSPost2010Prop29
280
     1
102
RTVSPost2010PropOp29
 70
     0
102
RTVSPost2010Prop30
280
     1
102
RTVSPost2010PropOp30
 70
     0
102
RTVSPost2010Prop31
280
     0
102
RTVSPost2010PropOp31
 70
     0
102
RTVSPost2010Prop32
280
     0
102
RTVSPost2010PropOp32
 70
     0
102
RTVSPost2010Prop33
280
     0
102
RTVSPost2010PropOp33
 70
     0
102
RTVSPost2010Prop34
280
     0
102
RTVSPost2010PropOp34
 70
     0
102
RTVSPost2010Prop35
280
     0
102
RTVSPost2010PropOp35
 70
     0
102
RTVSPost2010Prop36
280
     0
102
RTVSPost2010PropOp36
 70
     0
102
RTVSPost2010Prop37
 90
       50
102
RTVSPost2010PropOp37
 70
     0
102
RTVSPost2010Prop38
140
0.0
102
RTVSPost2010PropOp38
 70
     0
102
RTVSPost2010Prop39
140
1.0
102
RTVSPost2010PropOp39
 70
     0
102
RTVSPost2010Prop40
 90
        0
102
RTVSPost2010PropOp40
 70
     0
102
RTVSPost2010Prop41ColorIndex
 90
       18
102
RTVSPost2010Prop41ColorRGB
 90
        0
102
RTVSPost2010PropOp41
 70
     0
102
RTVSPost2010Prop42
 90
       50
102
RTVSPost2010PropOp42
 70
     0
102
RTVSPost2010Prop43
 90
        3
102
RTVSPost2010PropOp43
 70
     0
102
RTVSPost2010Prop44ColorIndex
 90
        5
102
RTVSPost2010Prop44ColorRGB
 90
      255
102
RTVSPost2010PropOp44
 70
     0
102
RTVSPost2010Prop45
280
     0
102
RTVSPost2010PropOp45
 70
     0
102
RTVSPost2010Prop46
 90
       50
102
RTVSPost2010PropOp46
 70
     0
102
RTVSPost2010Prop47
 90
       50
102
RTVSPost2010PropOp47
 70
     0
102
RTVSPost2010Prop48
 90
       50
102
RTVSPost2010PropOp48
 70
     0
102
RTVSPost2010Prop49
280
     0
102
RTVSPost2010PropOp49
 70
     0
102
RTVSPost2010Prop50
 90
       50
102
RTVSPost2010PropOp50
 70
     0
102
RTVSPost2010Prop51ColorIndex
 90
      256
102
RTVSPost2010Prop51ColorRGB
 90
-16777216
102
RTVSPost2010PropOp51
 70
     0
102
RTVSPost2010Prop52
140
1.0
102
RTVSPost2010PropOp52
 70
     0
102
RTVSPost2010Prop53
 90
        2
102
RTVSPost2010PropOp53
 70
     0
102
RTVSPost2010Prop54
  1
strokes_ogs.tif
102
RTVSPost2010PropOp54
 70
     0
102
RTVSPost2010Prop55
280
     0
102
RTVSPost2010PropOp55
 70
     0
102
RTVSPost2010Prop56
140
1.0
102
RTVSPost2010PropOp56
 70
     0
102
RTVSPost2010Prop57
140
1.0
102
RTVSPost2010PropOp57
 70
     0
  0
XRECORD
  5
17A
102
{ACAD_REACTORS
330
179
102
}
330
179
100
AcDbXrecord
280
     1
102
RTVSPropertyOp0
 70
     1
102
RTVSPropertyOp1
 70
     1
102
RTVSPropertyOp2
 70
     1
102
RTVSPropertyOp3
 70
     1
102
RTVSPropertyOp4
 70
     1
102
RTVSPropertyOp5
 70
     1
102
RTVSPropertyOp6
 70
     1
102
RTVSPropertyOp7
 70
     1
102
RTVSPropertyOp8
 70
     1
102
RTVSPropertyOp9
 70
     1
102
RTVSPropertyOp10
 70
     1
102
RTVSPropertyOp11
 70
     1
102
RTVSPropertyOp12
 70
     1
102
RTVSPropertyOp13
 70
     1
102
RTVSPropertyOp14
 70
     1
102
RTVSPropertyOp15
 70
     1
102
RTVSPropertyOp16
 70
     1
102
RTVSPropertyOp17
 70
     1
102
RTVSPropertyOp18
 70
     1
102
RTVSPropertyOp19
 70
     1
102
RTVSPropertyOp20
 70
     1
102
RTVSPropertyOp21
 70
     1
102
RTVSPropertyOp22
 70
     1
102
RTVSPropertyOp23
 70
     1
102
RTVSPropertyOp24
 70
     1
102
RTVSPropertyOp25
 70
     1
102
RTVSPropertyOp26
 70
     1
102
RTVSPropertyOp27
 70
     1
102
RTVSPropertyOp28
 70
     1
102
RTVSPropertyOp29
 70
     1
102
RTVSPropertyOp30
 70
     1
102
RTVSPropertyOp31
 70
     1
102
RTVSPropertyOp32
 70
     1
102
RTVSPropertyOp33
 70
     1
102
RTVSPropertyOp34
 70
     1
102
RTVSPropertyOp35
 70
     1
102
RTVSPropertyOp36
 70
     1
102
RTVSPropertyOp37
 70
     1
102
RTVSPropertyOp38
 70
     1
102
RTVSPropertyOp39
 70
     1
102
RTVSPropertyOp40
 70
     1
102
RTVSPropertyOp41
 70
     1
102
RTVSPropertyOp42
 70
     1
102
RTVSPropertyOp43
 70
     1
102
RTVSPropertyOp44
 70
     1
102
RTVSPropertyOp45
 70
     1
102
RTVSPropertyOp46
 70
     1
102
RTVSPropertyOp47
 70
     1
102
RTVSPropertyOp48
 70
     1
102
RTVSPropertyOp49
 70
     1
102
RTVSPropertyOp50
 70
     1
102
RTVSPropertyOp51
 70
     0
102
RTVSPropertyOp52
 70
     0
102
RTVSPropertyOp53
 70
     1
102
RTVSPropertyOp54
 70
     1
102
RTVSPropertyOp55
 70
     1
102
RTVSPropertyOp56
 70
     1
102
RTVSPropertyOp57
 70
     1
102
RTVSPost2010Prop28
280
     0
102
RTVSPost2010PropOp28
 70
     1
102
RTVSPost2010Prop29
280
     1
102
RTVSPost2010PropOp29
 70
     1
102
RTVSPost2010Prop30
280
     1
102
RTVSPost2010PropOp30
 70
     1
102
RTVSPost2010Prop31
280
     0
102
RTVSPost2010PropOp31
 70
     1
102
RTVSPost2010Prop32
280
     0
102
RTVSPost2010PropOp32
 70
     1
102
RTVSPost2010Prop33
280
     0
102
RTVSPost2010PropOp33
 70
     1
102
RTVSPost2010Prop34
280
     0
102
RTVSPost2010PropOp34
 70
     1
102
RTVSPost2010Prop35
280
     0
102
RTVSPost2010PropOp35
 70
     1
102
RTVSPost2010Prop36
280
     0
102
RTVSPost2010PropOp36
 70
     1
102
RTVSPost2010Prop37
 90
       50
102
RTVSPost2010PropOp37
 70
     1
102
RTVSPost2010Prop38
140
0.0
102
RTVSPost2010PropOp38
 70
     1
102
RTVSPost2010Prop39
140
1.0
102
RTVSPost2010PropOp39
 70
     1
102
RTVSPost2010Prop40
 90
        0
102
RTVSPost2010PropOp40
 70
     1
102
RTVSPost2010Prop41ColorIndex
 90
       18
102
RTVSPost2010Prop41ColorRGB
 90
        0
102
RTVSPost2010PropOp41
 70
     1
102
RTVSPost2010Prop42
 90
       50
102
RTVSPost2010PropOp42
 70
     1
102
RTVSPost2010Prop43
 90
        3
102
RTVSPost2010PropOp43
 70
     1
102
RTVSPost2010Prop44ColorIndex
 90
        5
102
RTVSPost2010Prop44ColorRGB
 90
      255
102
RTVSPost2010PropOp44
 70
     1
102
RTVSPost2010Prop45
280
     0
102
RTVSPost2010PropOp45
 70
     1
102
RTVSPost2010Prop46
 90
       50
102
RTVSPost2010PropOp46
 70
     1
102
RTVSPost2010Prop47
 90
       50
102
RTVSPost2010PropOp47
 70
     1
102
RTVSPost2010Prop48
 90
       50
102
RTVSPost2010PropOp48
 70
     1
102
RTVSPost2010Prop49
280
     0
102
RTVSPost2010PropOp49
 70
     1
102
RTVSPost2010Prop50
 90
       50
102
RTVSPost2010PropOp50
 70
     1
102
RTVSPost2010Prop51ColorIndex
 90
      256
102
RTVSPost2010Prop51ColorRGB
 90
-16777216
102
RTVSPost2010PropOp51
 70
     0
102
RTVSPost2010Prop52
140
1.0
102
RTVSPost2010PropOp52
 70
     0
102
RTVSPost2010Prop53
 90
        2
102
RTVSPost2010PropOp53
 70
     1
102
RTVSPost2010Prop54
  1
strokes_ogs.tif
102
RTVSPost2010PropOp54
 70
     1
102
RTVSPost2010Prop55
280
     0
102
RTVSPost2010PropOp55
 70
     1
102
RTVSPost2010Prop56
140
1.0
102
RTVSPost2010PropOp56
 70
     1
102
RTVSPost2010Prop57
140
1.0
102
RTVSPost2010PropOp57
 70
     1
  0
XRECORD
  5
182
102
{ACAD_REACTORS
330
181
102
}
330
181
100
AcDbXrecord
280
     1
102
RTVSPropertyOp0
 70
     0
102
RTVSPropertyOp1
 70
     0
102
RTVSPropertyOp2
 70
     0
102
RTVSPropertyOp3
 70
     0
102
RTVSPropertyOp4
 70
     0
102
RTVSPropertyOp5
 70
     0
102
RTVSPropertyOp6
 70
     0
102
RTVSPropertyOp7
 70
     0
102
RTVSPropertyOp8
 70
     0
102
RTVSPropertyOp9
 70
     0
102
RTVSPropertyOp10
 70
     0
102
RTVSPropertyOp11
 70
     0
102
RTVSPropertyOp12
 70
     0
102
RTVSPropertyOp13
 70
     0
102
RTVSPropertyOp14
 70
     2
102
RTVSPropertyOp15
 70
     0
102
RTVSPropertyOp16
 70
     0
102
RTVSPropertyOp17
 70
     0
102
RTVSPropertyOp18
 70
     0
102
RTVSPropertyOp19
 70
     0
102
RTVSPropertyOp20
 70
     0
102
RTVSPropertyOp21
 70
     0
102
RTVSPropertyOp22
 70
     0
102
RTVSPropertyOp23
 70
     0
102
RTVSPropertyOp24
 70
     0
102
RTVSPropertyOp25
 70
     0
102
RTVSPropertyOp26
 70
     0
102
RTVSPropertyOp27
 70
     0
102
RTVSPropertyOp28
 70
     0
102
RTVSPropertyOp29
 70
     0
102
RTVSPropertyOp30
 70
     0
102
RTVSPropertyOp31
 70
     0
102
RTVSPropertyOp32
 70
     0
102
RTVSPropertyOp33
 70
     0
102
RTVSPropertyOp34
 70
     0
102
RTVSPropertyOp35
 70
     0
102
RTVSPropertyOp36
 70
     0
102
RTVSPropertyOp37
 70
     0
102
RTVSPropertyOp38
 70
     0
102
RTVSPropertyOp39
 70
     0
102
RTVSPropertyOp40
 70
     0
102
RTVSPropertyOp41
 70
     0
102
RTVSPropertyOp42
 70
     0
102
RTVSPropertyOp43
 70
     0
102
RTVSPropertyOp44
 70
     0
102
RTVSPropertyOp45
 70
     0
102
RTVSPropertyOp46
 70
     0
102
RTVSPropertyOp47
 70
     0
102
RTVSPropertyOp48
 70
     0
102
RTVSPropertyOp49
 70
     0
102
RTVSPropertyOp50
 70
     0
102
RTVSPropertyOp51
 70
     0
102
RTVSPropertyOp52
 70
     0
102
RTVSPropertyOp53
 70
     0
102
RTVSPropertyOp54
 70
     0
102
RTVSPropertyOp55
 70
     0
102
RTVSPropertyOp56
 70
     0
102
RTVSPropertyOp57
 70
     0
102
RTVSPost2010Prop28
280
     0
102
RTVSPost2010PropOp28
 70
     0
102
RTVSPost2010Prop29
280
     1
102
RTVSPost2010PropOp29
 70
     0
102
RTVSPost2010Prop30
280
     1
102
RTVSPost2010PropOp30
 70
     0
102
RTVSPost2010Prop31
280
     0
102
RTVSPost2010PropOp31
 70
     0
102
RTVSPost2010Prop32
280
     0
102
RTVSPost2010PropOp32
 70
     0
102
RTVSPost2010Prop33
280
     0
102
RTVSPost2010PropOp33
 70
     0
102
RTVSPost2010Prop34
280
     0
102
RTVSPost2010PropOp34
 70
     0
102
RTVSPost2010Prop35
280
     0
102
RTVSPost2010PropOp35
 70
     0
102
RTVSPost2010Prop36
280
     0
102
RTVSPost2010PropOp36
 70
     0
102
RTVSPost2010Prop37
 90
       50
102
RTVSPost2010PropOp37
 70
     0
102
RTVSPost2010Prop38
140
0.0
102
RTVSPost2010PropOp38
 70
     0
102
RTVSPost2010Prop39
140
1.0
102
RTVSPost2010PropOp39
 70
     0
102
RTVSPost2010Prop40
 90
        0
102
RTVSPost2010PropOp40
 70
     0
102
RTVSPost2010Prop41ColorIndex
 90
       18
102
RTVSPost2010Prop41ColorRGB
 90
        0
102
RTVSPost2010PropOp41
 70
     0
102
RTVSPost2010Prop42
 90
       50
102
RTVSPost2010PropOp42
 70
     0
102
RTVSPost2010Prop43
 90
        3
102
RTVSPost2010PropOp43
 70
     0
102
RTVSPost2010Prop44ColorIndex
 90
        5
102
RTVSPost2010Prop44ColorRGB
 90
      255
102
RTVSPost2010PropOp44
 70
     0
102
RTVSPost2010Prop45
280
     0
102
RTVSPost2010PropOp45
 70
     0
102
RTVSPost2010Prop46
 90
       50
102
RTVSPost2010PropOp46
 70
     0
102
RTVSPost2010Prop47
 90
       50
102
RTVSPost2010PropOp47
 70
     0
102
RTVSPost2010Prop48
 90
       50
102
RTVSPost2010PropOp48
 70
     0
102
RTVSPost2010Prop49
280
     0
102
RTVSPost2010PropOp49
 70
     0
102
RTVSPost2010Prop50
 90
       50
102
RTVSPost2010PropOp50
 70
     0
102
RTVSPost2010Prop51ColorIndex
 90
      256
102
RTVSPost2010Prop51ColorRGB
 90
-16777216
102
RTVSPost2010PropOp51
 70
     0
102
RTVSPost2010Prop52
140
1.0
102
RTVSPost2010PropOp52
 70
     0
102
RTVSPost2010Prop53
 90
        2
102
RTVSPost2010PropOp53
 70
     0
102
RTVSPost2010Prop54
  1
strokes_ogs.tif
102
RTVSPost2010PropOp54
 70
     0
102
RTVSPost2010Prop55
280
     0
102
RTVSPost2010PropOp55
 70
     0
102
RTVSPost2010Prop56
140
1.0
102
RTVSPost2010PropOp56
 70
     0
102
RTVSPost2010Prop57
140
1.0
102
RTVSPost2010PropOp57
 70
     0
  0
XRECORD
  5
170
102
{ACAD_REACTORS
330
16F
102
}
330
16F
100
AcDbXrecord
280
     1
102
RTVSPropertyOp0
 70
     1
102
RTVSPropertyOp1
 70
     1
102
RTVSPropertyOp2
 70
     1
102
RTVSPropertyOp3
 70
     1
102
RTVSPropertyOp4
 70
     1
102
RTVSPropertyOp5
 70
     1
102
RTVSPropertyOp6
 70
     1
102
RTVSPropertyOp7
 70
     1
102
RTVSPropertyOp8
 70
     1
102
RTVSPropertyOp9
 70
     1
102
RTVSPropertyOp10
 70
     1
102
RTVSPropertyOp11
 70
     1
102
RTVSPropertyOp12
 70
     1
102
RTVSPropertyOp13
 70
     1
102
RTVSPropertyOp14
 70
     1
102
RTVSPropertyOp15
 70
     1
102
RTVSPropertyOp16
 70
     1
102
RTVSPropertyOp17
 70
     1
102
RTVSPropertyOp18
 70
     1
102
RTVSPropertyOp19
 70
     1
102
RTVSPropertyOp20
 70
     1
102
RTVSPropertyOp21
 70
     1
102
RTVSPropertyOp22
 70
     1
102
RTVSPropertyOp23
 70
     1
102
RTVSPropertyOp24
 70
     1
102
RTVSPropertyOp25
 70
     1
102
RTVSPropertyOp26
 70
     1
102
RTVSPropertyOp27
 70
     1
102
RTVSPropertyOp28
 70
     1
102
RTVSPropertyOp29
 70
     1
102
RTVSPropertyOp30
 70
     1
102
RTVSPropertyOp31
 70
     1
102
RTVSPropertyOp32
 70
     1
102
RTVSPropertyOp33
 70
     1
102
RTVSPropertyOp34
 70
     1
102
RTVSPropertyOp35
 70
     1
102
RTVSPropertyOp36
 70
     1
102
RTVSPropertyOp37
 70
     1
102
RTVSPropertyOp38
 70
     1
102
RTVSPropertyOp39
 70
     1
102
RTVSPropertyOp40
 70
     1
102
RTVSPropertyOp41
 70
     1
102
RTVSPropertyOp42
 70
     1
102
RTVSPropertyOp43
 70
     1
102
RTVSPropertyOp44
 70
     1
102
RTVSPropertyOp45
 70
     1
102
RTVSPropertyOp46
 70
     1
102
RTVSPropertyOp47
 70
     1
102
RTVSPropertyOp48
 70
     1
102
RTVSPropertyOp49
 70
     1
102
RTVSPropertyOp50
 70
     1
102
RTVSPropertyOp51
 70
     0
102
RTVSPropertyOp52
 70
     0
102
RTVSPropertyOp53
 70
     1
102
RTVSPropertyOp54
 70
     1
102
RTVSPropertyOp55
 70
     1
102
RTVSPropertyOp56
 70
     1
102
RTVSPropertyOp57
 70
     1
102
RTVSPost2010Prop28
280
     0
102
RTVSPost2010PropOp28
 70
     1
102
RTVSPost2010Prop29
280
     1
102
RTVSPost2010PropOp29
 70
     1
102
RTVSPost2010Prop30
280
     1
102
RTVSPost2010PropOp30
 70
     1
102
RTVSPost2010Prop31
280
     0
102
RTVSPost2010PropOp31
 70
     1
102
RTVSPost2010Prop32
280
     0
102
RTVSPost2010PropOp32
 70
     1
102
RTVSPost2010Prop33
280
     0
102
RTVSPost2010PropOp33
 70
     1
102
RTVSPost2010Prop34
280
     0
102
RTVSPost2010PropOp34
 70
     1
102
RTVSPost2010Prop35
280
     0
102
RTVSPost2010PropOp35
 70
     1
102
RTVSPost2010Prop36
280
     0
102
RTVSPost2010PropOp36
 70
     1
102
RTVSPost2010Prop37
 90
       50
102
RTVSPost2010PropOp37
 70
     1
102
RTVSPost2010Prop38
140
0.0
102
RTVSPost2010PropOp38
 70
     1
102
RTVSPost2010Prop39
140
1.0
102
RTVSPost2010PropOp39
 70
     1
102
RTVSPost2010Prop40
 90
        0
102
RTVSPost2010PropOp40
 70
     1
102
RTVSPost2010Prop41ColorIndex
 90
       18
102
RTVSPost2010Prop41ColorRGB
 90
        0
102
RTVSPost2010PropOp41
 70
     1
102
RTVSPost2010Prop42
 90
       50
102
RTVSPost2010PropOp42
 70
     1
102
RTVSPost2010Prop43
 90
        3
102
RTVSPost2010PropOp43
 70
     1
102
RTVSPost2010Prop44ColorIndex
 90
        5
102
RTVSPost2010Prop44ColorRGB
 90
      255
102
RTVSPost2010PropOp44
 70
     1
102
RTVSPost2010Prop45
280
     0
102
RTVSPost2010PropOp45
 70
     1
102
RTVSPost2010Prop46
 90
       50
102
RTVSPost2010PropOp46
 70
     1
102
RTVSPost2010Prop47
 90
       50
102
RTVSPost2010PropOp47
 70
     1
102
RTVSPost2010Prop48
 90
       50
102
RTVSPost2010PropOp48
 70
     1
102
RTVSPost2010Prop49
280
     0
102
RTVSPost2010PropOp49
 70
     1
102
RTVSPost2010Prop50
 90
       50
102
RTVSPost2010PropOp50
 70
     1
102
RTVSPost2010Prop51ColorIndex
 90
      256
102
RTVSPost2010Prop51ColorRGB
 90
-16777216
102
RTVSPost2010PropOp51
 70
     0
102
RTVSPost2010Prop52
140
1.0
102
RTVSPost2010PropOp52
 70
     0
102
RTVSPost2010Prop53
 90
        2
102
RTVSPost2010PropOp53
 70
     1
102
RTVSPost2010Prop54
  1
strokes_ogs.tif
102
RTVSPost2010PropOp54
 70
     1
102
RTVSPost2010Prop55
280
     0
102
RTVSPost2010PropOp55
 70
     1
102
RTVSPost2010Prop56
140
1.0
102
RTVSPost2010PropOp56
 70
     1
102
RTVSPost2010Prop57
140
1.0
102
RTVSPost2010PropOp57
 70
     1
  0
XRECORD
  5
18E
102
{ACAD_REACTORS
330
18D
102
}
330
18D
100
AcDbXrecord
280
     1
102
RTVSPropertyOp0
 70
     1
102
RTVSPropertyOp1
 70
     1
102
RTVSPropertyOp2
 70
     1
102
RTVSPropertyOp3
 70
     1
102
RTVSPropertyOp4
 70
     1
102
RTVSPropertyOp5
 70
     1
102
RTVSPropertyOp6
 70
     1
102
RTVSPropertyOp7
 70
     1
102
RTVSPropertyOp8
 70
     1
102
RTVSPropertyOp9
 70
     1
102
RTVSPropertyOp10
 70
     1
102
RTVSPropertyOp11
 70
     1
102
RTVSPropertyOp12
 70
     1
102
RTVSPropertyOp13
 70
     1
102
RTVSPropertyOp14
 70
     1
102
RTVSPropertyOp15
 70
     1
102
RTVSPropertyOp16
 70
     1
102
RTVSPropertyOp17
 70
     1
102
RTVSPropertyOp18
 70
     1
102
RTVSPropertyOp19
 70
     1
102
RTVSPropertyOp20
 70
     1
102
RTVSPropertyOp21
 70
     1
102
RTVSPropertyOp22
 70
     1
102
RTVSPropertyOp23
 70
     1
102
RTVSPropertyOp24
 70
     1
102
RTVSPropertyOp25
 70
     1
102
RTVSPropertyOp26
 70
     1
102
RTVSPropertyOp27
 70
     1
102
RTVSPropertyOp28
 70
     1
102
RTVSPropertyOp29
 70
     1
102
RTVSPropertyOp30
 70
     1
102
RTVSPropertyOp31
 70
     1
102
RTVSPropertyOp32
 70
     1
102
RTVSPropertyOp33
 70
     1
102
RTVSPropertyOp34
 70
     1
102
RTVSPropertyOp35
 70
     1
102
RTVSPropertyOp36
 70
     1
102
RTVSPropertyOp37
 70
     1
102
RTVSPropertyOp38
 70
     1
102
RTVSPropertyOp39
 70
     1
102
RTVSPropertyOp40
 70
     1
102
RTVSPropertyOp41
 70
     1
102
RTVSPropertyOp42
 70
     1
102
RTVSPropertyOp43
 70
     1
102
RTVSPropertyOp44
 70
     1
102
RTVSPropertyOp45
 70
     1
102
RTVSPropertyOp46
 70
     1
102
RTVSPropertyOp47
 70
     1
102
RTVSPropertyOp48
 70
     1
102
RTVSPropertyOp49
 70
     1
102
RTVSPropertyOp50
 70
     1
102
RTVSPropertyOp51
 70
     0
102
RTVSPropertyOp52
 70
     0
102
RTVSPropertyOp53
 70
     1
102
RTVSPropertyOp54
 70
     1
102
RTVSPropertyOp55
 70
     1
102
RTVSPropertyOp56
 70
     1
102
RTVSPropertyOp57
 70
     1
102
RTVSPost2010Prop28
280
     0
102
RTVSPost2010PropOp28
 70
     1
102
RTVSPost2010Prop29
280
     1
102
RTVSPost2010PropOp29
 70
     1
102
RTVSPost2010Prop30
280
     1
102
RTVSPost2010PropOp30
 70
     1
102
RTVSPost2010Prop31
280
     0
102
RTVSPost2010PropOp31
 70
     1
102
RTVSPost2010Prop32
280
     0
102
RTVSPost2010PropOp32
 70
     1
102
RTVSPost2010Prop33
280
     0
102
RTVSPost2010PropOp33
 70
     1
102
RTVSPost2010Prop34
280
     0
102
RTVSPost2010PropOp34
 70
     1
102
RTVSPost2010Prop35
280
     0
102
RTVSPost2010PropOp35
 70
     1
102
RTVSPost2010Prop36
280
     0
102
RTVSPost2010PropOp36
 70
     1
102
RTVSPost2010Prop37
 90
       50
102
RTVSPost2010PropOp37
 70
     1
102
RTVSPost2010Prop38
140
0.0
102
RTVSPost2010PropOp38
 70
     1
102
RTVSPost2010Prop39
140
1.0
102
RTVSPost2010PropOp39
 70
     1
102
RTVSPost2010Prop40
 90
        0
102
RTVSPost2010PropOp40
 70
     1
102
RTVSPost2010Prop41ColorIndex
 90
       18
102
RTVSPost2010Prop41ColorRGB
 90
        0
102
RTVSPost2010PropOp41
 70
     1
102
RTVSPost2010Prop42
 90
       50
102
RTVSPost2010PropOp42
 70
     1
102
RTVSPost2010Prop43
 90
        3
102
RTVSPost2010PropOp43
 70
     1
102
RTVSPost2010Prop44ColorIndex
 90
        5
102
RTVSPost2010Prop44ColorRGB
 90
      255
102
RTVSPost2010PropOp44
 70
     1
102
RTVSPost2010Prop45
280
     0
102
RTVSPost2010PropOp45
 70
     1
102
RTVSPost2010Prop46
 90
       50
102
RTVSPost2010PropOp46
 70
     1
102
RTVSPost2010Prop47
 90
       50
102
RTVSPost2010PropOp47
 70
     1
102
RTVSPost2010Prop48
 90
       50
102
RTVSPost2010PropOp48
 70
     1
102
RTVSPost2010Prop49
280
     0
102
RTVSPost2010PropOp49
 70
     1
102
RTVSPost2010Prop50
 90
       50
102
RTVSPost2010PropOp50
 70
     1
102
RTVSPost2010Prop51ColorIndex
 90
      256
102
RTVSPost2010Prop51ColorRGB
 90
-16777216
102
RTVSPost2010PropOp51
 70
     0
102
RTVSPost2010Prop52
140
1.0
102
RTVSPost2010PropOp52
 70
     0
102
RTVSPost2010Prop53
 90
        2
102
RTVSPost2010PropOp53
 70
     1
102
RTVSPost2010Prop54
  1
strokes_ogs.tif
102
RTVSPost2010PropOp54
 70
     1
102
RTVSPost2010Prop55
280
     0
102
RTVSPost2010PropOp55
 70
     1
102
RTVSPost2010Prop56
140
1.0
102
RTVSPost2010PropOp56
 70
     1
102
RTVSPost2010Prop57
140
1.0
102
RTVSPost2010PropOp57
 70
     1
  0
XRECORD
  5
18C
102
{ACAD_REACTORS
330
18B
102
}
330
18B
100
AcDbXrecord
280
     1
102
RTVSPropertyOp0
 70
     1
102
RTVSPropertyOp1
 70
     1
102
RTVSPropertyOp2
 70
     1
102
RTVSPropertyOp3
 70
     1
102
RTVSPropertyOp4
 70
     1
102
RTVSPropertyOp5
 70
     1
102
RTVSPropertyOp6
 70
     1
102
RTVSPropertyOp7
 70
     1
102
RTVSPropertyOp8
 70
     1
102
RTVSPropertyOp9
 70
     1
102
RTVSPropertyOp10
 70
     1
102
RTVSPropertyOp11
 70
     1
102
RTVSPropertyOp12
 70
     1
102
RTVSPropertyOp13
 70
     1
102
RTVSPropertyOp14
 70
     1
102
RTVSPropertyOp15
 70
     1
102
RTVSPropertyOp16
 70
     1
102
RTVSPropertyOp17
 70
     1
102
RTVSPropertyOp18
 70
     1
102
RTVSPropertyOp19
 70
     1
102
RTVSPropertyOp20
 70
     1
102
RTVSPropertyOp21
 70
     1
102
RTVSPropertyOp22
 70
     1
102
RTVSPropertyOp23
 70
     1
102
RTVSPropertyOp24
 70
     1
102
RTVSPropertyOp25
 70
     1
102
RTVSPropertyOp26
 70
     1
102
RTVSPropertyOp27
 70
     1
102
RTVSPropertyOp28
 70
     1
102
RTVSPropertyOp29
 70
     1
102
RTVSPropertyOp30
 70
     1
102
RTVSPropertyOp31
 70
     1
102
RTVSPropertyOp32
 70
     1
102
RTVSPropertyOp33
 70
     1
102
RTVSPropertyOp34
 70
     1
102
RTVSPropertyOp35
 70
     1
102
RTVSPropertyOp36
 70
     1
102
RTVSPropertyOp37
 70
     1
102
RTVSPropertyOp38
 70
     1
102
RTVSPropertyOp39
 70
     1
102
RTVSPropertyOp40
 70
     1
102
RTVSPropertyOp41
 70
     1
102
RTVSPropertyOp42
 70
     1
102
RTVSPropertyOp43
 70
     1
102
RTVSPropertyOp44
 70
     1
102
RTVSPropertyOp45
 70
     1
102
RTVSPropertyOp46
 70
     1
102
RTVSPropertyOp47
 70
     1
102
RTVSPropertyOp48
 70
     1
102
RTVSPropertyOp49
 70
     1
102
RTVSPropertyOp50
 70
     1
102
RTVSPropertyOp51
 70
     0
102
RTVSPropertyOp52
 70
     0
102
RTVSPropertyOp53
 70
     1
102
RTVSPropertyOp54
 70
     1
102
RTVSPropertyOp55
 70
     1
102
RTVSPropertyOp56
 70
     1
102
RTVSPropertyOp57
 70
     1
102
RTVSPost2010Prop28
280
     0
102
RTVSPost2010PropOp28
 70
     1
102
RTVSPost2010Prop29
280
     1
102
RTVSPost2010PropOp29
 70
     1
102
RTVSPost2010Prop30
280
     1
102
RTVSPost2010PropOp30
 70
     1
102
RTVSPost2010Prop31
280
     0
102
RTVSPost2010PropOp31
 70
     1
102
RTVSPost2010Prop32
280
     0
102
RTVSPost2010PropOp32
 70
     1
102
RTVSPost2010Prop33
280
     0
102
RTVSPost2010PropOp33
 70
     1
102
RTVSPost2010Prop34
280
     0
102
RTVSPost2010PropOp34
 70
     1
102
RTVSPost2010Prop35
280
     0
102
RTVSPost2010PropOp35
 70
     1
102
RTVSPost2010Prop36
280
     0
102
RTVSPost2010PropOp36
 70
     1
102
RTVSPost2010Prop37
 90
       50
102
RTVSPost2010PropOp37
 70
     1
102
RTVSPost2010Prop38
140
0.0
102
RTVSPost2010PropOp38
 70
     1
102
RTVSPost2010Prop39
140
1.0
102
RTVSPost2010PropOp39
 70
     1
102
RTVSPost2010Prop40
 90
        0
102
RTVSPost2010PropOp40
 70
     1
102
RTVSPost2010Prop41ColorIndex
 90
       18
102
RTVSPost2010Prop41ColorRGB
 90
        0
102
RTVSPost2010PropOp41
 70
     1
102
RTVSPost2010Prop42
 90
       50
102
RTVSPost2010PropOp42
 70
     1
102
RTVSPost2010Prop43
 90
        3
102
RTVSPost2010PropOp43
 70
     1
102
RTVSPost2010Prop44ColorIndex
 90
        5
102
RTVSPost2010Prop44ColorRGB
 90
      255
102
RTVSPost2010PropOp44
 70
     1
102
RTVSPost2010Prop45
280
     0
102
RTVSPost2010PropOp45
 70
     1
102
RTVSPost2010Prop46
 90
       50
102
RTVSPost2010PropOp46
 70
     1
102
RTVSPost2010Prop47
 90
       50
102
RTVSPost2010PropOp47
 70
     1
102
RTVSPost2010Prop48
 90
       50
102
RTVSPost2010PropOp48
 70
     1
102
RTVSPost2010Prop49
280
     0
102
RTVSPost2010PropOp49
 70
     1
102
RTVSPost2010Prop50
 90
       50
102
RTVSPost2010PropOp50
 70
     1
102
RTVSPost2010Prop51ColorIndex
 90
      256
102
RTVSPost2010Prop51ColorRGB
 90
-16777216
102
RTVSPost2010PropOp51
 70
     0
102
RTVSPost2010Prop52
140
1.0
102
RTVSPost2010PropOp52
 70
     0
102
RTVSPost2010Prop53
 90
        2
102
RTVSPost2010PropOp53
 70
     1
102
RTVSPost2010Prop54
  1
strokes_ogs.tif
102
RTVSPost2010PropOp54
 70
     1
102
RTVSPost2010Prop55
280
     0
102
RTVSPost2010PropOp55
 70
     1
102
RTVSPost2010Prop56
140
1.0
102
RTVSPost2010PropOp56
 70
     1
102
RTVSPost2010Prop57
140
1.0
102
RTVSPost2010PropOp57
 70
     1
  0
XRECORD
  5
186
102
{ACAD_REACTORS
330
185
102
}
330
185
100
AcDbXrecord
280
     1
102
RTVSPropertyOp0
 70
     1
102
RTVSPropertyOp1
 70
     1
102
RTVSPropertyOp2
 70
     1
102
RTVSPropertyOp3
 70
     1
102
RTVSPropertyOp4
 70
     1
102
RTVSPropertyOp5
 70
     1
102
RTVSPropertyOp6
 70
     1
102
RTVSPropertyOp7
 70
     1
102
RTVSPropertyOp8
 70
     1
102
RTVSPropertyOp9
 70
     1
102
RTVSPropertyOp10
 70
     1
102
RTVSPropertyOp11
 70
     1
102
RTVSPropertyOp12
 70
     1
102
RTVSPropertyOp13
 70
     1
102
RTVSPropertyOp14
 70
     1
102
RTVSPropertyOp15
 70
     1
102
RTVSPropertyOp16
 70
     1
102
RTVSPropertyOp17
 70
     1
102
RTVSPropertyOp18
 70
     1
102
RTVSPropertyOp19
 70
     1
102
RTVSPropertyOp20
 70
     1
102
RTVSPropertyOp21
 70
     1
102
RTVSPropertyOp22
 70
     1
102
RTVSPropertyOp23
 70
     1
102
RTVSPropertyOp24
 70
     1
102
RTVSPropertyOp25
 70
     1
102
RTVSPropertyOp26
 70
     1
102
RTVSPropertyOp27
 70
     1
102
RTVSPropertyOp28
 70
     1
102
RTVSPropertyOp29
 70
     1
102
RTVSPropertyOp30
 70
     1
102
RTVSPropertyOp31
 70
     1
102
RTVSPropertyOp32
 70
     1
102
RTVSPropertyOp33
 70
     1
102
RTVSPropertyOp34
 70
     1
102
RTVSPropertyOp35
 70
     1
102
RTVSPropertyOp36
 70
     1
102
RTVSPropertyOp37
 70
     1
102
RTVSPropertyOp38
 70
     1
102
RTVSPropertyOp39
 70
     1
102
RTVSPropertyOp40
 70
     1
102
RTVSPropertyOp41
 70
     1
102
RTVSPropertyOp42
 70
     1
102
RTVSPropertyOp43
 70
     1
102
RTVSPropertyOp44
 70
     1
102
RTVSPropertyOp45
 70
     1
102
RTVSPropertyOp46
 70
     1
102
RTVSPropertyOp47
 70
     1
102
RTVSPropertyOp48
 70
     1
102
RTVSPropertyOp49
 70
     1
102
RTVSPropertyOp50
 70
     1
102
RTVSPropertyOp51
 70
     0
102
RTVSPropertyOp52
 70
     0
102
RTVSPropertyOp53
 70
     1
102
RTVSPropertyOp54
 70
     1
102
RTVSPropertyOp55
 70
     1
102
RTVSPropertyOp56
 70
     1
102
RTVSPropertyOp57
 70
     1
102
RTVSPost2010Prop28
280
     0
102
RTVSPost2010PropOp28
 70
     1
102
RTVSPost2010Prop29
280
     1
102
RTVSPost2010PropOp29
 70
     1
102
RTVSPost2010Prop30
280
     1
102
RTVSPost2010PropOp30
 70
     1
102
RTVSPost2010Prop31
280
     0
102
RTVSPost2010PropOp31
 70
     1
102
RTVSPost2010Prop32
280
     0
102
RTVSPost2010PropOp32
 70
     1
102
RTVSPost2010Prop33
280
     0
102
RTVSPost2010PropOp33
 70
     1
102
RTVSPost2010Prop34
280
     0
102
RTVSPost2010PropOp34
 70
     1
102
RTVSPost2010Prop35
280
     0
102
RTVSPost2010PropOp35
 70
     1
102
RTVSPost2010Prop36
280
     0
102
RTVSPost2010PropOp36
 70
     1
102
RTVSPost2010Prop37
 90
       50
102
RTVSPost2010PropOp37
 70
     1
102
RTVSPost2010Prop38
140
0.0
102
RTVSPost2010PropOp38
 70
     1
102
RTVSPost2010Prop39
140
1.0
102
RTVSPost2010PropOp39
 70
     1
102
RTVSPost2010Prop40
 90
        0
102
RTVSPost2010PropOp40
 70
     1
102
RTVSPost2010Prop41ColorIndex
 90
       18
102
RTVSPost2010Prop41ColorRGB
 90
        0
102
RTVSPost2010PropOp41
 70
     1
102
RTVSPost2010Prop42
 90
       50
102
RTVSPost2010PropOp42
 70
     1
102
RTVSPost2010Prop43
 90
        3
102
RTVSPost2010PropOp43
 70
     1
102
RTVSPost2010Prop44ColorIndex
 90
        5
102
RTVSPost2010Prop44ColorRGB
 90
      255
102
RTVSPost2010PropOp44
 70
     1
102
RTVSPost2010Prop45
280
     0
102
RTVSPost2010PropOp45
 70
     1
102
RTVSPost2010Prop46
 90
       50
102
RTVSPost2010PropOp46
 70
     1
102
RTVSPost2010Prop47
 90
       50
102
RTVSPost2010PropOp47
 70
     1
102
RTVSPost2010Prop48
 90
       50
102
RTVSPost2010PropOp48
 70
     1
102
RTVSPost2010Prop49
280
     0
102
RTVSPost2010PropOp49
 70
     1
102
RTVSPost2010Prop50
 90
       50
102
RTVSPost2010PropOp50
 70
     1
102
RTVSPost2010Prop51ColorIndex
 90
      256
102
RTVSPost2010Prop51ColorRGB
 90
-16777216
102
RTVSPost2010PropOp51
 70
     0
102
RTVSPost2010Prop52
140
1.0
102
RTVSPost2010PropOp52
 70
     0
102
RTVSPost2010Prop53
 90
        2
102
RTVSPost2010PropOp53
 70
     1
102
RTVSPost2010Prop54
  1
strokes_ogs.tif
102
RTVSPost2010PropOp54
 70
     1
102
RTVSPost2010Prop55
280
     0
102
RTVSPost2010PropOp55
 70
     1
102
RTVSPost2010Prop56
140
1.0
102
RTVSPost2010PropOp56
 70
     1
102
RTVSPost2010Prop57
140
1.0
102
RTVSPost2010PropOp57
 70
     1
  0
XRECORD
  5
188
102
{ACAD_REACTORS
330
187
102
}
330
187
100
AcDbXrecord
280
     1
102
RTVSPropertyOp0
 70
     1
102
RTVSPropertyOp1
 70
     1
102
RTVSPropertyOp2
 70
     1
102
RTVSPropertyOp3
 70
     1
102
RTVSPropertyOp4
 70
     1
102
RTVSPropertyOp5
 70
     1
102
RTVSPropertyOp6
 70
     1
102
RTVSPropertyOp7
 70
     1
102
RTVSPropertyOp8
 70
     1
102
RTVSPropertyOp9
 70
     1
102
RTVSPropertyOp10
 70
     1
102
RTVSPropertyOp11
 70
     1
102
RTVSPropertyOp12
 70
     1
102
RTVSPropertyOp13
 70
     1
102
RTVSPropertyOp14
 70
     1
102
RTVSPropertyOp15
 70
     1
102
RTVSPropertyOp16
 70
     1
102
RTVSPropertyOp17
 70
     1
102
RTVSPropertyOp18
 70
     1
102
RTVSPropertyOp19
 70
     1
102
RTVSPropertyOp20
 70
     1
102
RTVSPropertyOp21
 70
     1
102
RTVSPropertyOp22
 70
     1
102
RTVSPropertyOp23
 70
     1
102
RTVSPropertyOp24
 70
     1
102
RTVSPropertyOp25
 70
     1
102
RTVSPropertyOp26
 70
     1
102
RTVSPropertyOp27
 70
     1
102
RTVSPropertyOp28
 70
     1
102
RTVSPropertyOp29
 70
     1
102
RTVSPropertyOp30
 70
     1
102
RTVSPropertyOp31
 70
     1
102
RTVSPropertyOp32
 70
     1
102
RTVSPropertyOp33
 70
     1
102
RTVSPropertyOp34
 70
     1
102
RTVSPropertyOp35
 70
     1
102
RTVSPropertyOp36
 70
     1
102
RTVSPropertyOp37
 70
     1
102
RTVSPropertyOp38
 70
     1
102
RTVSPropertyOp39
 70
     1
102
RTVSPropertyOp40
 70
     1
102
RTVSPropertyOp41
 70
     1
102
RTVSPropertyOp42
 70
     1
102
RTVSPropertyOp43
 70
     1
102
RTVSPropertyOp44
 70
     1
102
RTVSPropertyOp45
 70
     1
102
RTVSPropertyOp46
 70
     1
102
RTVSPropertyOp47
 70
     1
102
RTVSPropertyOp48
 70
     1
102
RTVSPropertyOp49
 70
     1
102
RTVSPropertyOp50
 70
     1
102
RTVSPropertyOp51
 70
     0
102
RTVSPropertyOp52
 70
     0
102
RTVSPropertyOp53
 70
     1
102
RTVSPropertyOp54
 70
     1
102
RTVSPropertyOp55
 70
     1
102
RTVSPropertyOp56
 70
     1
102
RTVSPropertyOp57
 70
     1
102
RTVSPost2010Prop28
280
     0
102
RTVSPost2010PropOp28
 70
     1
102
RTVSPost2010Prop29
280
     1
102
RTVSPost2010PropOp29
 70
     1
102
RTVSPost2010Prop30
280
     1
102
RTVSPost2010PropOp30
 70
     1
102
RTVSPost2010Prop31
280
     0
102
RTVSPost2010PropOp31
 70
     1
102
RTVSPost2010Prop32
280
     0
102
RTVSPost2010PropOp32
 70
     1
102
RTVSPost2010Prop33
280
     0
102
RTVSPost2010PropOp33
 70
     1
102
RTVSPost2010Prop34
280
     0
102
RTVSPost2010PropOp34
 70
     1
102
RTVSPost2010Prop35
280
     0
102
RTVSPost2010PropOp35
 70
     1
102
RTVSPost2010Prop36
280
     0
102
RTVSPost2010PropOp36
 70
     1
102
RTVSPost2010Prop37
 90
       50
102
RTVSPost2010PropOp37
 70
     1
102
RTVSPost2010Prop38
140
0.0
102
RTVSPost2010PropOp38
 70
     1
102
RTVSPost2010Prop39
140
1.0
102
RTVSPost2010PropOp39
 70
     1
102
RTVSPost2010Prop40
 90
        0
102
RTVSPost2010PropOp40
 70
     1
102
RTVSPost2010Prop41ColorIndex
 90
       18
102
RTVSPost2010Prop41ColorRGB
 90
        0
102
RTVSPost2010PropOp41
 70
     1
102
RTVSPost2010Prop42
 90
       50
102
RTVSPost2010PropOp42
 70
     1
102
RTVSPost2010Prop43
 90
        3
102
RTVSPost2010PropOp43
 70
     1
102
RTVSPost2010Prop44ColorIndex
 90
        5
102
RTVSPost2010Prop44ColorRGB
 90
      255
102
RTVSPost2010PropOp44
 70
     1
102
RTVSPost2010Prop45
280
     0
102
RTVSPost2010PropOp45
 70
     1
102
RTVSPost2010Prop46
 90
       50
102
RTVSPost2010PropOp46
 70
     1
102
RTVSPost2010Prop47
 90
       50
102
RTVSPost2010PropOp47
 70
     1
102
RTVSPost2010Prop48
 90
       50
102
RTVSPost2010PropOp48
 70
     1
102
RTVSPost2010Prop49
280
     0
102
RTVSPost2010PropOp49
 70
     1
102
RTVSPost2010Prop50
 90
       50
102
RTVSPost2010PropOp50
 70
     1
102
RTVSPost2010Prop51ColorIndex
 90
      256
102
RTVSPost2010Prop51ColorRGB
 90
-16777216
102
RTVSPost2010PropOp51
 70
     0
102
RTVSPost2010Prop52
140
1.0
102
RTVSPost2010PropOp52
 70
     0
102
RTVSPost2010Prop53
 90
        2
102
RTVSPost2010PropOp53
 70
     1
102
RTVSPost2010Prop54
  1
strokes_ogs.tif
102
RTVSPost2010PropOp54
 70
     1
102
RTVSPost2010Prop55
280
     0
102
RTVSPost2010PropOp55
 70
     1
102
RTVSPost2010Prop56
140
1.0
102
RTVSPost2010PropOp56
 70
     1
102
RTVSPost2010Prop57
140
1.0
102
RTVSPost2010PropOp57
 70
     1
  0
XRECORD
  5
178
102
{ACAD_REACTORS
330
177
102
}
330
177
100
AcDbXrecord
280
     1
102
RTVSPropertyOp0
 70
     1
102
RTVSPropertyOp1
 70
     1
102
RTVSPropertyOp2
 70
     1
102
RTVSPropertyOp3
 70
     1
102
RTVSPropertyOp4
 70
     1
102
RTVSPropertyOp5
 70
     1
102
RTVSPropertyOp6
 70
     1
102
RTVSPropertyOp7
 70
     1
102
RTVSPropertyOp8
 70
     1
102
RTVSPropertyOp9
 70
     1
102
RTVSPropertyOp10
 70
     1
102
RTVSPropertyOp11
 70
     1
102
RTVSPropertyOp12
 70
     1
102
RTVSPropertyOp13
 70
     1
102
RTVSPropertyOp14
 70
     1
102
RTVSPropertyOp15
 70
     1
102
RTVSPropertyOp16
 70
     1
102
RTVSPropertyOp17
 70
     1
102
RTVSPropertyOp18
 70
     1
102
RTVSPropertyOp19
 70
     1
102
RTVSPropertyOp20
 70
     1
102
RTVSPropertyOp21
 70
     1
102
RTVSPropertyOp22
 70
     1
102
RTVSPropertyOp23
 70
     1
102
RTVSPropertyOp24
 70
     1
102
RTVSPropertyOp25
 70
     1
102
RTVSPropertyOp26
 70
     1
102
RTVSPropertyOp27
 70
     1
102
RTVSPropertyOp28
 70
     1
102
RTVSPropertyOp29
 70
     1
102
RTVSPropertyOp30
 70
     1
102
RTVSPropertyOp31
 70
     1
102
RTVSPropertyOp32
 70
     1
102
RTVSPropertyOp33
 70
     1
102
RTVSPropertyOp34
 70
     1
102
RTVSPropertyOp35
 70
     1
102
RTVSPropertyOp36
 70
     1
102
RTVSPropertyOp37
 70
     1
102
RTVSPropertyOp38
 70
     1
102
RTVSPropertyOp39
 70
     1
102
RTVSPropertyOp40
 70
     1
102
RTVSPropertyOp41
 70
     1
102
RTVSPropertyOp42
 70
     1
102
RTVSPropertyOp43
 70
     1
102
RTVSPropertyOp44
 70
     1
102
RTVSPropertyOp45
 70
     1
102
RTVSPropertyOp46
 70
     1
102
RTVSPropertyOp47
 70
     1
102
RTVSPropertyOp48
 70
     1
102
RTVSPropertyOp49
 70
     1
102
RTVSPropertyOp50
 70
     1
102
RTVSPropertyOp51
 70
     0
102
RTVSPropertyOp52
 70
     0
102
RTVSPropertyOp53
 70
     1
102
RTVSPropertyOp54
 70
     1
102
RTVSPropertyOp55
 70
     1
102
RTVSPropertyOp56
 70
     1
102
RTVSPropertyOp57
 70
     1
102
RTVSPost2010Prop28
280
     0
102
RTVSPost2010PropOp28
 70
     1
102
RTVSPost2010Prop29
280
     1
102
RTVSPost2010PropOp29
 70
     1
102
RTVSPost2010Prop30
280
     1
102
RTVSPost2010PropOp30
 70
     1
102
RTVSPost2010Prop31
280
     0
102
RTVSPost2010PropOp31
 70
     1
102
RTVSPost2010Prop32
280
     0
102
RTVSPost2010PropOp32
 70
     1
102
RTVSPost2010Prop33
280
     0
102
RTVSPost2010PropOp33
 70
     1
102
RTVSPost2010Prop34
280
     0
102
RTVSPost2010PropOp34
 70
     1
102
RTVSPost2010Prop35
280
     0
102
RTVSPost2010PropOp35
 70
     1
102
RTVSPost2010Prop36
280
     0
102
RTVSPost2010PropOp36
 70
     1
102
RTVSPost2010Prop37
 90
       50
102
RTVSPost2010PropOp37
 70
     1
102
RTVSPost2010Prop38
140
0.0
102
RTVSPost2010PropOp38
 70
     1
102
RTVSPost2010Prop39
140
1.0
102
RTVSPost2010PropOp39
 70
     1
102
RTVSPost2010Prop40
 90
        0
102
RTVSPost2010PropOp40
 70
     1
102
RTVSPost2010Prop41ColorIndex
 90
       18
102
RTVSPost2010Prop41ColorRGB
 90
        0
102
RTVSPost2010PropOp41
 70
     1
102
RTVSPost2010Prop42
 90
       50
102
RTVSPost2010PropOp42
 70
     1
102
RTVSPost2010Prop43
 90
        3
102
RTVSPost2010PropOp43
 70
     1
102
RTVSPost2010Prop44ColorIndex
 90
        5
102
RTVSPost2010Prop44ColorRGB
 90
      255
102
RTVSPost2010PropOp44
 70
     1
102
RTVSPost2010Prop45
280
     0
102
RTVSPost2010PropOp45
 70
     1
102
RTVSPost2010Prop46
 90
       50
102
RTVSPost2010PropOp46
 70
     1
102
RTVSPost2010Prop47
 90
       50
102
RTVSPost2010PropOp47
 70
     1
102
RTVSPost2010Prop48
 90
       50
102
RTVSPost2010PropOp48
 70
     1
102
RTVSPost2010Prop49
280
     0
102
RTVSPost2010PropOp49
 70
     1
102
RTVSPost2010Prop50
 90
       50
102
RTVSPost2010PropOp50
 70
     1
102
RTVSPost2010Prop51ColorIndex
 90
      256
102
RTVSPost2010Prop51ColorRGB
 90
-16777216
102
RTVSPost2010PropOp51
 70
     0
102
RTVSPost2010Prop52
140
1.0
102
RTVSPost2010PropOp52
 70
     0
102
RTVSPost2010Prop53
 90
        2
102
RTVSPost2010PropOp53
 70
     1
102
RTVSPost2010Prop54
  1
strokes_ogs.tif
102
RTVSPost2010PropOp54
 70
     1
102
RTVSPost2010Prop55
280
     0
102
RTVSPost2010PropOp55
 70
     1
102
RTVSPost2010Prop56
140
1.0
102
RTVSPost2010PropOp56
 70
     1
102
RTVSPost2010Prop57
140
1.0
102
RTVSPost2010PropOp57
 70
     1
  0
XRECORD
  5
16A
102
{ACAD_REACTORS
330
169
102
}
330
169
100
AcDbXrecord
280
     1
102
RTVSPropertyOp0
 70
     1
102
RTVSPropertyOp1
 70
     1
102
RTVSPropertyOp2
 70
     1
102
RTVSPropertyOp3
 70
     1
102
RTVSPropertyOp4
 70
     1
102
RTVSPropertyOp5
 70
     1
102
RTVSPropertyOp6
 70
     1
102
RTVSPropertyOp7
 70
     1
102
RTVSPropertyOp8
 70
     1
102
RTVSPropertyOp9
 70
     1
102
RTVSPropertyOp10
 70
     1
102
RTVSPropertyOp11
 70
     1
102
RTVSPropertyOp12
 70
     1
102
RTVSPropertyOp13
 70
     1
102
RTVSPropertyOp14
 70
     1
102
RTVSPropertyOp15
 70
     1
102
RTVSPropertyOp16
 70
     1
102
RTVSPropertyOp17
 70
     1
102
RTVSPropertyOp18
 70
     1
102
RTVSPropertyOp19
 70
     1
102
RTVSPropertyOp20
 70
     1
102
RTVSPropertyOp21
 70
     1
102
RTVSPropertyOp22
 70
     1
102
RTVSPropertyOp23
 70
     1
102
RTVSPropertyOp24
 70
     1
102
RTVSPropertyOp25
 70
     1
102
RTVSPropertyOp26
 70
     1
102
RTVSPropertyOp27
 70
     1
102
RTVSPropertyOp28
 70
     1
102
RTVSPropertyOp29
 70
     1
102
RTVSPropertyOp30
 70
     1
102
RTVSPropertyOp31
 70
     1
102
RTVSPropertyOp32
 70
     1
102
RTVSPropertyOp33
 70
     1
102
RTVSPropertyOp34
 70
     1
102
RTVSPropertyOp35
 70
     1
102
RTVSPropertyOp36
 70
     1
102
RTVSPropertyOp37
 70
     1
102
RTVSPropertyOp38
 70
     1
102
RTVSPropertyOp39
 70
     1
102
RTVSPropertyOp40
 70
     1
102
RTVSPropertyOp41
 70
     1
102
RTVSPropertyOp42
 70
     1
102
RTVSPropertyOp43
 70
     1
102
RTVSPropertyOp44
 70
     1
102
RTVSPropertyOp45
 70
     1
102
RTVSPropertyOp46
 70
     1
102
RTVSPropertyOp47
 70
     1
102
RTVSPropertyOp48
 70
     1
102
RTVSPropertyOp49
 70
     1
102
RTVSPropertyOp50
 70
     1
102
RTVSPropertyOp51
 70
     0
102
RTVSPropertyOp52
 70
     0
102
RTVSPropertyOp53
 70
     1
102
RTVSPropertyOp54
 70
     1
102
RTVSPropertyOp55
 70
     1
102
RTVSPropertyOp56
 70
     1
102
RTVSPropertyOp57
 70
     1
102
RTVSPost2010Prop28
280
     0
102
RTVSPost2010PropOp28
 70
     1
102
RTVSPost2010Prop29
280
     1
102
RTVSPost2010PropOp29
 70
     1
102
RTVSPost2010Prop30
280
     1
102
RTVSPost2010PropOp30
 70
     1
102
RTVSPost2010Prop31
280
     0
102
RTVSPost2010PropOp31
 70
     1
102
RTVSPost2010Prop32
280
     0
102
RTVSPost2010PropOp32
 70
     1
102
RTVSPost2010Prop33
280
     0
102
RTVSPost2010PropOp33
 70
     1
102
RTVSPost2010Prop34
280
     0
102
RTVSPost2010PropOp34
 70
     1
102
RTVSPost2010Prop35
280
     0
102
RTVSPost2010PropOp35
 70
     1
102
RTVSPost2010Prop36
280
     0
102
RTVSPost2010PropOp36
 70
     1
102
RTVSPost2010Prop37
 90
       50
102
RTVSPost2010PropOp37
 70
     1
102
RTVSPost2010Prop38
140
0.0
102
RTVSPost2010PropOp38
 70
     1
102
RTVSPost2010Prop39
140
1.0
102
RTVSPost2010PropOp39
 70
     1
102
RTVSPost2010Prop40
 90
        0
102
RTVSPost2010PropOp40
 70
     1
102
RTVSPost2010Prop41ColorIndex
 90
       18
102
RTVSPost2010Prop41ColorRGB
 90
        0
102
RTVSPost2010PropOp41
 70
     1
102
RTVSPost2010Prop42
 90
       50
102
RTVSPost2010PropOp42
 70
     1
102
RTVSPost2010Prop43
 90
        3
102
RTVSPost2010PropOp43
 70
     1
102
RTVSPost2010Prop44ColorIndex
 90
        5
102
RTVSPost2010Prop44ColorRGB
 90
      255
102
RTVSPost2010PropOp44
 70
     1
102
RTVSPost2010Prop45
280
     0
102
RTVSPost2010PropOp45
 70
     1
102
RTVSPost2010Prop46
 90
       50
102
RTVSPost2010PropOp46
 70
     1
102
RTVSPost2010Prop47
 90
       50
102
RTVSPost2010PropOp47
 70
     1
102
RTVSPost2010Prop48
 90
       50
102
RTVSPost2010PropOp48
 70
     1
102
RTVSPost2010Prop49
280
     0
102
RTVSPost2010PropOp49
 70
     1
102
RTVSPost2010Prop50
 90
       50
102
RTVSPost2010PropOp50
 70
     1
102
RTVSPost2010Prop51ColorIndex
 90
      256
102
RTVSPost2010Prop51ColorRGB
 90
-16777216
102
RTVSPost2010PropOp51
 70
     0
102
RTVSPost2010Prop52
140
1.0
102
RTVSPost2010PropOp52
 70
     0
102
RTVSPost2010Prop53
 90
        2
102
RTVSPost2010PropOp53
 70
     1
102
RTVSPost2010Prop54
  1
strokes_ogs.tif
102
RTVSPost2010PropOp54
 70
     1
102
RTVSPost2010Prop55
280
     0
102
RTVSPost2010PropOp55
 70
     1
102
RTVSPost2010Prop56
140
1.0
102
RTVSPost2010PropOp56
 70
     1
102
RTVSPost2010Prop57
140
1.0
102
RTVSPost2010PropOp57
 70
     1
  0
XRECORD
  5
18A
102
{ACAD_REACTORS
330
189
102
}
330
189
100
AcDbXrecord
280
     1
102
RTVSPropertyOp0
 70
     1
102
RTVSPropertyOp1
 70
     1
102
RTVSPropertyOp2
 70
     1
102
RTVSPropertyOp3
 70
     1
102
RTVSPropertyOp4
 70
     1
102
RTVSPropertyOp5
 70
     1
102
RTVSPropertyOp6
 70
     1
102
RTVSPropertyOp7
 70
     1
102
RTVSPropertyOp8
 70
     1
102
RTVSPropertyOp9
 70
     1
102
RTVSPropertyOp10
 70
     1
102
RTVSPropertyOp11
 70
     1
102
RTVSPropertyOp12
 70
     1
102
RTVSPropertyOp13
 70
     1
102
RTVSPropertyOp14
 70
     1
102
RTVSPropertyOp15
 70
     1
102
RTVSPropertyOp16
 70
     1
102
RTVSPropertyOp17
 70
     1
102
RTVSPropertyOp18
 70
     1
102
RTVSPropertyOp19
 70
     1
102
RTVSPropertyOp20
 70
     1
102
RTVSPropertyOp21
 70
     1
102
RTVSPropertyOp22
 70
     1
102
RTVSPropertyOp23
 70
     1
102
RTVSPropertyOp24
 70
     1
102
RTVSPropertyOp25
 70
     1
102
RTVSPropertyOp26
 70
     1
102
RTVSPropertyOp27
 70
     1
102
RTVSPropertyOp28
 70
     1
102
RTVSPropertyOp29
 70
     1
102
RTVSPropertyOp30
 70
     1
102
RTVSPropertyOp31
 70
     1
102
RTVSPropertyOp32
 70
     1
102
RTVSPropertyOp33
 70
     1
102
RTVSPropertyOp34
 70
     1
102
RTVSPropertyOp35
 70
     1
102
RTVSPropertyOp36
 70
     1
102
RTVSPropertyOp37
 70
     1
102
RTVSPropertyOp38
 70
     1
102
RTVSPropertyOp39
 70
     1
102
RTVSPropertyOp40
 70
     1
102
RTVSPropertyOp41
 70
     1
102
RTVSPropertyOp42
 70
     1
102
RTVSPropertyOp43
 70
     1
102
RTVSPropertyOp44
 70
     1
102
RTVSPropertyOp45
 70
     1
102
RTVSPropertyOp46
 70
     1
102
RTVSPropertyOp47
 70
     1
102
RTVSPropertyOp48
 70
     1
102
RTVSPropertyOp49
 70
     1
102
RTVSPropertyOp50
 70
     1
102
RTVSPropertyOp51
 70
     0
102
RTVSPropertyOp52
 70
     0
102
RTVSPropertyOp53
 70
     1
102
RTVSPropertyOp54
 70
     1
102
RTVSPropertyOp55
 70
     1
102
RTVSPropertyOp56
 70
     1
102
RTVSPropertyOp57
 70
     1
102
RTVSPost2010Prop28
280
     0
102
RTVSPost2010PropOp28
 70
     1
102
RTVSPost2010Prop29
280
     1
102
RTVSPost2010PropOp29
 70
     1
102
RTVSPost2010Prop30
280
     1
102
RTVSPost2010PropOp30
 70
     1
102
RTVSPost2010Prop31
280
     0
102
RTVSPost2010PropOp31
 70
     1
102
RTVSPost2010Prop32
280
     0
102
RTVSPost2010PropOp32
 70
     1
102
RTVSPost2010Prop33
280
     0
102
RTVSPost2010PropOp33
 70
     1
102
RTVSPost2010Prop34
280
     0
102
RTVSPost2010PropOp34
 70
     1
102
RTVSPost2010Prop35
280
     0
102
RTVSPost2010PropOp35
 70
     1
102
RTVSPost2010Prop36
280
     0
102
RTVSPost2010PropOp36
 70
     1
102
RTVSPost2010Prop37
 90
       50
102
RTVSPost2010PropOp37
 70
     1
102
RTVSPost2010Prop38
140
0.0
102
RTVSPost2010PropOp38
 70
     1
102
RTVSPost2010Prop39
140
1.0
102
RTVSPost2010PropOp39
 70
     1
102
RTVSPost2010Prop40
 90
        0
102
RTVSPost2010PropOp40
 70
     1
102
RTVSPost2010Prop41ColorIndex
 90
       18
102
RTVSPost2010Prop41ColorRGB
 90
        0
102
RTVSPost2010PropOp41
 70
     1
102
RTVSPost2010Prop42
 90
       50
102
RTVSPost2010PropOp42
 70
     1
102
RTVSPost2010Prop43
 90
        3
102
RTVSPost2010PropOp43
 70
     1
102
RTVSPost2010Prop44ColorIndex
 90
        5
102
RTVSPost2010Prop44ColorRGB
 90
      255
102
RTVSPost2010PropOp44
 70
     1
102
RTVSPost2010Prop45
280
     0
102
RTVSPost2010PropOp45
 70
     1
102
RTVSPost2010Prop46
 90
       50
102
RTVSPost2010PropOp46
 70
     1
102
RTVSPost2010Prop47
 90
       50
102
RTVSPost2010PropOp47
 70
     1
102
RTVSPost2010Prop48
 90
       50
102
RTVSPost2010PropOp48
 70
     1
102
RTVSPost2010Prop49
280
     0
102
RTVSPost2010PropOp49
 70
     1
102
RTVSPost2010Prop50
 90
       50
102
RTVSPost2010PropOp50
 70
     1
102
RTVSPost2010Prop51ColorIndex
 90
      256
102
RTVSPost2010Prop51ColorRGB
 90
-16777216
102
RTVSPost2010PropOp51
 70
     0
102
RTVSPost2010Prop52
140
1.0
102
RTVSPost2010PropOp52
 70
     0
102
RTVSPost2010Prop53
 90
        2
102
RTVSPost2010PropOp53
 70
     1
102
RTVSPost2010Prop54
  1
strokes_ogs.tif
102
RTVSPost2010PropOp54
 70
     1
102
RTVSPost2010Prop55
280
     0
102
RTVSPost2010PropOp55
 70
     1
102
RTVSPost2010Prop56
140
1.0
102
RTVSPost2010PropOp56
 70
     1
102
RTVSPost2010Prop57
140
1.0
102
RTVSPost2010PropOp57
 70
     1
  0
ENDSEC
  0
EOF
