ISO-10303-21;
HEADER;
/* Generated by software containing ST-Developer
 * from STEP Tools, Inc. (www.steptools.com) 
 */

FILE_DESCRIPTION(
/* description */ (''),
/* implementation_level */ '2;1');

FILE_NAME(
/* name */ '5.4 Press brake bottom.step',
/* time_stamp */ '2024-08-16T09:57:13+02:00',
/* author */ (''),
/* organization */ (''),
/* preprocessor_version */ 'ST-DEVELOPER v20',
/* originating_system */ 'Autodesk Translation Framework v13.14.0.145',

/* authorisation */ '');

FILE_SCHEMA (('AUTOMOTIVE_DESIGN { 1 0 10303 214 3 1 1 }'));
ENDSEC;

DATA;
#10=MECHANICAL_DESIGN_GEOMETRIC_PRESENTATION_REPRESENTATION('',(#13),#533);
#11=SHAPE_REPRESENTATION_RELATIONSHIP('SRR','None',#540,#12);
#12=ADVANCED_BREP_SHAPE_REPRESENTATION('',(#14),#532);
#13=STYLED_ITEM('',(#549),#14);
#14=MANIFOLD_SOLID_BREP('Body1',#313);
#15=FACE_BOUND('',#49,.T.);
#16=FACE_BOUND('',#50,.T.);
#17=FACE_BOUND('',#56,.T.);
#18=FACE_BOUND('',#57,.T.);
#19=PLANE('',#336);
#20=PLANE('',#337);
#21=PLANE('',#343);
#22=PLANE('',#346);
#23=PLANE('',#349);
#24=PLANE('',#350);
#25=PLANE('',#351);
#26=PLANE('',#352);
#27=PLANE('',#353);
#28=PLANE('',#354);
#29=FACE_OUTER_BOUND('',#45,.T.);
#30=FACE_OUTER_BOUND('',#46,.T.);
#31=FACE_OUTER_BOUND('',#47,.T.);
#32=FACE_OUTER_BOUND('',#48,.T.);
#33=FACE_OUTER_BOUND('',#51,.T.);
#34=FACE_OUTER_BOUND('',#52,.T.);
#35=FACE_OUTER_BOUND('',#53,.T.);
#36=FACE_OUTER_BOUND('',#54,.T.);
#37=FACE_OUTER_BOUND('',#55,.T.);
#38=FACE_OUTER_BOUND('',#58,.T.);
#39=FACE_OUTER_BOUND('',#59,.T.);
#40=FACE_OUTER_BOUND('',#60,.T.);
#41=FACE_OUTER_BOUND('',#61,.T.);
#42=FACE_OUTER_BOUND('',#62,.T.);
#43=FACE_OUTER_BOUND('',#63,.T.);
#44=FACE_OUTER_BOUND('',#64,.T.);
#45=EDGE_LOOP('',(#207,#208,#209,#210));
#46=EDGE_LOOP('',(#211,#212,#213,#214));
#47=EDGE_LOOP('',(#215,#216,#217,#218));
#48=EDGE_LOOP('',(#219,#220,#221,#222));
#49=EDGE_LOOP('',(#223));
#50=EDGE_LOOP('',(#224));
#51=EDGE_LOOP('',(#225,#226,#227,#228,#229,#230,#231,#232,#233,#234,#235,
#236));
#52=EDGE_LOOP('',(#237,#238,#239,#240));
#53=EDGE_LOOP('',(#241,#242,#243,#244));
#54=EDGE_LOOP('',(#245,#246,#247,#248));
#55=EDGE_LOOP('',(#249,#250,#251,#252));
#56=EDGE_LOOP('',(#253));
#57=EDGE_LOOP('',(#254));
#58=EDGE_LOOP('',(#255,#256,#257,#258));
#59=EDGE_LOOP('',(#259,#260,#261,#262));
#60=EDGE_LOOP('',(#263,#264,#265,#266));
#61=EDGE_LOOP('',(#267,#268,#269,#270));
#62=EDGE_LOOP('',(#271,#272,#273,#274));
#63=EDGE_LOOP('',(#275,#276,#277,#278));
#64=EDGE_LOOP('',(#279,#280,#281,#282,#283,#284,#285,#286,#287,#288,#289,
#290));
#65=LINE('',#448,#95);
#66=LINE('',#454,#96);
#67=LINE('',#461,#97);
#68=LINE('',#464,#98);
#69=LINE('',#467,#99);
#70=LINE('',#469,#100);
#71=LINE('',#470,#101);
#72=LINE('',#473,#102);
#73=LINE('',#475,#103);
#74=LINE('',#477,#104);
#75=LINE('',#481,#105);
#76=LINE('',#485,#106);
#77=LINE('',#487,#107);
#78=LINE('',#489,#108);
#79=LINE('',#494,#109);
#80=LINE('',#497,#110);
#81=LINE('',#498,#111);
#82=LINE('',#501,#112);
#83=LINE('',#504,#113);
#84=LINE('',#507,#114);
#85=LINE('',#508,#115);
#86=LINE('',#511,#116);
#87=LINE('',#515,#117);
#88=LINE('',#516,#118);
#89=LINE('',#519,#119);
#90=LINE('',#520,#120);
#91=LINE('',#522,#121);
#92=LINE('',#525,#122);
#93=LINE('',#526,#123);
#94=LINE('',#528,#124);
#95=VECTOR('',#361,5.05);
#96=VECTOR('',#368,5.05);
#97=VECTOR('',#375,10.);
#98=VECTOR('',#378,10.);
#99=VECTOR('',#381,10.);
#100=VECTOR('',#382,10.);
#101=VECTOR('',#383,10.);
#102=VECTOR('',#386,10.);
#103=VECTOR('',#387,10.);
#104=VECTOR('',#388,10.);
#105=VECTOR('',#391,10.);
#106=VECTOR('',#394,10.);
#107=VECTOR('',#395,10.);
#108=VECTOR('',#396,10.);
#109=VECTOR('',#403,10.);
#110=VECTOR('',#406,10.);
#111=VECTOR('',#407,10.);
#112=VECTOR('',#410,10.);
#113=VECTOR('',#413,10.);
#114=VECTOR('',#416,10.);
#115=VECTOR('',#417,10.);
#116=VECTOR('',#420,10.);
#117=VECTOR('',#425,10.);
#118=VECTOR('',#426,10.);
#119=VECTOR('',#429,10.);
#120=VECTOR('',#430,10.);
#121=VECTOR('',#433,10.);
#122=VECTOR('',#436,10.);
#123=VECTOR('',#437,10.);
#124=VECTOR('',#440,10.);
#125=CIRCLE('',#328,5.05);
#126=CIRCLE('',#329,5.05);
#127=CIRCLE('',#331,5.05);
#128=CIRCLE('',#332,5.05);
#129=CIRCLE('',#334,6.);
#130=CIRCLE('',#335,6.);
#131=CIRCLE('',#338,3.);
#132=CIRCLE('',#339,3.);
#133=CIRCLE('',#340,6.);
#134=CIRCLE('',#342,6.);
#135=CIRCLE('',#345,3.);
#136=CIRCLE('',#348,3.);
#137=VERTEX_POINT('',#445);
#138=VERTEX_POINT('',#447);
#139=VERTEX_POINT('',#451);
#140=VERTEX_POINT('',#453);
#141=VERTEX_POINT('',#457);
#142=VERTEX_POINT('',#458);
#143=VERTEX_POINT('',#460);
#144=VERTEX_POINT('',#462);
#145=VERTEX_POINT('',#466);
#146=VERTEX_POINT('',#468);
#147=VERTEX_POINT('',#472);
#148=VERTEX_POINT('',#474);
#149=VERTEX_POINT('',#476);
#150=VERTEX_POINT('',#478);
#151=VERTEX_POINT('',#480);
#152=VERTEX_POINT('',#482);
#153=VERTEX_POINT('',#484);
#154=VERTEX_POINT('',#486);
#155=VERTEX_POINT('',#488);
#156=VERTEX_POINT('',#492);
#157=VERTEX_POINT('',#496);
#158=VERTEX_POINT('',#500);
#159=VERTEX_POINT('',#502);
#160=VERTEX_POINT('',#506);
#161=VERTEX_POINT('',#510);
#162=VERTEX_POINT('',#514);
#163=VERTEX_POINT('',#518);
#164=VERTEX_POINT('',#524);
#165=EDGE_CURVE('',#137,#137,#125,.T.);
#166=EDGE_CURVE('',#137,#138,#65,.T.);
#167=EDGE_CURVE('',#138,#138,#126,.T.);
#168=EDGE_CURVE('',#139,#139,#127,.T.);
#169=EDGE_CURVE('',#139,#140,#66,.T.);
#170=EDGE_CURVE('',#140,#140,#128,.T.);
#171=EDGE_CURVE('',#141,#142,#129,.T.);
#172=EDGE_CURVE('',#142,#143,#67,.T.);
#173=EDGE_CURVE('',#143,#144,#130,.T.);
#174=EDGE_CURVE('',#144,#141,#68,.T.);
#175=EDGE_CURVE('',#145,#142,#69,.T.);
#176=EDGE_CURVE('',#146,#145,#70,.T.);
#177=EDGE_CURVE('',#143,#146,#71,.T.);
#178=EDGE_CURVE('',#141,#147,#72,.T.);
#179=EDGE_CURVE('',#147,#148,#73,.T.);
#180=EDGE_CURVE('',#148,#149,#74,.T.);
#181=EDGE_CURVE('',#150,#149,#131,.T.);
#182=EDGE_CURVE('',#150,#151,#75,.T.);
#183=EDGE_CURVE('',#152,#151,#132,.T.);
#184=EDGE_CURVE('',#152,#153,#76,.T.);
#185=EDGE_CURVE('',#153,#154,#77,.T.);
#186=EDGE_CURVE('',#154,#155,#78,.T.);
#187=EDGE_CURVE('',#145,#155,#133,.T.);
#188=EDGE_CURVE('',#156,#146,#134,.T.);
#189=EDGE_CURVE('',#155,#156,#79,.T.);
#190=EDGE_CURVE('',#154,#157,#80,.T.);
#191=EDGE_CURVE('',#156,#157,#81,.T.);
#192=EDGE_CURVE('',#151,#158,#82,.T.);
#193=EDGE_CURVE('',#158,#159,#135,.T.);
#194=EDGE_CURVE('',#159,#152,#83,.T.);
#195=EDGE_CURVE('',#160,#150,#84,.T.);
#196=EDGE_CURVE('',#158,#160,#85,.T.);
#197=EDGE_CURVE('',#149,#161,#86,.T.);
#198=EDGE_CURVE('',#161,#160,#136,.T.);
#199=EDGE_CURVE('',#148,#162,#87,.T.);
#200=EDGE_CURVE('',#161,#162,#88,.T.);
#201=EDGE_CURVE('',#163,#144,#89,.T.);
#202=EDGE_CURVE('',#147,#163,#90,.T.);
#203=EDGE_CURVE('',#162,#163,#91,.T.);
#204=EDGE_CURVE('',#164,#159,#92,.T.);
#205=EDGE_CURVE('',#153,#164,#93,.T.);
#206=EDGE_CURVE('',#157,#164,#94,.T.);
#207=ORIENTED_EDGE('',*,*,#165,.F.);
#208=ORIENTED_EDGE('',*,*,#166,.T.);
#209=ORIENTED_EDGE('',*,*,#167,.F.);
#210=ORIENTED_EDGE('',*,*,#166,.F.);
#211=ORIENTED_EDGE('',*,*,#168,.F.);
#212=ORIENTED_EDGE('',*,*,#169,.T.);
#213=ORIENTED_EDGE('',*,*,#170,.F.);
#214=ORIENTED_EDGE('',*,*,#169,.F.);
#215=ORIENTED_EDGE('',*,*,#171,.T.);
#216=ORIENTED_EDGE('',*,*,#172,.T.);
#217=ORIENTED_EDGE('',*,*,#173,.T.);
#218=ORIENTED_EDGE('',*,*,#174,.T.);
#219=ORIENTED_EDGE('',*,*,#172,.F.);
#220=ORIENTED_EDGE('',*,*,#175,.F.);
#221=ORIENTED_EDGE('',*,*,#176,.F.);
#222=ORIENTED_EDGE('',*,*,#177,.F.);
#223=ORIENTED_EDGE('',*,*,#165,.T.);
#224=ORIENTED_EDGE('',*,*,#168,.T.);
#225=ORIENTED_EDGE('',*,*,#171,.F.);
#226=ORIENTED_EDGE('',*,*,#178,.T.);
#227=ORIENTED_EDGE('',*,*,#179,.T.);
#228=ORIENTED_EDGE('',*,*,#180,.T.);
#229=ORIENTED_EDGE('',*,*,#181,.F.);
#230=ORIENTED_EDGE('',*,*,#182,.T.);
#231=ORIENTED_EDGE('',*,*,#183,.F.);
#232=ORIENTED_EDGE('',*,*,#184,.T.);
#233=ORIENTED_EDGE('',*,*,#185,.T.);
#234=ORIENTED_EDGE('',*,*,#186,.T.);
#235=ORIENTED_EDGE('',*,*,#187,.F.);
#236=ORIENTED_EDGE('',*,*,#175,.T.);
#237=ORIENTED_EDGE('',*,*,#188,.T.);
#238=ORIENTED_EDGE('',*,*,#176,.T.);
#239=ORIENTED_EDGE('',*,*,#187,.T.);
#240=ORIENTED_EDGE('',*,*,#189,.T.);
#241=ORIENTED_EDGE('',*,*,#189,.F.);
#242=ORIENTED_EDGE('',*,*,#186,.F.);
#243=ORIENTED_EDGE('',*,*,#190,.T.);
#244=ORIENTED_EDGE('',*,*,#191,.F.);
#245=ORIENTED_EDGE('',*,*,#183,.T.);
#246=ORIENTED_EDGE('',*,*,#192,.T.);
#247=ORIENTED_EDGE('',*,*,#193,.T.);
#248=ORIENTED_EDGE('',*,*,#194,.T.);
#249=ORIENTED_EDGE('',*,*,#192,.F.);
#250=ORIENTED_EDGE('',*,*,#182,.F.);
#251=ORIENTED_EDGE('',*,*,#195,.F.);
#252=ORIENTED_EDGE('',*,*,#196,.F.);
#253=ORIENTED_EDGE('',*,*,#167,.T.);
#254=ORIENTED_EDGE('',*,*,#170,.T.);
#255=ORIENTED_EDGE('',*,*,#181,.T.);
#256=ORIENTED_EDGE('',*,*,#197,.T.);
#257=ORIENTED_EDGE('',*,*,#198,.T.);
#258=ORIENTED_EDGE('',*,*,#195,.T.);
#259=ORIENTED_EDGE('',*,*,#197,.F.);
#260=ORIENTED_EDGE('',*,*,#180,.F.);
#261=ORIENTED_EDGE('',*,*,#199,.T.);
#262=ORIENTED_EDGE('',*,*,#200,.F.);
#263=ORIENTED_EDGE('',*,*,#174,.F.);
#264=ORIENTED_EDGE('',*,*,#201,.F.);
#265=ORIENTED_EDGE('',*,*,#202,.F.);
#266=ORIENTED_EDGE('',*,*,#178,.F.);
#267=ORIENTED_EDGE('',*,*,#202,.T.);
#268=ORIENTED_EDGE('',*,*,#203,.F.);
#269=ORIENTED_EDGE('',*,*,#199,.F.);
#270=ORIENTED_EDGE('',*,*,#179,.F.);
#271=ORIENTED_EDGE('',*,*,#194,.F.);
#272=ORIENTED_EDGE('',*,*,#204,.F.);
#273=ORIENTED_EDGE('',*,*,#205,.F.);
#274=ORIENTED_EDGE('',*,*,#184,.F.);
#275=ORIENTED_EDGE('',*,*,#205,.T.);
#276=ORIENTED_EDGE('',*,*,#206,.F.);
#277=ORIENTED_EDGE('',*,*,#190,.F.);
#278=ORIENTED_EDGE('',*,*,#185,.F.);
#279=ORIENTED_EDGE('',*,*,#173,.F.);
#280=ORIENTED_EDGE('',*,*,#177,.T.);
#281=ORIENTED_EDGE('',*,*,#188,.F.);
#282=ORIENTED_EDGE('',*,*,#191,.T.);
#283=ORIENTED_EDGE('',*,*,#206,.T.);
#284=ORIENTED_EDGE('',*,*,#204,.T.);
#285=ORIENTED_EDGE('',*,*,#193,.F.);
#286=ORIENTED_EDGE('',*,*,#196,.T.);
#287=ORIENTED_EDGE('',*,*,#198,.F.);
#288=ORIENTED_EDGE('',*,*,#200,.T.);
#289=ORIENTED_EDGE('',*,*,#203,.T.);
#290=ORIENTED_EDGE('',*,*,#201,.T.);
#291=CYLINDRICAL_SURFACE('',#327,5.05);
#292=CYLINDRICAL_SURFACE('',#330,5.05);
#293=CYLINDRICAL_SURFACE('',#333,6.);
#294=CYLINDRICAL_SURFACE('',#341,6.);
#295=CYLINDRICAL_SURFACE('',#344,3.);
#296=CYLINDRICAL_SURFACE('',#347,3.);
#297=ADVANCED_FACE('',(#29),#291,.F.);
#298=ADVANCED_FACE('',(#30),#292,.F.);
#299=ADVANCED_FACE('',(#31),#293,.T.);
#300=ADVANCED_FACE('',(#32,#15,#16),#19,.T.);
#301=ADVANCED_FACE('',(#33),#20,.T.);
#302=ADVANCED_FACE('',(#34),#294,.T.);
#303=ADVANCED_FACE('',(#35),#21,.T.);
#304=ADVANCED_FACE('',(#36),#295,.F.);
#305=ADVANCED_FACE('',(#37,#17,#18),#22,.T.);
#306=ADVANCED_FACE('',(#38),#296,.F.);
#307=ADVANCED_FACE('',(#39),#23,.T.);
#308=ADVANCED_FACE('',(#40),#24,.T.);
#309=ADVANCED_FACE('',(#41),#25,.T.);
#310=ADVANCED_FACE('',(#42),#26,.T.);
#311=ADVANCED_FACE('',(#43),#27,.T.);
#312=ADVANCED_FACE('',(#44),#28,.T.);
#313=CLOSED_SHELL('',(#297,#298,#299,#300,#301,#302,#303,#304,#305,#306,
#307,#308,#309,#310,#311,#312));
#314=DERIVED_UNIT_ELEMENT(#316,1.);
#315=DERIVED_UNIT_ELEMENT(#535,-3.);
#316=(
MASS_UNIT()
NAMED_UNIT(*)
SI_UNIT(.KILO.,.GRAM.)
);
#317=DERIVED_UNIT((#314,#315));
#318=MEASURE_REPRESENTATION_ITEM('density measure',
POSITIVE_RATIO_MEASURE(7850.),#317);
#319=PROPERTY_DEFINITION_REPRESENTATION(#324,#321);
#320=PROPERTY_DEFINITION_REPRESENTATION(#325,#322);
#321=REPRESENTATION('material name',(#323),#532);
#322=REPRESENTATION('density',(#318),#532);
#323=DESCRIPTIVE_REPRESENTATION_ITEM('Steel','Steel');
#324=PROPERTY_DEFINITION('material property','material name',#542);
#325=PROPERTY_DEFINITION('material property','density of part',#542);
#326=AXIS2_PLACEMENT_3D('',#443,#355,#356);
#327=AXIS2_PLACEMENT_3D('',#444,#357,#358);
#328=AXIS2_PLACEMENT_3D('',#446,#359,#360);
#329=AXIS2_PLACEMENT_3D('',#449,#362,#363);
#330=AXIS2_PLACEMENT_3D('',#450,#364,#365);
#331=AXIS2_PLACEMENT_3D('',#452,#366,#367);
#332=AXIS2_PLACEMENT_3D('',#455,#369,#370);
#333=AXIS2_PLACEMENT_3D('',#456,#371,#372);
#334=AXIS2_PLACEMENT_3D('',#459,#373,#374);
#335=AXIS2_PLACEMENT_3D('',#463,#376,#377);
#336=AXIS2_PLACEMENT_3D('',#465,#379,#380);
#337=AXIS2_PLACEMENT_3D('',#471,#384,#385);
#338=AXIS2_PLACEMENT_3D('',#479,#389,#390);
#339=AXIS2_PLACEMENT_3D('',#483,#392,#393);
#340=AXIS2_PLACEMENT_3D('',#490,#397,#398);
#341=AXIS2_PLACEMENT_3D('',#491,#399,#400);
#342=AXIS2_PLACEMENT_3D('',#493,#401,#402);
#343=AXIS2_PLACEMENT_3D('',#495,#404,#405);
#344=AXIS2_PLACEMENT_3D('',#499,#408,#409);
#345=AXIS2_PLACEMENT_3D('',#503,#411,#412);
#346=AXIS2_PLACEMENT_3D('',#505,#414,#415);
#347=AXIS2_PLACEMENT_3D('',#509,#418,#419);
#348=AXIS2_PLACEMENT_3D('',#512,#421,#422);
#349=AXIS2_PLACEMENT_3D('',#513,#423,#424);
#350=AXIS2_PLACEMENT_3D('',#517,#427,#428);
#351=AXIS2_PLACEMENT_3D('',#521,#431,#432);
#352=AXIS2_PLACEMENT_3D('',#523,#434,#435);
#353=AXIS2_PLACEMENT_3D('',#527,#438,#439);
#354=AXIS2_PLACEMENT_3D('',#529,#441,#442);
#355=DIRECTION('axis',(0.,0.,1.));
#356=DIRECTION('refdir',(1.,0.,0.));
#357=DIRECTION('center_axis',(0.,0.,1.));
#358=DIRECTION('ref_axis',(1.,0.,0.));
#359=DIRECTION('center_axis',(1.68709230157098E-16,0.,-1.));
#360=DIRECTION('ref_axis',(1.,0.,0.));
#361=DIRECTION('',(0.,0.,-1.));
#362=DIRECTION('center_axis',(9.25185853854297E-17,0.,1.));
#363=DIRECTION('ref_axis',(1.,0.,0.));
#364=DIRECTION('center_axis',(0.,0.,-1.));
#365=DIRECTION('ref_axis',(1.,0.,0.));
#366=DIRECTION('center_axis',(1.68709230157098E-16,0.,-1.));
#367=DIRECTION('ref_axis',(1.,0.,0.));
#368=DIRECTION('',(0.,0.,-1.));
#369=DIRECTION('center_axis',(9.25185853854297E-17,0.,1.));
#370=DIRECTION('ref_axis',(1.,0.,0.));
#371=DIRECTION('center_axis',(0.,-1.,0.));
#372=DIRECTION('ref_axis',(-0.707106781186548,0.,0.707106781186547));
#373=DIRECTION('center_axis',(0.,1.,0.));
#374=DIRECTION('ref_axis',(-0.707106781186548,0.,0.707106781186547));
#375=DIRECTION('',(0.,1.,0.));
#376=DIRECTION('center_axis',(0.,-1.,0.));
#377=DIRECTION('ref_axis',(-0.707106781186548,0.,0.707106781186547));
#378=DIRECTION('',(0.,-1.,0.));
#379=DIRECTION('center_axis',(-1.68709230157098E-16,0.,1.));
#380=DIRECTION('ref_axis',(1.,0.,1.68709230157098E-16));
#381=DIRECTION('',(-1.,0.,-1.68709230157098E-16));
#382=DIRECTION('',(0.,-1.,0.));
#383=DIRECTION('',(1.,0.,1.68709230157098E-16));
#384=DIRECTION('center_axis',(0.,-1.,0.));
#385=DIRECTION('ref_axis',(0.,0.,-1.));
#386=DIRECTION('',(7.40148683083438E-17,0.,-1.));
#387=DIRECTION('',(1.,0.,0.));
#388=DIRECTION('',(2.46716227694479E-16,0.,1.));
#389=DIRECTION('center_axis',(0.,-1.,0.));
#390=DIRECTION('ref_axis',(-0.707106781186548,0.,0.707106781186548));
#391=DIRECTION('',(1.,0.,-9.25185853854297E-17));
#392=DIRECTION('center_axis',(0.,-1.,0.));
#393=DIRECTION('ref_axis',(0.707106781186548,0.,0.707106781186548));
#394=DIRECTION('',(0.,0.,-1.));
#395=DIRECTION('',(1.,0.,0.));
#396=DIRECTION('',(-1.48029736616688E-16,0.,1.));
#397=DIRECTION('center_axis',(0.,1.,0.));
#398=DIRECTION('ref_axis',(0.707106781186547,0.,0.707106781186548));
#399=DIRECTION('center_axis',(0.,1.,0.));
#400=DIRECTION('ref_axis',(0.707106781186547,0.,0.707106781186548));
#401=DIRECTION('center_axis',(0.,-1.,0.));
#402=DIRECTION('ref_axis',(0.707106781186547,0.,0.707106781186548));
#403=DIRECTION('',(0.,1.,0.));
#404=DIRECTION('center_axis',(1.,0.,1.48029736616688E-16));
#405=DIRECTION('ref_axis',(1.48029736616688E-16,0.,-1.));
#406=DIRECTION('',(0.,1.,0.));
#407=DIRECTION('',(1.48029736616688E-16,0.,-1.));
#408=DIRECTION('center_axis',(0.,1.,0.));
#409=DIRECTION('ref_axis',(0.707106781186548,0.,0.707106781186548));
#410=DIRECTION('',(0.,1.,0.));
#411=DIRECTION('center_axis',(0.,1.,0.));
#412=DIRECTION('ref_axis',(0.707106781186548,0.,0.707106781186548));
#413=DIRECTION('',(0.,-1.,0.));
#414=DIRECTION('center_axis',(-9.25185853854297E-17,0.,-1.));
#415=DIRECTION('ref_axis',(-1.,0.,9.25185853854297E-17));
#416=DIRECTION('',(0.,-1.,0.));
#417=DIRECTION('',(-1.,0.,9.25185853854297E-17));
#418=DIRECTION('center_axis',(0.,1.,0.));
#419=DIRECTION('ref_axis',(-0.707106781186548,0.,0.707106781186548));
#420=DIRECTION('',(0.,1.,0.));
#421=DIRECTION('center_axis',(0.,1.,0.));
#422=DIRECTION('ref_axis',(-0.707106781186548,0.,0.707106781186548));
#423=DIRECTION('center_axis',(1.,0.,-2.46716227694479E-16));
#424=DIRECTION('ref_axis',(-2.46716227694479E-16,0.,-1.));
#425=DIRECTION('',(0.,1.,0.));
#426=DIRECTION('',(-2.46716227694479E-16,0.,-1.));
#427=DIRECTION('center_axis',(-1.,0.,-7.40148683083438E-17));
#428=DIRECTION('ref_axis',(-7.40148683083438E-17,0.,1.));
#429=DIRECTION('',(-7.40148683083438E-17,0.,1.));
#430=DIRECTION('',(0.,1.,0.));
#431=DIRECTION('center_axis',(0.,0.,-1.));
#432=DIRECTION('ref_axis',(-1.,0.,0.));
#433=DIRECTION('',(-1.,0.,0.));
#434=DIRECTION('center_axis',(-1.,0.,0.));
#435=DIRECTION('ref_axis',(0.,0.,1.));
#436=DIRECTION('',(0.,0.,1.));
#437=DIRECTION('',(0.,1.,0.));
#438=DIRECTION('center_axis',(0.,0.,-1.));
#439=DIRECTION('ref_axis',(-1.,0.,0.));
#440=DIRECTION('',(-1.,0.,0.));
#441=DIRECTION('center_axis',(0.,1.,0.));
#442=DIRECTION('ref_axis',(0.,0.,1.));
#443=CARTESIAN_POINT('',(0.,0.,0.));
#444=CARTESIAN_POINT('Origin',(0.,100.,0.));
#445=CARTESIAN_POINT('',(-5.05,100.,0.));
#446=CARTESIAN_POINT('Origin',(0.,100.,-2.53063845235647E-15));
#447=CARTESIAN_POINT('',(-5.05,100.,-3.));
#448=CARTESIAN_POINT('',(-5.05,100.,0.));
#449=CARTESIAN_POINT('Origin',(0.,100.,-3.));
#450=CARTESIAN_POINT('Origin',(0.,-100.,0.));
#451=CARTESIAN_POINT('',(-5.05,-100.,0.));
#452=CARTESIAN_POINT('Origin',(0.,-100.,-2.53063845235647E-15));
#453=CARTESIAN_POINT('',(-5.05,-100.,-3.));
#454=CARTESIAN_POINT('',(-5.05,-100.,0.));
#455=CARTESIAN_POINT('Origin',(0.,-100.,-3.));
#456=CARTESIAN_POINT('Origin',(-9.,0.,-6.));
#457=CARTESIAN_POINT('',(-15.,-115.,-6.));
#458=CARTESIAN_POINT('',(-9.,-115.,-1.51838307141388E-15));
#459=CARTESIAN_POINT('Origin',(-9.,-115.,-6.));
#460=CARTESIAN_POINT('',(-9.,115.,-1.51838307141388E-15));
#461=CARTESIAN_POINT('',(-9.,0.,-1.11022302462516E-15));
#462=CARTESIAN_POINT('',(-15.,115.,-6.));
#463=CARTESIAN_POINT('Origin',(-9.,115.,-6.));
#464=CARTESIAN_POINT('',(-15.,0.,-6.));
#465=CARTESIAN_POINT('Origin',(-15.,0.,-2.53063845235647E-15));
#466=CARTESIAN_POINT('',(9.,-115.,1.51838307141388E-15));
#467=CARTESIAN_POINT('',(-15.,-115.,-2.53063845235647E-15));
#468=CARTESIAN_POINT('',(9.,115.,1.51838307141388E-15));
#469=CARTESIAN_POINT('',(9.,0.,2.22044604925031E-15));
#470=CARTESIAN_POINT('',(-15.,115.,-2.53063845235647E-15));
#471=CARTESIAN_POINT('Origin',(2.22044604925031E-15,-115.,-15.));
#472=CARTESIAN_POINT('',(-15.,-115.,-30.));
#473=CARTESIAN_POINT('',(-15.,-115.,-30.));
#474=CARTESIAN_POINT('',(-12.,-115.,-30.));
#475=CARTESIAN_POINT('',(-12.,-115.,-30.));
#476=CARTESIAN_POINT('',(-12.,-115.,-6.));
#477=CARTESIAN_POINT('',(-12.,-115.,-3.));
#478=CARTESIAN_POINT('',(-9.,-115.,-3.));
#479=CARTESIAN_POINT('Origin',(-9.,-115.,-6.));
#480=CARTESIAN_POINT('',(9.,-115.,-3.));
#481=CARTESIAN_POINT('',(12.,-115.,-3.));
#482=CARTESIAN_POINT('',(12.,-115.,-6.));
#483=CARTESIAN_POINT('Origin',(9.,-115.,-6.));
#484=CARTESIAN_POINT('',(12.,-115.,-30.));
#485=CARTESIAN_POINT('',(12.,-115.,-30.));
#486=CARTESIAN_POINT('',(15.,-115.,-30.));
#487=CARTESIAN_POINT('',(15.,-115.,-30.));
#488=CARTESIAN_POINT('',(15.,-115.,-6.));
#489=CARTESIAN_POINT('',(15.,-115.,0.));
#490=CARTESIAN_POINT('Origin',(9.,-115.,-6.));
#491=CARTESIAN_POINT('Origin',(9.,0.,-6.));
#492=CARTESIAN_POINT('',(15.,115.,-6.));
#493=CARTESIAN_POINT('Origin',(9.,115.,-6.));
#494=CARTESIAN_POINT('',(15.,0.,-6.));
#495=CARTESIAN_POINT('Origin',(15.,0.,0.));
#496=CARTESIAN_POINT('',(15.,115.,-30.));
#497=CARTESIAN_POINT('',(15.,0.,-30.));
#498=CARTESIAN_POINT('',(15.,115.,0.));
#499=CARTESIAN_POINT('Origin',(9.,0.,-6.));
#500=CARTESIAN_POINT('',(9.,115.,-3.));
#501=CARTESIAN_POINT('',(9.,0.,-3.));
#502=CARTESIAN_POINT('',(12.,115.,-6.));
#503=CARTESIAN_POINT('Origin',(9.,115.,-6.));
#504=CARTESIAN_POINT('',(12.,0.,-6.));
#505=CARTESIAN_POINT('Origin',(12.,0.,-3.));
#506=CARTESIAN_POINT('',(-9.,115.,-3.));
#507=CARTESIAN_POINT('',(-9.,0.,-3.));
#508=CARTESIAN_POINT('',(12.,115.,-3.));
#509=CARTESIAN_POINT('Origin',(-9.,0.,-6.));
#510=CARTESIAN_POINT('',(-12.,115.,-6.));
#511=CARTESIAN_POINT('',(-12.,0.,-6.));
#512=CARTESIAN_POINT('Origin',(-9.,115.,-6.));
#513=CARTESIAN_POINT('Origin',(-12.,0.,-3.));
#514=CARTESIAN_POINT('',(-12.,115.,-30.));
#515=CARTESIAN_POINT('',(-12.,0.,-30.));
#516=CARTESIAN_POINT('',(-12.,115.,-3.));
#517=CARTESIAN_POINT('Origin',(-15.,0.,-30.));
#518=CARTESIAN_POINT('',(-15.,115.,-30.));
#519=CARTESIAN_POINT('',(-15.,115.,-30.));
#520=CARTESIAN_POINT('',(-15.,0.,-30.));
#521=CARTESIAN_POINT('Origin',(-12.,0.,-30.));
#522=CARTESIAN_POINT('',(-12.,115.,-30.));
#523=CARTESIAN_POINT('Origin',(12.,0.,-30.));
#524=CARTESIAN_POINT('',(12.,115.,-30.));
#525=CARTESIAN_POINT('',(12.,115.,-30.));
#526=CARTESIAN_POINT('',(12.,0.,-30.));
#527=CARTESIAN_POINT('Origin',(15.,0.,-30.));
#528=CARTESIAN_POINT('',(15.,115.,-30.));
#529=CARTESIAN_POINT('Origin',(2.22044604925031E-15,115.,-15.));
#530=UNCERTAINTY_MEASURE_WITH_UNIT(LENGTH_MEASURE(0.01),#534,
'DISTANCE_ACCURACY_VALUE',
'Maximum model space distance between geometric entities at asserted c
onnectivities');
#531=UNCERTAINTY_MEASURE_WITH_UNIT(LENGTH_MEASURE(0.01),#534,
'DISTANCE_ACCURACY_VALUE',
'Maximum model space distance between geometric entities at asserted c
onnectivities');
#532=(
GEOMETRIC_REPRESENTATION_CONTEXT(3)
GLOBAL_UNCERTAINTY_ASSIGNED_CONTEXT((#530))
GLOBAL_UNIT_ASSIGNED_CONTEXT((#534,#536,#537))
REPRESENTATION_CONTEXT('','3D')
);
#533=(
GEOMETRIC_REPRESENTATION_CONTEXT(3)
GLOBAL_UNCERTAINTY_ASSIGNED_CONTEXT((#531))
GLOBAL_UNIT_ASSIGNED_CONTEXT((#534,#536,#537))
REPRESENTATION_CONTEXT('','3D')
);
#534=(
LENGTH_UNIT()
NAMED_UNIT(*)
SI_UNIT(.MILLI.,.METRE.)
);
#535=(
LENGTH_UNIT()
NAMED_UNIT(*)
SI_UNIT($,.METRE.)
);
#536=(
NAMED_UNIT(*)
PLANE_ANGLE_UNIT()
SI_UNIT($,.RADIAN.)
);
#537=(
NAMED_UNIT(*)
SI_UNIT($,.STERADIAN.)
SOLID_ANGLE_UNIT()
);
#538=SHAPE_DEFINITION_REPRESENTATION(#539,#540);
#539=PRODUCT_DEFINITION_SHAPE('',$,#542);
#540=SHAPE_REPRESENTATION('',(#326),#532);
#541=PRODUCT_DEFINITION_CONTEXT('part definition',#546,'design');
#542=PRODUCT_DEFINITION('FusionComponent','FusionComponent',#543,#541);
#543=PRODUCT_DEFINITION_FORMATION('',$,#548);
#544=PRODUCT_RELATED_PRODUCT_CATEGORY('FusionComponent',
'FusionComponent',(#548));
#545=APPLICATION_PROTOCOL_DEFINITION('international standard',
'automotive_design',2009,#546);
#546=APPLICATION_CONTEXT(
'Core Data for Automotive Mechanical Design Process');
#547=PRODUCT_CONTEXT('part definition',#546,'mechanical');
#548=PRODUCT('FusionComponent','FusionComponent',$,(#547));
#549=PRESENTATION_STYLE_ASSIGNMENT((#550));
#550=SURFACE_STYLE_USAGE(.BOTH.,#551);
#551=SURFACE_SIDE_STYLE('',(#552));
#552=SURFACE_STYLE_FILL_AREA(#553);
#553=FILL_AREA_STYLE('Steel - Satin',(#554));
#554=FILL_AREA_STYLE_COLOUR('Steel - Satin',#555);
#555=COLOUR_RGB('Steel - Satin',0.627450980392157,0.627450980392157,0.627450980392157);
ENDSEC;
END-ISO-10303-21;
