0
SECTION
2
HEADER
9
$INSUNITS
70
4
9
$ACADVER
1
AC1014
9
$HANDSEED
5
FFFF
0
ENDSEC
0
SECTION
2
TABLES
0
TABLE
2
VPORT
5
8
100
AcDbSymbolTable
0
ENDTAB
0
TABLE
2
LTYPE
5
5
100
AcDbSymbolTable
0
LTYPE
5
14
100
AcDbSymbolTableRecord
100
AcDbLinetypeTableRecord
2
BYBLOCK
70
0
0
LTYPE
5
15
100
AcDbSymbolTableRecord
100
AcDbLinetypeTableRecord
2
BYLAYER
70
0
0
ENDTAB
0
TABLE
2
LAYER
5
2
100
AcDbSymbolTable
70
2
0
LAYER
5
50
100
AcDbSymbolTableRecord
100
AcDbLayerTableRecord
2
0
70
0
6
CONTINUOUS
0
ENDTAB
0
TABLE
2
STYLE
5
3
100
AcDbSymbolTable
70
1
0
STYLE
5
11
100
AcDbSymbolTableRecord
100
AcDbTextStyleTableRecord
2
STANDARD
70
0
0
ENDTAB
0
TABLE
2
VIEW
5
6
100
AcDbSymbolTable
70
0
0
ENDTAB
0
TABLE
2
UCS
5
7
100
AcDbSymbolTable
70
0
0
ENDTAB
0
TABLE
2
APPID
5
9
100
AcDbSymbolTable
70
2
0
APPID
5
12
100
AcDbSymbolTableRecord
100
AcDbRegAppTableRecord
2
ACAD
70
0
0
ENDTAB
0
TABLE
2
DIMSTYLE
5
A
100
AcDbSymbolTable
70
1
0
ENDTAB
0
TABLE
2
BLOCK_RECORD
5
1
100
AcDbSymbolTable
70
1
0
BLOCK_RECORD
5
1F
100
AcDbSymbolTableRecord
100
AcDbBlockTableRecord
2
*MODEL_SPACE
0
BLOCK_RECORD
5
1B
100
AcDbSymbolTableRecord
100
AcDbBlockTableRecord
2
*PAPER_SPACE
0
ENDTAB
0
ENDSEC
0
SECTION
2
BLOCKS
0
BLOCK
5
20
100
AcDbEntity
100
AcDbBlockBegin
2
*MODEL_SPACE
0
ENDBLK
5
21
100
AcDbEntity
100
AcDbBlockEnd
0
BLOCK
5
1C
100
AcDbEntity
100
AcDbBlockBegin
2
*PAPER_SPACE
0
ENDBLK
5
1D
100
AcDbEntity
100
AcDbBlockEnd
0
ENDSEC
0
SECTION
2
ENTITIES
0
LWPOLYLINE
5
100
100
AcDbEntity
8
0
100
AcDbPolyline
90
23
70
1
43
0.0
10
-1145.1357438564301
20
114.07230615615033
42
0.41421356237310542
10
-1146.1357438564301
20
113.07230615615033
10
-1146.1357438564301
20
111.68826818465377
10
-1139.9222395420074
20
111.68826818465369
42
-0.41421356237309503
10
-1138.9222395420074
20
110.68826818465375
10
-1138.9222395420074
20
109.62892150878096
42
-0.41421356237309503
10
-1139.9222395420074
20
108.62892150878096
10
-1145.1357438564301
20
108.62892150878096
42
0.41421356237310542
10
-1146.1357438564301
20
107.62892150878095
10
-1146.1357438564301
20
106.67189693450118
42
0.41421356237311585
10
-1145.1357438564301
20
105.67189693450116
10
-1139.1343805789948
20
105.67189693450111
42
-0.41421356237309503
10
-1138.1343805789948
20
104.67189693450116
10
-1138.1343805789948
20
103.27489709853316
42
-0.41421356237309503
10
-1139.1343805789948
20
102.27489709853316
10
-1149.7810366153717
20
102.27489709853323
42
-0.41421356237309503
10
-1150.7810366153717
20
103.27489709853317
10
-1150.7810366153717
20
116.27489709853316
42
-0.41421356237309503
10
-1149.7810366153717
20
117.27489709853316
10
-1139.3594810962677
20
117.27489709853309
42
-0.41421356237309503
10
-1138.3594810962677
20
116.27489709853315
10
-1138.3594810962677
20
115.07230615615035
42
-0.41421356237309503
10
-1139.3594810962677
20
114.07230615615035
0
LWPOLYLINE
5
101
100
AcDbEntity
8
0
100
AcDbPolyline
90
12
70
1
43
0.0
10
-979.72135954999555
20
-8.1601392309949006e-12
42
0.1164338214658612
10
-970.77708763999658
20
2.1114561799936427
10
-917.11145618000182
20
28.944271909990988
42
0.28407904384041177
10
-895
20
64.721359549987611
10
-895
20
209.9999999999919
42
0.41421356237309476
10
-935
20
249.99999999999187
10
-1355
20
249.99999999999153
42
0.41421356237309503
10
-1395
20
209.99999999999159
10
-1395
20
64.721359549987284
42
0.28407904384042121
10
-1372.8885438199982
20
28.944271909990867
10
-1319.2229123600034
20
2.1114561799934606
42
0.11643382146583604
10
-1310.2786404500043
20
-8.3133500083931722e-12
0
LWPOLYLINE
5
102
100
AcDbEntity
8
0
100
AcDbPolyline
90
8
70
1
43
0.0
10
-1320
20
69.999999999991786
42
0.41421356237309209
10
-1290
20
39.999999999992099
10
-1220
20
39.9999999999919
42
0.41421356237309581
10
-1189.9999999999998
20
69.9999999999919
10
-1190
20
119.9999999999919
42
0.41421356237309853
10
-1220
20
149.99999999999179
10
-1290
20
149.9999999999919
42
0.41421356237309731
10
-1320.0000000000002
20
119.9999999999919
0
LWPOLYLINE
5
103
100
AcDbEntity
8
0
100
AcDbPolyline
90
4
70
1
43
0.0
10
-1332.5
20
214.99999999999159
42
0.99999999999999989
10
-1332.5
20
199.99999999999145
10
-957.49999999999989
20
199.9999999999919
42
0.99999999999999989
10
-957.5
20
214.99999999999145
0
LWPOLYLINE
5
104
100
AcDbEntity
8
0
100
AcDbPolyline
90
8
70
1
43
0.0
10
-1100.0000000000002
20
69.9999999999919
42
0.41421356237309948
10
-1070
20
39.999999999991871
10
-1000
20
39.999999999991907
42
0.41421356237309592
10
-969.99999999999989
20
69.999999999991886
10
-970
20
119.99999999999187
42
0.4142135623730987
10
-1000
20
149.99999999999179
10
-1070
20
149.99999999999179
42
0.41421356237309853
10
-1100
20
119.9999999999919
0
LWPOLYLINE
5
105
100
AcDbEntity
8
0
100
AcDbPolyline
90
21
70
1
43
0.0
10
-1159.5061395168304
20
112.02592134474899
42
0.41421356237310542
10
-1158.5061395168304
20
113.02592134474899
10
-1158.5061395168304
20
116.27489709853316
42
-0.41421356237309503
10
-1157.5061395168304
20
117.27489709853316
10
-1154.8506138324738
20
117.27489709853309
42
-0.41421356237309503
10
-1153.8506138324738
20
116.27489709853315
10
-1153.8506138324738
20
103.27489709853316
42
-0.41421356237309503
10
-1154.8506138324738
20
102.27489709853316
10
-1157.5061395168304
20
102.27489709853323
42
-0.41421356237309503
10
-1158.5061395168304
20
103.27489709853317
10
-1158.5061395168304
20
108.34242820738936
10
-1163.5709416866302
20
108.34242820738936
10
-1163.5709416866302
20
103.27489709853316
42
-0.41421356237309503
10
-1164.5709416866302
20
102.27489709853316
10
-1167.2060039043427
20
102.27489709853323
42
-0.41421356237309503
10
-1168.2060039043427
20
103.27489709853317
10
-1168.2060039043427
20
116.27489709853316
42
-0.41421356237309503
10
-1167.2060039043427
20
117.27489709853316
10
-1164.5709416866302
20
117.27489709853309
42
-0.41421356237309503
10
-1163.5709416866302
20
116.27489709853315
10
-1163.5709416866302
20
112.02592134474898
0
LINE
5
106
100
AcDbEntity
8
0
100
AcDbLine
10
-1170.6643929481506
20
87.725098133079058
30
0
11
-1164.7783076763153
21
87.725098133079058
31
0
0
SPLINE
5
107
100
AcDbEntity
8
0
100
AcDbSpline
70
0
71
3
72
9
73
5
74
0
42
0.000000001
43
0.0000000001
44
0.0000000001
40
0
40
0
40
0
40
0
40
0.18456424373051894
40
0.33528261684854255
40
0.33528261684854255
40
0.33528261684854255
40
0.33528261684854255
10
-1164.7783076763153
20
87.725098133079058
30
0
10
-1164.1587679108293
20
87.71293798995913
30
0
10
-1163.0333011919492
20
87.690847662363211
30
0
10
-1161.9677412835958
20
87.333303089995127
30
0
10
-1161.488744020462
20
87.172577381125933
30
0
0
SPLINE
5
108
100
AcDbEntity
8
0
100
AcDbSpline
70
0
71
3
72
9
73
5
74
0
42
0.000000001
43
0.0000000001
44
0.0000000001
40
0
40
0
40
0
40
0
40
0.13277501600620356
40
0.26291968859450909
40
0.26291968859450909
40
0.26291968859450909
40
0.26291968859450909
10
-1161.488744020462
20
87.172577381125933
30
0
10
-1161.0904562122687
20
86.970118616653508
30
0
10
-1160.3017708883949
20
86.569211903105568
30
0
10
-1159.7098023938097
20
85.911963203122383
30
0
10
-1159.4167792797089
20
85.586626529685503
30
0
0
SPLINE
5
109
100
AcDbEntity
8
0
100
AcDbSpline
70
0
71
3
72
9
73
5
74
0
42
0.000000001
43
0.0000000001
44
0.0000000001
40
0
40
0
40
0
40
0
40
0.13221216576970166
40
0.26957142573261195
40
0.26957142573261195
40
0.26957142573261195
40
0.26957142573261195
10
-1159.4167792797089
20
85.586626529685503
30
0
10
-1159.161571628305
20
85.22387186081329
30
0
10
-1158.6412209476675
20
84.484240279182714
30
0
10
-1158.3687257932531
20
83.621655034987185
30
0
10
-1158.2298767566681
20
83.182127475730425
30
0
0
SPLINE
5
110
100
AcDbEntity
8
0
100
AcDbSpline
70
0
71
3
72
9
73
5
74
0
42
0.000000001
43
0.0000000001
44
0.0000000001
40
0
40
0
40
0
40
0
40
0.14387774085898652
40
0.29354770462495372
40
0.29354770462495372
40
0.29354770462495372
40
0.29354770462495372
10
-1158.2298767566681
20
83.182127475730425
30
0
10
-1158.1224528964035
20
82.713423306657887
30
0
10
-1157.9032805114716
20
81.757145899478985
30
0
10
-1157.8756268588938
20
80.776338325427844
30
0
10
-1157.8615272045135
20
80.276257991782671
30
0
0
SPLINE
5
111
100
AcDbEntity
8
0
100
AcDbSpline
70
0
71
3
72
9
73
5
74
0
42
0.000000001
43
0.0000000001
44
0.0000000001
40
0
40
0
40
0
40
0
40
0.21390201539063203
40
0.37859109162968302
40
0.37859109162968302
40
0.37859109162968302
40
0.37859109162968302
10
-1157.8615272045135
20
80.276257991782671
30
0
10
-1157.8698186762931
20
79.558765544771887
30
0
10
-1157.8844939814626
20
78.288855823473611
30
0
10
-1158.2499560112701
20
77.074830929127657
30
0
10
-1158.4089338779449
20
76.546723842612749
30
0
0
SPLINE
5
112
100
AcDbEntity
8
0
100
AcDbSpline
70
0
71
3
72
9
73
5
74
0
42
0.000000001
43
0.0000000001
44
0.0000000001
40
0
40
0
40
0
40
0
40
0.13819168700502124
40
0.27067612089510534
40
0.27067612089510534
40
0.27067612089510534
40
0.27067612089510534
10
-1158.4089338779449
20
76.546723842612749
30
0
10
-1158.6055492142764
20
76.126249955979631
30
0
10
-1158.9906597639779
20
75.30266756084319
30
0
10
-1159.6202284313372
20
74.647211454437098
30
0
10
-1159.9283754825592
20
74.326393604270464
30
0
0
SPLINE
5
113
100
AcDbEntity
8
0
100
AcDbSpline
70
0
71
3
72
9
73
5
74
0
42
0.000000001
43
0.0000000001
44
0.0000000001
40
0
40
0
40
0
40
0
40
0.12536926612098173
40
0.2421808192031456
40
0.2421808192031456
40
0.2421808192031456
40
0.2421808192031456
10
-1159.9283754825592
20
74.326393604270464
30
0
10
-1160.2513214373196
20
74.05484376299286
30
0
10
-1160.8751690381087
20
73.530280087621023
30
0
10
-1161.644577915255
20
73.263198832331568
30
0
10
-1162.015688419342
20
73.134377002707964
30
0
0
SPLINE
5
114
100
AcDbEntity
8
0
100
AcDbSpline
70
0
71
3
72
9
73
5
74
0
42
0.000000001
43
0.0000000001
44
0.0000000001
40
0
40
0
40
0
40
0
40
0.14850049903964643
40
0.27986815015407085
40
0.27986815015407085
40
0.27986815015407085
40
0.27986815015407085
10
-1162.015688419342
20
73.134377002707964
30
0
10
-1162.4975623255143
20
73.015140151462617
30
0
10
-1163.4057152246635
20
72.790423081795893
30
0
10
-1164.3398384434452
20
72.745965929719389
30
0
10
-1164.7783076763153
20
72.725098133079058
30
0
0
LINE
5
115
100
AcDbEntity
8
0
100
AcDbLine
10
-1164.7783076763153
20
72.725098133079058
30
0
11
-1170.6643929481506
21
72.725098133079044
31
0
0
ARC
5
116
100
AcDbEntity
8
0
100
AcDbCircle
10
-1170.6643929481506
20
73.725098133079058
30
0
40
0.99999999999994316
210
0
220
0
230
1
100
AcDbArc
50
180
51
270
0
LINE
5
117
100
AcDbEntity
8
0
100
AcDbLine
10
-1171.6643929481506
20
73.725098133079058
30
0
11
-1171.6643929481506
21
86.725098133079058
31
0
0
ARC
5
118
100
AcDbEntity
8
0
100
AcDbCircle
10
-1170.6643929481506
20
86.725098133079058
30
0
40
0.99999999999999645
210
0
220
-0
230
1
100
AcDbArc
50
90
51
180
0
LWPOLYLINE
5
119
100
AcDbEntity
8
0
100
AcDbPolyline
90
13
70
1
43
0.0
10
-1147.2982811920087
20
87.725098133079058
10
-1144.6346040319124
20
87.725098133079129
42
-0.32797521557774778
10
-1143.6801924945023
20
87.023592048023133
10
-1140.5235350131989
20
76.930420398704058
10
-1137.4083109440737
20
87.020109864277359
42
-0.32898518840426944
10
-1136.4528173132967
20
87.725098133079058
10
-1133.9243821859288
20
87.725098133079072
42
-0.52262388406497318
10
-1132.9869212928545
20
86.377007521375589
10
-1137.8139791312944
20
73.377007521375532
42
-0.31352202006745572
10
-1138.7514400243688
20
72.725098133079058
10
-1142.388641833488
20
72.725098133079015
42
-0.31199300371816707
10
-1143.3241489361524
20
73.371790249124018
10
-1148.2337882946731
20
86.37179024912399
42
-0.5243983728053806
0
LWPOLYLINE
5
120
100
AcDbEntity
8
0
100
AcDbPolyline
90
8
70
1
43
0.0
10
-1154.2421534061432
20
87.725098133079058
10
-1151.5968606472015
20
87.725098133079001
42
-0.41421356237309503
10
-1150.5968606472015
20
86.725098133079058
10
-1150.5968606472015
20
73.725098133079058
42
-0.41421356237309503
10
-1151.5968606472015
20
72.725098133079058
10
-1154.2421534061432
20
72.725098133079115
42
-0.41421356237309503
10
-1155.2421534061432
20
73.725098133079058
10
-1155.2421534061432
20
86.725098133079058
42
-0.41421356237309503
0
LWPOLYLINE
5
121
100
AcDbEntity
8
0
100
AcDbPolyline
90
23
70
1
43
0.0
10
-1128.1402156853292
20
105.70807845052701
42
0.55914518838004656
10
-1129.8440911269574
20
105.70807845052693
10
-1131.6615019106964
20
102.75125397592591
42
-0.26058791974021317
10
-1132.5134396315107
20
102.27489709853316
10
-1137.1316492557526
20
102.27489709853316
10
-1132.320863385474
20
109.54309632235382
42
0.2996254513425658
10
-1132.318151687045
20
110.64286252181439
10
-1135.6474267321312
20
115.7270734488404
42
-0.59622511311251192
10
-1134.8108328946944
20
117.27489709853316
10
-1132.1335813160615
20
117.27489709853322
42
-0.2683439727882711
10
-1131.2668202548687
20
116.77362073222213
10
-1129.7787175293786
20
114.18735970430753
42
0.58225561646230273
10
-1128.0394010415448
20
114.19756821290846
10
-1126.6028692527559
20
116.76341222362123
42
-0.27149237571928792
10
-1125.7303138261152
20
117.27489709853316
10
-1123.0933147921376
20
117.27489709853316
42
-0.59332976772296464
10
-1122.2520650093456
20
115.73425044594707
10
-1125.57848212659
20
110.55832331503497
42
0.2970217557968417
10
-1125.5716707866052
20
109.46657550552261
10
-1121.8463766381431
20
103.82599825545938
42
-0.59755519057507145
10
-1122.6808150809502
20
102.27489709853316
10
-1125.4708671807757
20
102.27489709853315
42
-0.26058791974022127
10
-1126.32280490159
20
102.75125397592592
0
LWPOLYLINE
5
122
100
AcDbEntity
8
0
100
AcDbPolyline
90
23
70
1
43
0.0
10
-1125.3369619846344
20
84.522507190696231
42
0.41421356237310542
10
-1126.3369619846344
20
83.522507190696231
10
-1126.3369619846344
20
83.138469219199663
42
0.41421356237311585
10
-1125.3369619846344
20
82.138469219199649
10
-1120.123455286026
20
82.138469219199592
42
-0.41421356237309503
10
-1119.123455286026
20
81.138469219199649
10
-1119.123455286026
20
80.079124927512652
42
-0.41421356237309503
10
-1120.123455286026
20
79.079124927512652
10
-1125.3369619846344
20
79.079124927512638
42
0.41421356237311063
10
-1126.3369619846344
20
78.079124927512652
10
-1126.3369619846344
20
77.122095584861285
42
0.41421356237311063
10
-1125.3369619846344
20
76.122095584861285
10
-1119.3355963230133
20
76.122095584861228
42
-0.41421356237309503
10
-1118.3355963230133
20
75.122095584861285
10
-1118.3355963230133
20
73.725098133079058
42
-0.41421356237309503
10
-1119.3355963230133
20
72.725098133079058
10
-1129.9822618961334
20
72.725098133079115
42
-0.41421356237309503
10
-1130.9822618961334
20
73.725098133079058
10
-1130.9822618961334
20
87.725098133079058
10
-1119.5607016086578
20
87.725098133078987
42
-0.41421356237309503
10
-1118.5607016086578
20
86.725098133079044
10
-1118.5607016086578
20
85.522507190696246
42
-0.41421356237309503
10
-1119.5607016086578
20
84.522507190696246
0
ENDSEC
0
SECTION
2
OBJECTS
0
DICTIONARY
5
C
100
AcDbDictionary
3
ACAD_GROUP
350
D
3
ACAD_MLINESTYLE
350
17
0
DICTIONARY
5
D
100
AcDbDictionary
0
DICTIONARY
5
1A
330
C
100
AcDbDictionary
0
DICTIONARY
5
17
100
AcDbDictionary
0
ENDSEC
0
EOF
