  0
SECTION
  2
HEADER
  9
$ACADVER
  1
AC1021
  9
$ACADMAINTVER
 70
    25
  9
$DWGCODEPAGE
  3
ANSI_1252
  9
$LASTSAVEDBY
  1
admin
  9
$INSBASE
 10
0.0
 20
0.0
 30
0.0
  9
$EXTMIN
 10
1.000000000000000E+20
 20
1.000000000000000E+20
 30
1.000000000000000E+20
  9
$EXTMAX
 10
-1.000000000000000E+20
 20
-1.000000000000000E+20
 30
-1.000000000000000E+20
  9
$LIMMIN
 10
0.0
 20
0.0
  9
$LIMMAX
 10
12.0
 20
9.0
  9
$ORTHOMODE
 70
     0
  9
$REGENMODE
 70
     1
  9
$FILLMODE
 70
     1
  9
$QTEXTMODE
 70
     0
  9
$MIRRTEXT
 70
     1
  9
$LTSCALE
 40
1.0
  9
$ATTMODE
 70
     1
  9
$TEXTSIZE
 40
0.2
  9
$TRACEWID
 40
0.05
  9
$TEXTSTYLE
  7
Standard
  9
$CLAYER
  8
0
  9
$CELTYPE
  6
ByLayer
  9
$CECOLOR
 62
   256
  9
$CELTSCALE
 40
1.0
  9
$DISPSILH
 70
     0
  9
$DIMSCALE
 40
1.0
  9
$DIMASZ
 40
0.18
  9
$DIMEXO
 40
0.0625
  9
$DIMDLI
 40
0.38
  9
$DIMRND
 40
0.0
  9
$DIMDLE
 40
0.0
  9
$DIMEXE
 40
0.18
  9
$DIMTP
 40
0.0
  9
$DIMTM
 40
0.0
  9
$DIMTXT
 40
0.18
  9
$DIMCEN
 40
0.09
  9
$DIMTSZ
 40
0.0
  9
$DIMTOL
 70
     0
  9
$DIMLIM
 70
     0
  9
$DIMTIH
 70
     1
  9
$DIMTOH
 70
     1
  9
$DIMSE1
 70
     0
  9
$DIMSE2
 70
     0
  9
$DIMTAD
 70
     0
  9
$DIMZIN
 70
     0
  9
$DIMBLK
  1

  9
$DIMASO
 70
     1
  9
$DIMSHO
 70
     1
  9
$DIMPOST
  1

  9
$DIMAPOST
  1

  9
$DIMALT
 70
     0
  9
$DIMALTD
 70
     2
  9
$DIMALTF
 40
25.4
  9
$DIMLFAC
 40
1.0
  9
$DIMTOFL
 70
     0
  9
$DIMTVP
 40
0.0
  9
$DIMTIX
 70
     0
  9
$DIMSOXD
 70
     0
  9
$DIMSAH
 70
     0
  9
$DIMBLK1
  1

  9
$DIMBLK2
  1

  9
$DIMSTYLE
  2
STANDARD_ACAD
  9
$DIMCLRD
 70
     0
  9
$DIMCLRE
 70
     0
  9
$DIMCLRT
 70
     0
  9
$DIMTFAC
 40
1.0
  9
$DIMGAP
 40
0.09
  9
$DIMJUST
 70
     0
  9
$DIMSD1
 70
     0
  9
$DIMSD2
 70
     0
  9
$DIMTOLJ
 70
     1
  9
$DIMTZIN
 70
     0
  9
$DIMALTZ
 70
     0
  9
$DIMALTTZ
 70
     0
  9
$DIMUPT
 70
     0
  9
$DIMDEC
 70
     4
  9
$DIMTDEC
 70
     4
  9
$DIMALTU
 70
     2
  9
$DIMALTTD
 70
     2
  9
$DIMTXSTY
  7
Standard
  9
$DIMAUNIT
 70
     0
  9
$DIMADEC
 70
     0
  9
$DIMALTRND
 40
0.0
  9
$DIMAZIN
 70
     0
  9
$DIMDSEP
 70
    46
  9
$DIMATFIT
 70
     3
  9
$DIMFRAC
 70
     0
  9
$DIMLDRBLK
  1

  9
$DIMLUNIT
 70
     2
  9
$DIMLWD
 70
    -2
  9
$DIMLWE
 70
    -2
  9
$DIMTMOVE
 70
     2
  9
$DIMFXL
 40
1.0
  9
$DIMFXLON
 70
     0
  9
$DIMJOGANG
 40
0.7853981633974483
  9
$DIMTFILL
 70
     0
  9
$DIMTFILLCLR
 70
     0
  9
$DIMARCSYM
 70
     0
  9
$DIMLTYPE
  6

  9
$DIMLTEX1
  6

  9
$DIMLTEX2
  6

  9
$LUNITS
 70
     2
  9
$LUPREC
 70
     2
  9
$SKETCHINC
 40
0.1
  9
$FILLETRAD
 40
0.0
  9
$AUNITS
 70
     0
  9
$AUPREC
 70
     0
  9
$MENU
  1
.
  9
$ELEVATION
 40
0.0
  9
$PELEVATION
 40
0.0
  9
$THICKNESS
 40
0.0
  9
$LIMCHECK
 70
     0
  9
$CHAMFERA
 40
0.0
  9
$CHAMFERB
 40
0.0
  9
$CHAMFERC
 40
0.0
  9
$CHAMFERD
 40
0.0
  9
$SKPOLY
 70
     0
  9
$TDCREATE
 40
2460970.613191817
  9
$TDUCREATE
 40
2460970.279858484
  9
$TDUPDATE
 40
2460970.613200729
  9
$TDUUPDATE
 40
2460970.279867396
  9
$TDINDWG
 40
0.0000000116
  9
$TDUSRTIMER
 40
0.0000000116
  9
$USRTIMER
 70
     1
  9
$ANGBASE
 50
0.0
  9
$ANGDIR
 70
     0
  9
$PDMODE
 70
     0
  9
$PDSIZE
 40
0.0
  9
$PLINEWID
 40
0.0
  9
$SPLFRAME
 70
     0
  9
$SPLINETYPE
 70
     6
  9
$SPLINESEGS
 70
     8
  9
$HANDSEED
  5
183
  9
$SURFTAB1
 70
     6
  9
$SURFTAB2
 70
     6
  9
$SURFTYPE
 70
     6
  9
$SURFU
 70
     6
  9
$SURFV
 70
     6
  9
$UCSBASE
  2

  9
$UCSNAME
  2

  9
$UCSORG
 10
0.0
 20
0.0
 30
0.0
  9
$UCSXDIR
 10
1.0
 20
0.0
 30
0.0
  9
$UCSYDIR
 10
0.0
 20
1.0
 30
0.0
  9
$UCSORTHOREF
  2

  9
$UCSORTHOVIEW
 70
     0
  9
$UCSORGTOP
 10
0.0
 20
0.0
 30
0.0
  9
$UCSORGBOTTOM
 10
0.0
 20
0.0
 30
0.0
  9
$UCSORGLEFT
 10
0.0
 20
0.0
 30
0.0
  9
$UCSORGRIGHT
 10
0.0
 20
0.0
 30
0.0
  9
$UCSORGFRONT
 10
0.0
 20
0.0
 30
0.0
  9
$UCSORGBACK
 10
0.0
 20
0.0
 30
0.0
  9
$PUCSBASE
  2

  9
$PUCSNAME
  2

  9
$PUCSORG
 10
0.0
 20
0.0
 30
0.0
  9
$PUCSXDIR
 10
1.0
 20
0.0
 30
0.0
  9
$PUCSYDIR
 10
0.0
 20
1.0
 30
0.0
  9
$PUCSORTHOREF
  2

  9
$PUCSORTHOVIEW
 70
     0
  9
$PUCSORGTOP
 10
0.0
 20
0.0
 30
0.0
  9
$PUCSORGBOTTOM
 10
0.0
 20
0.0
 30
0.0
  9
$PUCSORGLEFT
 10
0.0
 20
0.0
 30
0.0
  9
$PUCSORGRIGHT
 10
0.0
 20
0.0
 30
0.0
  9
$PUCSORGFRONT
 10
0.0
 20
0.0
 30
0.0
  9
$PUCSORGBACK
 10
0.0
 20
0.0
 30
0.0
  9
$USERI1
 70
     0
  9
$USERI2
 70
     0
  9
$USERI3
 70
     0
  9
$USERI4
 70
     0
  9
$USERI5
 70
     0
  9
$USERR1
 40
0.0
  9
$USERR2
 40
0.0
  9
$USERR3
 40
0.0
  9
$USERR4
 40
0.0
  9
$USERR5
 40
0.0
  9
$WORLDVIEW
 70
     1
  9
$SHADEDGE
 70
     3
  9
$SHADEDIF
 70
    70
  9
$TILEMODE
 70
     1
  9
$MAXACTVP
 70
    64
  9
$PINSBASE
 10
0.0
 20
0.0
 30
0.0
  9
$PLIMCHECK
 70
     0
  9
$PEXTMIN
 10
1.000000000000000E+20
 20
1.000000000000000E+20
 30
1.000000000000000E+20
  9
$PEXTMAX
 10
-1.000000000000000E+20
 20
-1.000000000000000E+20
 30
-1.000000000000000E+20
  9
$PLIMMIN
 10
0.0
 20
0.0
  9
$PLIMMAX
 10
12.0
 20
9.0
  9
$UNITMODE
 70
     0
  9
$VISRETAIN
 70
     1
  9
$PLINEGEN
 70
     0
  9
$PSLTSCALE
 70
     1
  9
$TREEDEPTH
 70
  3020
  9
$CMLSTYLE
  2
Standard
  9
$CMLJUST
 70
     0
  9
$CMLSCALE
 40
1.0
  9
$PROXYGRAPHICS
 70
     1
  9
$MEASUREMENT
 70
     1
  9
$CELWEIGHT
370
    -1
  9
$ENDCAPS
280
     0
  9
$JOINSTYLE
280
     0
  9
$LWDISPLAY
290
     0
  9
$INSUNITS
 70
     5
  9
$HYPERLINKBASE
  1

  9
$STYLESHEET
  1

  9
$XEDIT
290
     1
  9
$CEPSNTYPE
380
     0
  9
$PSTYLEMODE
290
     1
  9
$FINGERPRINTGUID
  2
{9ec71773-bf8a-446d-831d-2c269083ae0f}
  9
$VERSIONGUID
  2
{FAEB1C32-E019-11D5-929B-00C0DF256EC4}
  9
$EXTNAMES
290
     1
  9
$PSVPSCALE
 40
0.0
  9
$OLESTARTUP
290
     0
  9
$SORTENTS
280
   127
  9
$INDEXCTL
280
     0
  9
$HIDETEXT
280
     1
  9
$XCLIPFRAME
290
     0
  9
$HALOGAP
280
     0
  9
$OBSCOLOR
 70
   257
  9
$OBSLTYPE
280
     0
  9
$INTERSECTIONDISPLAY
280
     0
  9
$INTERSECTIONCOLOR
 70
   257
  9
$DIMASSOC
280
     2
  9
$PROJECTNAME
  1

  9
$CAMERADISPLAY
290
     0
  9
$LENSLENGTH
 40
50.0
  9
$CAMERAHEIGHT
 40
0.0
  9
$STEPSPERSEC
 40
2.0
  9
$STEPSIZE
 40
6.0
  9
$3DDWFPREC
 40
2.0
  9
$PSOLWIDTH
 40
0.25
  9
$PSOLHEIGHT
 40
4.0
  9
$LOFTANG1
 40
1.570796326794897
  9
$LOFTANG2
 40
1.570796326794897
  9
$LOFTMAG1
 40
0.0
  9
$LOFTMAG2
 40
0.0
  9
$LOFTPARAM
 70
     7
  9
$LOFTNORMALS
280
     1
  9
$LATITUDE
 40
37.795
  9
$LONGITUDE
 40
-122.394
  9
$NORTHDIRECTION
 40
0.0
  9
$TIMEZONE
 70
 -8000
  9
$LIGHTGLYPHDISPLAY
280
     1
  9
$TILEMODELIGHTSYNCH
280
     1
  9
$CMATERIAL
347
44
  9
$SOLIDHIST
280
     0
  9
$SHOWHIST
280
     1
  9
$DWFFRAME
280
     2
  9
$DGNFRAME
280
     2
  9
$REALWORLDSCALE
290
     1
  9
$INTERFERECOLOR
 62
   256
  9
$CSHADOW
280
     0
  9
$SHADOWPLANELOCATION
 40
0.0
  0
ENDSEC
  0
SECTION
  2
CLASSES
  0
CLASS
  1
ACDBDICTIONARYWDFLT
  2
AcDbDictionaryWithDefault
  3
ObjectDBX Classes
 90
        0
 91
        3
280
     0
281
     0
  0
CLASS
  1
VISUALSTYLE
  2
AcDbVisualStyle
  3
ObjectDBX Classes
 90
     4095
 91
        3
280
     0
281
     0
  0
CLASS
  1
MATERIAL
  2
AcDbMaterial
  3
ObjectDBX Classes
 90
     1153
 91
        3
280
     0
281
     0
  0
CLASS
  1
SCALE
  2
AcDbScale
  3
ObjectDBX Classes
 90
     1153
 91
        3
280
     0
281
     0
  0
CLASS
  1
TABLESTYLE
  2
AcDbTableStyle
  3
ObjectDBX Classes
 90
     4095
 91
        3
280
     0
281
     0
  0
CLASS
  1
MLEADERSTYLE
  2
AcDbMLeaderStyle
  3
ACDB_MLEADERSTYLE_CLASS
 90
     4095
 91
        3
280
     0
281
     0
  0
CLASS
  1
SUN
  2
AcDbSun
  3
SCENEOE
 90
     1153
 91
        3
280
     0
281
     0
  0
CLASS
  1
DICTIONARYVAR
  2
AcDbDictionaryVar
  3
ObjectDBX Classes
 90
        0
 91
        3
280
     0
281
     0
  0
CLASS
  1
CELLSTYLEMAP
  2
AcDbCellStyleMap
  3
ObjectDBX Classes
 90
     1152
 91
        3
280
     0
281
     0
  0
ENDSEC
  0
SECTION
  2
TABLES
  0
TABLE
  2
VPORT
  5
8
330
0
100
AcDbSymbolTable
 70
     1
  0
VPORT
  5
29
330
8
100
AcDbSymbolTableRecord
100
AcDbViewportTableRecord
  2
*Active
 70
     0
 10
0.0
 20
0.0
 11
1.0
 21
1.0
 12
10.42990654205607
 22
4.5
 13
0.0
 23
0.0
 14
0.5
 24
0.5
 15
0.5
 25
0.5
 16
0.0
 26
0.0
 36
1.0
 17
0.0
 27
0.0
 37
0.0
 40
9.0
 41
1.972972972850329
 42
50.0
 43
0.0
 44
0.0
 50
0.0
 51
0.0
 71
     0
 72
   100
 73
     1
 74
     3
 75
     0
 76
     0
 77
     0
 78
     0
281
     0
 65
     1
110
0.0
120
0.0
130
0.0
111
1.0
121
0.0
131
0.0
112
0.0
122
1.0
132
0.0
 79
     0
146
0.0
348
2F
 60
     3
 61
     5
292
     1
282
     1
141
0.0
142
0.0
 63
   250
361
5D
  0
ENDTAB
  0
TABLE
  2
LTYPE
  5
5
330
0
100
AcDbSymbolTable
 70
     1
  0
LTYPE
  5
14
330
5
100
AcDbSymbolTableRecord
100
AcDbLinetypeTableRecord
  2
ByBlock
 70
     0
  3

 72
    65
 73
     0
 40
0.0
  0
LTYPE
  5
15
330
5
100
AcDbSymbolTableRecord
100
AcDbLinetypeTableRecord
  2
ByLayer
 70
     0
  3

 72
    65
 73
     0
 40
0.0
  0
LTYPE
  5
16
330
5
100
AcDbSymbolTableRecord
100
AcDbLinetypeTableRecord
  2
Continuous
 70
     0
  3
Solid line
 72
    65
 73
     0
 40
0.0
  0
ENDTAB
  0
TABLE
  2
LAYER
  5
2
330
0
100
AcDbSymbolTable
 70
     4
  0
LAYER
  5
10
330
2
100
AcDbSymbolTableRecord
100
AcDbLayerTableRecord
  2
0
 70
     0
 62
     7
  6
Continuous
370
    -3
390
F
347
46
  0
LAYER
  5
5F
330
2
100
AcDbSymbolTableRecord
100
AcDbLayerTableRecord
  2
图层 03
 70
     0
 62
     4
420
    65529
  6
Continuous
370
    -3
390
F
347
46
  0
LAYER
  5
80
330
2
100
AcDbSymbolTableRecord
100
AcDbLayerTableRecord
  2
图层 02
 70
     0
 62
    30
420
 16744192
  6
Continuous
370
    -3
390
F
347
46
  0
LAYER
  5
13F
330
2
100
AcDbSymbolTableRecord
100
AcDbLayerTableRecord
  2
图层01
 70
     0
 62
    12
420
 13107200
  6
Continuous
370
    -3
390
F
347
46
  0
ENDTAB
  0
TABLE
  2
STYLE
  5
3
330
0
100
AcDbSymbolTable
 70
     1
  0
STYLE
  5
11
330
3
100
AcDbSymbolTableRecord
100
AcDbTextStyleTableRecord
  2
Standard
 70
     0
 40
0.0
 41
1.0
 50
0.0
 71
     0
 42
0.2
  3
txt
  4

  0
ENDTAB
  0
TABLE
  2
VIEW
  5
6
330
0
100
AcDbSymbolTable
 70
     0
  0
ENDTAB
  0
TABLE
  2
UCS
  5
7
330
0
100
AcDbSymbolTable
 70
     0
  0
ENDTAB
  0
TABLE
  2
APPID
  5
9
330
0
100
AcDbSymbolTable
 70
     3
  0
APPID
  5
12
330
9
100
AcDbSymbolTableRecord
100
AcDbRegAppTableRecord
  2
ACAD
 70
     0
  0
APPID
  5
5E
330
9
100
AcDbSymbolTableRecord
100
AcDbRegAppTableRecord
  2
Rhino
 70
     0
  0
APPID
  5
17B
330
9
100
AcDbSymbolTableRecord
100
AcDbRegAppTableRecord
  2
ACAD_MLEADERVER
 70
     0
  0
ENDTAB
  0
TABLE
  2
DIMSTYLE
  5
A
330
0
100
AcDbSymbolTable
 70
     1
100
AcDbDimStyleTable
  0
DIMSTYLE
105
27
330
A
100
AcDbSymbolTableRecord
100
AcDbDimStyleTableRecord
  2
STANDARD_ACAD
 70
     0
178
     0
340
11
  0
ENDTAB
  0
TABLE
  2
BLOCK_RECORD
  5
1
330
0
100
AcDbSymbolTable
 70
     1
  0
BLOCK_RECORD
  5
1F
330
1
100
AcDbSymbolTableRecord
100
AcDbBlockTableRecord
  2
*Model_Space
340
22
 70
     0
280
     1
281
     0
  0
BLOCK_RECORD
  5
1B
330
1
100
AcDbSymbolTableRecord
100
AcDbBlockTableRecord
  2
*Paper_Space
340
1E
 70
     0
280
     1
281
     0
  0
BLOCK_RECORD
  5
23
330
1
100
AcDbSymbolTableRecord
100
AcDbBlockTableRecord
  2
*Paper_Space0
340
26
 70
     0
280
     1
281
     0
  0
ENDTAB
  0
ENDSEC
  0
SECTION
  2
BLOCKS
  0
BLOCK
  5
20
330
1F
100
AcDbEntity
  8
0
100
AcDbBlockBegin
  2
*Model_Space
 70
     0
 10
0.0
 20
0.0
 30
0.0
  3
*Model_Space
  1

  0
ENDBLK
  5
21
330
1F
100
AcDbEntity
  8
0
100
AcDbBlockEnd
  0
BLOCK
  5
1C
330
1B
100
AcDbEntity
 67
     1
  8
0
100
AcDbBlockBegin
  2
*Paper_Space
 70
     0
 10
0.0
 20
0.0
 30
0.0
  3
*Paper_Space
  1

  0
ENDBLK
  5
1D
330
1B
100
AcDbEntity
 67
     1
  8
0
100
AcDbBlockEnd
  0
BLOCK
  5
24
330
23
100
AcDbEntity
  8
0
100
AcDbBlockBegin
  2
*Paper_Space0
 70
     0
 10
0.0
 20
0.0
 30
0.0
  3
*Paper_Space0
  1

  0
ENDBLK
  5
25
330
23
100
AcDbEntity
  8
0
100
AcDbBlockEnd
  0
ENDSEC
  0
SECTION
  2
ENTITIES
  0
SPLINE
  5
60
330
1F
100
AcDbEntity
  8
图层 03
100
AcDbSpline
210
0.0
220
0.0
230
1.0
 70
     8
 71
     3
 72
     8
 73
     4
 74
     0
 42
0.0000000001
 43
0.0000000001
 40
440.790091373599
 40
440.790091373599
 40
440.790091373599
 40
440.790091373599
 40
451.3587289360179
 40
451.3587289360179
 40
451.3587289360179
 40
451.3587289360179
 10
3905.950032496125
 20
-527.4231186797208
 30
-0.0000000000004832
 10
3905.157720027272
 20
-527.4331364657228
 30
-0.0000000000004832
 10
3904.365449021063
 20
-527.4437893807458
 30
-0.0000000000004832
 10
3903.57323662574
 20
-527.455276669464
 30
-0.0000000000004832
  0
SPLINE
  5
61
330
1F
100
AcDbEntity
  8
图层 03
100
AcDbSpline
210
0.0
220
0.0
230
1.0
 70
     8
 71
     3
 72
     8
 73
     4
 74
     0
 42
0.0000000001
 43
0.0000000001
 40
451.3587289360179
 40
451.3587289360179
 40
451.3587289360179
 40
451.3587289360179
 40
459.4148009440806
 40
459.4148009440806
 40
459.4148009440806
 40
459.4148009440806
 10
3903.57323662574
 20
-527.455276669464
 30
-0.0000000000004832
 10
3903.002037322402
 20
-527.6286124563367
 30
-0.0000000000004832
 10
3902.430802602676
 20
-527.8018422260518
 30
-0.0000000000004832
 10
3901.859524901216
 20
-527.974942874368
 30
-0.0000000000004832
  0
SPLINE
  5
62
330
1F
100
AcDbEntity
  8
图层 03
100
AcDbSpline
210
0.0
220
0.0
230
1.0
 70
     8
 71
     3
 72
     8
 73
     4
 74
     0
 42
0.0000000001
 43
0.0000000001
 40
459.4148009440806
 40
459.4148009440806
 40
459.4148009440806
 40
459.4148009440806
 40
466.5600965987039
 40
466.5600965987039
 40
466.5600965987039
 40
466.5600965987039
 10
3901.859524901216
 20
-527.974942874368
 30
-0.0000000000004832
 10
3901.551316778239
 20
-528.4104502938103
 30
-0.0000000000004832
 10
3901.243998664566
 20
-528.8466575288971
 30
-0.0000000000004832
 10
3900.937419535054
 20
-529.2834325819001
 30
-0.0000000000004832
  0
SPLINE
  5
63
330
1F
100
AcDbEntity
  8
图层 03
100
AcDbSpline
210
0.0
220
0.0
230
1.0
 70
     8
 71
     3
 72
     8
 73
     4
 74
     0
 42
0.0000000001
 43
0.0000000001
 40
466.5600965987039
 40
466.5600965987039
 40
466.5600965987039
 40
466.5600965987039
 40
476.0869813195504
 40
476.0869813195504
 40
476.0869813195504
 40
476.0869813195504
 10
3900.937419535054
 20
-529.2834325819001
 30
-0.0000000000004832
 10
3900.839511165186
 20
-530.0093853672611
 30
-0.0000000000004832
 10
3900.745102660148
 20
-530.7360660197103
 30
-0.0000000000004832
 10
3900.653442457374
 20
-531.46323655846
 30
-0.0000000000004832
  0
SPLINE
  5
64
330
1F
100
AcDbEntity
  8
图层 03
100
AcDbSpline
210
0.0
220
0.0
230
1.0
 70
     8
 71
     3
 72
     8
 73
     4
 74
     0
 42
0.0000000001
 43
0.0000000001
 40
476.0869813195504
 40
476.0869813195504
 40
476.0869813195504
 40
476.0869813195504
 40
488.7082879449978
 40
488.7082879449978
 40
488.7082879449978
 40
488.7082879449978
 10
3900.653442457374
 20
-531.46323655846
 30
-0.0000000000004832
 10
3900.68939382441
 20
-532.4432402584548
 30
-0.0000000000004832
 10
3900.726131020788
 20
-533.4232604690221
 30
-0.0000000000004832
 10
3900.763582756955
 20
-534.4032921010505
 30
-0.0000000000004832
  0
SPLINE
  5
65
330
1F
100
AcDbEntity
  8
图层 03
100
AcDbSpline
210
0.0
220
0.0
230
1.0
 70
     8
 71
     3
 72
    11
 73
     7
 74
     0
 42
0.0000000001
 43
0.0000000001
 40
488.7082879449978
 40
488.7082879449978
 40
488.7082879449978
 40
488.7082879449978
 40
504.4044933018382
 40
504.4044933018382
 40
504.4044933018382
 40
522.9229263145947
 40
522.9229263145947
 40
522.9229263145947
 40
522.9229263145947
 10
3900.763582756955
 20
-534.4032921010505
 30
-0.0000000000004832
 10
3900.847046153399
 20
-535.6221580949409
 30
-0.0000000000004832
 10
3900.93045520028
 20
-536.841024870638
 30
-0.0000000000004832
 10
3901.013809970823
 20
-538.059892411502
 30
-0.0000000000004832
 10
3901.098994833354
 20
-539.4980385838671
 30
-0.0000000000004832
 10
3901.184117405056
 20
-540.936185034634
 30
-0.0000000000004832
 10
3901.269176436061
 20
-542.3743317515889
 30
-0.0000000000004832
  0
SPLINE
  5
66
330
1F
100
AcDbEntity
  8
图层 03
100
AcDbSpline
210
0.0
220
0.0
230
1.0
 70
     8
 71
     3
 72
     8
 73
     4
 74
     0
 42
0.0000000001
 43
0.0000000001
 40
522.9229263145947
 40
522.9229263145947
 40
522.9229263145947
 40
522.9229263145947
 40
542.0107523907855
 40
542.0107523907855
 40
542.0107523907855
 40
542.0107523907855
 10
3901.269176436061
 20
-542.3743317515889
 30
-0.0000000000004832
 10
3901.436611370202
 20
-543.8540442026695
 30
-0.0000000000004832
 10
3901.604584093915
 20
-545.3337234924641
 30
-0.0000000000004832
 10
3901.773154355589
 20
-546.8133644740549
 30
-0.0000000000004832
  0
SPLINE
  5
67
330
1F
100
AcDbEntity
  8
图层 03
100
AcDbSpline
210
0.0
220
0.0
230
1.0
 70
     8
 71
     3
 72
     8
 73
     4
 74
     0
 42
0.0000000001
 43
0.0000000001
 40
542.0107523907855
 40
542.0107523907855
 40
542.0107523907855
 40
542.0107523907855
 40
558.8250151847766
 40
558.8250151847766
 40
558.8250151847766
 40
558.8250151847766
 10
3901.773154355589
 20
-546.8133644740549
 30
-0.0000000000004832
 10
3902.121513471243
 20
-548.0870413605417
 30
-0.0000000000004832
 10
3902.471269038866
 20
-549.360391050473
 30
-0.0000000000004832
 10
3902.822807022097
 20
-550.6333081063767
 30
-0.0000000000004832
  0
SPLINE
  5
68
330
1F
100
AcDbEntity
  8
图层 03
100
AcDbSpline
210
0.0
220
0.0
230
1.0
 70
     8
 71
     3
 72
     8
 73
     4
 74
     0
 42
0.0000000001
 43
0.0000000001
 40
558.8250151847766
 40
558.8250151847766
 40
558.8250151847766
 40
558.8250151847766
 40
571.7650902895198
 40
571.7650902895198
 40
571.7650902895198
 40
571.7650902895198
 10
3902.822807022097
 20
-550.6333081063767
 30
-0.0000000000004832
 10
3903.433388797971
 20
-551.4501303875322
 30
-0.0000000000004832
 10
3904.043981239442
 20
-552.2669444193853
 30
-0.0000000000004832
 10
3904.654586133554
 20
-553.0837488178543
 30
-0.0000000000004832
  0
SPLINE
  5
69
330
1F
100
AcDbEntity
  8
图层 03
100
AcDbSpline
210
0.0
220
0.0
230
1.0
 70
     8
 71
     3
 72
     8
 73
     4
 74
     0
 42
0.0000000001
 43
0.0000000001
 40
571.7650902895198
 40
571.7650902895198
 40
571.7650902895198
 40
571.7650902895198
 40
584.8223877040551
 40
584.8223877040551
 40
584.8223877040551
 40
584.8223877040551
 10
3904.654586133554
 20
-553.0837488178543
 30
-0.0000000000004832
 10
3905.622046510247
 20
-553.3097322605656
 30
-0.0000000000004832
 10
3906.589180678769
 20
-553.5377145084003
 30
-0.0000000000004832
 10
3907.556055135435
 20
-553.7671812215976
 30
-0.0000000000004832
  0
SPLINE
  5
6A
330
1F
100
AcDbEntity
  8
图层 03
100
AcDbSpline
210
0.0
220
0.0
230
1.0
 70
     8
 71
     3
 72
     8
 73
     4
 74
     0
 42
0.0000000001
 43
0.0000000001
 40
584.8223877040551
 40
584.8223877040551
 40
584.8223877040551
 40
584.8223877040551
 40
602.8525723123851
 40
602.8525723123851
 40
602.8525723123851
 40
602.8525723123851
 10
3907.556055135435
 20
-553.7671812215976
 30
-0.0000000000004832
 10
3908.86098234406
 20
-553.4677226541999
 30
-0.0000000000004832
 10
3910.166309047439
 20
-553.1697552300993
 30
-0.0000000000004832
 10
3911.471908647389
 20
-552.8728308728196
 30
-0.0000000000004832
  0
SPLINE
  5
6B
330
1F
100
AcDbEntity
  8
图层 03
100
AcDbSpline
210
0.0
220
0.0
230
1.0
 70
     8
 71
     3
 72
     8
 73
     4
 74
     0
 42
0.0000000001
 43
0.0000000001
 40
602.8525723123851
 40
602.8525723123851
 40
602.8525723123851
 40
602.8525723123851
 40
625.071627815668
 40
625.071627815668
 40
625.071627815668
 40
625.071627815668
 10
3911.471908647389
 20
-552.8728308728196
 30
-0.0000000000004832
 10
3912.949839880159
 20
-552.1582052644585
 30
-0.0000000000004832
 10
3914.428641110743
 20
-551.4453321850303
 30
-0.0000000000004832
 10
3915.908142680218
 20
-550.7338914830536
 30
-0.0000000000004832
  0
SPLINE
  5
6C
330
1F
100
AcDbEntity
  8
图层 03
100
AcDbSpline
210
0.0
220
0.0
230
1.0
 70
     8
 71
     3
 72
     8
 73
     4
 74
     0
 42
0.0000000001
 43
0.0000000001
 40
625.071627815668
 40
625.071627815668
 40
625.071627815668
 40
625.071627815668
 40
648.5192702326727
 40
648.5192702326727
 40
648.5192702326727
 40
648.5192702326727
 10
3915.908142680218
 20
-550.7338914830536
 30
-0.0000000000004832
 10
3917.306783766556
 20
-549.71047492445
 30
-0.0000000000004832
 10
3918.705966311175
 20
-548.6878181681998
 30
-0.0000000000004832
 10
3920.105645143407
 20
-547.6658619445991
 30
-0.0000000000004832
  0
SPLINE
  5
6D
330
1F
100
AcDbEntity
  8
图层 03
100
AcDbSpline
210
0.0
220
0.0
230
1.0
 70
     8
 71
     3
 72
     8
 73
     4
 74
     0
 42
0.0000000001
 43
0.0000000001
 40
648.5192702326727
 40
648.5192702326727
 40
648.5192702326727
 40
648.5192702326727
 40
670.9968417879309
 40
670.9968417879309
 40
670.9968417879309
 40
670.9968417879309
 10
3920.105645143407
 20
-547.6658619445991
 30
-0.0000000000004832
 10
3921.222783775799
 20
-546.4244295542549
 30
-0.0000000000004832
 10
3922.339937185454
 20
-545.1830114769712
 30
-0.0000000000004832
 10
3923.457105286059
 20
-543.9416076310297
 30
-0.0000000000004832
  0
SPLINE
  5
6E
330
1F
100
AcDbEntity
  8
图层 03
100
AcDbSpline
210
0.0
220
0.0
230
1.0
 70
     8
 71
     3
 72
     8
 73
     4
 74
     0
 42
0.0000000001
 43
0.0000000001
 40
670.9968417879309
 40
670.9968417879309
 40
670.9968417879309
 40
670.9968417879309
 40
692.1303288609506
 40
692.1303288609506
 40
692.1303288609506
 40
692.1303288609506
 10
3923.457105286059
 20
-543.9416076310297
 30
-0.0000000000004832
 10
3924.287504417643
 20
-542.5937614259465
 30
-0.0000000000004832
 10
3925.118214138996
 20
-541.2461298926705
 30
-0.0000000000004832
 10
3925.949270348402
 20
-539.8987385441353
 30
-0.0000000000004832
  0
SPLINE
  5
6F
330
1F
100
AcDbEntity
  8
图层 03
100
AcDbSpline
210
0.0
220
0.0
230
1.0
 70
     8
 71
     3
 72
     8
 73
     4
 74
     0
 42
0.0000000001
 43
0.0000000001
 40
692.1303288609506
 40
692.1303288609506
 40
692.1303288609506
 40
692.1303288609506
 40
710.784271019457
 40
710.784271019457
 40
710.784271019457
 40
710.784271019457
 10
3925.949270348402
 20
-539.8987385441353
 30
-0.0000000000004832
 10
3926.530594114635
 20
-538.6168658171373
 30
-0.0000000000004832
 10
3927.112180415642
 20
-537.3351318478876
 30
-0.0000000000004832
 10
3927.694106021511
 20
-536.0535777851078
 30
-0.0000000000004832
  0
SPLINE
  5
70
330
1F
100
AcDbEntity
  8
图层 03
100
AcDbSpline
210
0.0
220
0.0
230
1.0
 70
     8
 71
     3
 72
     8
 73
     4
 74
     0
 42
0.0000000001
 43
0.0000000001
 40
710.784271019457
 40
710.784271019457
 40
710.784271019457
 40
710.784271019457
 40
725.8095599876549
 40
725.8095599876549
 40
725.8095599876549
 40
725.8095599876549
 10
3927.694106021511
 20
-536.0535777851078
 30
-0.0000000000004832
 10
3928.093678430397
 20
-534.9875079759099
 30
-0.0000000000004832
 10
3928.492281987617
 20
-533.9210007106142
 30
-0.0000000000004832
 10
3928.889666479846
 20
-532.8539515892658
 30
-0.0000000000004832
  0
SPLINE
  5
71
330
1F
100
AcDbEntity
  8
图层 03
100
AcDbSpline
210
0.0
220
0.0
230
1.0
 70
     8
 71
     3
 72
     8
 73
     4
 74
     0
 42
0.0000000001
 43
0.0000000001
 40
725.8095599876549
 40
725.8095599876549
 40
725.8095599876549
 40
725.8095599876549
 40
737.8960361243519
 40
737.8960361243519
 40
737.8960361243519
 40
737.8960361243519
 10
3928.889666479846
 20
-532.8539515892658
 30
-0.0000000000004832
 10
3929.189527489464
 20
-531.9870308903062
 30
-0.0000000000004832
 10
3929.491100164058
 20
-531.1208232892113
 30
-0.0000000000004832
 10
3929.794095146607
 20
-530.255227264204
 30
-0.0000000000004832
  0
SPLINE
  5
72
330
1F
100
AcDbEntity
  8
图层 03
100
AcDbSpline
210
0.0
220
0.0
230
1.0
 70
     8
 71
     3
 72
     8
 73
     4
 74
     0
 42
0.0000000001
 43
0.0000000001
 40
737.8960361243519
 40
737.8960361243519
 40
737.8960361243519
 40
737.8960361243519
 40
747.672172429937
 40
747.672172429937
 40
747.672172429937
 40
747.672172429937
 10
3929.794095146607
 20
-530.255227264204
 30
-0.0000000000004832
 10
3929.975507467585
 20
-529.5313979888315
 30
-0.0000000000004832
 10
3930.160129637624
 20
-528.8085814576084
 30
-0.0000000000004832
 10
3930.347234895408
 20
-528.0866190437696
 30
-0.0000000000004832
  0
SPLINE
  5
73
330
1F
100
AcDbEntity
  8
图层 03
100
AcDbSpline
210
0.0
220
0.0
230
1.0
 70
     8
 71
     3
 72
     8
 73
     4
 74
     0
 42
0.0000000001
 43
0.0000000001
 40
747.672172429937
 40
747.672172429937
 40
747.672172429937
 40
747.672172429937
 40
754.6195659030217
 40
754.6195659030217
 40
754.6195659030217
 40
754.6195659030217
 10
3930.347234895408
 20
-528.0866190437696
 30
-0.0000000000004832
 10
3930.3349590623
 20
-527.5473805742877
 30
-0.0000000000004832
 10
3930.323054242304
 20
-527.0081545478424
 30
-0.0000000000004832
 10
3930.311485306995
 20
-526.4689412308862
 30
-0.0000000000004832
  0
SPLINE
  5
74
330
1F
100
AcDbEntity
  8
图层 03
100
AcDbSpline
210
0.0
220
0.0
230
1.0
 70
     8
 71
     3
 72
     8
 73
     4
 74
     0
 42
0.0000000001
 43
0.0000000001
 40
754.6195659030217
 40
754.6195659030217
 40
754.6195659030217
 40
754.6195659030217
 40
760.0517553431241
 40
760.0517553431241
 40
760.0517553431241
 40
760.0517553431241
 10
3930.311485306995
 20
-526.4689412308862
 30
-0.0000000000004832
 10
3930.118183661425
 20
-526.0865885707963
 30
-0.0000000000004832
 10
3929.92483205701
 20
-525.7042606660691
 30
-0.0000000000004832
 10
3929.73143150607
 20
-525.3219570690833
 30
-0.0000000000004832
  0
SPLINE
  5
75
330
1F
100
AcDbEntity
  8
图层 03
100
AcDbSpline
210
0.0
220
0.0
230
1.0
 70
     8
 71
     3
 72
     8
 73
     4
 74
     0
 42
0.0000000001
 43
0.0000000001
 40
760.0517553431241
 40
760.0517553431241
 40
760.0517553431241
 40
760.0517553431241
 40
765.6776745461826
 40
765.6776745461826
 40
765.6776745461826
 40
765.6776745461826
 10
3929.73143150607
 20
-525.3219570690833
 30
-0.0000000000004832
 10
3929.390216550689
 20
-525.0443112687858
 30
-0.0000000000004832
 10
3929.04916825779
 20
-524.7664396907994
 30
-0.0000000000004832
 10
3928.708290045763
 20
-524.4883397269277
 30
-0.0000000000004832
  0
SPLINE
  5
76
330
1F
100
AcDbEntity
  8
图层 03
100
AcDbSpline
210
0.0
220
0.0
230
1.0
 70
     8
 71
     3
 72
     8
 73
     4
 74
     0
 42
0.0000000001
 43
0.0000000001
 40
765.6776745461826
 40
765.6776745461826
 40
765.6776745461826
 40
765.6776745461826
 40
772.7129818744604
 40
772.7129818744604
 40
772.7129818744604
 40
772.7129818744604
 10
3928.708290045763
 20
-524.4883397269277
 30
-0.0000000000004832
 10
3928.192645710963
 20
-524.3375532148484
 30
-0.0000000000004832
 10
3927.677306443024
 20
-524.1853613389555
 30
-0.0000000000004832
 10
3927.162338838104
 20
-524.0315848765381
 30
-0.0000000000004832
  0
SPLINE
  5
77
330
1F
100
AcDbEntity
  8
图层 03
100
AcDbSpline
210
0.0
220
0.0
230
1.0
 70
     8
 71
     3
 72
     8
 73
     4
 74
     0
 42
0.0000000001
 43
0.0000000001
 40
772.7129818744604
 40
772.7129818744604
 40
772.7129818744604
 40
772.7129818744604
 40
781.8549315427666
 40
781.8549315427666
 40
781.8549315427666
 40
781.8549315427666
 10
3927.162338838104
 20
-524.0315848765381
 30
-0.0000000000004832
 10
3926.476633760473
 20
-524.0344999756962
 30
-0.0000000000004832
 10
3925.790636308296
 20
-524.0333508713481
 30
-0.0000000000004832
 10
3925.104446572889
 20
-524.0266128788257
 30
-0.0000000000004832
  0
SPLINE
  5
78
330
1F
100
AcDbEntity
  8
图层 03
100
AcDbSpline
210
0.0
220
0.0
230
1.0
 70
     8
 71
     3
 72
     8
 73
     4
 74
     0
 42
0.0000000001
 43
0.0000000001
 40
781.8549315427666
 40
781.8549315427666
 40
781.8549315427666
 40
781.8549315427666
 40
792.5950165427423
 40
792.5950165427423
 40
792.5950165427423
 40
792.5950165427423
 10
3925.104446572889
 20
-524.0266128788257
 30
-0.0000000000004832
 10
3924.317750648294
 20
-524.1662987603577
 30
-0.0000000000004832
 10
3923.53022631558
 20
-524.3023721347354
 30
-0.0000000000004832
 10
3922.741712541223
 20
-524.4334932934912
 30
-0.0000000000004832
  0
SPLINE
  5
79
330
1F
100
AcDbEntity
  8
图层 03
100
AcDbSpline
210
0.0
220
0.0
230
1.0
 70
     8
 71
     3
 72
     8
 73
     4
 74
     0
 42
0.0000000001
 43
0.0000000001
 40
792.5950165427423
 40
792.5950165427423
 40
792.5950165427423
 40
792.5950165427423
 40
805.1037639414983
 40
805.1037639414983
 40
805.1037639414983
 40
805.1037639414983
 10
3922.741712541223
 20
-524.4334932934912
 30
-0.0000000000004832
 10
3921.85322765287
 20
-524.6978673592166
 30
-0.0000000000004832
 10
3920.964715461596
 20
-524.9621583087801
 30
-0.0000000000004832
 10
3920.076179504324
 20
-525.2263767902698
 30
-0.0000000000004832
  0
SPLINE
  5
7A
330
1F
100
AcDbEntity
  8
图层 03
100
AcDbSpline
210
0.0
220
0.0
230
1.0
 70
     8
 71
     3
 72
     8
 73
     4
 74
     0
 42
0.0000000001
 43
0.0000000001
 40
805.1037639414983
 40
805.1037639414983
 40
805.1037639414983
 40
805.1037639414983
 40
819.0180310220217
 40
819.0180310220217
 40
819.0180310220217
 40
819.0180310220217
 10
3920.076179504324
 20
-525.2263767902698
 30
-0.0000000000004832
 10
3919.097204705967
 20
-525.5477613475491
 30
-0.0000000000004832
 10
3918.118488138979
 20
-525.8698731282614
 30
-0.0000000000004832
 10
3917.139982555844
 20
-526.1925719640567
 30
-0.0000000000004832
  0
SPLINE
  5
7B
330
1F
100
AcDbEntity
  8
图层 03
100
AcDbSpline
210
0.0
220
0.0
230
1.0
 70
     8
 71
     3
 72
     8
 73
     4
 74
     0
 42
0.0000000001
 43
0.0000000001
 40
819.0180310220217
 40
819.0180310220217
 40
819.0180310220217
 40
819.0180310220217
 40
832.7411961512677
 40
832.7411961512677
 40
832.7411961512677
 40
832.7411961512677
 10
3917.139982555844
 20
-526.1925719640569
 30
-0.0000000000004832
 10
3916.159695921066
 20
-526.4652602104472
 30
-0.0000000000004832
 10
3915.180176378162
 20
-526.7404466618068
 30
-0.0000000000004832
 10
3914.201401174179
 20
-527.0179458541631
 30
-0.0000000000004832
  0
SPLINE
  5
7C
330
1F
100
AcDbEntity
  8
图层 03
100
AcDbSpline
210
0.0
220
0.0
230
1.0
 70
     8
 71
     3
 72
     8
 73
     4
 74
     0
 42
0.0000000001
 43
0.0000000001
 40
832.7411961512677
 40
832.7411961512677
 40
832.7411961512677
 40
832.7411961512677
 40
845.533368372095
 40
845.533368372095
 40
845.533368372095
 40
845.533368372095
 10
3914.201401174179
 20
-527.0179458541631
 30
-0.0000000000004832
 10
3913.26250161811
 20
-527.1755521527505
 30
-0.0000000000004832
 10
3912.324185540103
 20
-527.3359963418725
 30
-0.0000000000004832
 10
3911.386514376552
 20
-527.4993335485015
 30
-0.0000000000004832
  0
SPLINE
  5
7D
330
1F
100
AcDbEntity
  8
图层 03
100
AcDbSpline
210
0.0
220
0.0
230
1.0
 70
     8
 71
     3
 72
     8
 73
     4
 74
     0
 42
0.0000000001
 43
0.0000000001
 40
845.533368372095
 40
845.533368372095
 40
845.533368372095
 40
845.533368372095
 40
857.7886865426881
 40
857.7886865426881
 40
857.7886865426881
 40
857.7886865426881
 10
3911.386514376552
 20
-527.4993335485015
 30
-0.0000000000004832
 10
3910.468326288971
 20
-527.519002693522
 30
-0.0000000000004832
 10
3909.550070978631
 20
-527.5377949018039
 30
-0.0000000000004832
 10
3908.631748908095
 20
-527.5556495464746
 30
-0.0000000000004832
  0
SPLINE
  5
7E
330
1F
100
AcDbEntity
  8
图层 03
100
AcDbSpline
210
0.0
220
0.0
230
1.0
 70
     8
 71
     3
 72
     8
 73
     4
 74
     0
 42
0.0000000001
 43
0.0000000001
 40
857.7886865426881
 40
857.7886865426881
 40
857.7886865426881
 40
857.7886865426881
 40
869.6844346449429
 40
869.6844346449429
 40
869.6844346449429
 40
869.6844346449429
 10
3908.631748908095
 20
-527.5556495464746
 30
-0.0000000000004832
 10
3907.737862390988
 20
-527.513349781427
 30
-0.0000000000004832
 10
3906.843950182494
 20
-527.4692685872751
 30
-0.0000000000004832
 10
3905.950032496125
 20
-527.4231186797208
 30
-0.0000000000004832
  0
SPLINE
  5
7F
330
1F
100
AcDbEntity
  8
图层 03
100
AcDbSpline
210
0.0
220
0.0
230
1.0
 70
    11
 71
     3
 72
    29
 73
    25
 74
     0
 42
0.0000000001
 43
0.0000000001
 40
-15.70796326794897
 40
-15.70796326794897
 40
-15.70796326794897
 40
-15.70796326794897
 40
-14.72621556370216
 40
-13.74446785945534
 40
-12.76272015520853
 40
-12.27184630308513
 40
-11.78097245096172
 40
-11.29009859883832
 40
-10.79922474671491
 40
-9.817477042468102
 40
-8.835729338221292
 40
-8.344855486097888
 40
-7.853981633974483
 40
-7.363107781851078
 40
-6.872233929727672
 40
-5.890486225480862
 40
-4.908738521234051
 40
-4.417864669110646
 40
-3.926990816987241
 40
-3.436116964863836
 40
-2.945243112740431
 40
-1.963495408493621
 40
-0.9817477042468103
 40
0.0
 40
0.0
 40
0.0
 40
0.0
 10
3916.05006552645
 20
-536.6956959790857
 30
-0.0000000000004832
 10
3916.050065526445
 20
-537.0484735500254
 30
-0.0000000000004832
 10
3915.921831704969
 20
-537.8134465656035
 30
-0.0000000000004832
 10
3915.234424623766
 20
-538.8801073419781
 30
-0.0000000000004832
 10
3914.346391620646
 20
-539.453536225627
 30
-0.0000000000004832
 10
3913.591969890328
 20
-539.6639928087184
 30
-0.0000000000004832
 10
3913.050062352737
 20
-539.7115508997394
 30
-0.0000000000004832
 10
3912.508173857419
 20
-539.6639794668386
 30
-0.0000000000004832
 10
3911.753675958011
 20
-539.453611829611
 30
-0.0000000000004832
 10
3910.865966869837
 20
-538.8797948393956
 30
-0.0000000000004832
 10
3910.292149346927
 20
-537.9920852654302
 30
-0.0000000000004832
 10
3910.081782993955
 20
-537.2375884446528
 30
-0.0000000000004832
 10
3910.034206792697
 20
-536.6956959790857
 30
-0.0000000000004832
 10
3910.081782993954
 20
-536.1538035135186
 30
-0.0000000000004832
 10
3910.292149346927
 20
-535.399306692741
 30
-0.0000000000004832
 10
3910.865966869837
 20
-534.5115971187761
 30
-0.0000000000004832
 10
3911.753675958011
 20
-533.9377801285598
 30
-0.0000000000004832
 10
3912.508173857419
 20
-533.7274124913324
 30
-0.0000000000004832
 10
3913.050062352738
 20
-533.6798410584322
 30
-0.0000000000004832
 10
3913.591969890328
 20
-533.7273991494526
 30
-0.0000000000004832
 10
3914.346391620646
 20
-533.9378557325442
 30
-0.0000000000004832
 10
3915.234424623766
 20
-534.5112846161933
 30
-0.0000000000004832
 10
3915.921831704969
 20
-535.5779453925679
 30
-0.0000000000004832
 10
3916.050065526445
 20
-536.342918408146
 30
-0.0000000000004832
 10
3916.05006552645
 20
-536.6956959790857
 30
-0.0000000000004832
  0
SPLINE
  5
81
330
1F
100
AcDbEntity
  8
图层 02
100
AcDbSpline
210
0.0
220
0.0
230
1.0
 70
     8
 71
     3
 72
     8
 73
     4
 74
     0
 42
0.0000000001
 43
0.0000000001
 40
0.0
 40
0.0
 40
0.0
 40
0.0
 40
34.17679111215404
 40
34.17679111215404
 40
34.17679111215404
 40
34.17679111215404
 10
3737.526066168995
 20
-330.9873743978401
 30
-0.0000000000004832
 10
3738.965344181604
 20
-328.8765882383067
 30
-0.0000000000004832
 10
3740.447507236968
 20
-326.8013858475099
 30
-0.0000000000004832
 10
3741.969260596954
 20
-324.7555316938999
 30
-0.0000000000004832
  0
SPLINE
  5
82
330
1F
100
AcDbEntity
  8
图层 02
100
AcDbSpline
210
0.0
220
0.0
230
1.0
 70
     8
 71
     3
 72
     8
 73
     4
 74
     0
 42
0.0000000001
 43
0.0000000001
 40
34.17679111215404
 40
34.17679111215404
 40
34.17679111215404
 40
34.17679111215404
 40
58.04721473410322
 40
58.04721473410322
 40
58.04721473410322
 40
58.04721473410322
 10
3741.969260596954
 20
-324.7555316938999
 30
-0.0000000000004832
 10
3741.760415907785
 20
-322.9091799012411
 30
-0.0000000000004832
 10
3741.476165879486
 20
-321.0571132659136
 30
-0.0000000000004832
 10
3741.09638721131
 20
-319.2297097065648
 30
-0.0000000000004832
  0
SPLINE
  5
83
330
1F
100
AcDbEntity
  8
图层 02
100
AcDbSpline
210
0.0
220
0.0
230
1.0
 70
     8
 71
     3
 72
     8
 73
     4
 74
     0
 42
0.0000000001
 43
0.0000000001
 40
58.04721473410322
 40
58.04721473410322
 40
58.04721473410322
 40
58.04721473410322
 40
63.31873555169768
 40
63.31873555169768
 40
63.31873555169768
 40
63.31873555169768
 10
3741.09638721131
 20
-319.2297097065648
 30
-0.0000000000004832
 10
3740.719625086816
 20
-319.0812931078956
 30
-0.0000000000004832
 10
3740.341309938961
 20
-318.9376653055817
 30
-0.0000000000004832
 10
3739.961506583699
 20
-318.7991713627384
 30
-0.0000000000004832
  0
SPLINE
  5
84
330
1F
100
AcDbEntity
  8
图层 02
100
AcDbSpline
210
0.0
220
0.0
230
1.0
 70
     8
 71
     3
 72
     8
 73
     4
 74
     0
 42
0.0000000001
 43
0.0000000001
 40
63.31873555169768
 40
63.31873555169768
 40
63.31873555169768
 40
63.31873555169768
 40
84.86227627860119
 40
84.86227627860119
 40
84.86227627860119
 40
84.86227627860119
 10
3739.961506583699
 20
-318.7991713627384
 30
-0.0000000000004832
 10
3738.37681252388
 20
-318.3837551592463
 30
-0.0000000000004832
 10
3736.770811556334
 20
-318.0248703998797
 30
-0.0000000000004832
 10
3735.165190883187
 20
-317.7470355828657
 30
-0.0000000000004832
  0
SPLINE
  5
85
330
1F
100
AcDbEntity
  8
图层 02
100
AcDbSpline
210
0.0
220
0.0
230
1.0
 70
     8
 71
     3
 72
     8
 73
     4
 74
     0
 42
0.0000000001
 43
0.0000000001
 40
84.86227627860119
 40
84.86227627860119
 40
84.86227627860119
 40
84.86227627860119
 40
103.2806145922141
 40
103.2806145922141
 40
103.2806145922141
 40
103.2806145922141
 10
3735.165190883187
 20
-317.7470355828657
 30
-0.0000000000004832
 10
3733.832430008512
 20
-318.0538477154688
 30
-0.0000000000004832
 10
3732.498855307461
 20
-318.3578873979924
 30
-0.0000000000004832
 10
3731.162113133612
 20
-318.6493998660476
 30
-0.0000000000004832
  0
SPLINE
  5
86
330
1F
100
AcDbEntity
  8
图层 02
100
AcDbSpline
210
0.0
220
0.0
230
1.0
 70
     8
 71
     3
 72
     8
 73
     4
 74
     0
 42
0.0000000001
 43
0.0000000001
 40
103.2806145922141
 40
103.2806145922141
 40
103.2806145922141
 40
103.2806145922141
 40
132.8982987243617
 40
132.8982987243617
 40
132.8982987243617
 40
132.8982987243617
 10
3731.162113133612
 20
-318.6493998660476
 30
-0.0000000000004832
 10
3729.273512810756
 20
-319.5808931901742
 30
-0.0000000000004832
 10
3727.180132494944
 20
-320.6543595811514
 30
-0.0000000000004832
 10
3725.310901858112
 20
-321.6233501234562
 30
-0.0000000000004832
  0
SPLINE
  5
87
330
1F
100
AcDbEntity
  8
图层 02
100
AcDbSpline
210
0.0
220
0.0
230
1.0
 70
     8
 71
     3
 72
     8
 73
     4
 74
     0
 42
0.0000000001
 43
0.0000000001
 40
132.8982987243617
 40
132.8982987243617
 40
132.8982987243617
 40
132.8982987243617
 40
171.3298792466578
 40
171.3298792466578
 40
171.3298792466578
 40
171.3298792466578
 10
3725.310901858112
 20
-321.6233501234562
 30
-0.0000000000004832
 10
3723.06147493361
 20
-323.3597359610702
 30
-0.0000000000004832
 10
3720.803747113041
 20
-325.0851304301698
 30
-0.0000000000004832
 10
3718.539314529383
 20
-326.8011764394195
 30
-0.0000000000004832
  0
SPLINE
  5
88
330
1F
100
AcDbEntity
  8
图层 02
100
AcDbSpline
210
0.0
220
0.0
230
1.0
 70
     8
 71
     3
 72
     8
 73
     4
 74
     0
 42
0.0000000001
 43
0.0000000001
 40
171.3298792466578
 40
171.3298792466578
 40
171.3298792466578
 40
171.3298792466578
 40
202.6395664183019
 40
202.6395664183019
 40
202.6395664183019
 40
202.6395664183019
 10
3718.539314529383
 20
-326.8011764394195
 30
-0.0000000000004832
 10
3716.951964652974
 20
-328.4995511538671
 30
-0.0000000000004832
 10
3715.373310841244
 20
-330.206897316504
 30
-0.0000000000004832
 10
3713.81006432815
 20
-331.9290045305839
 30
-0.0000000000004832
  0
SPLINE
  5
89
330
1F
100
AcDbEntity
  8
图层 02
100
AcDbSpline
210
0.0
220
0.0
230
1.0
 70
     8
 71
     3
 72
     8
 73
     4
 74
     0
 42
0.0000000001
 43
0.0000000001
 40
202.6395664183019
 40
202.6395664183019
 40
202.6395664183019
 40
202.6395664183019
 40
208.165236772804
 40
208.165236772804
 40
208.165236772804
 40
208.165236772804
 10
3713.81006432815
 20
-331.9290045305839
 30
-0.0000000000004832
 10
3713.61456888978
 20
-332.2954675230328
 30
-0.0000000000004832
 10
3713.420918164585
 20
-332.6630770962752
 30
-0.0000000000004832
 10
3713.229323366373
 20
-333.0318800303794
 30
-0.0000000000004832
  0
SPLINE
  5
8A
330
1F
100
AcDbEntity
  8
图层 02
100
AcDbSpline
210
0.0
220
0.0
230
1.0
 70
     8
 71
     3
 72
     8
 73
     4
 74
     0
 42
0.0000000001
 43
0.0000000001
 40
208.165236772804
 40
208.165236772804
 40
208.165236772804
 40
208.165236772804
 40
221.0940322580656
 40
221.0940322580656
 40
221.0940322580656
 40
221.0940322580656
 10
3713.229323366373
 20
-333.0318800303794
 30
-0.0000000000004832
 10
3713.037441582904
 20
-334.003827132204
 30
-0.0000000000004832
 10
3712.867793032724
 20
-334.9797638996026
 30
-0.0000000000004832
 10
3712.719114711486
 20
-335.9621814096569
 30
-0.0000000000004832
  0
SPLINE
  5
8B
330
1F
100
AcDbEntity
  8
图层 02
100
AcDbSpline
210
0.0
220
0.0
230
1.0
 70
     8
 71
     3
 72
     8
 73
     4
 74
     0
 42
0.0000000001
 43
0.0000000001
 40
221.0940322580656
 40
221.0940322580656
 40
221.0940322580656
 40
221.0940322580656
 40
232.8510007447157
 40
232.8510007447157
 40
232.8510007447157
 40
232.8510007447157
 10
3712.719114711486
 20
-335.9621814096569
 30
-0.0000000000004832
 10
3713.368446310913
 20
-336.6185753186696
 30
-0.0000000000004832
 10
3714.015855515568
 20
-337.277032055427
 30
-0.0000000000004832
 10
3714.661011989691
 20
-337.9378046295403
 30
-0.0000000000004832
  0
SPLINE
  5
8C
330
1F
100
AcDbEntity
  8
图层 02
100
AcDbSpline
210
0.0
220
0.0
230
1.0
 70
     8
 71
     3
 72
     8
 73
     4
 74
     0
 42
0.0000000001
 43
0.0000000001
 40
232.8510007447157
 40
232.8510007447157
 40
232.8510007447157
 40
232.8510007447157
 40
240.8057725455619
 40
240.8057725455619
 40
240.8057725455619
 40
240.8057725455619
 10
3714.661011989691
 20
-337.9378046295403
 30
-0.0000000000004832
 10
3715.25462399047
 20
-338.0454936244164
 30
-0.0000000000004832
 10
3715.848493051479
 20
-338.151079149666
 30
-0.0000000000004832
 10
3716.442600145806
 20
-338.2543035601592
 30
-0.0000000000004832
  0
SPLINE
  5
8D
330
1F
100
AcDbEntity
  8
图层 02
100
AcDbSpline
210
0.0
220
0.0
230
1.0
 70
     8
 71
     3
 72
     8
 73
     4
 74
     0
 42
0.0000000001
 43
0.0000000001
 40
240.8057725455619
 40
240.8057725455619
 40
240.8057725455619
 40
240.8057725455619
 40
255.4838657505707
 40
255.4838657505707
 40
255.4838657505707
 40
255.4838657505707
 10
3716.442600145806
 20
-338.2543035601592
 30
-0.0000000000004832
 10
3717.538856050816
 20
-338.1945463651992
 30
-0.0000000000004832
 10
3718.639234709346
 20
-338.1747668315327
 30
-0.0000000000004832
 10
3719.741041748138
 20
-338.1910348025458
 30
-0.0000000000004832
  0
SPLINE
  5
8E
330
1F
100
AcDbEntity
  8
图层 02
100
AcDbSpline
210
0.0
220
0.0
230
1.0
 70
     8
 71
     3
 72
     8
 73
     4
 74
     0
 42
0.0000000001
 43
0.0000000001
 40
255.4838657505707
 40
255.4838657505707
 40
255.4838657505707
 40
255.4838657505707
 40
271.5738908709294
 40
271.5738908709294
 40
271.5738908709294
 40
271.5738908709294
 10
3719.741041748138
 20
-338.1910348025458
 30
-0.0000000000004832
 10
3720.915797310648
 20
-337.9803554175905
 30
-0.0000000000004832
 10
3722.106222165947
 20
-337.7938503969078
 30
-0.0000000000004832
 10
3723.2900483913
 20
-337.628100226367
 30
-0.0000000000004832
  0
SPLINE
  5
8F
330
1F
100
AcDbEntity
  8
图层 02
100
AcDbSpline
210
0.0
220
0.0
230
1.0
 70
     8
 71
     3
 72
     8
 73
     4
 74
     0
 42
0.0000000001
 43
0.0000000001
 40
271.5738908709294
 40
271.5738908709294
 40
271.5738908709294
 40
271.5738908709294
 40
306.3480232905433
 40
306.3480232905433
 40
306.3480232905433
 40
306.3480232905433
 10
3723.2900483913
 20
-337.628100226367
 30
-0.0000000000004832
 10
3725.715967091951
 20
-336.7421130321795
 30
-0.0000000000004832
 10
3728.142769271317
 20
-335.9402994725627
 30
-0.0000000000004832
 10
3730.626727308837
 20
-335.2171751061402
 30
-0.0000000000004832
  0
SPLINE
  5
90
330
1F
100
AcDbEntity
  8
图层 02
100
AcDbSpline
210
0.0
220
0.0
230
1.0
 70
     8
 71
     3
 72
     8
 73
     4
 74
     0
 42
0.0000000001
 43
0.0000000001
 40
306.3480232905433
 40
306.3480232905433
 40
306.3480232905433
 40
306.3480232905433
 40
322.5715941404998
 40
322.5715941404998
 40
322.5715941404998
 40
322.5715941404998
 10
3730.626727308837
 20
-335.2171751061402
 30
-0.0000000000004832
 10
3731.643856673774
 20
-334.5835551492772
 30
-0.0000000000004832
 10
3732.663629534068
 20
-333.9541484130983
 30
-0.0000000000004832
 10
3733.686512254687
 20
-333.3299657462228
 30
-0.0000000000004832
  0
SPLINE
  5
91
330
1F
100
AcDbEntity
  8
图层 02
100
AcDbSpline
210
0.0
220
0.0
230
1.0
 70
     8
 71
     3
 72
     8
 73
     4
 74
     0
 42
0.0000000001
 43
0.0000000001
 40
322.5715941404998
 40
322.5715941404998
 40
322.5715941404998
 40
322.5715941404998
 40
342.8722562512646
 40
342.8722562512646
 40
342.8722562512646
 40
342.8722562512646
 10
3733.686512254687
 20
-333.3299657462228
 30
-0.0000000000004832
 10
3734.951985347943
 20
-332.5200503217167
 30
-0.0000000000004832
 10
3736.227213834982
 20
-331.742210990828
 30
-0.0000000000004832
 10
3737.526066168995
 20
-330.9873743978401
 30
-0.0000000000004832
  0
SPLINE
  5
92
330
1F
100
AcDbEntity
  8
图层 02
100
AcDbSpline
210
0.0
220
0.0
230
1.0
 70
    11
 71
     3
 72
    29
 73
    25
 74
     0
 42
0.0000000001
 43
0.0000000001
 40
-15.70796326794897
 40
-15.70796326794897
 40
-15.70796326794897
 40
-15.70796326794897
 40
-14.72621556370216
 40
-13.74446785945534
 40
-12.76272015520853
 40
-12.27184630308513
 40
-11.78097245096172
 40
-11.29009859883832
 40
-10.79922474671491
 40
-9.817477042468102
 40
-8.835729338221292
 40
-8.344855486097888
 40
-7.853981633974483
 40
-7.363107781851078
 40
-6.872233929727672
 40
-5.890486225480862
 40
-4.908738521234051
 40
-4.417864669110646
 40
-3.926990816987241
 40
-3.436116964863836
 40
-2.945243112740431
 40
-1.963495408493621
 40
-0.9817477042468103
 40
0.0
 40
0.0
 40
0.0
 40
0.0
 10
3733.100680401604
 20
-327.3664321111468
 30
-0.0000000000004832
 10
3733.100680401599
 20
-327.7192096820856
 30
-0.0000000000004832
 10
3732.972446580124
 20
-328.4841826976644
 30
-0.0000000000004832
 10
3732.28503949892
 20
-329.5508434740393
 30
-0.0000000000004832
 10
3731.3970064958
 20
-330.1242723576876
 30
-0.0000000000004832
 10
3730.642584765482
 20
-330.3347289407798
 30
-0.0000000000004832
 10
3730.100677227892
 20
-330.3822870317999
 30
-0.0000000000004832
 10
3729.558788732574
 20
-330.3347155988995
 30
-0.0000000000004832
 10
3728.804290833165
 20
-330.124347961672
 30
-0.0000000000004832
 10
3727.916581744992
 20
-329.5505309714564
 30
-0.0000000000004832
 10
3727.34276422208
 20
-328.6628213974908
 30
-0.0000000000004832
 10
3727.132397869109
 20
-327.9083245767141
 30
-0.0000000000004832
 10
3727.084821667851
 20
-327.3664321111469
 30
-0.0000000000004832
 10
3727.132397869109
 20
-326.8245396455794
 30
-0.0000000000004832
 10
3727.34276422208
 20
-326.0700428248022
 30
-0.0000000000004832
 10
3727.916581744992
 20
-325.1823332508368
 30
-0.0000000000004832
 10
3728.804290833165
 20
-324.6085162606212
 30
-0.0000000000004832
 10
3729.558788732574
 20
-324.3981486233931
 30
-0.0000000000004832
 10
3730.100677227892
 20
-324.3505771904933
 30
-0.0000000000004832
 10
3730.642584765482
 20
-324.3981352815134
 30
-0.0000000000004832
 10
3731.3970064958
 20
-324.6085918646056
 30
-0.0000000000004832
 10
3732.28503949892
 20
-325.182020748254
 30
-0.0000000000004832
 10
3732.972446580124
 20
-326.2486815246293
 30
-0.0000000000004832
 10
3733.100680401599
 20
-327.0136545402069
 30
-0.0000000000004832
 10
3733.100680401604
 20
-327.3664321111468
 30
-0.0000000000004832
  0
SPLINE
  5
93
330
1F
100
AcDbEntity
  8
图层 03
100
AcDbSpline
210
0.0
220
0.0
230
1.0
 70
     8
 71
     3
 72
     8
 73
     4
 74
     0
 42
0.0000000001
 43
0.0000000001
 40
1102.208100264796
 40
1102.208100264796
 40
1102.208100264796
 40
1102.208100264796
 40
1128.488384902871
 40
1128.488384902871
 40
1128.488384902871
 40
1128.488384902871
 10
3854.652524031231
 20
-323.2822154785111
 30
-0.0000000000004832
 10
3856.627129111599
 20
-323.3626684320445
 30
-0.0000000000004832
 10
3858.60166250593
 20
-323.4375592762379
 30
-0.0000000000004832
 10
3860.576042480009
 20
-323.50708089355
 30
-0.0000000000004832
  0
SPLINE
  5
94
330
1F
100
AcDbEntity
  8
图层 03
100
AcDbSpline
210
0.0
220
0.0
230
1.0
 70
     8
 71
     3
 72
     8
 73
     4
 74
     0
 42
0.0000000001
 43
0.0000000001
 40
1128.488384902871
 40
1128.488384902871
 40
1128.488384902871
 40
1128.488384902871
 40
1147.775311703086
 40
1147.775311703086
 40
1147.775311703086
 40
1147.775311703086
 10
3860.576042480009
 20
-323.50708089355
 30
-0.0000000000004832
 10
3862.006739277191
 20
-323.8306469556533
 30
-0.0000000000004832
 10
3863.43755784456
 20
-324.1534489287903
 30
-0.0000000000004832
 10
3864.868482183997
 20
-324.4755740786961
 30
-0.0000000000004832
  0
SPLINE
  5
95
330
1F
100
AcDbEntity
  8
图层 03
100
AcDbSpline
210
0.0
220
0.0
230
1.0
 70
     8
 71
     3
 72
     8
 73
     4
 74
     0
 42
0.0000000001
 43
0.0000000001
 40
1147.775311703086
 40
1147.775311703086
 40
1147.775311703086
 40
1147.775311703086
 40
1164.786146228905
 40
1164.786146228905
 40
1164.786146228905
 40
1164.786146228905
 10
3864.868482183997
 20
-324.4755740786961
 30
-0.0000000000004832
 10
3866.067048928025
 20
-325.004760031396
 30
-0.0000000000004832
 10
3867.265619585769
 20
-325.533935326561
 30
-0.0000000000004832
 10
3868.464193289752
 20
-326.0631023251241
 30
-0.0000000000004832
  0
SPLINE
  5
96
330
1F
100
AcDbEntity
  8
图层 03
100
AcDbSpline
210
0.0
220
0.0
230
1.0
 70
     8
 71
     3
 72
     8
 73
     4
 74
     0
 42
0.0000000001
 43
0.0000000001
 40
1164.786146228905
 40
1164.786146228905
 40
1164.786146228905
 40
1164.786146228905
 40
1184.983170259714
 40
1184.983170259714
 40
1184.983170259714
 40
1184.983170259714
 10
3868.464193289752
 20
-326.0631023251241
 30
-0.0000000000004832
 10
3869.889107938945
 20
-326.6863342700615
 30
-0.0000000000004832
 10
3871.313681569936
 20
-327.3105074638315
 30
-0.0000000000004832
 10
3872.738018203193
 20
-327.9353271706537
 30
-0.0000000000004832
  0
SPLINE
  5
97
330
1F
100
AcDbEntity
  8
图层 03
100
AcDbSpline
210
0.0
220
0.0
230
1.0
 70
     8
 71
     3
 72
     8
 73
     4
 74
     0
 42
0.0000000001
 43
0.0000000001
 40
1184.983170259714
 40
1184.983170259714
 40
1184.983170259714
 40
1184.983170259714
 40
1214.971355859562
 40
1214.971355859562
 40
1214.971355859562
 40
1214.971355859562
 10
3872.738018203193
 20
-327.9353271706537
 30
-0.0000000000004832
 10
3874.94216184831
 20
-328.5493233352456
 30
-0.0000000000004832
 10
3877.144990929508
 20
-329.1697208708316
 30
-0.0000000000004832
 10
3879.346786573107
 20
-329.7947680345109
 30
-0.0000000000004832
  0
SPLINE
  5
98
330
1F
100
AcDbEntity
  8
图层 03
100
AcDbSpline
210
0.0
220
0.0
230
1.0
 70
     8
 71
     3
 72
     8
 73
     4
 74
     0
 42
0.0000000001
 43
0.0000000001
 40
1214.971355859562
 40
1214.971355859562
 40
1214.971355859562
 40
1214.971355859562
 40
1215.532002769475
 40
1215.532002769475
 40
1215.532002769475
 40
1215.532002769475
 10
3879.346786573107
 20
-329.7947680345109
 30
-0.0000000000004832
 10
3879.388718239701
 20
-329.8014671377425
 30
-0.0000000000004832
 10
3879.4306496357
 20
-329.8081690836498
 30
-0.0000000000004832
 10
3879.472580760028
 20
-329.8148738718036
 30
-0.0000000000004832
  0
SPLINE
  5
99
330
1F
100
AcDbEntity
  8
图层 03
100
AcDbSpline
210
0.0
220
0.0
230
1.0
 70
     8
 71
     3
 72
     8
 73
     4
 74
     0
 42
0.0000000001
 43
0.0000000001
 40
1215.532002769475
 40
1215.532002769475
 40
1215.532002769475
 40
1215.532002769475
 40
1259.313173994256
 40
1259.313173994256
 40
1259.313173994256
 40
1259.313173994256
 10
3879.472580760028
 20
-329.8148738718036
 30
-0.0000000000004832
 10
3882.740781318319
 20
-330.398017352675
 30
-0.0000000000004832
 10
3886.008023592145
 20
-330.9900264770422
 30
-0.0000000000004832
 10
3889.27400049782
 20
-331.5921894394222
 30
-0.0000000000004832
  0
SPLINE
  5
9A
330
1F
100
AcDbEntity
  8
图层 03
100
AcDbSpline
210
0.0
220
0.0
230
1.0
 70
     8
 71
     3
 72
     8
 73
     4
 74
     0
 42
0.0000000001
 43
0.0000000001
 40
1259.313173994256
 40
1259.313173994256
 40
1259.313173994256
 40
1259.313173994256
 40
1313.908850694032
 40
1313.908850694032
 40
1313.908850694032
 40
1313.908850694032
 10
3889.27400049782
 20
-331.5921894394222
 30
-0.0000000000004832
 10
3893.372306434815
 20
-332.0304228301205
 30
-0.0000000000004832
 10
3897.470071817869
 20
-332.4822707881999
 30
-0.0000000000004832
 10
3901.56697030907
 20
-332.9487954400074
 30
-0.0000000000004832
  0
SPLINE
  5
9B
330
1F
100
AcDbEntity
  8
图层 03
100
AcDbSpline
210
0.0
220
0.0
230
1.0
 70
     8
 71
     3
 72
     8
 73
     4
 74
     0
 42
0.0000000001
 43
0.0000000001
 40
1313.908850694032
 40
1313.908850694032
 40
1313.908850694032
 40
1313.908850694032
 40
1367.749318222517
 40
1367.749318222517
 40
1367.749318222517
 40
1367.749318222517
 10
3901.56697030907
 20
-332.9487954400074
 30
-0.0000000000004832
 10
3905.608981204947
 20
-333.0011500856308
 30
-0.0000000000004832
 10
3909.65117908891
 20
-333.0577193700212
 30
-0.0000000000004832
 10
3913.693513937664
 20
-333.1178248653118
 30
-0.0000000000004832
  0
SPLINE
  5
9C
330
1F
100
AcDbEntity
  8
图层 03
100
AcDbSpline
210
0.0
220
0.0
230
1.0
 70
     8
 71
     3
 72
     8
 73
     4
 74
     0
 42
0.0000000001
 43
0.0000000001
 40
1367.749318222517
 40
1367.749318222517
 40
1367.749318222517
 40
1367.749318222517
 40
1409.237441200362
 40
1409.237441200362
 40
1409.237441200362
 40
1409.237441200362
 10
3913.693513937664
 20
-333.1178248653118
 30
-0.0000000000004832
 10
3916.709372638265
 20
-332.4797203047375
 30
-0.0000000000004832
 10
3919.724939914058
 20
-331.840449349281
 30
-0.0000000000004832
 10
3922.740276791837
 20
-331.2002640487362
 30
-0.0000000000004832
  0
SPLINE
  5
9D
330
1F
100
AcDbEntity
  8
图层 03
100
AcDbSpline
210
0.0
220
0.0
230
1.0
 70
     8
 71
     3
 72
     8
 73
     4
 74
     0
 42
0.0000000001
 43
0.0000000001
 40
1409.237441200362
 40
1409.237441200362
 40
1409.237441200362
 40
1409.237441200362
 40
1436.668246655119
 40
1436.668246655119
 40
1436.668246655119
 40
1436.668246655119
 10
3922.740276791837
 20
-331.2002640487362
 30
-0.0000000000004832
 10
3924.073809558297
 20
-329.6568296110876
 30
-0.0000000000004832
 10
3925.390998148693
 20
-328.0985937947908
 30
-0.0000000000004832
 10
3926.691478666805
 20
-326.5248875976956
 30
-0.0000000000004832
  0
SPLINE
  5
9E
330
1F
100
AcDbEntity
  8
图层 03
100
AcDbSpline
210
0.0
220
0.0
230
1.0
 70
     8
 71
     3
 72
     8
 73
     4
 74
     0
 42
0.0000000001
 43
0.0000000001
 40
1436.668246655119
 40
1436.668246655119
 40
1436.668246655119
 40
1436.668246655119
 40
1464.695218384369
 40
1464.695218384369
 40
1464.695218384369
 40
1464.695218384369
 10
3926.691478666805
 20
-326.5248875976956
 30
-0.0000000000004832
 10
3926.675601189789
 20
-324.3508194127497
 30
-0.0000000000004832
 10
3926.637458359719
 20
-322.1761238993406
 30
-0.0000000000004832
 10
3926.577076434305
 20
-320.000266720498
 30
-0.0000000000004832
  0
SPLINE
  5
9F
330
1F
100
AcDbEntity
  8
图层 03
100
AcDbSpline
210
0.0
220
0.0
230
1.0
 70
     8
 71
     3
 72
     8
 73
     4
 74
     0
 42
0.0000000001
 43
0.0000000001
 40
1464.695218384369
 40
1464.695218384369
 40
1464.695218384369
 40
1464.695218384369
 40
1496.262462017984
 40
1496.262462017984
 40
1496.262462017984
 40
1496.262462017984
 10
3926.577076434305
 20
-320.000266720498
 30
-0.0000000000004832
 10
3925.747328075583
 20
-317.6584580952496
 30
-0.0000000000004832
 10
3924.913412672279
 20
-315.3179960193527
 30
-0.0000000000004832
 10
3924.075785703612
 20
-312.9787811964577
 30
-0.0000000000004832
  0
SPLINE
  5
A0
330
1F
100
AcDbEntity
  8
图层 03
100
AcDbSpline
210
0.0
220
0.0
230
1.0
 70
     8
 71
     3
 72
     8
 73
     4
 74
     0
 42
0.0000000001
 43
0.0000000001
 40
1496.262462017984
 40
1496.262462017984
 40
1496.262462017984
 40
1496.262462017984
 40
1527.586973761388
 40
1527.586973761388
 40
1527.586973761388
 40
1527.586973761388
 10
3924.075785703612
 20
-312.9787811964577
 30
-0.0000000000004832
 10
3922.910327328816
 20
-310.7999957148145
 30
-0.0000000000004832
 10
3921.737480361909
 20
-308.6250693012605
 30
-0.0000000000004832
 10
3920.558450179846
 20
-306.4535498559561
 30
-0.0000000000004832
  0
SPLINE
  5
A1
330
1F
100
AcDbEntity
  8
图层 03
100
AcDbSpline
210
0.0
220
0.0
230
1.0
 70
     8
 71
     3
 72
     8
 73
     4
 74
     0
 42
0.0000000001
 43
0.0000000001
 40
1527.586973761388
 40
1527.586973761388
 40
1527.586973761388
 40
1527.586973761388
 40
1555.282028640995
 40
1555.282028640995
 40
1555.282028640995
 40
1555.282028640995
 10
3920.558450179846
 20
-306.4535498559561
 30
-0.0000000000004832
 10
3919.354145340407
 20
-304.6310666184089
 30
-0.0000000000004832
 10
3918.124401556714
 20
-302.8267861354504
 30
-0.0000000000004832
 10
3916.869010316393
 20
-301.0399064979833
 30
-0.0000000000004832
  0
SPLINE
  5
A2
330
1F
100
AcDbEntity
  8
图层 03
100
AcDbSpline
210
0.0
220
0.0
230
1.0
 70
     8
 71
     3
 72
     8
 73
     4
 74
     0
 42
0.0000000001
 43
0.0000000001
 40
1555.282028640995
 40
1555.282028640995
 40
1555.282028640995
 40
1555.282028640995
 40
1581.228498711348
 40
1581.228498711348
 40
1581.228498711348
 40
1581.228498711348
 10
3916.869010316393
 20
-301.0399064979833
 30
-0.0000000000004832
 10
3915.547328048255
 20
-299.4826804319861
 30
-0.0000000000004832
 10
3914.211589754917
 20
-297.9391881948313
 30
-0.0000000000004832
 10
3912.860526589344
 20
-296.408757408125
 30
-0.0000000000004832
  0
SPLINE
  5
A3
330
1F
100
AcDbEntity
  8
图层 03
100
AcDbSpline
210
0.0
220
0.0
230
1.0
 70
     8
 71
     3
 72
     8
 73
     4
 74
     0
 42
0.0000000001
 43
0.0000000001
 40
1581.228498711348
 40
1581.228498711348
 40
1581.228498711348
 40
1581.228498711348
 40
1608.039836461977
 40
1608.039836461977
 40
1608.039836461977
 40
1608.039836461977
 10
3912.860526589344
 20
-296.408757408125
 30
-0.0000000000004832
 10
3911.319058926411
 20
-294.9793379894224
 30
-0.0000000000004832
 10
3909.780654672627
 20
-293.5463148766419
 30
-0.0000000000004832
 10
3908.245306340538
 20
-292.1098037008437
 30
-0.0000000000004832
  0
SPLINE
  5
A4
330
1F
100
AcDbEntity
  8
图层 03
100
AcDbSpline
210
0.0
220
0.0
230
1.0
 70
     8
 71
     3
 72
    11
 73
     7
 74
     0
 42
0.0000000001
 43
0.0000000001
 40
1608.039836461977
 40
1608.039836461977
 40
1608.039836461977
 40
1608.039836461977
 40
1623.512848256546
 40
1623.512848256546
 40
1623.512848256546
 40
1637.568724777356
 40
1637.568724777356
 40
1637.568724777356
 40
1637.568724777356
 10
3908.245306340538
 20
-292.1098037008437
 30
-0.0000000000004832
 10
3907.245817667734
 20
-291.4379024891248
 30
-0.0000000000004832
 10
3906.247701742406
 20
-290.7636788767884
 30
-0.0000000000004832
 10
3905.250999221989
 20
-290.0871412975761
 30
-0.0000000000004832
 10
3904.345793159653
 20
-289.4722146109898
 30
-0.0000000000004832
 10
3903.442684628992
 20
-288.8537735760235
 30
-0.0000000000004832
 10
3902.541194668897
 20
-288.2327573208784
 30
-0.0000000000004832
  0
SPLINE
  5
A5
330
1F
100
AcDbEntity
  8
图层 03
100
AcDbSpline
210
0.0
220
0.0
230
1.0
 70
     8
 71
     3
 72
     8
 73
     4
 74
     0
 42
0.0000000001
 43
0.0000000001
 40
1637.568724777356
 40
1637.568724777356
 40
1637.568724777356
 40
1637.568724777356
 40
1670.878313079081
 40
1670.878313079081
 40
1670.878313079081
 40
1670.878313079081
 10
3902.541194668897
 20
-288.2327573208784
 30
-0.0000000000004832
 10
3900.167806920524
 20
-287.2724728825967
 30
-0.0000000000004832
 10
3897.798459400568
 20
-286.2990385784847
 30
-0.0000000000004832
 10
3895.438785285668
 20
-285.2988384139982
 30
-0.0000000000004832
  0
SPLINE
  5
A6
330
1F
100
AcDbEntity
  8
图层 03
100
AcDbSpline
210
0.0
220
0.0
230
1.0
 70
     8
 71
     3
 72
     8
 73
     4
 74
     0
 42
0.0000000001
 43
0.0000000001
 40
1670.878313079081
 40
1670.878313079081
 40
1670.878313079081
 40
1670.878313079081
 40
1706.795864519584
 40
1706.795864519584
 40
1706.795864519584
 40
1706.795864519584
 10
3895.438785285668
 20
-285.2988384139982
 30
-0.0000000000004832
 10
3892.767464806533
 20
-284.7427396512562
 30
-0.0000000000004832
 10
3890.096051392989
 20
-284.1872955003066
 30
-0.0000000000004832
 10
3887.424511674072
 20
-283.6327513836501
 30
-0.0000000000004832
  0
SPLINE
  5
A7
330
1F
100
AcDbEntity
  8
图层 03
100
AcDbSpline
210
0.0
220
0.0
230
1.0
 70
     8
 71
     3
 72
     8
 73
     4
 74
     0
 42
0.0000000001
 43
0.0000000001
 40
1706.795864519584
 40
1706.795864519584
 40
1706.795864519584
 40
1706.795864519584
 40
1730.684715402536
 40
1730.684715402536
 40
1730.684715402536
 40
1730.684715402536
 10
3887.424511674072
 20
-283.6327513836501
 30
-0.0000000000004832
 10
3885.629307281918
 20
-283.5263897801626
 30
-0.0000000000004832
 10
3883.8341023299
 20
-283.419014542013
 30
-0.0000000000004832
 10
3882.03890017637
 20
-283.3105885322517
 30
-0.0000000000004832
  0
SPLINE
  5
A8
330
1F
100
AcDbEntity
  8
图层 03
100
AcDbSpline
210
0.0
220
0.0
230
1.0
 70
     8
 71
     3
 72
     8
 73
     4
 74
     0
 42
0.0000000001
 43
0.0000000001
 40
1730.684715402536
 40
1730.684715402536
 40
1730.684715402536
 40
1730.684715402536
 40
1745.808692893286
 40
1745.808692893286
 40
1745.808692893286
 40
1745.808692893286
 10
3882.03890017637
 20
-283.3105885322517
 30
-0.0000000000004832
 10
3880.902545968911
 20
-283.2225067586105
 30
-0.0000000000004832
 10
3879.766167353424
 20
-283.1356875074678
 30
-0.0000000000004832
 10
3878.62977137957
 20
-283.0502099365543
 30
-0.0000000000004832
  0
SPLINE
  5
A9
330
1F
100
AcDbEntity
  8
图层 03
100
AcDbSpline
210
0.0
220
0.0
230
1.0
 70
     8
 71
     3
 72
    11
 73
     7
 74
     0
 42
0.0000000001
 43
0.0000000001
 40
1745.808692893286
 40
1745.808692893286
 40
1745.808692893286
 40
1745.808692893286
 40
1788.690986611663
 40
1788.690986611663
 40
1788.690986611663
 40
1833.718511720459
 40
1833.718511720459
 40
1833.718511720459
 40
1833.718511720459
 10
3878.62977137957
 20
-283.0502099365543
 30
-0.0000000000004832
 10
3875.409818158753
 20
-282.9931125246858
 30
-0.0000000000004832
 10
3872.190201520025
 20
-282.9461676952748
 30
-0.0000000000004832
 10
3868.971171517682
 20
-282.9106186086218
 30
-0.0000000000004832
 10
3865.603154258233
 20
-282.8840358278364
 30
-0.0000000000004832
 10
3862.202280813925
 20
-282.892877044289
 30
-0.0000000000004832
 10
3858.83922958102
 20
-282.9507125419661
 30
-0.0000000000004832
  0
SPLINE
  5
AA
330
1F
100
AcDbEntity
  8
图层 03
100
AcDbSpline
210
0.0
220
0.0
230
1.0
 70
     8
 71
     3
 72
     8
 73
     4
 74
     0
 42
0.0000000001
 43
0.0000000001
 40
1833.718511720459
 40
1833.718511720459
 40
1833.718511720459
 40
1833.718511720459
 40
1877.366448678914
 40
1877.366448678914
 40
1877.366448678914
 40
1877.366448678914
 10
3858.83922958102
 20
-282.9507125419661
 30
-0.0000000000004832
 10
3855.592670804595
 20
-283.08262561254
 30
-0.0000000000004832
 10
3852.302464038696
 20
-283.3174670373676
 30
-0.0000000000004832
 10
3849.087388639827
 20
-283.6984650043229
 30
-0.0000000000004832
  0
SPLINE
  5
AB
330
1F
100
AcDbEntity
  8
图层 03
100
AcDbSpline
210
0.0
220
0.0
230
1.0
 70
     8
 71
     3
 72
     8
 73
     4
 74
     0
 42
0.0000000001
 43
0.0000000001
 40
1877.366448678914
 40
1877.366448678914
 40
1877.366448678914
 40
1877.366448678914
 40
1895.553294841539
 40
1895.553294841539
 40
1895.553294841539
 40
1895.553294841539
 10
3849.087388639827
 20
-283.6984650043229
 30
-0.0000000000004832
 10
3847.773112645154
 20
-284.0019713460159
 30
-0.0000000000004832
 10
3846.466169615545
 20
-284.3480478151953
 30
-0.0000000000004832
 10
3845.179380230948
 20
-284.7428905409784
 30
-0.0000000000004832
  0
SPLINE
  5
AC
330
1F
100
AcDbEntity
  8
图层 03
100
AcDbSpline
210
0.0
220
0.0
230
1.0
 70
     8
 71
     3
 72
     8
 73
     4
 74
     0
 42
0.0000000001
 43
0.0000000001
 40
1895.553294841539
 40
1895.553294841539
 40
1895.553294841539
 40
1895.553294841539
 40
1916.549135373373
 40
1916.549135373373
 40
1916.549135373373
 40
1916.549135373373
 10
3845.179380230948
 20
-284.7428905409784
 30
-0.0000000000004832
 10
3843.67122745535
 20
-285.1308046837216
 30
-0.0000000000004832
 10
3842.171232220299
 20
-285.5503351625352
 30
-0.0000000000004832
 10
3840.683625434019
 20
-286.0039065128212
 30
-0.0000000000004832
  0
SPLINE
  5
AD
330
1F
100
AcDbEntity
  8
图层 03
100
AcDbSpline
210
0.0
220
0.0
230
1.0
 70
     8
 71
     3
 72
     8
 73
     4
 74
     0
 42
0.0000000001
 43
0.0000000001
 40
1916.549135373373
 40
1916.549135373373
 40
1916.549135373373
 40
1916.549135373373
 40
1950.993128175102
 40
1950.993128175102
 40
1950.993128175102
 40
1950.993128175102
 10
3840.683625434019
 20
-286.0039065128212
 30
-0.0000000000004832
 10
3838.608406680893
 20
-287.4772063356145
 30
-0.0000000000004832
 10
3836.554719061821
 20
-288.9831047956932
 30
-0.0000000000004832
 10
3834.526550798942
 20
-290.5223560036835
 30
-0.0000000000004832
  0
SPLINE
  5
AE
330
1F
100
AcDbEntity
  8
图层 03
100
AcDbSpline
210
0.0
220
0.0
230
1.0
 70
     8
 71
     3
 72
     8
 73
     4
 74
     0
 42
0.0000000001
 43
0.0000000001
 40
1950.993128175102
 40
1950.993128175102
 40
1950.993128175102
 40
1950.993128175102
 40
1984.745533549534
 40
1984.745533549534
 40
1984.745533549534
 40
1984.745533549534
 10
3834.526550798942
 20
-290.5223560036835
 30
-0.0000000000004832
 10
3833.391472663569
 20
-292.7957713944022
 30
-0.0000000000004832
 10
3832.240810728455
 20
-295.0604507303485
 30
-0.0000000000004832
 10
3831.074500847511
 20
-297.3155168581043
 30
-0.0000000000004832
  0
SPLINE
  5
AF
330
1F
100
AcDbEntity
  8
图层 03
100
AcDbSpline
210
0.0
220
0.0
230
1.0
 70
     8
 71
     3
 72
     8
 73
     4
 74
     0
 42
0.0000000001
 43
0.0000000001
 40
1984.745533549534
 40
1984.745533549534
 40
1984.745533549534
 40
1984.745533549534
 40
2019.29537343984
 40
2019.29537343984
 40
2019.29537343984
 40
2019.29537343984
 10
3831.074500847511
 20
-297.3155168581043
 30
-0.0000000000004832
 10
3830.71554762976
 20
-299.9474690697589
 30
-0.0000000000004832
 10
3830.359588838117
 20
-302.58003410635
 30
-0.0000000000004832
 10
3830.006260006855
 20
-305.2131186125905
 30
-0.0000000000004832
  0
SPLINE
  5
B0
330
1F
100
AcDbEntity
  8
图层 03
100
AcDbSpline
210
0.0
220
0.0
230
1.0
 70
     8
 71
     3
 72
     8
 73
     4
 74
     0
 42
0.0000000001
 43
0.0000000001
 40
2019.29537343984
 40
2019.29537343984
 40
2019.29537343984
 40
2019.29537343984
 40
2052.474734047463
 40
2052.474734047463
 40
2052.474734047463
 40
2052.474734047463
 10
3830.006260006855
 20
-305.2131186125905
 30
-0.0000000000004832
 10
3830.367544378628
 20
-307.7797722827831
 30
-0.0000000000004832
 10
3830.741385983166
 20
-310.3453499920846
 30
-0.0000000000004832
 10
3831.12450253618
 20
-312.9098484222329
 30
-0.0000000000004832
  0
SPLINE
  5
B1
330
1F
100
AcDbEntity
  8
图层 03
100
AcDbSpline
210
0.0
220
0.0
230
1.0
 70
     8
 71
     3
 72
     8
 73
     4
 74
     0
 42
0.0000000001
 43
0.0000000001
 40
2052.474734047463
 40
2052.474734047463
 40
2052.474734047463
 40
2052.474734047463
 40
2081.921872997571
 40
2081.921872997571
 40
2081.921872997571
 40
2081.921872997571
 10
3831.12450253618
 20
-312.9098484222329
 30
-0.0000000000004832
 10
3832.295752825059
 20
-314.9159627770856
 30
-0.0000000000004832
 10
3833.470488025615
 20
-316.9200511988354
 30
-0.0000000000004832
 10
3834.647949136235
 20
-318.9225132207387
 30
-0.0000000000004832
  0
SPLINE
  5
B2
330
1F
100
AcDbEntity
  8
图层 03
100
AcDbSpline
210
0.0
220
0.0
230
1.0
 70
     8
 71
     3
 72
     8
 73
     4
 74
     0
 42
0.0000000001
 43
0.0000000001
 40
2081.921872997571
 40
2081.921872997571
 40
2081.921872997571
 40
2081.921872997571
 40
2110.743884339131
 40
2110.743884339131
 40
2110.743884339131
 40
2110.743884339131
 10
3834.647949136235
 20
-318.9225132207384
 30
-0.0000000000004832
 10
3836.620670035898
 20
-319.9612706789328
 30
-0.0000000000004832
 10
3838.593067124951
 20
-321.0007473366911
 30
-0.0000000000004832
 10
3840.565124102128
 20
-322.0409748730124
 30
-0.0000000000004832
  0
SPLINE
  5
B3
330
1F
100
AcDbEntity
  8
图层 03
100
AcDbSpline
210
0.0
220
0.0
230
1.0
 70
     8
 71
     3
 72
     8
 73
     4
 74
     0
 42
0.0000000001
 43
0.0000000001
 40
2110.743884339131
 40
2110.743884339131
 40
2110.743884339131
 40
2110.743884339131
 40
2142.316522167382
 40
2142.316522167382
 40
2142.316522167382
 40
2142.316522167382
 10
3840.565124102128
 20
-322.0409748730124
 30
-0.0000000000004832
 10
3842.928685538132
 20
-322.3939462087127
 30
-0.0000000000004832
 10
3845.292306505601
 20
-322.7462244376504
 30
-0.0000000000004832
 10
3847.655989715176
 20
-323.0977631649727
 30
-0.0000000000004832
  0
SPLINE
  5
B4
330
1F
100
AcDbEntity
  8
图层 03
100
AcDbSpline
210
0.0
220
0.0
230
1.0
 70
     8
 71
     3
 72
     8
 73
     4
 74
     0
 42
0.0000000001
 43
0.0000000001
 40
2142.316522167382
 40
2142.316522167382
 40
2142.316522167382
 40
2142.316522167382
 40
2173.366361348487
 40
2173.366361348487
 40
2173.366361348487
 40
2173.366361348487
 10
3847.655989715176
 20
-323.0977631649727
 30
-0.0000000000004832
 10
3849.988328543492
 20
-323.1647681037309
 30
-0.0000000000004832
 10
3852.320532245391
 20
-323.2262873580597
 30
-0.0000000000004832
 10
3854.652524031231
 20
-323.2822154785111
 30
-0.0000000000004832
  0
SPLINE
  5
B5
330
1F
100
AcDbEntity
  8
图层 03
100
AcDbSpline
210
0.0
220
0.0
230
1.0
 70
    11
 71
     3
 72
    29
 73
    25
 74
     0
 42
0.0000000001
 43
0.0000000001
 40
-15.70796326794897
 40
-15.70796326794897
 40
-15.70796326794897
 40
-15.70796326794897
 40
-14.72621556370216
 40
-13.74446785945534
 40
-12.76272015520853
 40
-12.27184630308513
 40
-11.78097245096172
 40
-11.29009859883832
 40
-10.79922474671491
 40
-9.817477042468102
 40
-8.835729338221292
 40
-8.344855486097888
 40
-7.853981633974483
 40
-7.363107781851078
 40
-6.872233929727672
 40
-5.890486225480862
 40
-4.908738521234051
 40
-4.417864669110646
 40
-3.926990816987241
 40
-3.436116964863836
 40
-2.945243112740431
 40
-1.963495408493621
 40
-0.9817477042468103
 40
0.0
 40
0.0
 40
0.0
 40
0.0
 10
3877.784423830311
 20
-310.3543468750736
 30
-0.0000000000004832
 10
3877.784423830305
 20
-310.7071244460125
 30
-0.0000000000004832
 10
3877.656190008831
 20
-311.4720974615921
 30
-0.0000000000004832
 10
3876.968782927627
 20
-312.538758237966
 30
-0.0000000000004832
 10
3876.080749924507
 20
-313.1121871216142
 30
-0.0000000000004832
 10
3875.326328194189
 20
-313.3226437047065
 30
-0.0000000000004832
 10
3874.784420656599
 20
-313.3702017957265
 30
-0.0000000000004832
 10
3874.242532161281
 20
-313.3226303628269
 30
-0.0000000000004832
 10
3873.488034261872
 20
-313.1122627255987
 30
-0.0000000000004832
 10
3872.600325173698
 20
-312.538445735383
 30
-0.0000000000004832
 10
3872.026507650788
 20
-311.6507361614172
 30
-0.0000000000004832
 10
3871.816141297816
 20
-310.8962393406409
 30
-0.0000000000004832
 10
3871.768565096558
 20
-310.3543468750738
 30
-0.0000000000004832
 10
3871.816141297816
 20
-309.8124544095065
 30
-0.0000000000004832
 10
3872.026507650788
 20
-309.0579575887289
 30
-0.0000000000004832
 10
3872.600325173698
 20
-308.1702480147638
 30
-0.0000000000004832
 10
3873.488034261872
 20
-307.5964310245483
 30
-0.0000000000004832
 10
3874.24253216128
 20
-307.3860633873204
 30
-0.0000000000004832
 10
3874.784420656599
 20
-307.3384919544205
 30
-0.0000000000004832
 10
3875.326328194189
 20
-307.3860500454405
 30
-0.0000000000004832
 10
3876.080749924507
 20
-307.5965066285331
 30
-0.0000000000004832
 10
3876.968782927627
 20
-308.1699355121809
 30
-0.0000000000004832
 10
3877.65619000883
 20
-309.236596288556
 30
-0.0000000000004832
 10
3877.784423830306
 20
-310.0015693041344
 30
-0.0000000000004832
 10
3877.784423830311
 20
-310.3543468750736
 30
-0.0000000000004832
  0
SPLINE
  5
B6
330
1F
100
AcDbEntity
  8
图层 03
100
AcDbSpline
210
0.0
220
0.0
230
1.0
 70
     8
 71
     3
 72
     8
 73
     4
 74
     0
 42
0.0000000001
 43
0.0000000001
 40
812.0648914415751
 40
812.0648914415751
 40
812.0648914415751
 40
812.0648914415751
 40
840.7361861541917
 40
840.7361861541917
 40
840.7361861541917
 40
840.7361861541917
 10
3872.443684822128
 20
-407.2845371884197
 30
-0.0000000000004832
 10
3873.961907495165
 20
-408.9513010261506
 30
-0.0000000000004832
 10
3875.477038367899
 20
-410.6210653389853
 30
-0.0000000000004832
 10
3876.990028596098
 20
-412.2928567810824
 30
-0.0000000000004832
  0
SPLINE
  5
B7
330
1F
100
AcDbEntity
  8
图层 03
100
AcDbSpline
210
0.0
220
0.0
230
1.0
 70
     8
 71
     3
 72
     8
 73
     4
 74
     0
 42
0.0000000001
 43
0.0000000001
 40
840.7361861541917
 40
840.7361861541917
 40
840.7361861541917
 40
840.7361861541917
 40
870.6134917030662
 40
870.6134917030662
 40
870.6134917030662
 40
870.6134917030662
 10
3876.990028596098
 20
-412.2928567810824
 30
-0.0000000000004832
 10
3878.868874238238
 20
-413.6700831238689
 30
-0.0000000000004832
 10
3880.738309536263
 20
-415.0664014375288
 30
-0.0000000000004832
 10
3882.592282469088
 20
-416.48061290019
 30
-0.0000000000004832
  0
SPLINE
  5
B8
330
1F
100
AcDbEntity
  8
图层 03
100
AcDbSpline
210
0.0
220
0.0
230
1.0
 70
     8
 71
     3
 72
     8
 73
     4
 74
     0
 42
0.0000000001
 43
0.0000000001
 40
870.6134917030662
 40
870.6134917030662
 40
870.6134917030662
 40
870.6134917030662
 40
899.1925253979798
 40
899.1925253979798
 40
899.1925253979798
 40
899.1925253979798
 10
3882.592282469088
 20
-416.48061290019
 30
-0.0000000000004832
 10
3884.569896262937
 20
-417.4384925535903
 30
-0.0000000000004832
 10
3886.5588930399
 20
-418.4366817210262
 30
-0.0000000000004832
 10
3888.50640294163
 20
-419.464692190202
 30
-0.0000000000004832
  0
SPLINE
  5
B9
330
1F
100
AcDbEntity
  8
图层 03
100
AcDbSpline
210
0.0
220
0.0
230
1.0
 70
     8
 71
     3
 72
     8
 73
     4
 74
     0
 42
0.0000000001
 43
0.0000000001
 40
899.1925253979798
 40
899.1925253979798
 40
899.1925253979798
 40
899.1925253979798
 40
920.9151280175041
 40
920.9151280175041
 40
920.9151280175041
 40
920.9151280175041
 10
3888.50640294163
 20
-419.464692190202
 30
-0.0000000000004832
 10
3890.113793680888
 20
-419.8232309234038
 30
-0.0000000000004832
 10
3891.731630064773
 20
-420.2078810908085
 30
-0.0000000000004832
 10
3893.329663841105
 20
-420.620948434763
 30
-0.0000000000004832
  0
SPLINE
  5
BA
330
1F
100
AcDbEntity
  8
图层 03
100
AcDbSpline
210
0.0
220
0.0
230
1.0
 70
     8
 71
     3
 72
     8
 73
     4
 74
     0
 42
0.0000000001
 43
0.0000000001
 40
920.9151280175041
 40
920.9151280175041
 40
920.9151280175041
 40
920.9151280175041
 40
926.4870427600578
 40
926.4870427600578
 40
926.4870427600578
 40
926.4870427600578
 10
3893.329663841105
 20
-420.620948434763
 30
-0.0000000000004832
 10
3893.742937161927
 20
-420.7147308114588
 30
-0.0000000000004832
 10
3894.156094075989
 20
-420.8092587331537
 30
-0.0000000000004832
 10
3894.569114631075
 20
-420.9046022980615
 30
-0.0000000000004832
  0
SPLINE
  5
BB
330
1F
100
AcDbEntity
  8
图层 03
100
AcDbSpline
210
0.0
220
0.0
230
1.0
 70
     8
 71
     3
 72
     8
 73
     4
 74
     0
 42
0.0000000001
 43
0.0000000001
 40
926.4870427600578
 40
926.4870427600578
 40
926.4870427600578
 40
926.4870427600578
 40
955.7599062173734
 40
955.7599062173734
 40
955.7599062173734
 40
955.7599062173734
 10
3894.569114631075
 20
-420.9046022980615
 30
-0.0000000000004832
 10
3896.72824043701
 20
-420.5974190861837
 30
-0.0000000000004832
 10
3898.889205818786
 20
-420.2995350313438
 30
-0.0000000000004832
 10
3901.052605568418
 20
-420.0161080252178
 30
-0.0000000000004832
  0
SPLINE
  5
BC
330
1F
100
AcDbEntity
  8
图层 03
100
AcDbSpline
210
0.0
220
0.0
230
1.0
 70
     8
 71
     3
 72
     8
 73
     4
 74
     0
 42
0.0000000001
 43
0.0000000001
 40
955.7599062173734
 40
955.7599062173734
 40
955.7599062173734
 40
955.7599062173734
 40
991.8958571617195
 40
991.8958571617195
 40
991.8958571617195
 40
991.8958571617195
 10
3901.052605568418
 20
-420.0161080252178
 30
-0.0000000000004832
 10
3903.422468913809
 20
-418.7876650499187
 30
-0.0000000000004832
 10
3905.790549806665
 20
-417.5558043033044
 30
-0.0000000000004832
 10
3908.156025051659
 20
-416.3190527501367
 30
-0.0000000000004832
  0
SPLINE
  5
BD
330
1F
100
AcDbEntity
  8
图层 03
100
AcDbSpline
210
0.0
220
0.0
230
1.0
 70
     8
 71
     3
 72
     8
 73
     4
 74
     0
 42
0.0000000001
 43
0.0000000001
 40
991.8958571617195
 40
991.8958571617195
 40
991.8958571617195
 40
991.8958571617195
 40
1033.471632386039
 40
1033.471632386039
 40
1033.471632386039
 40
1033.471632386039
 10
3908.156025051659
 20
-416.3190527501367
 30
-0.0000000000004832
 10
3910.534315097063
 20
-414.3685992747669
 30
-0.0000000000004832
 10
3912.913126250103
 20
-412.4188067905081
 30
-0.0000000000004832
 10
3915.292677656076
 20
-410.4699564955911
 30
-0.0000000000004832
  0
SPLINE
  5
BE
330
1F
100
AcDbEntity
  8
图层 03
100
AcDbSpline
210
0.0
220
0.0
230
1.0
 70
     8
 71
     3
 72
     8
 73
     4
 74
     0
 42
0.0000000001
 43
0.0000000001
 40
1033.471632386039
 40
1033.471632386039
 40
1033.471632386039
 40
1033.471632386039
 40
1075.114264953632
 40
1075.114264953632
 40
1075.114264953632
 40
1075.114264953632
 10
3915.292677656076
 20
-410.4699564955911
 30
-0.0000000000004832
 10
3917.391198303288
 20
-408.1983402751956
 30
-0.0000000000004832
 10
3919.488961458408
 20
-405.9259718478399
 30
-0.0000000000004832
 10
3921.585654654488
 20
-403.6525454263181
 30
-0.0000000000004832
  0
SPLINE
  5
BF
330
1F
100
AcDbEntity
  8
图层 03
100
AcDbSpline
210
0.0
220
0.0
230
1.0
 70
     8
 71
     3
 72
     8
 73
     4
 74
     0
 42
0.0000000001
 43
0.0000000001
 40
1075.114264953632
 40
1075.114264953632
 40
1075.114264953632
 40
1075.114264953632
 40
1112.558439572797
 40
1112.558439572797
 40
1112.558439572797
 40
1112.558439572797
 10
3921.585654654488
 20
-403.6525454263181
 30
-0.0000000000004832
 10
3923.175396703577
 20
-401.3507126642597
 30
-0.0000000000004832
 10
3924.753688655628
 20
-399.0399344574832
 30
-0.0000000000004832
 10
3926.317216550525
 20
-396.7183403341687
 30
-0.0000000000004832
  0
SPLINE
  5
C0
330
1F
100
AcDbEntity
  8
图层 03
100
AcDbSpline
210
0.0
220
0.0
230
1.0
 70
     8
 71
     3
 72
    11
 73
     7
 74
     0
 42
0.0000000001
 43
0.0000000001
 40
1112.558439572797
 40
1112.558439572797
 40
1112.558439572797
 40
1112.558439572797
 40
1132.430346824019
 40
1132.430346824019
 40
1132.430346824019
 40
1145.074120108856
 40
1145.074120108856
 40
1145.074120108856
 40
1145.074120108856
 10
3926.317216550525
 20
-396.7183403341687
 30
-0.0000000000004832
 10
3926.906170340267
 20
-395.3371595806844
 30
-0.0000000000004832
 10
3927.488826041572
 20
-393.9527604787773
 30
-0.0000000000004832
 10
3928.065015172068
 20
-392.5652749294544
 30
-0.0000000000004832
 10
3928.423019706258
 20
-391.6782779929197
 30
-0.0000000000004832
 10
3928.77812382042
 20
-390.7898733290091
 30
-0.0000000000004832
 10
3929.13016704204
 20
-389.9000566975164
 30
-0.0000000000004832
  0
SPLINE
  5
C1
330
1F
100
AcDbEntity
  8
图层 03
100
AcDbSpline
210
0.0
220
0.0
230
1.0
 70
     8
 71
     3
 72
     8
 73
     4
 74
     0
 42
0.0000000001
 43
0.0000000001
 40
1145.074120108856
 40
1145.074120108856
 40
1145.074120108856
 40
1145.074120108856
 40
1173.480365503423
 40
1173.480365503423
 40
1173.480365503423
 40
1173.480365503423
 10
3929.13016704204
 20
-389.9000566975164
 30
-0.0000000000004832
 10
3929.401761855194
 20
-387.7314956617506
 30
-0.0000000000004832
 10
3929.663953242141
 20
-385.5610655067181
 30
-0.0000000000004832
 10
3929.916760271697
 20
-383.3890317328367
 30
-0.0000000000004832
  0
SPLINE
  5
C2
330
1F
100
AcDbEntity
  8
图层 03
100
AcDbSpline
210
0.0
220
0.0
230
1.0
 70
     8
 71
     3
 72
     8
 73
     4
 74
     0
 42
0.0000000001
 43
0.0000000001
 40
1173.480365503423
 40
1173.480365503423
 40
1173.480365503423
 40
1173.480365503423
 40
1198.884023749277
 40
1198.884023749277
 40
1198.884023749277
 40
1198.884023749277
 10
3929.916760271697
 20
-383.3890317328367
 30
-0.0000000000004832
 10
3929.433975241112
 20
-381.4549629245131
 30
-0.0000000000004832
 10
3928.950974522589
 20
-379.5209395434103
 30
-0.0000000000004832
 10
3928.467773450909
 20
-377.5869585117738
 30
-0.0000000000004832
  0
SPLINE
  5
C3
330
1F
100
AcDbEntity
  8
图层 03
100
AcDbSpline
210
0.0
220
0.0
230
1.0
 70
     8
 71
     3
 72
     8
 73
     4
 74
     0
 42
0.0000000001
 43
0.0000000001
 40
1198.884023749277
 40
1198.884023749277
 40
1198.884023749277
 40
1198.884023749277
 40
1225.192593190248
 40
1225.192593190248
 40
1225.192593190248
 40
1225.192593190248
 10
3928.467773450909
 20
-377.5869585117738
 30
-0.0000000000004832
 10
3927.055709917002
 20
-376.0761240109666
 30
-0.0000000000004832
 10
3925.639669126375
 20
-374.5692081489492
 30
-0.0000000000004832
 10
3924.220125412989
 20
-373.0658681748696
 30
-0.0000000000004832
  0
SPLINE
  5
C4
330
1F
100
AcDbEntity
  8
图层 03
100
AcDbSpline
210
0.0
220
0.0
230
1.0
 70
     8
 71
     3
 72
     8
 73
     4
 74
     0
 42
0.0000000001
 43
0.0000000001
 40
1225.192593190248
 40
1225.192593190248
 40
1225.192593190248
 40
1225.192593190248
 40
1250.009884823854
 40
1250.009884823854
 40
1250.009884823854
 40
1250.009884823854
 10
3924.220125412989
 20
-373.0658681748696
 30
-0.0000000000004832
 10
3922.427360831586
 20
-372.4301142337318
 30
-0.0000000000004832
 10
3920.632111997169
 20
-371.8029349424303
 30
-0.0000000000004832
 10
3918.834895394346
 20
-371.1833225780495
 30
-0.0000000000004832
  0
SPLINE
  5
C5
330
1F
100
AcDbEntity
  8
图层 03
100
AcDbSpline
210
0.0
220
0.0
230
1.0
 70
     8
 71
     3
 72
     8
 73
     4
 74
     0
 42
0.0000000001
 43
0.0000000001
 40
1250.009884823854
 40
1250.009884823854
 40
1250.009884823854
 40
1250.009884823854
 40
1260.288926379982
 40
1260.288926379982
 40
1260.288926379982
 40
1260.288926379982
 10
3918.834895394346
 20
-371.1833225780492
 30
-0.0000000000004832
 10
3918.094406343923
 20
-370.9128343549388
 30
-0.0000000000004832
 10
3917.353702256283
 20
-370.643076333646
 30
-0.0000000000004832
 10
3916.612790483921
 20
-370.3740390599858
 30
-0.0000000000004832
  0
SPLINE
  5
C6
330
1F
100
AcDbEntity
  8
图层 03
100
AcDbSpline
210
0.0
220
0.0
230
1.0
 70
     8
 71
     3
 72
     8
 73
     4
 74
     0
 42
0.0000000001
 43
0.0000000001
 40
1260.288926379982
 40
1260.288926379982
 40
1260.288926379982
 40
1260.288926379982
 40
1306.166680723944
 40
1306.166680723944
 40
1306.166680723944
 40
1306.166680723944
 10
3916.612790483921
 20
-370.3740390599858
 30
-0.0000000000004832
 10
3913.165934531929
 20
-370.0968729117118
 30
-0.0000000000004832
 10
3909.718674829272
 20
-369.8355296416896
 30
-0.0000000000004832
 10
3906.27140557214
 20
-369.5859101102353
 30
-0.0000000000004832
  0
SPLINE
  5
C7
330
1F
100
AcDbEntity
  8
图层 03
100
AcDbSpline
210
0.0
220
0.0
230
1.0
 70
     8
 71
     3
 72
     8
 73
     4
 74
     0
 42
0.0000000001
 43
0.0000000001
 40
1306.166680723944
 40
1306.166680723944
 40
1306.166680723944
 40
1306.166680723944
 40
1356.991438431934
 40
1356.991438431934
 40
1356.991438431934
 40
1356.991438431934
 10
3906.27140557214
 20
-369.5859101102353
 30
-0.0000000000004832
 10
3902.499105282386
 20
-369.980679231098
 30
-0.0000000000004832
 10
3898.727194640257
 20
-370.3780182424281
 30
-0.0000000000004832
 10
3894.955509070257
 20
-370.7768065836826
 30
-0.0000000000004832
  0
SPLINE
  5
C8
330
1F
100
AcDbEntity
  8
图层 03
100
AcDbSpline
210
0.0
220
0.0
230
1.0
 70
     8
 71
     3
 72
     8
 73
     4
 74
     0
 42
0.0000000001
 43
0.0000000001
 40
1356.991438431934
 40
1356.991438431934
 40
1356.991438431934
 40
1356.991438431934
 40
1404.122882163551
 40
1404.122882163551
 40
1404.122882163551
 40
1404.122882163551
 10
3894.955509070257
 20
-370.7768065836826
 30
-0.0000000000004832
 10
3891.573742722965
 20
-371.6638394929814
 30
-0.0000000000004832
 10
3888.188586169892
 20
-372.539555578093
 30
-0.0000000000004832
 10
3884.801680119876
 20
-373.40903983726
 30
-0.0000000000004832
  0
SPLINE
  5
C9
330
1F
100
AcDbEntity
  8
图层 03
100
AcDbSpline
210
0.0
220
0.0
230
1.0
 70
     8
 71
     3
 72
     8
 73
     4
 74
     0
 42
0.0000000001
 43
0.0000000001
 40
1404.122882163551
 40
1404.122882163551
 40
1404.122882163551
 40
1404.122882163551
 40
1442.168239592983
 40
1442.168239592983
 40
1442.168239592983
 40
1442.168239592983
 10
3884.801680119876
 20
-373.40903983726
 30
-0.0000000000004832
 10
3882.242604766053
 20
-374.5736432273911
 30
-0.0000000000004832
 10
3879.677796266356
 20
-375.7262036991694
 30
-0.0000000000004832
 10
3877.108679917572
 20
-376.8691276612208
 30
-0.0000000000004832
  0
SPLINE
  5
CA
330
1F
100
AcDbEntity
  8
图层 03
100
AcDbSpline
210
0.0
220
0.0
230
1.0
 70
     8
 71
     3
 72
    11
 73
     7
 74
     0
 42
0.0000000001
 43
0.0000000001
 40
1442.168239592983
 40
1442.168239592983
 40
1442.168239592983
 40
1442.168239592983
 40
1464.731918176919
 40
1464.731918176919
 40
1464.731918176919
 40
1472.670307413331
 40
1472.670307413331
 40
1472.670307413331
 40
1472.670307413331
 10
3877.108679917572
 20
-376.8691276612208
 30
-0.0000000000004832
 10
3875.777070770919
 20
-377.8737809672283
 30
-0.0000000000004832
 10
3874.442274729882
 20
-378.874116204966
 30
-0.0000000000004832
 10
3873.104448520526
 20
-379.8701974833955
 30
-0.0000000000004832
 10
3872.634337496696
 20
-380.2214317367938
 30
-0.0000000000004832
 10
3872.163950702246
 20
-380.572286436076
 30
-0.0000000000004832
 10
3871.693292933332
 20
-380.9227648654295
 30
-0.0000000000004832
  0
SPLINE
  5
CB
330
1F
100
AcDbEntity
  8
图层 03
100
AcDbSpline
210
0.0
220
0.0
230
1.0
 70
     8
 71
     3
 72
     8
 73
     4
 74
     0
 42
0.0000000001
 43
0.0000000001
 40
1472.670307413331
 40
1472.670307413331
 40
1472.670307413331
 40
1472.670307413331
 40
1498.414297868374
 40
1498.414297868374
 40
1498.414297868374
 40
1498.414297868374
 10
3871.693292933332
 20
-380.9227648654295
 30
-0.0000000000004832
 10
3870.564665657182
 20
-382.4773297136786
 30
-0.0000000000004832
 10
3869.413524603413
 20
-384.0141349140283
 30
-0.0000000000004832
 10
3868.2417655603
 20
-385.5332381759382
 30
-0.0000000000004832
  0
SPLINE
  5
CC
330
1F
100
AcDbEntity
  8
图层 03
100
AcDbSpline
210
0.0
220
0.0
230
1.0
 70
     8
 71
     3
 72
     8
 73
     4
 74
     0
 42
0.0000000001
 43
0.0000000001
 40
1498.414297868374
 40
1498.414297868374
 40
1498.414297868374
 40
1498.414297868374
 40
1522.203838048137
 40
1522.203838048137
 40
1522.203838048137
 40
1522.203838048137
 10
3868.2417655603
 20
-385.5332381759382
 30
-0.0000000000004832
 10
3867.803210349128
 20
-387.2960163042047
 30
-0.0000000000004832
 10
3867.302332158727
 20
-389.0362807770889
 30
-0.0000000000004832
 10
3866.74015741308
 20
-390.7545641877207
 30
-0.0000000000004832
  0
SPLINE
  5
CD
330
1F
100
AcDbEntity
  8
图层 03
100
AcDbSpline
210
0.0
220
0.0
230
1.0
 70
     8
 71
     3
 72
     8
 73
     4
 74
     0
 42
0.0000000001
 43
0.0000000001
 40
1522.203838048137
 40
1522.203838048137
 40
1522.203838048137
 40
1522.203838048137
 40
1546.50236198851
 40
1546.50236198851
 40
1546.50236198851
 40
1546.50236198851
 10
3866.74015741308
 20
-390.7545641877207
 30
-0.0000000000004832
 10
3866.966727862974
 20
-392.6362278684419
 30
-0.0000000000004832
 10
3867.136014566541
 20
-394.524141711099
 30
-0.0000000000004832
 10
3867.237879965496
 20
-396.4102060320248
 30
-0.0000000000004832
  0
SPLINE
  5
CE
330
1F
100
AcDbEntity
  8
图层 03
100
AcDbSpline
210
0.0
220
0.0
230
1.0
 70
     8
 71
     3
 72
     8
 73
     4
 74
     0
 42
0.0000000001
 43
0.0000000001
 40
1546.50236198851
 40
1546.50236198851
 40
1546.50236198851
 40
1546.50236198851
 40
1571.388991997258
 40
1571.388991997258
 40
1571.388991997258
 40
1571.388991997258
 10
3867.237879965496
 20
-396.4102060320248
 30
-0.0000000000004832
 10
3867.9222061447
 20
-398.2470687014489
 30
-0.0000000000004832
 10
3868.58045049883
 20
-400.0903457675665
 30
-0.0000000000004832
 10
3869.216174427371
 20
-401.9432430604462
 30
-0.0000000000004832
  0
SPLINE
  5
CF
330
1F
100
AcDbEntity
  8
图层 03
100
AcDbSpline
210
0.0
220
0.0
230
1.0
 70
     8
 71
     3
 72
     8
 73
     4
 74
     0
 42
0.0000000001
 43
0.0000000001
 40
1571.388991997258
 40
1571.388991997258
 40
1571.388991997258
 40
1571.388991997258
 40
1597.759387440204
 40
1597.759387440204
 40
1597.759387440204
 40
1597.759387440204
 10
3869.216174427371
 20
-401.9432430604462
 30
-0.0000000000004832
 10
3870.293159277618
 20
-403.7229755542985
 30
-0.0000000000004832
 10
3871.368831012403
 20
-405.5035094674917
 30
-0.0000000000004832
 10
3872.443684822128
 20
-407.2845371884197
 30
-0.0000000000004832
  0
SPLINE
  5
D0
330
1F
100
AcDbEntity
  8
图层 03
100
AcDbSpline
210
0.0
220
0.0
230
1.0
 70
    11
 71
     3
 72
    29
 73
    25
 74
     0
 42
0.0000000001
 43
0.0000000001
 40
-15.70796326794897
 40
-15.70796326794897
 40
-15.70796326794897
 40
-15.70796326794897
 40
-14.72621556370216
 40
-13.74446785945534
 40
-12.76272015520853
 40
-12.27184630308513
 40
-11.78097245096172
 40
-11.29009859883832
 40
-10.79922474671491
 40
-9.817477042468102
 40
-8.835729338221292
 40
-8.344855486097888
 40
-7.853981633974483
 40
-7.363107781851078
 40
-6.872233929727672
 40
-5.890486225480862
 40
-4.908738521234051
 40
-4.417864669110646
 40
-3.926990816987241
 40
-3.436116964863836
 40
-2.945243112740431
 40
-1.963495408493621
 40
-0.9817477042468103
 40
0.0
 40
0.0
 40
0.0
 40
0.0
 10
3901.641028941241
 20
-401.1498451317469
 30
-0.0000000000004832
 10
3901.641028941236
 20
-401.5026227026871
 30
-0.0000000000004832
 10
3901.512795119761
 20
-402.2675957182645
 30
-0.0000000000004832
 10
3900.825388038557
 20
-403.3342564946399
 30
-0.0000000000004832
 10
3899.937355035438
 20
-403.9076853782879
 30
-0.0000000000004832
 10
3899.18293330512
 20
-404.1181419613798
 30
-0.0000000000004832
 10
3898.641025767529
 20
-404.1657000524007
 30
-0.0000000000004832
 10
3898.099137272211
 20
-404.1181286195002
 30
-0.0000000000004832
 10
3897.344639372803
 20
-403.9077609822726
 30
-0.0000000000004832
 10
3896.456930284629
 20
-403.3339439920567
 30
-0.0000000000004832
 10
3895.883112761718
 20
-402.4462344180909
 30
-0.0000000000004832
 10
3895.672746408746
 20
-401.6917375973147
 30
-0.0000000000004832
 10
3895.625170207489
 20
-401.149845131747
 30
-0.0000000000004832
 10
3895.672746408746
 20
-400.6079526661797
 30
-0.0000000000004832
 10
3895.883112761718
 20
-399.8534558454028
 30
-0.0000000000004832
 10
3896.456930284628
 20
-398.965746271437
 30
-0.0000000000004832
 10
3897.344639372802
 20
-398.3919292812222
 30
-0.0000000000004832
 10
3898.099137272211
 20
-398.1815616439936
 30
-0.0000000000004832
 10
3898.641025767529
 20
-398.133990211094
 30
-0.0000000000004832
 10
3899.182933305119
 20
-398.1815483021138
 30
-0.0000000000004832
 10
3899.937355035438
 20
-398.3920048852063
 30
-0.0000000000004832
 10
3900.825388038557
 20
-398.9654337688542
 30
-0.0000000000004832
 10
3901.512795119761
 20
-400.0320945452295
 30
-0.0000000000004832
 10
3901.641028941237
 20
-400.7970675608076
 30
-0.0000000000004832
 10
3901.641028941241
 20
-401.1498451317469
 30
-0.0000000000004832
  0
SPLINE
  5
D1
330
1F
100
AcDbEntity
  8
图层 03
100
AcDbSpline
210
0.0
220
0.0
230
1.0
 70
     8
 71
     3
 72
     8
 73
     4
 74
     0
 42
0.0000000001
 43
0.0000000001
 40
743.3090371026337
 40
743.3090371026337
 40
743.3090371026337
 40
743.3090371026337
 40
764.4166228807849
 40
764.4166228807849
 40
764.4166228807849
 40
764.4166228807849
 10
3797.12311876007
 20
-449.7214293395584
 30
-0.0000000000004832
 10
3798.488789581766
 20
-448.9694240600912
 30
-0.0000000000004832
 10
3799.858184923388
 20
-448.2240457939531
 30
-0.0000000000004832
 10
3801.230751658464
 20
-447.4846557868852
 30
-0.0000000000004832
  0
SPLINE
  5
D2
330
1F
100
AcDbEntity
  8
图层 03
100
AcDbSpline
210
0.0
220
0.0
230
1.0
 70
     8
 71
     3
 72
     8
 73
     4
 74
     0
 42
0.0000000001
 43
0.0000000001
 40
764.4166228807849
 40
764.4166228807849
 40
764.4166228807849
 40
764.4166228807849
 40
772.8242983980655
 40
772.8242983980655
 40
772.8242983980655
 40
772.8242983980655
 10
3801.230751658464
 20
-447.4846557868852
 30
-0.0000000000004832
 10
3801.813149950565
 20
-447.2661997684233
 30
-0.0000000000004832
 10
3802.395977153297
 20
-447.0488127590429
 30
-0.0000000000004832
 10
3802.979226224124
 20
-446.8325078392384
 30
-0.0000000000004832
  0
SPLINE
  5
D3
330
1F
100
AcDbEntity
  8
图层 03
100
AcDbSpline
210
0.0
220
0.0
230
1.0
 70
     8
 71
     3
 72
     8
 73
     4
 74
     0
 42
0.0000000001
 43
0.0000000001
 40
772.8242983980655
 40
772.8242983980655
 40
772.8242983980655
 40
772.8242983980655
 40
795.0216630828385
 40
795.0216630828385
 40
795.0216630828385
 40
795.0216630828385
 10
3802.979226224124
 20
-446.8325078392384
 30
-0.0000000000004832
 10
3804.479781564739
 20
-446.1691372637619
 30
-0.0000000000004832
 10
3805.978071145497
 20
-445.5007562201688
 30
-0.0000000000004832
 10
3807.474034697653
 20
-444.827463753852
 30
-0.0000000000004832
  0
SPLINE
  5
D4
330
1F
100
AcDbEntity
  8
图层 03
100
AcDbSpline
210
0.0
220
0.0
230
1.0
 70
     8
 71
     3
 72
     8
 73
     4
 74
     0
 42
0.0000000001
 43
0.0000000001
 40
795.0216630828385
 40
795.0216630828385
 40
795.0216630828385
 40
795.0216630828385
 40
818.7975758516436
 40
818.7975758516436
 40
818.7975758516436
 40
818.7975758516436
 10
3807.474034697653
 20
-444.827463753852
 30
-0.0000000000004832
 10
3809.125274179564
 20
-444.220547882446
 30
-0.0000000000004832
 10
3810.776130154616
 20
-443.6126490734005
 30
-0.0000000000004832
 10
3812.426527588564
 20
-443.0035865734691
 30
-0.0000000000004832
  0
SPLINE
  5
D5
330
1F
100
AcDbEntity
  8
图层 03
100
AcDbSpline
210
0.0
220
0.0
230
1.0
 70
     8
 71
     3
 72
    11
 73
     7
 74
     0
 42
0.0000000001
 43
0.0000000001
 40
818.7975758516436
 40
818.7975758516436
 40
818.7975758516436
 40
818.7975758516436
 40
834.4637428952368
 40
834.4637428952368
 40
834.4637428952368
 40
854.0624829900486
 40
854.0624829900486
 40
854.0624829900486
 40
854.0624829900486
 10
3812.426527588564
 20
-443.0035865734691
 30
-0.0000000000004832
 10
3813.465888764551
 20
-442.4978968815002
 30
-0.0000000000004832
 10
3814.505099659449
 20
-441.9811888590477
 30
-0.0000000000004832
 10
3815.534435047018
 20
-441.4557448940723
 30
-0.0000000000004832
 10
3816.817018370193
 20
-440.8028781736635
 30
-0.0000000000004832
 10
3818.116457982221
 20
-440.126465974316
 30
-0.0000000000004832
 10
3819.383555878127
 20
-439.444336344252
 30
-0.0000000000004832
  0
SPLINE
  5
D6
330
1F
100
AcDbEntity
  8
图层 03
100
AcDbSpline
210
0.0
220
0.0
230
1.0
 70
     8
 71
     3
 72
    11
 73
     7
 74
     0
 42
0.0000000001
 43
0.0000000001
 40
854.0624829900486
 40
854.0624829900486
 40
854.0624829900486
 40
854.0624829900486
 40
872.9208098206195
 40
872.9208098206195
 40
872.9208098206195
 40
874.6343086825859
 40
874.6343086825859
 40
874.6343086825859
 40
874.6343086825859
 10
3819.383555878127
 20
-439.444336344252
 30
-0.0000000000004832
 10
3820.404422781704
 20
-438.5590088406009
 30
-0.0000000000004832
 10
3821.478395145486
 20
-437.534680607856
 30
-0.0000000000004832
 10
3822.336318360026
 20
-436.476721138021
 30
-0.0000000000004832
 10
3822.416857006717
 20
-436.3778049953283
 30
-0.0000000000004832
 10
3822.496820139241
 20
-436.2783691478702
 30
-0.0000000000004832
 10
3822.57615578143
 20
-436.1784036935285
 30
-0.0000000000004832
  0
SPLINE
  5
D7
330
1F
100
AcDbEntity
  8
图层 03
100
AcDbSpline
210
0.0
220
0.0
230
1.0
 70
     8
 71
     3
 72
     8
 73
     4
 74
     0
 42
0.0000000001
 43
0.0000000001
 40
874.6343086825859
 40
874.6343086825859
 40
874.6343086825859
 40
874.6343086825859
 40
888.4207539332912
 40
888.4207539332912
 40
888.4207539332912
 40
888.4207539332912
 10
3822.57615578143
 20
-436.1784036935285
 30
-0.0000000000004832
 10
3822.444204455702
 20
-435.1109410604574
 30
-0.0000000000004832
 10
3822.266430958797
 20
-434.0464587009358
 30
-0.0000000000004832
 10
3822.036145574478
 20
-432.9911200097055
 30
-0.0000000000004832
  0
SPLINE
  5
D8
330
1F
100
AcDbEntity
  8
图层 03
100
AcDbSpline
210
0.0
220
0.0
230
1.0
 70
     8
 71
     3
 72
     8
 73
     4
 74
     0
 42
0.0000000001
 43
0.0000000001
 40
888.4207539332912
 40
888.4207539332912
 40
888.4207539332912
 40
888.4207539332912
 40
910.1662308693716
 40
910.1662308693716
 40
910.1662308693716
 40
910.1662308693716
 10
3822.036145574478
 20
-432.9911200097055
 30
-0.0000000000004832
 10
3820.61343325313
 20
-432.0779202734976
 30
-0.0000000000004832
 10
3819.188004641744
 20
-431.1694377125293
 30
-0.0000000000004832
 10
3817.759183307163
 20
-430.2671700840641
 30
-0.0000000000004832
  0
SPLINE
  5
D9
330
1F
100
AcDbEntity
  8
图层 03
100
AcDbSpline
210
0.0
220
0.0
230
1.0
 70
     8
 71
     3
 72
     8
 73
     4
 74
     0
 42
0.0000000001
 43
0.0000000001
 40
910.1662308693716
 40
910.1662308693716
 40
910.1662308693716
 40
910.1662308693716
 40
935.747203398122
 40
935.747203398122
 40
935.747203398122
 40
935.747203398122
 10
3817.759183307163
 20
-430.2671700840641
 30
-0.0000000000004832
 10
3815.879592023839
 20
-429.7330639793081
 30
-0.0000000000004832
 10
3813.995586275996
 20
-429.2437709768033
 30
-0.0000000000004832
 10
3812.099673871946
 20
-428.7950427262535
 30
-0.0000000000004832
  0
SPLINE
  5
DA
330
1F
100
AcDbEntity
  8
图层 03
100
AcDbSpline
210
0.0
220
0.0
230
1.0
 70
     8
 71
     3
 72
     8
 73
     4
 74
     0
 42
0.0000000001
 43
0.0000000001
 40
935.747203398122
 40
935.747203398122
 40
935.747203398122
 40
935.747203398122
 40
944.4530592348997
 40
944.4530592348997
 40
944.4530592348997
 40
944.4530592348997
 10
3812.099673871946
 20
-428.7950427262535
 30
-0.0000000000004832
 10
3811.469339094901
 20
-428.5768190230442
 30
-0.0000000000004832
 10
3810.83763451398
 20
-428.364734676747
 30
-0.0000000000004832
 10
3810.204163554592
 20
-428.1583789317613
 30
-0.0000000000004832
  0
SPLINE
  5
DB
330
1F
100
AcDbEntity
  8
图层 03
100
AcDbSpline
210
0.0
220
0.0
230
1.0
 70
     8
 71
     3
 72
     8
 73
     4
 74
     0
 42
0.0000000001
 43
0.0000000001
 40
944.4530592348997
 40
944.4530592348997
 40
944.4530592348997
 40
944.4530592348997
 40
992.9211960285398
 40
992.9211960285398
 40
992.9211960285398
 40
992.9211960285398
 10
3810.204163554592
 20
-428.1583789317613
 30
-0.0000000000004832
 10
3806.654919142694
 20
-427.4817091207992
 30
-0.0000000000004832
 10
3802.894703210025
 20
-426.9548504575656
 30
-0.0000000000004832
 10
3799.323199111848
 20
-426.540810599132
 30
-0.0000000000004832
  0
SPLINE
  5
DC
330
1F
100
AcDbEntity
  8
图层 03
100
AcDbSpline
210
0.0
220
0.0
230
1.0
 70
     8
 71
     3
 72
     8
 73
     4
 74
     0
 42
0.0000000001
 43
0.0000000001
 40
992.9211960285398
 40
992.9211960285398
 40
992.9211960285398
 40
992.9211960285398
 40
1012.781670153339
 40
1012.781670153339
 40
1012.781670153339
 40
1012.781670153339
 10
3799.323199111848
 20
-426.540810599132
 30
-0.0000000000004832
 10
3797.839517605996
 20
-426.576564779254
 30
-0.0000000000004832
 10
3796.345683725695
 20
-426.634535941567
 30
-0.0000000000004832
 10
3794.865444491963
 20
-426.7084684309391
 30
-0.0000000000004832
  0
SPLINE
  5
DD
330
1F
100
AcDbEntity
  8
图层 03
100
AcDbSpline
210
0.0
220
0.0
230
1.0
 70
     8
 71
     3
 72
     8
 73
     4
 74
     0
 42
0.0000000001
 43
0.0000000001
 40
1012.781670153339
 40
1012.781670153339
 40
1012.781670153339
 40
1012.781670153339
 40
1047.52108672179
 40
1047.52108672179
 40
1047.52108672179
 40
1047.52108672179
 10
3794.865444491963
 20
-426.7084684309391
 30
-0.0000000000004832
 10
3792.345927818575
 20
-426.5581946851011
 30
-0.0000000000004832
 10
3789.556206754081
 20
-426.5546046605409
 30
-0.0000000000004832
 10
3787.044892842207
 20
-426.5992289912588
 30
-0.0000000000004832
  0
SPLINE
  5
DE
330
1F
100
AcDbEntity
  8
图层 03
100
AcDbSpline
210
0.0
220
0.0
230
1.0
 70
     8
 71
     3
 72
     8
 73
     4
 74
     0
 42
0.0000000001
 43
0.0000000001
 40
1047.52108672179
 40
1047.52108672179
 40
1047.52108672179
 40
1047.52108672179
 40
1081.388878651172
 40
1081.388878651172
 40
1081.388878651172
 40
1081.388878651172
 10
3787.044892842207
 20
-426.5992289912588
 30
-0.0000000000004832
 10
3784.552654292627
 20
-427.0991310123325
 30
-0.0000000000004832
 10
3782.17636046968
 20
-427.7478951861235
 30
-0.0000000000004832
 10
3779.775828537367
 20
-428.5513456633357
 30
-0.0000000000004832
  0
SPLINE
  5
DF
330
1F
100
AcDbEntity
  8
图层 03
100
AcDbSpline
210
0.0
220
0.0
230
1.0
 70
     8
 71
     3
 72
     8
 73
     4
 74
     0
 42
0.0000000001
 43
0.0000000001
 40
1081.388878651172
 40
1081.388878651172
 40
1081.388878651172
 40
1081.388878651172
 40
1110.09946545623
 40
1110.09946545623
 40
1110.09946545623
 40
1110.09946545623
 10
3779.775828537367
 20
-428.5513456633357
 30
-0.0000000000004832
 10
3777.939937025241
 20
-429.4727377796954
 30
-0.0000000000004832
 10
3775.936651341547
 20
-430.506244866207
 30
-0.0000000000004832
 10
3774.147982778345
 20
-431.5162451346002
 30
-0.0000000000004832
  0
SPLINE
  5
E0
330
1F
100
AcDbEntity
  8
图层 03
100
AcDbSpline
210
0.0
220
0.0
230
1.0
 70
     8
 71
     3
 72
     8
 73
     4
 74
     0
 42
0.0000000001
 43
0.0000000001
 40
1110.09946545623
 40
1110.09946545623
 40
1110.09946545623
 40
1110.09946545623
 40
1119.114559981331
 40
1119.114559981331
 40
1119.114559981331
 40
1119.114559981331
 10
3774.147982778345
 20
-431.5162451346002
 30
-0.0000000000004832
 10
3773.548030408436
 20
-431.8007603035306
 30
-0.0000000000004832
 10
3772.948008711724
 20
-432.0993790009595
 30
-0.0000000000004832
 10
3772.361818726137
 20
-432.4108776118699
 30
-0.0000000000004832
  0
SPLINE
  5
E1
330
1F
100
AcDbEntity
  8
图层 03
100
AcDbSpline
210
0.0
220
0.0
230
1.0
 70
     8
 71
     3
 72
     8
 73
     4
 74
     0
 42
0.0000000001
 43
0.0000000001
 40
1119.114559981331
 40
1119.114559981331
 40
1119.114559981331
 40
1119.114559981331
 40
1128.931806651613
 40
1128.931806651613
 40
1128.931806651613
 40
1128.931806651613
 10
3772.361818726137
 20
-432.4108776118699
 30
-0.0000000000004832
 10
3771.80060011778
 20
-432.8634229142568
 30
-0.0000000000004832
 10
3771.234899683496
 20
-433.3355183688295
 30
-0.0000000000004832
 10
3770.693559074224
 20
-433.8127665238198
 30
-0.0000000000004832
  0
SPLINE
  5
E2
330
1F
100
AcDbEntity
  8
图层 03
100
AcDbSpline
210
0.0
220
0.0
230
1.0
 70
     8
 71
     3
 72
     8
 73
     4
 74
     0
 42
0.0000000001
 43
0.0000000001
 40
1128.931806651613
 40
1128.931806651613
 40
1128.931806651613
 40
1128.931806651613
 40
1143.966852272029
 40
1143.966852272029
 40
1143.966852272029
 40
1143.966852272029
 10
3770.693559074224
 20
-433.8127665238198
 30
-0.0000000000004832
 10
3769.712796599324
 20
-434.3325873124369
 30
-0.0000000000004832
 10
3768.75606716008
 20
-434.8982575819917
 30
-0.0000000000004832
 10
3767.834440802371
 20
-435.5176441216123
 30
-0.0000000000004832
  0
SPLINE
  5
E3
330
1F
100
AcDbEntity
  8
图层 03
100
AcDbSpline
210
0.0
220
0.0
230
1.0
 70
     8
 71
     3
 72
     8
 73
     4
 74
     0
 42
0.0000000001
 43
0.0000000001
 40
1143.966852272029
 40
1143.966852272029
 40
1143.966852272029
 40
1143.966852272029
 40
1144.339952674386
 40
1144.339952674386
 40
1144.339952674386
 40
1144.339952674386
 10
3767.834440802371
 20
-435.5176441216123
 30
-0.0000000000004832
 10
3767.807236303339
 20
-435.5230424357337
 30
-0.0000000000004832
 10
3767.780045323919
 20
-435.5284982624954
 30
-0.0000000000004832
 10
3767.752868422282
 20
-435.5340110417887
 30
-0.0000000000004832
  0
SPLINE
  5
E4
330
1F
100
AcDbEntity
  8
图层 03
100
AcDbSpline
210
0.0
220
0.0
230
1.0
 70
     8
 71
     3
 72
     8
 73
     4
 74
     0
 42
0.0000000001
 43
0.0000000001
 40
1144.339952674386
 40
1144.339952674386
 40
1144.339952674386
 40
1144.339952674386
 40
1161.454000461254
 40
1161.454000461254
 40
1161.454000461254
 40
1161.454000461254
 10
3767.752868422282
 20
-435.5340110417887
 30
-0.0000000000004832
 10
3766.610736283476
 20
-436.0541822021834
 30
-0.0000000000004832
 10
3765.477781869261
 20
-436.6585766690346
 30
-0.0000000000004832
 10
3764.394842394279
 20
-437.2905093219638
 30
-0.0000000000004832
  0
SPLINE
  5
E5
330
1F
100
AcDbEntity
  8
图层 03
100
AcDbSpline
210
0.0
220
0.0
230
1.0
 70
     8
 71
     3
 72
     8
 73
     4
 74
     0
 42
0.0000000001
 43
0.0000000001
 40
1161.454000461254
 40
1161.454000461254
 40
1161.454000461254
 40
1161.454000461254
 40
1166.346446075313
 40
1166.346446075313
 40
1166.346446075313
 40
1166.346446075313
 10
3764.394842394279
 20
-437.2905093219638
 30
-0.0000000000004832
 10
3764.039852019551
 20
-437.3669575225853
 30
-0.0000000000004832
 10
3763.685979537766
 20
-437.4516312259258
 30
-0.0000000000004832
 10
3763.335019784422
 20
-437.5427682847844
 30
-0.0000000000004832
  0
SPLINE
  5
E6
330
1F
100
AcDbEntity
  8
图层 03
100
AcDbSpline
210
0.0
220
0.0
230
1.0
 70
     8
 71
     3
 72
     8
 73
     4
 74
     0
 42
0.0000000001
 43
0.0000000001
 40
1166.346446075313
 40
1166.346446075313
 40
1166.346446075313
 40
1166.346446075313
 40
1188.090018224307
 40
1188.090018224307
 40
1188.090018224307
 40
1188.090018224307
 10
3763.335019784422
 20
-437.5427682847844
 30
-0.0000000000004832
 10
3761.896350840592
 20
-438.2047177168992
 30
-0.0000000000004832
 10
3760.430712122946
 20
-438.968919802502
 30
-0.0000000000004832
 10
3759.046714581757
 20
-439.7361280602645
 30
-0.0000000000004832
  0
SPLINE
  5
E7
330
1F
100
AcDbEntity
  8
图层 03
100
AcDbSpline
210
0.0
220
0.0
230
1.0
 70
     8
 71
     3
 72
     8
 73
     4
 74
     0
 42
0.0000000001
 43
0.0000000001
 40
1188.090018224307
 40
1188.090018224307
 40
1188.090018224307
 40
1188.090018224307
 40
1193.104382274506
 40
1193.104382274506
 40
1193.104382274506
 40
1193.104382274506
 10
3759.046714581757
 20
-439.7361280602645
 30
-0.0000000000004832
 10
3758.698313558322
 20
-439.86307355338
 30
-0.0000000000004832
 10
3758.350972757605
 20
-439.9946716793486
 30
-0.0000000000004832
 10
3758.005861308693
 20
-440.1298219438675
 30
-0.0000000000004832
  0
SPLINE
  5
E8
330
1F
100
AcDbEntity
  8
图层 03
100
AcDbSpline
210
0.0
220
0.0
230
1.0
 70
     8
 71
     3
 72
     8
 73
     4
 74
     0
 42
0.0000000001
 43
0.0000000001
 40
1193.104382274506
 40
1193.104382274506
 40
1193.104382274506
 40
1193.104382274506
 40
1219.897136952175
 40
1219.897136952175
 40
1219.897136952175
 40
1219.897136952175
 10
3758.005861308693
 20
-440.1298219438675
 30
-0.0000000000004832
 10
3756.341123157258
 20
-441.1527533243865
 30
-0.0000000000004832
 10
3754.628397624966
 20
-442.241291536026
 30
-0.0000000000004832
 10
3752.987855692121
 20
-443.3029112542746
 30
-0.0000000000004832
  0
SPLINE
  5
E9
330
1F
100
AcDbEntity
  8
图层 03
100
AcDbSpline
210
0.0
220
0.0
230
1.0
 70
     8
 71
     3
 72
     8
 73
     4
 74
     0
 42
0.0000000001
 43
0.0000000001
 40
1219.897136952175
 40
1219.897136952175
 40
1219.897136952175
 40
1219.897136952175
 40
1234.842510776445
 40
1234.842510776445
 40
1234.842510776445
 40
1234.842510776445
 10
3752.987855692121
 20
-443.3029112542746
 30
-0.0000000000004832
 10
3752.334838786572
 20
-444.2072426256382
 30
-0.0000000000004832
 10
3751.681487729759
 20
-445.1113081896025
 30
-0.0000000000004832
 10
3751.02786585232
 20
-446.0151574344621
 30
-0.0000000000004832
  0
SPLINE
  5
EA
330
1F
100
AcDbEntity
  8
图层 03
100
AcDbSpline
210
0.0
220
0.0
230
1.0
 70
     8
 71
     3
 72
     8
 73
     4
 74
     0
 42
0.0000000001
 43
0.0000000001
 40
1234.842510776445
 40
1234.842510776445
 40
1234.842510776445
 40
1234.842510776445
 40
1246.324687643923
 40
1246.324687643923
 40
1246.324687643923
 40
1246.324687643923
 10
3751.02786585232
 20
-446.0151574344621
 30
-0.0000000000004832
 10
3751.599868370585
 20
-446.7153375070975
 30
-0.0000000000004832
 10
3752.165068143857
 20
-447.4214609346268
 30
-0.0000000000004832
 10
3752.726303344758
 20
-448.1306163278973
 30
-0.0000000000004832
  0
SPLINE
  5
EB
330
1F
100
AcDbEntity
  8
图层 03
100
AcDbSpline
210
0.0
220
0.0
230
1.0
 70
     8
 71
     3
 72
     8
 73
     4
 74
     0
 42
0.0000000001
 43
0.0000000001
 40
1246.324687643923
 40
1246.324687643923
 40
1246.324687643923
 40
1246.324687643923
 40
1255.247011338234
 40
1255.247011338234
 40
1255.247011338234
 40
1255.247011338234
 10
3752.726303344758
 20
-448.1306163278973
 30
-0.0000000000004832
 10
3753.367495264451
 20
-448.3703136205529
 30
-0.0000000000004832
 10
3754.002565747834
 20
-448.6302930055056
 30
-0.0000000000004832
 10
3754.631057752088
 20
-448.9079553384154
 30
-0.0000000000004832
  0
SPLINE
  5
EC
330
1F
100
AcDbEntity
  8
图层 03
100
AcDbSpline
210
0.0
220
0.0
230
1.0
 70
     8
 71
     3
 72
     8
 73
     4
 74
     0
 42
0.0000000001
 43
0.0000000001
 40
1255.247011338234
 40
1255.247011338234
 40
1255.247011338234
 40
1255.247011338234
 40
1266.092849224926
 40
1266.092849224926
 40
1266.092849224926
 40
1266.092849224926
 10
3754.631057752088
 20
-448.9079553384154
 30
-0.0000000000004832
 10
3755.334332935904
 20
-449.3713750419272
 30
-0.0000000000004832
 10
3756.026271378104
 20
-449.8623919820141
 30
-0.0000000000004832
 10
3756.701868406307
 20
-450.3697209078416
 30
-0.0000000000004832
  0
SPLINE
  5
ED
330
1F
100
AcDbEntity
  8
图层 03
100
AcDbSpline
210
0.0
220
0.0
230
1.0
 70
     8
 71
     3
 72
     8
 73
     4
 74
     0
 42
0.0000000001
 43
0.0000000001
 40
1266.092849224926
 40
1266.092849224926
 40
1266.092849224926
 40
1266.092849224926
 40
1284.406199794277
 40
1284.406199794277
 40
1284.406199794277
 40
1284.406199794277
 10
3756.701868406307
 20
-450.3697209078416
 30
-0.0000000000004832
 10
3757.988693100446
 20
-450.9487265069597
 30
-0.0000000000004832
 10
3759.254325865211
 20
-451.5814314967549
 30
-0.0000000000004832
 10
3760.498663705907
 20
-452.2609098123482
 30
-0.0000000000004832
  0
SPLINE
  5
EE
330
1F
100
AcDbEntity
  8
图层 03
100
AcDbSpline
210
0.0
220
0.0
230
1.0
 70
     8
 71
     3
 72
     8
 73
     4
 74
     0
 42
0.0000000001
 43
0.0000000001
 40
1284.406199794277
 40
1284.406199794277
 40
1284.406199794277
 40
1284.406199794277
 40
1290.577638224773
 40
1290.577638224773
 40
1290.577638224773
 40
1290.577638224773
 10
3760.498663705907
 20
-452.2609098123482
 30
-0.0000000000004832
 10
3760.910282412103
 20
-452.505159316848
 30
-0.0000000000004832
 10
3761.319594527737
 20
-452.7551165011462
 30
-0.0000000000004832
 10
3761.725792153281
 20
-453.0095171114956
 30
-0.0000000000004832
  0
SPLINE
  5
EF
330
1F
100
AcDbEntity
  8
图层 03
100
AcDbSpline
210
0.0
220
0.0
230
1.0
 70
     8
 71
     3
 72
     8
 73
     4
 74
     0
 42
0.0000000001
 43
0.0000000001
 40
1290.577638224773
 40
1290.577638224773
 40
1290.577638224773
 40
1290.577638224773
 40
1307.7546721627
 40
1307.7546721627
 40
1307.7546721627
 40
1307.7546721627
 10
3761.725792153281
 20
-453.0095171114956
 30
-0.0000000000004832
 10
3762.940754172614
 20
-453.527776224234
 30
-0.0000000000004832
 10
3764.151136887677
 20
-454.0679123445027
 30
-0.0000000000004832
 10
3765.351972195784
 20
-454.6242566725298
 30
-0.0000000000004832
  0
SPLINE
  5
F0
330
1F
100
AcDbEntity
  8
图层 03
100
AcDbSpline
210
0.0
220
0.0
230
1.0
 70
     8
 71
     3
 72
     8
 73
     4
 74
     0
 42
0.0000000001
 43
0.0000000001
 40
1307.7546721627
 40
1307.7546721627
 40
1307.7546721627
 40
1307.7546721627
 40
1316.40345067768
 40
1316.40345067768
 40
1316.40345067768
 40
1316.40345067768
 10
3765.351972195784
 20
-454.6242566725298
 30
-0.0000000000004832
 10
3765.930357447422
 20
-454.9601325549522
 30
-0.0000000000004832
 10
3766.51743882716
 20
-455.2909218895838
 30
-0.0000000000004832
 10
3767.102528743192
 20
-455.6130868015482
 30
-0.0000000000004832
  0
SPLINE
  5
F1
330
1F
100
AcDbEntity
  8
图层 03
100
AcDbSpline
210
0.0
220
0.0
230
1.0
 70
     8
 71
     3
 72
     8
 73
     4
 74
     0
 42
0.0000000001
 43
0.0000000001
 40
1316.40345067768
 40
1316.40345067768
 40
1316.40345067768
 40
1316.40345067768
 40
1325.731070531169
 40
1325.731070531169
 40
1325.731070531169
 40
1325.731070531169
 10
3767.102528743192
 20
-455.6130868015482
 30
-0.0000000000004832
 10
3767.769903632216
 20
-455.8688456963164
 30
-0.0000000000004832
 10
3768.445087616607
 20
-456.113297316065
 30
-0.0000000000004832
 10
3769.119104639536
 20
-456.3462403638575
 30
-0.0000000000004832
  0
SPLINE
  5
F2
330
1F
100
AcDbEntity
  8
图层 03
100
AcDbSpline
210
0.0
220
0.0
230
1.0
 70
     8
 71
     3
 72
     8
 73
     4
 74
     0
 42
0.0000000001
 43
0.0000000001
 40
1325.731070531169
 40
1325.731070531169
 40
1325.731070531169
 40
1325.731070531169
 40
1342.149794428137
 40
1342.149794428137
 40
1342.149794428137
 40
1342.149794428137
 10
3769.119104639536
 20
-456.3462403638575
 30
-0.0000000000004832
 10
3770.218332323442
 20
-456.9290124116094
 30
-0.0000000000004832
 10
3771.455743186921
 20
-457.3716041788505
 30
-0.0000000000004832
 10
3772.631709906426
 20
-457.7111071695042
 30
-0.0000000000004832
  0
SPLINE
  5
F3
330
1F
100
AcDbEntity
  8
图层 03
100
AcDbSpline
210
0.0
220
0.0
230
1.0
 70
     8
 71
     3
 72
    11
 73
     7
 74
     0
 42
0.0000000001
 43
0.0000000001
 40
1342.149794428137
 40
1342.149794428137
 40
1342.149794428137
 40
1342.149794428137
 40
1347.437473978942
 40
1347.437473978942
 40
1347.437473978942
 40
1360.529409389414
 40
1360.529409389414
 40
1360.529409389414
 40
1360.529409389414
 10
3772.631709906426
 20
-457.7111071695042
 30
-0.0000000000004832
 10
3773.00845846423
 20
-457.8619807382242
 30
-0.0000000000004832
 10
3773.391929058946
 20
-457.9960681833461
 30
-0.0000000000004832
 10
3773.777512426588
 20
-458.1154759166191
 30
-0.0000000000004832
 10
3774.734298944956
 20
-458.406602128686
 30
-0.0000000000004832
 10
3775.701914587205
 20
-458.6517247900481
 30
-0.0000000000004832
 10
3776.674904682985
 20
-458.8561332693514
 30
-0.0000000000004832
  0
SPLINE
  5
F4
330
1F
100
AcDbEntity
  8
图层 03
100
AcDbSpline
210
0.0
220
0.0
230
1.0
 70
     8
 71
     3
 72
    17
 73
    13
 74
     0
 42
0.0000000001
 43
0.0000000001
 40
1360.529409389414
 40
1360.529409389414
 40
1360.529409389414
 40
1360.529409389414
 40
1383.249306084451
 40
1383.249306084451
 40
1383.249306084451
 40
1385.92936878527
 40
1385.92936878527
 40
1385.92936878527
 40
1404.990303456162
 40
1404.990303456162
 40
1404.990303456162
 40
1405.994470404296
 40
1405.994470404296
 40
1405.994470404296
 40
1405.994470404296
 10
3776.674904682985
 20
-458.8561332693514
 30
-0.0000000000004832
 10
3778.346905666371
 20
-459.3224282199697
 30
-0.0000000000004832
 10
3780.034827089718
 20
-459.6498511439345
 30
-0.0000000000004832
 10
3781.743716475145
 20
-459.8185124213403
 30
-0.0000000000004832
 10
3781.944879767769
 20
-459.8403088685152
 30
-0.0000000000004832
 10
3782.146149739868
 20
-459.8600936175558
 30
-0.0000000000004832
 10
3782.347465452103
 20
-459.8777662763634
 30
-0.0000000000004832
 10
3783.764400531996
 20
-460.0027883493424
 30
-0.0000000000004832
 10
3785.22390819135
 20
-460.0426030228143
 30
-0.0000000000004832
 10
3786.629751148099
 20
-459.9228178375363
 30
-0.0000000000004832
 10
3786.704308779349
 20
-459.9152006164825
 30
-0.0000000000004832
 10
3786.778810822549
 20
-459.9071905064764
 30
-0.0000000000004832
 10
3786.853242033781
 20
-459.8987675773403
 30
-0.0000000000004832
  0
SPLINE
  5
F5
330
1F
100
AcDbEntity
  8
图层 03
100
AcDbSpline
210
0.0
220
0.0
230
1.0
 70
     8
 71
     3
 72
     8
 73
     4
 74
     0
 42
0.0000000001
 43
0.0000000001
 40
1405.994470404296
 40
1405.994470404296
 40
1405.994470404296
 40
1405.994470404296
 40
1416.705032613408
 40
1416.705032613408
 40
1416.705032613408
 40
1416.705032613408
 10
3786.853242033781
 20
-459.8987675773403
 30
-0.0000000000004832
 10
3787.606014745847
 20
-459.6428492870671
 30
-0.0000000000004832
 10
3788.33291762822
 20
-459.3399268051787
 30
-0.0000000000004832
 10
3789.041049351972
 20
-458.9819502856569
 30
-0.0000000000004832
  0
SPLINE
  5
F6
330
1F
100
AcDbEntity
  8
图层 03
100
AcDbSpline
210
0.0
220
0.0
230
1.0
 70
     8
 71
     3
 72
     8
 73
     4
 74
     0
 42
0.0000000001
 43
0.0000000001
 40
1416.705032613408
 40
1416.705032613408
 40
1416.705032613408
 40
1416.705032613408
 40
1426.005819710998
 40
1426.005819710998
 40
1426.005819710998
 40
1426.005819710998
 10
3789.041049351972
 20
-458.9819502856569
 30
-0.0000000000004832
 10
3789.550645041164
 20
-458.5201268691615
 30
-0.0000000000004832
 10
3790.049578412336
 20
-458.0410848462318
 30
-0.0000000000004832
 10
3790.535944308771
 20
-457.5535165219599
 30
-0.0000000000004832
  0
SPLINE
  5
F7
330
1F
100
AcDbEntity
  8
图层 03
100
AcDbSpline
210
0.0
220
0.0
230
1.0
 70
     8
 71
     3
 72
     8
 73
     4
 74
     0
 42
0.0000000001
 43
0.0000000001
 40
1426.005819710998
 40
1426.005819710998
 40
1426.005819710998
 40
1426.005819710998
 40
1435.856217241609
 40
1435.856217241609
 40
1435.856217241609
 40
1435.856217241609
 10
3790.535944308771
 20
-457.5535165219599
 30
-0.0000000000004832
 10
3790.974507000063
 20
-456.9640787690057
 30
-0.0000000000004832
 10
3791.409451811076
 20
-456.3716356321306
 30
-0.0000000000004832
 10
3791.841357893995
 20
-455.7768358935189
 30
-0.0000000000004832
  0
SPLINE
  5
F8
330
1F
100
AcDbEntity
  8
图层 03
100
AcDbSpline
210
0.0
220
0.0
230
1.0
 70
     8
 71
     3
 72
     8
 73
     4
 74
     0
 42
0.0000000001
 43
0.0000000001
 40
1435.856217241609
 40
1435.856217241609
 40
1435.856217241609
 40
1435.856217241609
 40
1440.894661518125
 40
1440.894661518125
 40
1440.894661518125
 40
1440.894661518125
 10
3791.841357893995
 20
-455.7768358935189
 30
-0.0000000000004832
 10
3792.053157362215
 20
-455.4654901388278
 30
-0.0000000000004832
 10
3792.265188210452
 20
-455.1543187219524
 30
-0.0000000000004832
 10
3792.477436176513
 20
-454.8433123182419
 30
-0.0000000000004832
  0
SPLINE
  5
F9
330
1F
100
AcDbEntity
  8
图层 03
100
AcDbSpline
210
0.0
220
0.0
230
1.0
 70
     8
 71
     3
 72
     8
 73
     4
 74
     0
 42
0.0000000001
 43
0.0000000001
 40
1440.894661518125
 40
1440.894661518125
 40
1440.894661518125
 40
1440.894661518125
 40
1446.314958497012
 40
1446.314958497012
 40
1446.314958497012
 40
1446.314958497012
 10
3792.477436176513
 20
-454.8433123182419
 30
-0.0000000000004832
 10
3792.697968338149
 20
-454.5029607956594
 30
-0.0000000000004832
 10
3792.918138473969
 20
-454.1623466179369
 30
-0.0000000000004832
 10
3793.137987351839
 20
-453.8215022518668
 30
-0.0000000000004832
  0
SPLINE
  5
FA
330
1F
100
AcDbEntity
  8
图层 03
100
AcDbSpline
210
0.0
220
0.0
230
1.0
 70
     8
 71
     3
 72
     8
 73
     4
 74
     0
 42
0.0000000001
 43
0.0000000001
 40
1446.314958497012
 40
1446.314958497012
 40
1446.314958497012
 40
1446.314958497012
 40
1457.633461844411
 40
1457.633461844411
 40
1457.633461844411
 40
1457.633461844411
 10
3793.137987351839
 20
-453.8215022518668
 30
-0.0000000000004832
 10
3793.649506544152
 20
-453.1504769649368
 30
-0.0000000000004832
 10
3794.162695390897
 20
-452.4808380404133
 30
-0.0000000000004832
 10
3794.677210408753
 20
-451.8123306652208
 30
-0.0000000000004832
  0
SPLINE
  5
FB
330
1F
100
AcDbEntity
  8
图层 03
100
AcDbSpline
210
0.0
220
0.0
230
1.0
 70
     8
 71
     3
 72
     8
 73
     4
 74
     0
 42
0.0000000001
 43
0.0000000001
 40
1457.633461844411
 40
1457.633461844411
 40
1457.633461844411
 40
1457.633461844411
 40
1472.125768024839
 40
1472.125768024839
 40
1472.125768024839
 40
1472.125768024839
 10
3794.677210408753
 20
-451.812330665221
 30
-0.0000000000004832
 10
3795.489830391662
 20
-451.1120948920927
 30
-0.0000000000004832
 10
3796.305318333675
 20
-450.4153092299605
 30
-0.0000000000004832
 10
3797.12311876007
 20
-449.7214293395584
 30
-0.0000000000004832
  0
SPLINE
  5
FC
330
1F
100
AcDbEntity
  8
图层 03
100
AcDbSpline
210
0.0
220
0.0
230
1.0
 70
    11
 71
     3
 72
    29
 73
    25
 74
     0
 42
0.0000000001
 43
0.0000000001
 40
-15.70796326794897
 40
-15.70796326794897
 40
-15.70796326794897
 40
-15.70796326794897
 40
-14.72621556370216
 40
-13.74446785945534
 40
-12.76272015520853
 40
-12.27184630308513
 40
-11.78097245096172
 40
-11.29009859883832
 40
-10.79922474671491
 40
-9.817477042468102
 40
-8.835729338221292
 40
-8.344855486097888
 40
-7.853981633974483
 40
-7.363107781851078
 40
-6.872233929727672
 40
-5.890486225480862
 40
-4.908738521234051
 40
-4.417864669110646
 40
-3.926990816987241
 40
-3.436116964863836
 40
-2.945243112740431
 40
-1.963495408493621
 40
-0.9817477042468103
 40
0.0
 40
0.0
 40
0.0
 40
0.0
 10
3796.702265976903
 20
-431.2632492886248
 30
-0.0000000000004832
 10
3796.702265976898
 20
-431.6160268595637
 30
-0.0000000000004832
 10
3796.574032155423
 20
-432.3809998751429
 30
-0.0000000000004832
 10
3795.886625074219
 20
-433.4476606515165
 30
-0.0000000000004832
 10
3794.998592071099
 20
-434.0210895351663
 30
-0.0000000000004832
 10
3794.244170340781
 20
-434.2315461182574
 30
-0.0000000000004832
 10
3793.702262803191
 20
-434.2791042092786
 30
-0.0000000000004832
 10
3793.160374307873
 20
-434.2315327763775
 30
-0.0000000000004832
 10
3792.405876408464
 20
-434.0211651391506
 30
-0.0000000000004832
 10
3791.518167320291
 20
-433.447348148934
 30
-0.0000000000004832
 10
3790.944349797379
 20
-432.5596385749686
 30
-0.0000000000004832
 10
3790.733983444408
 20
-431.8051417541917
 30
-0.0000000000004832
 10
3790.68640724315
 20
-431.2632492886248
 30
-0.0000000000004832
 10
3790.733983444408
 20
-430.7213568230576
 30
-0.0000000000004832
 10
3790.94434979738
 20
-429.966860002281
 30
-0.0000000000004832
 10
3791.518167320291
 20
-429.079150428315
 30
-0.0000000000004832
 10
3792.405876408464
 20
-428.5053334380996
 30
-0.0000000000004832
 10
3793.160374307873
 20
-428.2949658008716
 30
-0.0000000000004832
 10
3793.702262803191
 20
-428.2473943679718
 30
-0.0000000000004832
 10
3794.244170340781
 20
-428.294952458992
 30
-0.0000000000004832
 10
3794.998592071099
 20
-428.505409042084
 30
-0.0000000000004832
 10
3795.886625074219
 20
-429.0788379257319
 30
-0.0000000000004832
 10
3796.574032155423
 20
-430.1454987021077
 30
-0.0000000000004832
 10
3796.702265976898
 20
-430.9104717176843
 30
-0.0000000000004832
 10
3796.702265976903
 20
-431.2632492886248
 30
-0.0000000000004832
  0
SPLINE
  5
FD
330
1F
100
AcDbEntity
  8
图层 03
100
AcDbSpline
210
0.0
220
0.0
230
1.0
 70
     8
 71
     3
 72
     8
 73
     4
 74
     0
 42
0.0000000001
 43
0.0000000001
 40
2599.556354519242
 40
2599.556354519242
 40
2599.556354519242
 40
2599.556354519242
 40
2652.137811441434
 40
2652.137811441434
 40
2652.137811441434
 40
2652.137811441434
 10
3768.983121450454
 20
-297.3647445449346
 30
-0.0000000000004832
 10
3766.285877102566
 20
-300.1387024637896
 30
-0.0000000000004832
 10
3763.565653575774
 20
-303.0284988699002
 30
-0.0000000000004832
 10
3760.939312852701
 20
-305.8742181301536
 30
-0.0000000000004832
  0
SPLINE
  5
FE
330
1F
100
AcDbEntity
  8
图层 03
100
AcDbSpline
210
0.0
220
0.0
230
1.0
 70
     8
 71
     3
 72
     8
 73
     4
 74
     0
 42
0.0000000001
 43
0.0000000001
 40
2652.137811441434
 40
2652.137811441434
 40
2652.137811441434
 40
2652.137811441434
 40
2664.018434252351
 40
2664.018434252351
 40
2664.018434252351
 40
2664.018434252351
 10
3760.939312852701
 20
-305.8742181301536
 30
-0.0000000000004832
 10
3760.288015792952
 20
-306.4659265097645
 30
-0.0000000000004832
 10
3759.638513620204
 20
-307.0597335747996
 30
-0.0000000000004832
 10
3758.990727276081
 20
-307.6554814639119
 30
-0.0000000000004832
  0
SPLINE
  5
FF
330
1F
100
AcDbEntity
  8
图层 03
100
AcDbSpline
210
0.0
220
0.0
230
1.0
 70
     8
 71
     3
 72
     8
 73
     4
 74
     0
 42
0.0000000001
 43
0.0000000001
 40
2664.018434252351
 40
2664.018434252351
 40
2664.018434252351
 40
2664.018434252351
 40
2736.254224496464
 40
2736.254224496464
 40
2736.254224496464
 40
2736.254224496464
 10
3758.990727276081
 20
-307.6554814639119
 30
-0.0000000000004832
 10
3755.498120454003
 20
-311.6614311706854
 30
-0.0000000000004832
 10
3752.122099431093
 20
-315.9979290305041
 30
-0.0000000000004832
 10
3748.974511265766
 20
-320.3021217825958
 30
-0.0000000000004832
  0
SPLINE
  5
100
330
1F
100
AcDbEntity
  8
图层 03
100
AcDbSpline
210
0.0
220
0.0
230
1.0
 70
     8
 71
     3
 72
     8
 73
     4
 74
     0
 42
0.0000000001
 43
0.0000000001
 40
2736.254224496464
 40
2736.254224496464
 40
2736.254224496464
 40
2736.254224496464
 40
2792.294796300092
 40
2792.294796300092
 40
2792.294796300092
 40
2792.294796300092
 10
3748.974511265766
 20
-320.3021217825958
 30
-0.0000000000004832
 10
3747.075754269888
 20
-324.017077893453
 30
-0.0000000000004832
 10
3745.295419701343
 20
-327.9525869005557
 30
-0.0000000000004832
 10
3743.663495050541
 20
-331.8108693652196
 30
-0.0000000000004832
  0
SPLINE
  5
101
330
1F
100
AcDbEntity
  8
图层 03
100
AcDbSpline
210
0.0
220
0.0
230
1.0
 70
     8
 71
     3
 72
     8
 73
     4
 74
     0
 42
0.0000000001
 43
0.0000000001
 40
2792.294796300092
 40
2792.294796300092
 40
2792.294796300092
 40
2792.294796300092
 40
2819.656913082483
 40
2819.656913082483
 40
2819.656913082483
 40
2819.656913082483
 10
3743.663495050541
 20
-331.8108693652196
 30
-0.0000000000004832
 10
3743.270414650509
 20
-333.8702790926468
 30
-0.0000000000004832
 10
3742.958996137781
 20
-335.9487916804698
 30
-0.0000000000004832
 10
3742.719450290841
 20
-338.0417859276781
 30
-0.0000000000004832
  0
SPLINE
  5
102
330
1F
100
AcDbEntity
  8
图层 03
100
AcDbSpline
210
0.0
220
0.0
230
1.0
 70
     8
 71
     3
 72
     8
 73
     4
 74
     0
 42
0.0000000001
 43
0.0000000001
 40
2819.656913082483
 40
2819.656913082483
 40
2819.656913082483
 40
2819.656913082483
 40
2828.170662661267
 40
2828.170662661267
 40
2828.170662661267
 40
2828.170662661267
 10
3742.719450290841
 20
-338.0417859276781
 30
-0.0000000000004832
 10
3742.662517072185
 20
-338.6959693658798
 30
-0.0000000000004832
 10
3742.62406088934
 20
-339.3525283225163
 30
-0.0000000000004832
 10
3742.605012814968
 20
-340.011277907952
 30
-0.0000000000004832
  0
SPLINE
  5
103
330
1F
100
AcDbEntity
  8
图层 03
100
AcDbSpline
210
0.0
220
0.0
230
1.0
 70
     8
 71
     3
 72
     8
 73
     4
 74
     0
 42
0.0000000001
 43
0.0000000001
 40
2828.170662661267
 40
2828.170662661267
 40
2828.170662661267
 40
2828.170662661267
 40
2855.683569890226
 40
2855.683569890226
 40
2855.683569890226
 40
2855.683569890226
 10
3742.605012814968
 20
-340.011277907952
 30
-0.0000000000004832
 10
3742.745079532207
 20
-342.1468608423792
 30
-0.0000000000004832
 10
3742.957207972013
 20
-344.2831116664756
 30
-0.0000000000004832
 10
3743.251169355788
 20
-346.4111169333396
 30
-0.0000000000004832
  0
SPLINE
  5
104
330
1F
100
AcDbEntity
  8
图层 03
100
AcDbSpline
210
0.0
220
0.0
230
1.0
 70
     8
 71
     3
 72
     8
 73
     4
 74
     0
 42
0.0000000001
 43
0.0000000001
 40
2855.683569890226
 40
2855.683569890226
 40
2855.683569890226
 40
2855.683569890226
 40
2884.56254591038
 40
2884.56254591038
 40
2884.56254591038
 40
2884.56254591038
 10
3743.251169355788
 20
-346.4111169333396
 30
-0.0000000000004832
 10
3743.271556527036
 20
-348.6506231105169
 30
-0.0000000000004832
 10
3743.263914914265
 20
-350.8907118245412
 30
-0.0000000000004832
 10
3743.225241047925
 20
-353.126497633992
 30
-0.0000000000004832
  0
SPLINE
  5
105
330
1F
100
AcDbEntity
  8
图层 03
100
AcDbSpline
210
0.0
220
0.0
230
1.0
 70
     8
 71
     3
 72
     8
 73
     4
 74
     0
 42
0.0000000001
 43
0.0000000001
 40
2884.56254591038
 40
2884.56254591038
 40
2884.56254591038
 40
2884.56254591038
 40
2929.519416327285
 40
2929.519416327285
 40
2929.519416327285
 40
2929.519416327285
 10
3743.225241047925
 20
-353.126497633992
 30
-0.0000000000004832
 10
3742.822937267747
 20
-356.5772688433374
 30
-0.0000000000004832
 10
3742.007805199804
 20
-359.8865229298749
 30
-0.0000000000004832
 10
3740.825526576405
 20
-363.0942680404584
 30
-0.0000000000004832
  0
SPLINE
  5
106
330
1F
100
AcDbEntity
  8
图层 03
100
AcDbSpline
210
0.0
220
0.0
230
1.0
 70
     8
 71
     3
 72
     8
 73
     4
 74
     0
 42
0.0000000001
 43
0.0000000001
 40
2929.519416327285
 40
2929.519416327285
 40
2929.519416327285
 40
2929.519416327285
 40
2951.430507390312
 40
2951.430507390312
 40
2951.430507390312
 40
2951.430507390312
 10
3740.825526576405
 20
-363.0942680404584
 30
-0.0000000000004832
 10
3740.970827139442
 20
-364.7790414479873
 30
-0.0000000000004832
 10
3741.065762718343
 20
-366.5118510213103
 30
-0.0000000000004832
 10
3741.056636578802
 20
-368.1949997196598
 30
-0.0000000000004832
  0
SPLINE
  5
107
330
1F
100
AcDbEntity
  8
图层 03
100
AcDbSpline
210
0.0
220
0.0
230
1.0
 70
     8
 71
     3
 72
     8
 73
     4
 74
     0
 42
0.0000000001
 43
0.0000000001
 40
2951.430507390312
 40
2951.430507390312
 40
2951.430507390312
 40
2951.430507390312
 40
2972.516143036208
 40
2972.516143036208
 40
2972.516143036208
 40
2972.516143036208
 10
3741.056636578802
 20
-368.1949997196598
 30
-0.0000000000004832
 10
3739.474535669559
 20
-368.3007762190701
 30
-0.0000000000004832
 10
3737.908567943323
 20
-368.2658852452723
 30
-0.0000000000004832
 10
3736.316247321455
 20
-368.1283839661947
 30
-0.0000000000004832
  0
SPLINE
  5
108
330
1F
100
AcDbEntity
  8
图层 03
100
AcDbSpline
210
0.0
220
0.0
230
1.0
 70
     8
 71
     3
 72
     8
 73
     4
 74
     0
 42
0.0000000001
 43
0.0000000001
 40
2972.516143036208
 40
2972.516143036208
 40
2972.516143036208
 40
2972.516143036208
 40
3032.077282546898
 40
3032.077282546898
 40
3032.077282546898
 40
3032.077282546898
 10
3736.316247321455
 20
-368.1283839661947
 30
-0.0000000000004832
 10
3733.365018845309
 20
-371.4463968636588
 30
-0.0000000000004832
 10
3730.176217383042
 20
-374.4505159113139
 30
-0.0000000000004832
 10
3726.620590478348
 20
-377.0776859467305
 30
-0.0000000000004832
  0
SPLINE
  5
109
330
1F
100
AcDbEntity
  8
图层 03
100
AcDbSpline
210
0.0
220
0.0
230
1.0
 70
     8
 71
     3
 72
     8
 73
     4
 74
     0
 42
0.0000000001
 43
0.0000000001
 40
3032.077282546898
 40
3032.077282546898
 40
3032.077282546898
 40
3032.077282546898
 40
3092.025061570036
 40
3092.025061570036
 40
3092.025061570036
 40
3092.025061570036
 10
3726.620590478348
 20
-377.0776859467305
 30
-0.0000000000004832
 10
3723.796978599369
 20
-380.5341265132148
 30
-0.0000000000004832
 10
3720.923754041885
 20
-383.9429602035298
 30
-0.0000000000004832
 10
3717.997379876764
 20
-387.3054811774679
 30
-0.0000000000004832
  0
SPLINE
  5
10A
330
1F
100
AcDbEntity
  8
图层 03
100
AcDbSpline
210
0.0
220
0.0
230
1.0
 70
     8
 71
     3
 72
    11
 73
     7
 74
     0
 42
0.0000000001
 43
0.0000000001
 40
3092.025061570036
 40
3092.025061570036
 40
3092.025061570036
 40
3092.025061570036
 40
3109.986814262816
 40
3109.986814262816
 40
3109.986814262816
 40
3156.409228049412
 40
3156.409228049412
 40
3156.409228049412
 40
3156.409228049412
 10
3717.997379876764
 20
-387.3054811774679
 30
-0.0000000000004832
 10
3717.183312208155
 20
-388.36841831143
 30
-0.0000000000004832
 10
3716.368464248227
 20
-389.4307022659791
 30
-0.0000000000004832
 10
3715.552845146053
 20
-390.4923352712295
 30
-0.0000000000004832
 10
3713.47229647652
 20
-393.2589934074398
 30
-0.0000000000004832
 10
3711.385348911676
 20
-396.0204079356313
 30
-0.0000000000004832
 10
3709.291964079634
 20
-398.7764051805128
 30
-0.0000000000004832
  0
SPLINE
  5
10B
330
1F
100
AcDbEntity
  8
图层 03
100
AcDbSpline
210
0.0
220
0.0
230
1.0
 70
     8
 71
     3
 72
     8
 73
     4
 74
     0
 42
0.0000000001
 43
0.0000000001
 40
3156.409228049412
 40
3156.409228049412
 40
3156.409228049412
 40
3156.409228049412
 40
3221.634586633861
 40
3221.634586633861
 40
3221.634586633861
 40
3221.634586633861
 10
3709.291964079634
 20
-398.7764051805128
 30
-0.0000000000004832
 10
3706.297616765357
 20
-402.6039398556793
 30
-0.0000000000004832
 10
3703.312933677375
 20
-406.4398064957234
 30
-0.0000000000004832
 10
3700.338627726337
 20
-410.2843604680534
 30
-0.0000000000004832
  0
SPLINE
  5
10C
330
1F
100
AcDbEntity
  8
图层 03
100
AcDbSpline
210
0.0
220
0.0
230
1.0
 70
     8
 71
     3
 72
     8
 73
     4
 74
     0
 42
0.0000000001
 43
0.0000000001
 40
3221.634586633861
 40
3221.634586633861
 40
3221.634586633861
 40
3221.634586633861
 40
3285.821364751022
 40
3285.821364751022
 40
3285.821364751022
 40
3285.821364751022
 10
3700.338627726337
 20
-410.2843604680534
 30
-0.0000000000004832
 10
3697.220418274614
 20
-413.8976551975109
 30
-0.0000000000004832
 10
3694.118488739467
 20
-417.5264015500475
 30
-0.0000000000004832
 10
3691.036827224974
 20
-421.173366720348
 30
-0.0000000000004832
  0
SPLINE
  5
10D
330
1F
100
AcDbEntity
  8
图层 03
100
AcDbSpline
210
0.0
220
0.0
230
1.0
 70
     8
 71
     3
 72
     8
 73
     4
 74
     0
 42
0.0000000001
 43
0.0000000001
 40
3285.821364751022
 40
3285.821364751022
 40
3285.821364751022
 40
3285.821364751022
 40
3347.979923434526
 40
3347.979923434526
 40
3347.979923434526
 40
3347.979923434526
 10
3691.036827224974
 20
-421.173366720348
 30
-0.0000000000004832
 10
3687.988983646789
 20
-424.6460431905967
 30
-0.0000000000004832
 10
3684.951923364424
 20
-428.12904615995
 30
-0.0000000000004832
 10
3681.927397018423
 20
-431.6236231708729
 30
-0.0000000000004832
  0
SPLINE
  5
10E
330
1F
100
AcDbEntity
  8
图层 03
100
AcDbSpline
210
0.0
220
0.0
230
1.0
 70
     8
 71
     3
 72
     8
 73
     4
 74
     0
 42
0.0000000001
 43
0.0000000001
 40
3347.979923434526
 40
3347.979923434526
 40
3347.979923434526
 40
3347.979923434526
 40
3407.310320298277
 40
3407.310320298277
 40
3407.310320298277
 40
3407.310320298277
 10
3681.927397018423
 20
-431.6236231708729
 30
-0.0000000000004832
 10
3679.061317094838
 20
-434.9786265097098
 30
-0.0000000000004832
 10
3676.184423818989
 20
-438.3237251192052
 30
-0.0000000000004832
 10
3673.297141749303
 20
-441.658961919573
 30
-0.0000000000004832
  0
SPLINE
  5
10F
330
1F
100
AcDbEntity
  8
图层 03
100
AcDbSpline
210
0.0
220
0.0
230
1.0
 70
     8
 71
     3
 72
     8
 73
     4
 74
     0
 42
0.0000000001
 43
0.0000000001
 40
3407.310320298277
 40
3407.310320298277
 40
3407.310320298277
 40
3407.310320298277
 40
3463.635462297696
 40
3463.635462297696
 40
3463.635462297696
 40
3463.635462297696
 10
3673.297141749303
 20
-441.658961919573
 30
-0.0000000000004832
 10
3670.48616526055
 20
-444.7585003075974
 30
-0.0000000000004832
 10
3667.670274671645
 20
-447.8532668197804
 30
-0.0000000000004832
 10
3664.849855463425
 20
-450.9435591394638
 30
-0.0000000000004832
  0
SPLINE
  5
110
330
1F
100
AcDbEntity
  8
图层 03
100
AcDbSpline
210
0.0
220
0.0
230
1.0
 70
     8
 71
     3
 72
    11
 73
     7
 74
     0
 42
0.0000000001
 43
0.0000000001
 40
3463.635462297696
 40
3463.635462297696
 40
3463.635462297696
 40
3463.635462297696
 40
3518.199921371805
 40
3518.199921371805
 40
3518.199921371805
 40
3566.279187242297
 40
3566.279187242297
 40
3566.279187242297
 40
3566.279187242297
 10
3664.849855463425
 20
-450.9435591394638
 30
-0.0000000000004832
 10
3661.977448621818
 20
-453.758982144522
 30
-0.0000000000004832
 10
3659.076300436343
 20
-456.6470816054093
 30
-0.0000000000004832
 10
3656.259965654043
 20
-459.5222466224654
 30
-0.0000000000004832
 10
3653.792704566536
 20
-461.9609811103189
 30
-0.0000000000004832
 10
3651.140485480086
 20
-464.6236980884798
 30
-0.0000000000004832
 10
3648.740812545166
 20
-467.1335829249949
 30
-0.0000000000004832
  0
SPLINE
  5
111
330
1F
100
AcDbEntity
  8
图层 03
100
AcDbSpline
210
0.0
220
0.0
230
1.0
 70
     8
 71
     3
 72
     8
 73
     4
 74
     0
 42
0.0000000001
 43
0.0000000001
 40
3566.279187242297
 40
3566.279187242297
 40
3566.279187242297
 40
3566.279187242297
 40
3571.16903417885
 40
3571.16903417885
 40
3571.16903417885
 40
3571.16903417885
 10
3648.740812545166
 20
-467.1335829249949
 30
-0.0000000000004832
 10
3648.504113924246
 20
-467.4096456548693
 30
-0.0000000000004832
 10
3648.267980426404
 20
-467.6862364686422
 30
-0.0000000000004832
 10
3648.032501195657
 20
-467.963424145654
 30
-0.0000000000004832
  0
SPLINE
  5
112
330
1F
100
AcDbEntity
  8
图层 03
100
AcDbSpline
210
0.0
220
0.0
230
1.0
 70
     8
 71
     3
 72
     8
 73
     4
 74
     0
 42
0.0000000001
 43
0.0000000001
 40
3571.16903417885
 40
3571.16903417885
 40
3571.16903417885
 40
3571.16903417885
 40
3600.381375595533
 40
3600.381375595533
 40
3600.381375595533
 40
3600.381375595533
 10
3648.032501195657
 20
-467.963424145654
 30
-0.0000000000004832
 10
3646.942193810722
 20
-469.6838551380317
 30
-0.0000000000004832
 10
3645.649888655097
 20
-471.8087709003839
 30
-0.0000000000004832
 10
3644.730434612209
 20
-473.6415300233639
 30
-0.0000000000004832
  0
SPLINE
  5
113
330
1F
100
AcDbEntity
  8
图层 03
100
AcDbSpline
210
0.0
220
0.0
230
1.0
 70
     8
 71
     3
 72
     8
 73
     4
 74
     0
 42
0.0000000001
 43
0.0000000001
 40
3600.381375595533
 40
3600.381375595533
 40
3600.381375595533
 40
3600.381375595533
 40
3606.588812598728
 40
3606.588812598728
 40
3606.588812598728
 40
3606.588812598728
 10
3644.730434612209
 20
-473.6415300233639
 30
-0.0000000000004832
 10
3644.579799604707
 20
-474.0760155799205
 30
-0.0000000000004832
 10
3644.422230802498
 20
-474.5440441273483
 30
-0.0000000000004832
 10
3644.284341613386
 20
-474.9837032535163
 30
-0.0000000000004832
  0
SPLINE
  5
114
330
1F
100
AcDbEntity
  8
图层 03
100
AcDbSpline
210
0.0
220
0.0
230
1.0
 70
     8
 71
     3
 72
     8
 73
     4
 74
     0
 42
0.0000000001
 43
0.0000000001
 40
3606.588812598728
 40
3606.588812598728
 40
3606.588812598728
 40
3606.588812598728
 40
3620.349678850822
 40
3620.349678850822
 40
3620.349678850822
 40
3620.349678850822
 10
3644.284341613386
 20
-474.9837032535163
 30
-0.0000000000004832
 10
3644.38404158919
 20
-476.0549099279183
 30
-0.0000000000004832
 10
3644.542519279101
 20
-477.1122280780594
 30
-0.0000000000004832
 10
3644.736464408486
 20
-478.1746494062447
 30
-0.0000000000004832
  0
SPLINE
  5
115
330
1F
100
AcDbEntity
  8
图层 03
100
AcDbSpline
210
0.0
220
0.0
230
1.0
 70
     8
 71
     3
 72
     8
 73
     4
 74
     0
 42
0.0000000001
 43
0.0000000001
 40
3620.349678850822
 40
3620.349678850822
 40
3620.349678850822
 40
3620.349678850822
 40
3634.812173220222
 40
3634.812173220222
 40
3634.812173220222
 40
3634.812173220222
 10
3644.736464408486
 20
-478.1746494062447
 30
-0.0000000000004832
 10
3645.401039160233
 20
-479.1010546555142
 30
-0.0000000000004832
 10
3646.06779806694
 20
-480.0258589183411
 30
-0.0000000000004832
 10
3646.736291045436
 20
-480.9493502136158
 30
-0.0000000000004832
  0
SPLINE
  5
116
330
1F
100
AcDbEntity
  8
图层 03
100
AcDbSpline
210
0.0
220
0.0
230
1.0
 70
     8
 71
     3
 72
     8
 73
     4
 74
     0
 42
0.0000000001
 43
0.0000000001
 40
3634.812173220222
 40
3634.812173220222
 40
3634.812173220222
 40
3634.812173220222
 40
3650.642117266733
 40
3650.642117266733
 40
3650.642117266733
 40
3650.642117266733
 10
3646.736291045436
 20
-480.9493502136158
 30
-0.0000000000004832
 10
3647.780314130211
 20
-481.5991423402531
 30
-0.0000000000004832
 10
3648.825606675669
 20
-482.2466370162419
 30
-0.0000000000004832
 10
3649.87244676792
 20
-482.8912303688501
 30
-0.0000000000004832
  0
SPLINE
  5
117
330
1F
100
AcDbEntity
  8
图层 03
100
AcDbSpline
210
0.0
220
0.0
230
1.0
 70
     8
 71
     3
 72
     8
 73
     4
 74
     0
 42
0.0000000001
 43
0.0000000001
 40
3650.642117266733
 40
3650.642117266733
 40
3650.642117266733
 40
3650.642117266733
 40
3667.427116580014
 40
3667.427116580014
 40
3667.427116580014
 40
3667.427116580014
 10
3649.87244676792
 20
-482.8912303688501
 30
-0.0000000000004832
 10
3651.11879136202
 20
-483.1877292363372
 30
-0.0000000000004832
 10
3652.358840740731
 20
-483.4527372792684
 30
-0.0000000000004832
 10
3653.616528965103
 20
-483.6687407415225
 30
-0.0000000000004832
  0
SPLINE
  5
118
330
1F
100
AcDbEntity
  8
图层 03
100
AcDbSpline
210
0.0
220
0.0
230
1.0
 70
     8
 71
     3
 72
     8
 73
     4
 74
     0
 42
0.0000000001
 43
0.0000000001
 40
3667.427116580014
 40
3667.427116580014
 40
3667.427116580014
 40
3667.427116580014
 40
3674.505289061452
 40
3674.505289061452
 40
3674.505289061452
 40
3674.505289061452
 10
3653.616528965103
 20
-483.6687407415225
 30
-0.0000000000004832
 10
3654.133166633879
 20
-483.6295062484419
 30
-0.0000000000004832
 10
3654.680680240439
 20
-483.5765576578335
 30
-0.0000000000004832
 10
3655.195134078354
 20
-483.5218909302055
 30
-0.0000000000004832
  0
SPLINE
  5
119
330
1F
100
AcDbEntity
  8
图层 03
100
AcDbSpline
210
0.0
220
0.0
230
1.0
 70
     8
 71
     3
 72
     8
 73
     4
 74
     0
 42
0.0000000001
 43
0.0000000001
 40
3674.505289061452
 40
3674.505289061452
 40
3674.505289061452
 40
3674.505289061452
 40
3706.569200925139
 40
3706.569200925139
 40
3706.569200925139
 40
3706.569200925139
 10
3655.195134078354
 20
-483.5218909302055
 30
-0.0000000000004832
 10
3657.454170365898
 20
-483.2338656739992
 30
-0.0000000000004832
 10
3659.980420735862
 20
-482.581294101187
 30
-0.0000000000004832
 10
3662.14515305452
 20
-481.9377112649324
 30
-0.0000000000004832
  0
SPLINE
  5
11A
330
1F
100
AcDbEntity
  8
图层 03
100
AcDbSpline
210
0.0
220
0.0
230
1.0
 70
     8
 71
     3
 72
    14
 73
    10
 74
     0
 42
0.0000000001
 43
0.0000000001
 40
3706.569200925139
 40
3706.569200925139
 40
3706.569200925139
 40
3706.569200925139
 40
3711.964962699503
 40
3711.964962699503
 40
3711.964962699503
 40
3763.766413674653
 40
3763.766413674653
 40
3763.766413674653
 40
3827.349478509295
 40
3827.349478509295
 40
3827.349478509295
 40
3827.349478509295
 10
3662.14515305452
 20
-481.9377112649324
 30
-0.0000000000004832
 10
3662.51579282195
 20
-481.7898744895804
 30
-0.0000000000004832
 10
3662.885867846815
 20
-481.6406735820237
 30
-0.0000000000004832
 10
3663.25543014556
 20
-481.4902976854373
 30
-0.0000000000004832
 10
3666.682310197999
 20
-480.0505017108123
 30
-0.0000000000004832
 10
3670.359980683605
 20
-478.344959610007
 30
-0.0000000000004832
 10
3673.707857931925
 20
-476.7367835172006
 30
-0.0000000000004832
 10
3677.940315119496
 20
-474.6982847228237
 30
-0.0000000000004832
 10
3682.158876935652
 20
-472.6311286024668
 30
-0.0000000000004832
 10
3686.36762542592
 20
-470.5453666563028
 30
-0.0000000000004832
  0
SPLINE
  5
11B
330
1F
100
AcDbEntity
  8
图层 03
100
AcDbSpline
210
0.0
220
0.0
230
1.0
 70
     8
 71
     3
 72
    14
 73
    10
 74
     0
 42
0.0000000001
 43
0.0000000001
 40
3827.349478509295
 40
3827.349478509295
 40
3827.349478509295
 40
3827.349478509295
 40
3837.927598248682
 40
3837.927598248682
 40
3837.927598248682
 40
3896.776995798511
 40
3896.776995798511
 40
3896.776995798511
 40
3962.026168974291
 40
3962.026168974291
 40
3962.026168974291
 40
3962.026168974291
 10
3686.36762542592
 20
-470.5453666563028
 30
-0.0000000000004832
 10
3687.073706834434
 20
-470.2101650409579
 30
-0.0000000000004832
 10
3687.780326873888
 20
-469.8760629832502
 30
-0.0000000000004832
 10
3688.487511036598
 20
-469.5431374576519
 30
-0.0000000000004832
 10
3692.425908225001
 20
-467.6997280306293
 30
-0.0000000000004832
 10
3696.377750980535
 20
-465.8832565542318
 30
-0.0000000000004832
 10
3700.347036594019
 20
-464.1057346252642
 30
-0.0000000000004832
 10
3704.749773633779
 20
-462.1382145082855
 30
-0.0000000000004832
 10
3709.161646531508
 20
-460.1895632798355
 30
-0.0000000000004832
 10
3713.593265170393
 20
-458.2859410662115
 30
-0.0000000000004832
  0
SPLINE
  5
11C
330
1F
100
AcDbEntity
  8
图层 03
100
AcDbSpline
210
0.0
220
0.0
230
1.0
 70
     8
 71
     3
 72
     8
 73
     4
 74
     0
 42
0.0000000001
 43
0.0000000001
 40
3962.026168974291
 40
3962.026168974291
 40
3962.026168974291
 40
3962.026168974291
 40
4014.642339248019
 40
4014.642339248019
 40
4014.642339248019
 40
4014.642339248019
 10
3713.593265170393
 20
-458.2859410662115
 30
-0.0000000000004832
 10
3717.103048390727
 20
-456.6138949738183
 30
-0.0000000000004832
 10
3720.614002347544
 20
-454.944230355806
 30
-0.0000000000004832
 10
3724.127523248337
 20
-453.2798623888268
 30
-0.0000000000004832
  0
SPLINE
  5
11D
330
1F
100
AcDbEntity
  8
图层 03
100
AcDbSpline
210
0.0
220
0.0
230
1.0
 70
     8
 71
     3
 72
     8
 73
     4
 74
     0
 42
0.0000000001
 43
0.0000000001
 40
4014.642339248019
 40
4014.642339248019
 40
4014.642339248019
 40
4014.642339248019
 40
4057.321488064355
 40
4057.321488064355
 40
4057.321488064355
 40
4057.321488064355
 10
3724.127523248337
 20
-453.2798623888268
 30
-0.0000000000004832
 10
3726.802097996269
 20
-451.6110623044744
 30
-0.0000000000004832
 10
3729.479310282947
 20
-449.9465008037348
 30
-0.0000000000004832
 10
3732.159898335743
 20
-448.2874767689598
 30
-0.0000000000004832
  0
SPLINE
  5
11E
330
1F
100
AcDbEntity
  8
图层 03
100
AcDbSpline
210
0.0
220
0.0
230
1.0
 70
     8
 71
     3
 72
     8
 73
     4
 74
     0
 42
0.0000000001
 43
0.0000000001
 40
4057.321488064355
 40
4057.321488064355
 40
4057.321488064355
 40
4057.321488064355
 40
4098.977360821923
 40
4098.977360821923
 40
4098.977360821923
 40
4098.977360821923
 10
3732.159898335743
 20
-448.2874767689598
 30
-0.0000000000004832
 10
3734.407422972974
 20
-446.2002476411899
 30
-0.0000000000004832
 10
3736.741262886765
 20
-444.1259308114847
 30
-0.0000000000004832
 10
3739.060485028073
 20
-442.1230787969133
 30
-0.0000000000004832
  0
SPLINE
  5
11F
330
1F
100
AcDbEntity
  8
图层 03
100
AcDbSpline
210
0.0
220
0.0
230
1.0
 70
     8
 71
     3
 72
     8
 73
     4
 74
     0
 42
0.0000000001
 43
0.0000000001
 40
4098.977360821923
 40
4098.977360821923
 40
4098.977360821923
 40
4098.977360821923
 40
4118.481024982028
 40
4118.481024982028
 40
4118.481024982028
 40
4118.481024982028
 10
3739.060485028073
 20
-442.1230787969133
 30
-0.0000000000004832
 10
3739.941301001361
 20
-440.9757619554273
 30
-0.0000000000004832
 10
3740.854245786051
 20
-439.8271480480228
 30
-0.0000000000004832
 10
3741.766054160337
 20
-438.7066193041562
 30
-0.0000000000004832
  0
SPLINE
  5
120
330
1F
100
AcDbEntity
  8
图层 03
100
AcDbSpline
210
0.0
220
0.0
230
1.0
 70
     8
 71
     3
 72
     8
 73
     4
 74
     0
 42
0.0000000001
 43
0.0000000001
 40
4118.481024982028
 40
4118.481024982028
 40
4118.481024982028
 40
4118.481024982028
 40
4147.983324412791
 40
4147.983324412791
 40
4147.983324412791
 40
4147.983324412791
 10
3741.766054160337
 20
-438.7066193041562
 30
-0.0000000000004832
 10
3743.208851023815
 20
-437.0591546511927
 30
-0.0000000000004832
 10
3744.679306886069
 20
-435.4249180993211
 30
-0.0000000000004832
 10
3746.160463288407
 20
-433.8145501348641
 30
-0.0000000000004832
  0
SPLINE
  5
121
330
1F
100
AcDbEntity
  8
图层 03
100
AcDbSpline
210
0.0
220
0.0
230
1.0
 70
     8
 71
     3
 72
     8
 73
     4
 74
     0
 42
0.0000000001
 43
0.0000000001
 40
4147.983324412791
 40
4147.983324412791
 40
4147.983324412791
 40
4147.983324412791
 40
4203.406598719263
 40
4203.406598719263
 40
4203.406598719263
 40
4203.406598719263
 10
3746.160463288407
 20
-433.8145501348641
 30
-0.0000000000004832
 10
3748.384223847022
 20
-430.3353477018997
 30
-0.0000000000004832
 10
3750.80533998954
 20
-426.9319623879546
 30
-0.0000000000004832
 10
3753.301636829666
 20
-423.6648117524982
 30
-0.0000000000004832
  0
SPLINE
  5
122
330
1F
100
AcDbEntity
  8
图层 03
100
AcDbSpline
210
0.0
220
0.0
230
1.0
 70
     8
 71
     3
 72
     8
 73
     4
 74
     0
 42
0.0000000001
 43
0.0000000001
 40
4203.406598719263
 40
4203.406598719263
 40
4203.406598719263
 40
4203.406598719263
 40
4228.864741751029
 40
4228.864741751029
 40
4228.864741751029
 40
4228.864741751029
 10
3753.301636829666
 20
-423.6648117524982
 30
-0.0000000000004832
 10
3754.060487196676
 20
-421.8975283634123
 30
-0.0000000000004832
 10
3754.862577314903
 20
-420.1526843126194
 30
-0.0000000000004832
 10
3755.704372371122
 20
-418.4297439977879
 30
-0.0000000000004832
  0
SPLINE
  5
123
330
1F
100
AcDbEntity
  8
图层 03
100
AcDbSpline
210
0.0
220
0.0
230
1.0
 70
     8
 71
     3
 72
     8
 73
     4
 74
     0
 42
0.0000000001
 43
0.0000000001
 40
4228.864741751029
 40
4228.864741751029
 40
4228.864741751029
 40
4228.864741751029
 40
4266.48943783996
 40
4266.48943783996
 40
4266.48943783996
 40
4266.48943783996
 10
3755.704372371122
 20
-418.4297439977879
 30
-0.0000000000004832
 10
3757.136506673475
 20
-415.9971791126575
 30
-0.0000000000004832
 10
3758.909625141151
 20
-413.8259121388637
 30
-0.0000000000004832
 10
3760.893824546878
 20
-411.8700894318317
 30
-0.0000000000004832
  0
SPLINE
  5
124
330
1F
100
AcDbEntity
  8
图层 03
100
AcDbSpline
210
0.0
220
0.0
230
1.0
 70
     8
 71
     3
 72
     8
 73
     4
 74
     0
 42
0.0000000001
 43
0.0000000001
 40
4266.48943783996
 40
4266.48943783996
 40
4266.48943783996
 40
4266.48943783996
 40
4303.748569971269
 40
4303.748569971269
 40
4303.748569971269
 40
4303.748569971269
 10
3760.893824546878
 20
-411.8700894318317
 30
-0.0000000000004832
 10
3761.678423321675
 20
-409.1382595302903
 30
-0.0000000000004832
 10
3762.59681203391
 20
-406.4773760557789
 30
-0.0000000000004832
 10
3763.793540722545
 20
-403.9265960135202
 30
-0.0000000000004832
  0
SPLINE
  5
125
330
1F
100
AcDbEntity
  8
图层 03
100
AcDbSpline
210
0.0
220
0.0
230
1.0
 70
     8
 71
     3
 72
     8
 73
     4
 74
     0
 42
0.0000000001
 43
0.0000000001
 40
4303.748569971269
 40
4303.748569971269
 40
4303.748569971269
 40
4303.748569971269
 40
4335.619946373075
 40
4335.619946373075
 40
4335.619946373075
 40
4335.619946373075
 10
3763.793540722545
 20
-403.9265960135202
 30
-0.0000000000004832
 10
3766.027902281499
 20
-404.93685951749
 30
-0.0000000000004832
 10
3768.255516652195
 20
-405.9978639651367
 30
-0.0000000000004832
 10
3770.461687401
 20
-407.0789778233253
 30
-0.0000000000004832
  0
SPLINE
  5
126
330
1F
100
AcDbEntity
  8
图层 03
100
AcDbSpline
210
0.0
220
0.0
230
1.0
 70
     8
 71
     3
 72
     8
 73
     4
 74
     0
 42
0.0000000001
 43
0.0000000001
 40
4335.619946373075
 40
4335.619946373075
 40
4335.619946373075
 40
4335.619946373075
 40
4401.030824362294
 40
4401.030824362294
 40
4401.030824362294
 40
4401.030824362294
 10
3770.461687401
 20
-407.0789778233253
 30
-0.0000000000004832
 10
3775.281947586519
 20
-406.3695170385762
 30
-0.0000000000004832
 10
3780.104546317626
 20
-405.6710977686871
 30
-0.0000000000004832
 10
3784.934407137197
 20
-405.0135789290734
 30
-0.0000000000004832
  0
SPLINE
  5
127
330
1F
100
AcDbEntity
  8
图层 03
100
AcDbSpline
210
0.0
220
0.0
230
1.0
 70
     8
 71
     3
 72
     8
 73
     4
 74
     0
 42
0.0000000001
 43
0.0000000001
 40
4401.030824362294
 40
4401.030824362294
 40
4401.030824362294
 40
4401.030824362294
 40
4464.537156798877
 40
4464.537156798877
 40
4464.537156798877
 40
4464.537156798877
 10
3784.934407137197
 20
-405.0135789290734
 30
-0.0000000000004832
 10
3789.263227759176
 20
-403.1954879912028
 30
-0.0000000000004832
 10
3793.587060913473
 20
-401.3658005255945
 30
-0.0000000000004832
 10
3797.902343052037
 20
-399.5171665487389
 30
-0.0000000000004832
  0
SPLINE
  5
128
330
1F
100
AcDbEntity
  8
图层 03
100
AcDbSpline
210
0.0
220
0.0
230
1.0
 70
     8
 71
     3
 72
     8
 73
     4
 74
     0
 42
0.0000000001
 43
0.0000000001
 40
4464.537156798877
 40
4464.537156798877
 40
4464.537156798877
 40
4464.537156798877
 40
4477.004150657616
 40
4477.004150657616
 40
4477.004150657616
 40
4477.004150657616
 10
3797.902343052037
 20
-399.5171665487389
 30
-0.0000000000004832
 10
3798.634794641165
 20
-398.9575823064456
 30
-0.0000000000004832
 10
3799.367690923073
 20
-398.3985980856302
 30
-0.0000000000004832
 10
3800.101027724992
 20
-397.8402135962301
 30
-0.0000000000004832
  0
SPLINE
  5
129
330
1F
100
AcDbEntity
  8
图层 03
100
AcDbSpline
210
0.0
220
0.0
230
1.0
 70
     8
 71
     3
 72
     8
 73
     4
 74
     0
 42
0.0000000001
 43
0.0000000001
 40
4477.004150657616
 40
4477.004150657616
 40
4477.004150657616
 40
4477.004150657616
 40
4522.554388642186
 40
4522.554388642186
 40
4522.554388642186
 40
4522.554388642186
 10
3800.101027724992
 20
-397.8402135962301
 30
-0.0000000000004832
 10
3802.958168743851
 20
-396.0636088245246
 30
-0.0000000000004832
 10
3805.829766075315
 20
-394.3097955265379
 30
-0.0000000000004832
 10
3808.716514268862
 20
-392.5823548580183
 30
-0.0000000000004832
  0
SPLINE
  5
12A
330
1F
100
AcDbEntity
  8
图层 03
100
AcDbSpline
210
0.0
220
0.0
230
1.0
 70
     8
 71
     3
 72
     8
 73
     4
 74
     0
 42
0.0000000001
 43
0.0000000001
 40
4522.554388642186
 40
4522.554388642186
 40
4522.554388642186
 40
4522.554388642186
 40
4568.234738931801
 40
4568.234738931801
 40
4568.234738931801
 40
4568.234738931801
 10
3808.716514268862
 20
-392.5823548580183
 30
-0.0000000000004832
 10
3811.085665653675
 20
-390.1613107186715
 30
-0.0000000000004832
 10
3813.538661791156
 20
-387.8223708792937
 30
-0.0000000000004832
 10
3816.043948973369
 20
-385.5516460994286
 30
-0.0000000000004832
  0
SPLINE
  5
12B
330
1F
100
AcDbEntity
  8
图层 03
100
AcDbSpline
210
0.0
220
0.0
230
1.0
 70
     8
 71
     3
 72
     8
 73
     4
 74
     0
 42
0.0000000001
 43
0.0000000001
 40
4568.234738931801
 40
4568.234738931801
 40
4568.234738931801
 40
4568.234738931801
 40
4596.693431676059
 40
4596.693431676059
 40
4596.693431676059
 40
4596.693431676059
 10
3816.043948973369
 20
-385.5516460994286
 30
-0.0000000000004832
 10
3817.044373505153
 20
-383.6677389589114
 30
-0.0000000000004832
 10
3818.132810953054
 20
-381.8168612741597
 30
-0.0000000000004832
 10
3819.265193224
 20
-380.0198108760114
 30
-0.0000000000004832
  0
SPLINE
  5
12C
330
1F
100
AcDbEntity
  8
图层 03
100
AcDbSpline
210
0.0
220
0.0
230
1.0
 70
     8
 71
     3
 72
     8
 73
     4
 74
     0
 42
0.0000000001
 43
0.0000000001
 40
4596.693431676059
 40
4596.693431676059
 40
4596.693431676059
 40
4596.693431676059
 40
4604.686711628114
 40
4604.686711628114
 40
4604.686711628114
 40
4604.686711628114
 10
3819.265193224
 20
-380.0198108760114
 30
-0.0000000000004832
 10
3819.583591754908
 20
-379.5130307535154
 30
-0.0000000000004832
 10
3819.901708337979
 20
-379.0060518331768
 30
-0.0000000000004832
 10
3820.219551829137
 20
-378.4988816487469
 30
-0.0000000000004832
  0
SPLINE
  5
12D
330
1F
100
AcDbEntity
  8
图层 03
100
AcDbSpline
210
0.0
220
0.0
230
1.0
 70
     8
 71
     3
 72
     8
 73
     4
 74
     0
 42
0.0000000001
 43
0.0000000001
 40
4604.686711628114
 40
4604.686711628114
 40
4604.686711628114
 40
4604.686711628114
 40
4638.226301558429
 40
4638.226301558429
 40
4638.226301558429
 40
4638.226301558429
 10
3820.219551829137
 20
-378.4988816487469
 30
-0.0000000000004832
 10
3820.924016380561
 20
-376.0435665120347
 30
-0.0000000000004832
 10
3821.644749130734
 20
-373.593934614214
 30
-0.0000000000004832
 10
3822.378516657379
 20
-371.1494230479465
 30
-0.0000000000004832
  0
SPLINE
  5
12E
330
1F
100
AcDbEntity
  8
图层 03
100
AcDbSpline
210
0.0
220
0.0
230
1.0
 70
     8
 71
     3
 72
     8
 73
     4
 74
     0
 42
0.0000000001
 43
0.0000000001
 40
4638.226301558429
 40
4638.226301558429
 40
4638.226301558429
 40
4638.226301558429
 40
4669.42559529782
 40
4669.42559529782
 40
4669.42559529782
 40
4669.42559529782
 10
3822.378516657379
 20
-371.1494230479465
 30
-0.0000000000004832
 10
3822.668102145867
 20
-368.7659700495427
 30
-0.0000000000004832
 10
3822.961911393807
 20
-366.3832966506043
 30
-0.0000000000004832
 10
3823.259447942524
 20
-364.0013525930768
 30
-0.0000000000004832
  0
SPLINE
  5
12F
330
1F
100
AcDbEntity
  8
图层 03
100
AcDbSpline
210
0.0
220
0.0
230
1.0
 70
     8
 71
     3
 72
     8
 73
     4
 74
     0
 42
0.0000000001
 43
0.0000000001
 40
4669.42559529782
 40
4669.42559529782
 40
4669.42559529782
 40
4669.42559529782
 40
4698.70538159872
 40
4698.70538159872
 40
4698.70538159872
 40
4698.70538159872
 10
3823.259447942524
 20
-364.0013525930768
 30
-0.0000000000004832
 10
3823.210678482587
 20
-361.72883663896
 30
-0.0000000000004832
 10
3823.161600495735
 20
-359.4563095032065
 30
-0.0000000000004832
 10
3823.112216177279
 20
-357.1837715309736
 30
-0.0000000000004832
  0
SPLINE
  5
130
330
1F
100
AcDbEntity
  8
图层 03
100
AcDbSpline
210
0.0
220
0.0
230
1.0
 70
     8
 71
     3
 72
     8
 73
     4
 74
     0
 42
0.0000000001
 43
0.0000000001
 40
4698.70538159872
 40
4698.70538159872
 40
4698.70538159872
 40
4698.70538159872
 40
4727.004181232621
 40
4727.004181232621
 40
4727.004181232621
 40
4727.004181232621
 10
3823.112216177279
 20
-357.1837715309736
 30
-0.0000000000004832
 10
3822.779338841051
 20
-354.9970761264813
 30
-0.0000000000004832
 10
3822.446587440041
 20
-352.8103675299791
 30
-0.0000000000004832
 10
3822.113979366113
 20
-350.6236439764431
 30
-0.0000000000004832
  0
SPLINE
  5
131
330
1F
100
AcDbEntity
  8
图层 03
100
AcDbSpline
210
0.0
220
0.0
230
1.0
 70
     8
 71
     3
 72
     8
 73
     4
 74
     0
 42
0.0000000001
 43
0.0000000001
 40
4727.004181232621
 40
4727.004181232621
 40
4727.004181232621
 40
4727.004181232621
 40
4756.439420447178
 40
4756.439420447178
 40
4756.439420447178
 40
4756.439420447178
 10
3822.113979366113
 20
-350.6236439764431
 30
-0.0000000000004832
 10
3821.549927103188
 20
-348.3836224996788
 30
-0.0000000000004832
 10
3820.986189564102
 20
-346.1435338262029
 30
-0.0000000000004832
 10
3820.422811361191
 20
-343.903368795976
 30
-0.0000000000004832
  0
SPLINE
  5
132
330
1F
100
AcDbEntity
  8
图层 03
100
AcDbSpline
210
0.0
220
0.0
230
1.0
 70
     8
 71
     3
 72
    11
 73
     7
 74
     0
 42
0.0000000001
 43
0.0000000001
 40
4756.439420447178
 40
4756.439420447178
 40
4756.439420447178
 40
4756.439420447178
 40
4789.201516413528
 40
4789.201516413528
 40
4789.201516413528
 40
4827.627321742655
 40
4827.627321742655
 40
4827.627321742655
 40
4827.627321742655
 10
3820.422811361191
 20
-343.903368795976
 30
-0.0000000000004832
 10
3819.6844379791
 20
-341.4366181655428
 30
-0.0000000000004832
 10
3818.945891007991
 20
-338.9699135957597
 30
-0.0000000000004832
 10
3818.207170919388
 20
-336.5032550484829
 30
-0.0000000000004832
 10
3817.362440573587
 20
-333.6045119074477
 30
-0.0000000000004832
 10
3816.513926405604
 20
-330.7067303767461
 30
-0.0000000000004832
 10
3815.661490325299
 20
-327.8099823481573
 30
-0.0000000000004832
  0
SPLINE
  5
133
330
1F
100
AcDbEntity
  8
图层 03
100
AcDbSpline
210
0.0
220
0.0
230
1.0
 70
     8
 71
     3
 72
    11
 73
     7
 74
     0
 42
0.0000000001
 43
0.0000000001
 40
4827.627321742655
 40
4827.627321742655
 40
4827.627321742655
 40
4827.627321742655
 40
4872.313091090014
 40
4872.313091090014
 40
4872.313091090014
 40
4917.250441997636
 40
4917.250441997636
 40
4917.250441997636
 40
4917.250441997636
 10
3815.661490325299
 20
-327.8099823481573
 30
-0.0000000000004832
 10
3814.768167130919
 20
-324.4440403062792
 30
-0.0000000000004832
 10
3813.829623829051
 20
-321.0090162875126
 30
-0.0000000000004832
 10
3812.870791141842
 20
-317.658703643571
 30
-0.0000000000004832
 10
3811.903112269691
 20
-314.3428975009516
 30
-0.0000000000004832
 10
3810.81792098003
 20
-310.820431741693
 30
-0.0000000000004832
 10
3809.685020574724
 20
-307.5513823934219
 30
-0.0000000000004832
  0
SPLINE
  5
134
330
1F
100
AcDbEntity
  8
图层 03
100
AcDbSpline
210
0.0
220
0.0
230
1.0
 70
     8
 71
     3
 72
     8
 73
     4
 74
     0
 42
0.0000000001
 43
0.0000000001
 40
4917.250441997636
 40
4917.250441997636
 40
4917.250441997636
 40
4917.250441997636
 40
4929.390843507172
 40
4929.390843507172
 40
4929.390843507172
 40
4929.390843507172
 10
3809.685020574724
 20
-307.5513823934219
 30
-0.0000000000004832
 10
3809.318628124961
 20
-306.6700705629033
 30
-0.0000000000004832
 10
3808.941861174495
 20
-305.7859435950087
 30
-0.0000000000004832
 10
3808.557469012688
 20
-304.9119687060432
 30
-0.0000000000004832
  0
SPLINE
  5
135
330
1F
100
AcDbEntity
  8
图层 03
100
AcDbSpline
210
0.0
220
0.0
230
1.0
 70
     8
 71
     3
 72
     8
 73
     4
 74
     0
 42
0.0000000001
 43
0.0000000001
 40
4929.390843507172
 40
4929.390843507172
 40
4929.390843507172
 40
4929.390843507172
 40
4956.020825446365
 40
4956.020825446365
 40
4956.020825446365
 40
4956.020825446365
 10
3808.557469012688
 20
-304.9119687060432
 30
-0.0000000000004832
 10
3807.817006618458
 20
-302.9750159944759
 30
-0.0000000000004832
 10
3807.023988125503
 20
-300.9826284100061
 30
-0.0000000000004832
 10
3806.209144084477
 20
-299.0739187698052
 30
-0.0000000000004832
  0
SPLINE
  5
136
330
1F
100
AcDbEntity
  8
图层 03
100
AcDbSpline
210
0.0
220
0.0
230
1.0
 70
     8
 71
     3
 72
     8
 73
     4
 74
     0
 42
0.0000000001
 43
0.0000000001
 40
4956.020825446365
 40
4956.020825446365
 40
4956.020825446365
 40
4956.020825446365
 40
4986.953355262589
 40
4986.953355262589
 40
4986.953355262589
 40
4986.953355262589
 10
3806.209144084477
 20
-299.0739187698052
 30
-0.0000000000004832
 10
3804.90161687983
 20
-297.059819250321
 30
-0.0000000000004832
 10
3803.503119124058
 20
-294.9682889253959
 30
-0.0000000000004832
 10
3802.114640414688
 20
-293.0100195754898
 30
-0.0000000000004832
  0
SPLINE
  5
137
330
1F
100
AcDbEntity
  8
图层 03
100
AcDbSpline
210
0.0
220
0.0
230
1.0
 70
     8
 71
     3
 72
     8
 73
     4
 74
     0
 42
0.0000000001
 43
0.0000000001
 40
4986.953355262589
 40
4986.953355262589
 40
4986.953355262589
 40
4986.953355262589
 40
5013.392475334607
 40
5013.392475334607
 40
5013.392475334607
 40
5013.392475334607
 10
3802.114640414688
 20
-293.0100195754898
 30
-0.0000000000004832
 10
3800.472412418193
 20
-291.7595158562187
 30
-0.0000000000004832
 10
3798.835175543456
 20
-290.501569211403
 30
-0.0000000000004832
 10
3797.205142960415
 20
-289.2335926890768
 30
-0.0000000000004832
  0
SPLINE
  5
138
330
1F
100
AcDbEntity
  8
图层 03
100
AcDbSpline
210
0.0
220
0.0
230
1.0
 70
     8
 71
     3
 72
     8
 73
     4
 74
     0
 42
0.0000000001
 43
0.0000000001
 40
5013.392475334607
 40
5013.392475334607
 40
5013.392475334607
 40
5013.392475334607
 40
5039.322033429221
 40
5039.322033429221
 40
5039.322033429221
 40
5039.322033429221
 10
3797.205142960415
 20
-289.2335926890768
 30
-0.0000000000004832
 10
3795.335642458486
 20
-288.5567506359725
 30
-0.0000000000004832
 10
3793.462898156491
 20
-287.8907588444885
 30
-0.0000000000004832
 10
3791.587514268776
 20
-287.2348243239487
 30
-0.0000000000004832
  0
SPLINE
  5
139
330
1F
100
AcDbEntity
  8
图层 03
100
AcDbSpline
210
0.0
220
0.0
230
1.0
 70
     8
 71
     3
 72
     8
 73
     4
 74
     0
 42
0.0000000001
 43
0.0000000001
 40
5039.322033429221
 40
5039.322033429221
 40
5039.322033429221
 40
5039.322033429221
 40
5067.959574073286
 40
5067.959574073286
 40
5067.959574073286
 40
5067.959574073286
 10
3791.587514268776
 20
-287.2348243239487
 30
-0.0000000000004832
 10
3789.454052320027
 20
-287.1972273389796
 30
-0.0000000000004832
 10
3787.276076094003
 20
-287.2663990594324
 30
-0.0000000000004832
 10
3785.155914735948
 20
-287.3977215094512
 30
-0.0000000000004832
  0
SPLINE
  5
13A
330
1F
100
AcDbEntity
  8
图层 03
100
AcDbSpline
210
0.0
220
0.0
230
1.0
 70
     8
 71
     3
 72
     8
 73
     4
 74
     0
 42
0.0000000001
 43
0.0000000001
 40
5067.959574073286
 40
5067.959574073286
 40
5067.959574073286
 40
5067.959574073286
 40
5103.599804519496
 40
5103.599804519496
 40
5103.599804519496
 40
5103.599804519496
 10
3785.155914735948
 20
-287.3977215094512
 30
-0.0000000000004832
 10
3782.739236987685
 20
-288.3276530269098
 30
-0.0000000000004832
 10
3780.248105580129
 20
-289.4412060773307
 30
-0.0000000000004832
 10
3777.914956612469
 20
-290.55568633871
 30
-0.0000000000004832
  0
SPLINE
  5
13B
330
1F
100
AcDbEntity
  8
图层 03
100
AcDbSpline
210
0.0
220
0.0
230
1.0
 70
     8
 71
     3
 72
     8
 73
     4
 74
     0
 42
0.0000000001
 43
0.0000000001
 40
5103.599804519496
 40
5103.599804519496
 40
5103.599804519496
 40
5103.599804519496
 40
5109.379865795413
 40
5109.379865795413
 40
5109.379865795413
 40
5109.379865795413
 10
3777.914956612469
 20
-290.55568633871
 30
-0.0000000000004832
 10
3777.583977749459
 20
-290.8264152931113
 30
-0.0000000000004832
 10
3777.253892596787
 20
-291.0982921183268
 30
-0.0000000000004832
 10
3776.924624063236
 20
-291.3711806791141
 30
-0.0000000000004832
  0
SPLINE
  5
13C
330
1F
100
AcDbEntity
  8
图层 03
100
AcDbSpline
210
0.0
220
0.0
230
1.0
 70
     8
 71
     3
 72
     8
 73
     4
 74
     0
 42
0.0000000001
 43
0.0000000001
 40
5109.379865795413
 40
5109.379865795413
 40
5109.379865795413
 40
5109.379865795413
 40
5154.246287416949
 40
5154.246287416949
 40
5154.246287416949
 40
5154.246287416949
 10
3776.924624063235
 20
-291.3711806791139
 30
-0.0000000000004832
 10
3774.261845205206
 20
-293.285710118467
 30
-0.0000000000004832
 10
3771.564006577497
 20
-295.3382417471698
 30
-0.0000000000004832
 10
3768.983121450454
 20
-297.3647445449346
 30
-0.0000000000004832
  0
SPLINE
  5
13D
330
1F
100
AcDbEntity
  8
图层 03
100
AcDbSpline
210
0.0
220
0.0
230
1.0
 70
    11
 71
     3
 72
    29
 73
    25
 74
     0
 42
0.0000000001
 43
0.0000000001
 40
-15.70796326794897
 40
-15.70796326794897
 40
-15.70796326794897
 40
-15.70796326794897
 40
-14.72621556370216
 40
-13.74446785945534
 40
-12.76272015520853
 40
-12.27184630308513
 40
-11.78097245096172
 40
-11.29009859883832
 40
-10.79922474671491
 40
-9.817477042468102
 40
-8.835729338221292
 40
-8.344855486097888
 40
-7.853981633974483
 40
-7.363107781851078
 40
-6.872233929727672
 40
-5.890486225480862
 40
-4.908738521234051
 40
-4.417864669110646
 40
-3.926990816987241
 40
-3.436116964863836
 40
-2.945243112740431
 40
-1.963495408493621
 40
-0.9817477042468103
 40
0.0
 40
0.0
 40
0.0
 40
0.0
 10
3786.05006552645
 20
-366.6956959790855
 30
-0.0000000000004832
 10
3786.050065526445
 20
-367.0484735500249
 30
-0.0000000000004832
 10
3785.921831704969
 20
-367.8134465656038
 30
-0.0000000000004832
 10
3785.234424623766
 20
-368.8801073419783
 30
-0.0000000000004832
 10
3784.346391620646
 20
-369.453536225627
 30
-0.0000000000004832
 10
3783.591969890328
 20
-369.6639928087183
 30
-0.0000000000004832
 10
3783.050062352737
 20
-369.7115508997394
 30
-0.0000000000004832
 10
3782.508173857419
 20
-369.6639794668386
 30
-0.0000000000004832
 10
3781.753675958011
 20
-369.4536118296112
 30
-0.0000000000004832
 10
3780.865966869837
 20
-368.8797948393951
 30
-0.0000000000004832
 10
3780.292149346927
 20
-367.9920852654298
 30
-0.0000000000004832
 10
3780.081782993955
 20
-367.2375884446532
 30
-0.0000000000004832
 10
3780.034206792697
 20
-366.6956959790857
 30
-0.0000000000004832
 10
3780.081782993954
 20
-366.1538035135185
 30
-0.0000000000004832
 10
3780.292149346927
 20
-365.3993066927409
 30
-0.0000000000004832
 10
3780.865966869837
 20
-364.5115971187761
 30
-0.0000000000004832
 10
3781.753675958011
 20
-363.9377801285598
 30
-0.0000000000004832
 10
3782.508173857419
 20
-363.7274124913323
 30
-0.0000000000004832
 10
3783.050062352738
 20
-363.6798410584322
 30
-0.0000000000004832
 10
3783.591969890328
 20
-363.7273991494526
 30
-0.0000000000004832
 10
3784.346391620646
 20
-363.9378557325451
 30
-0.0000000000004832
 10
3785.234424623766
 20
-364.5112846161924
 30
-0.0000000000004832
 10
3785.921831704969
 20
-365.5779453925684
 30
-0.0000000000004832
 10
3786.050065526445
 20
-366.342918408146
 30
-0.0000000000004832
 10
3786.05006552645
 20
-366.6956959790855
 30
-0.0000000000004832
  0
SPLINE
  5
13E
330
1F
100
AcDbEntity
  8
图层 03
100
AcDbSpline
210
0.0
220
0.0
230
1.0
 70
    11
 71
     3
 72
    29
 73
    25
 74
     0
 42
0.0000000001
 43
0.0000000001
 40
-15.70796326794897
 40
-15.70796326794897
 40
-15.70796326794897
 40
-15.70796326794897
 40
-14.72621556370216
 40
-13.74446785945534
 40
-12.76272015520853
 40
-12.27184630308513
 40
-11.78097245096172
 40
-11.29009859883832
 40
-10.79922474671491
 40
-9.817477042468102
 40
-8.835729338221292
 40
-8.344855486097888
 40
-7.853981633974483
 40
-7.363107781851078
 40
-6.872233929727672
 40
-5.890486225480862
 40
-4.908738521234051
 40
-4.417864669110646
 40
-3.926990816987241
 40
-3.436116964863836
 40
-2.945243112740431
 40
-1.963495408493621
 40
-0.9817477042468103
 40
0.0
 40
0.0
 40
0.0
 40
0.0
 10
3730.005116047503
 20
-416.9285049705309
 30
-0.0000000000004832
 10
3730.005116047498
 20
-417.2812825414708
 30
-0.0000000000004832
 10
3729.876882226023
 20
-418.0462555570491
 30
-0.0000000000004832
 10
3729.18947514482
 20
-419.1129163334233
 30
-0.0000000000004832
 10
3728.301442141699
 20
-419.6863452170714
 30
-0.0000000000004832
 10
3727.547020411382
 20
-419.896801800164
 30
-0.0000000000004832
 10
3727.005112873791
 20
-419.9443598911841
 30
-0.0000000000004832
 10
3726.463224378473
 20
-419.8967884582845
 30
-0.0000000000004832
 10
3725.708726479064
 20
-419.6864208210561
 30
-0.0000000000004832
 10
3724.821017390891
 20
-419.1126038308407
 30
-0.0000000000004832
 10
3724.24719986798
 20
-418.2248942568749
 30
-0.0000000000004832
 10
3724.036833515008
 20
-417.4703974360983
 30
-0.0000000000004832
 10
3723.989257313751
 20
-416.9285049705311
 30
-0.0000000000004832
 10
3724.036833515008
 20
-416.3866125049635
 30
-0.0000000000004832
 10
3724.24719986798
 20
-415.6321156841863
 30
-0.0000000000004832
 10
3724.821017390891
 20
-414.7444061102221
 30
-0.0000000000004832
 10
3725.708726479065
 20
-414.1705891200049
 30
-0.0000000000004832
 10
3726.463224378473
 20
-413.9602214827777
 30
-0.0000000000004832
 10
3727.005112873791
 20
-413.9126500498777
 30
-0.0000000000004832
 10
3727.547020411382
 20
-413.9602081408976
 30
-0.0000000000004832
 10
3728.301442141699
 20
-414.1706647239897
 30
-0.0000000000004832
 10
3729.189475144819
 20
-414.7440936076387
 30
-0.0000000000004832
 10
3729.876882226023
 20
-415.8107543840131
 30
-0.0000000000004832
 10
3730.005116047498
 20
-416.5757273995915
 30
-0.0000000000004832
 10
3730.005116047503
 20
-416.9285049705309
 30
-0.0000000000004832
  0
POLYLINE
  5
140
330
1F
100
AcDbEntity
  8
图层01
100
AcDb2dPolyline
 66
     1
 10
0.0
 20
0.0
 30
0.0
 70
     1
  0
VERTEX
  5
141
330
140
100
AcDbEntity
  8
图层01
100
AcDbVertex
100
AcDb2dVertex
 10
3610.0
 20
-600.0
 30
0.0
  0
VERTEX
  5
142
330
140
100
AcDbEntity
  8
图层01
100
AcDbVertex
100
AcDb2dVertex
 10
4010.0
 20
-600.0
 30
0.0
  0
VERTEX
  5
143
330
140
100
AcDbEntity
  8
图层01
100
AcDbVertex
100
AcDb2dVertex
 10
4010.0
 20
-200.0
 30
0.0
  0
VERTEX
  5
144
330
140
100
AcDbEntity
  8
图层01
100
AcDbVertex
100
AcDb2dVertex
 10
3610.0
 20
-200.0
 30
0.0
  0
SEQEND
  5
145
330
140
100
AcDbEntity
  8
图层01
  0
ENDSEC
  0
SECTION
  2
OBJECTS
  0
DICTIONARY
  5
C
330
0
100
AcDbDictionary
281
     1
  3
ACAD_DETAILVIEWSTYLE
350
181
  3
ACAD_GROUP
350
D
  3
ACAD_LAYOUT
350
1A
  3
ACAD_MATERIAL
350
43
  3
ACAD_MLEADERSTYLE
350
5B
  3
ACAD_MLINESTYLE
350
17
  3
ACAD_PLOTSETTINGS
350
19
  3
ACAD_PLOTSTYLENAME
350
E
  3
ACAD_SCALELIST
350
47
  3
ACAD_SECTIONVIEWSTYLE
350
182
  3
ACAD_TABLESTYLE
350
59
  3
ACAD_VISUALSTYLE
350
2A
  3
ACDB_RECOMPOSE_DATA
350
17E
  3
AcDbVariableDictionary
350
146
  0
SUN
  5
5D
330
29
100
AcDbSun
 90
        1
290
     0
 63
     7
421
 16777215
 40
1.0
291
     1
 91
  2455826
 92
 54000000
292
     0
 70
     2
 71
   256
280
     1
  0
DICTIONARY
  5
181
102
{ACAD_REACTORS
330
C
102
}
330
C
100
AcDbDictionary
281
     1
  0
DICTIONARY
  5
D
102
{ACAD_REACTORS
330
C
102
}
330
C
100
AcDbDictionary
281
     1
  0
DICTIONARY
  5
1A
102
{ACAD_REACTORS
330
C
102
}
330
C
100
AcDbDictionary
281
     1
  3
Layout1
350
1E
  3
Layout2
350
26
  3
Model
350
22
  0
DICTIONARY
  5
43
102
{ACAD_REACTORS
330
C
102
}
330
C
100
AcDbDictionary
281
     1
  3
ByBlock
350
45
  3
ByLayer
350
44
  3
Global
350
46
  0
DICTIONARY
  5
5B
102
{ACAD_REACTORS
330
C
102
}
330
C
100
AcDbDictionary
281
     1
  3
Standard
350
5C
  0
DICTIONARY
  5
17
102
{ACAD_REACTORS
330
C
102
}
330
C
100
AcDbDictionary
281
     1
  3
Standard
350
18
  0
DICTIONARY
  5
19
102
{ACAD_REACTORS
330
C
102
}
330
C
100
AcDbDictionary
281
     1
  0
ACDBDICTIONARYWDFLT
  5
E
102
{ACAD_REACTORS
330
C
102
}
330
C
100
AcDbDictionary
281
     1
  3
Normal
350
F
100
AcDbDictionaryWithDefault
340
F
  0
DICTIONARY
  5
47
102
{ACAD_REACTORS
330
C
102
}
330
C
100
AcDbDictionary
281
     1
  3
A0
350
48
  3
A1
350
49
  3
A2
350
4A
  3
A3
350
4B
  3
A4
350
4C
  3
A5
350
4D
  3
A6
350
4E
  3
A7
350
4F
  3
A8
350
50
  3
A9
350
51
  3
B1
350
52
  3
B2
350
53
  3
B3
350
54
  3
B4
350
55
  3
B5
350
56
  3
B6
350
57
  3
B7
350
58
  0
DICTIONARY
  5
182
102
{ACAD_REACTORS
330
C
102
}
330
C
100
AcDbDictionary
281
     1
  0
DICTIONARY
  5
59
102
{ACAD_REACTORS
330
C
102
}
330
C
100
AcDbDictionary
281
     1
  3
Standard
350
5A
  0
DICTIONARY
  5
2A
102
{ACAD_REACTORS
330
C
102
}
330
C
100
AcDbDictionary
281
     1
  3
2dWireframe
350
2F
  3
Basic
350
32
  3
Brighten
350
36
  3
ColorChange
350
3A
  3
Conceptual
350
34
  3
Dim
350
35
  3
EdgeColorOff
350
3D
  3
Facepattern
350
39
  3
Flat
350
2B
  3
FlatWithEdges
350
2C
  3
Gouraud
350
2D
  3
GouraudWithEdges
350
2E
  3
Hidden
350
31
  3
JitterOff
350
3B
  3
Linepattern
350
38
  3
OverhangOff
350
3C
  3
Realistic
350
33
  3
Shaded
350
42
  3
Shaded with edges
350
41
  3
Shades of Gray
350
3E
  3
Sketchy
350
3F
  3
Thicken
350
37
  3
Wireframe
350
30
  3
X-Ray
350
40
  0
XRECORD
  5
17E
102
{ACAD_REACTORS
330
C
102
}
330
C
100
AcDbXrecord
280
     1
 90
        1
330
5A
  0
DICTIONARY
  5
146
102
{ACAD_REACTORS
330
C
102
}
330
C
100
AcDbDictionary
281
     1
  3
CANNOSCALE
350
147
  3
CMLEADERSTYLE
350
180
  3
CTABLESTYLE
350
17F
  3
XCLIPFRAME
350
148
  0
LAYOUT
  5
1E
102
{ACAD_REACTORS
330
1A
102
}
330
1A
100
AcDbPlotSettings
  1

  2
none_device
  4

  6

 40
0.0
 41
0.0
 42
0.0
 43
0.0
 44
0.0
 45
0.0
 46
0.0
 47
0.0
 48
0.0
 49
0.0
140
0.0
141
0.0
142
1.0
143
1.0
 70
   688
 72
     0
 73
     0
 74
     5
  7

 75
    16
 76
     0
 77
     2
 78
   300
147
1.0
148
0.0
149
0.0
100
AcDbLayout
  1
Layout1
 70
     1
 71
     1
 10
0.0
 20
0.0
 11
12.0
 21
9.0
 12
0.0
 22
0.0
 32
0.0
 14
1.000000000000000E+20
 24
1.000000000000000E+20
 34
1.000000000000000E+20
 15
-1.000000000000000E+20
 25
-1.000000000000000E+20
 35
-1.000000000000000E+20
146
0.0
 13
0.0
 23
0.0
 33
0.0
 16
1.0
 26
0.0
 36
0.0
 17
0.0
 27
1.0
 37
0.0
 76
     0
330
1B
  0
LAYOUT
  5
26
102
{ACAD_REACTORS
330
1A
102
}
330
1A
100
AcDbPlotSettings
  1

  2
none_device
  4

  6

 40
0.0
 41
0.0
 42
0.0
 43
0.0
 44
0.0
 45
0.0
 46
0.0
 47
0.0
 48
0.0
 49
0.0
140
0.0
141
0.0
142
1.0
143
1.0
 70
   688
 72
     0
 73
     0
 74
     5
  7

 75
    16
 76
     0
 77
     2
 78
   300
147
1.0
148
0.0
149
0.0
100
AcDbLayout
  1
Layout2
 70
     1
 71
     2
 10
0.0
 20
0.0
 11
0.0
 21
0.0
 12
0.0
 22
0.0
 32
0.0
 14
0.0
 24
0.0
 34
0.0
 15
0.0
 25
0.0
 35
0.0
146
0.0
 13
0.0
 23
0.0
 33
0.0
 16
1.0
 26
0.0
 36
0.0
 17
0.0
 27
1.0
 37
0.0
 76
     0
330
23
  0
LAYOUT
  5
22
102
{ACAD_REACTORS
330
1A
102
}
330
1A
100
AcDbPlotSettings
  1

  2
none_device
  4
Letter_(8.50_x_11.00_Inches)
  6

 40
6.35
 41
6.35
 42
6.35000508
 43
6.35000508
 44
215.9
 45
279.4
 46
0.0
 47
0.0
 48
0.0
 49
0.0
140
0.0
141
0.0
142
1.0
143
1.0
 70
  1712
 72
     0
 73
     0
 74
     0
  7

 75
     0
 76
     0
 77
     2
 78
   300
147
1.0
148
0.0
149
0.0
100
AcDbLayout
  1
Model
 70
     1
 71
     0
 10
0.0
 20
0.0
 11
12.0
 21
9.0
 12
0.0
 22
0.0
 32
0.0
 14
1.000000000000000E+20
 24
1.000000000000000E+20
 34
1.000000000000000E+20
 15
-1.000000000000000E+20
 25
-1.000000000000000E+20
 35
-1.000000000000000E+20
146
0.0
 13
0.0
 23
0.0
 33
0.0
 16
1.0
 26
0.0
 36
0.0
 17
0.0
 27
1.0
 37
0.0
 76
     0
330
1F
331
29
  0
MATERIAL
  5
45
102
{ACAD_REACTORS
330
43
102
}
330
43
100
AcDbMaterial
  1
ByBlock
 72
     1
 94
      127
  0
MATERIAL
  5
44
102
{ACAD_REACTORS
330
43
102
}
330
43
100
AcDbMaterial
  1
ByLayer
 72
     1
 94
      127
  0
MATERIAL
  5
46
102
{ACAD_REACTORS
330
43
102
}
330
43
100
AcDbMaterial
  1
Global
 72
     1
 94
      127
  0
MLEADERSTYLE
  5
5C
102
{ACAD_REACTORS
330
5B
102
}
102
{ACAD_XDICTIONARY
360
17C
102
}
330
5B
100
AcDbMLeaderStyle
170
     2
171
     1
172
     0
 90
        2
 40
0.0
 41
0.0
173
     1
 91
-1056964608
340
14
 92
       -2
290
     1
 42
0.09
291
     1
 43
0.36
  3
Standard
341
0
 44
0.18
300

342
11
174
     1
178
     6
175
     1
176
     0
 93
-1056964608
 45
0.18
292
     0
297
     0
 46
0.18
343
0
 94
-1056964608
 47
1.0
 49
1.0
140
1.0
293
     1
141
0.0
294
     1
177
     0
142
1.0
295
     0
296
     0
143
0.125
1001
ACAD_MLEADERVER
1070
     2
  0
MLINESTYLE
  5
18
102
{ACAD_REACTORS
330
17
102
}
330
17
100
AcDbMlineStyle
  2
Standard
 70
     0
  3

 62
   256
 51
90.0
 52
90.0
 71
     2
 49
0.5
 62
   256
  6
BYLAYER
 49
-0.5
 62
   256
  6
BYLAYER
  0
ACDBPLACEHOLDER
  5
F
102
{ACAD_REACTORS
330
E
102
}
330
E
  0
SCALE
  5
48
102
{ACAD_REACTORS
330
47
102
}
330
47
100
AcDbScale
 70
     0
300
1:1
140
1.0
141
1.0
290
     1
  0
SCALE
  5
49
102
{ACAD_REACTORS
330
47
102
}
330
47
100
AcDbScale
 70
     0
300
1/128" = 1'-0"
140
0.0078125
141
12.0
290
     0
  0
SCALE
  5
4A
102
{ACAD_REACTORS
330
47
102
}
330
47
100
AcDbScale
 70
     0
300
1/64" = 1'-0"
140
0.015625
141
12.0
290
     0
  0
SCALE
  5
4B
102
{ACAD_REACTORS
330
47
102
}
330
47
100
AcDbScale
 70
     0
300
1/32" = 1'-0"
140
0.03125
141
12.0
290
     0
  0
SCALE
  5
4C
102
{ACAD_REACTORS
330
47
102
}
330
47
100
AcDbScale
 70
     0
300
1/16" = 1'-0"
140
0.0625
141
12.0
290
     0
  0
SCALE
  5
4D
102
{ACAD_REACTORS
330
47
102
}
330
47
100
AcDbScale
 70
     0
300
3/32" = 1'-0"
140
0.09375
141
12.0
290
     0
  0
SCALE
  5
4E
102
{ACAD_REACTORS
330
47
102
}
330
47
100
AcDbScale
 70
     0
300
1/8" = 1'-0"
140
0.125
141
12.0
290
     0
  0
SCALE
  5
4F
102
{ACAD_REACTORS
330
47
102
}
330
47
100
AcDbScale
 70
     0
300
3/16" = 1'-0"
140
0.1875
141
12.0
290
     0
  0
SCALE
  5
50
102
{ACAD_REACTORS
330
47
102
}
330
47
100
AcDbScale
 70
     0
300
1/4" = 1'-0"
140
0.25
141
12.0
290
     0
  0
SCALE
  5
51
102
{ACAD_REACTORS
330
47
102
}
330
47
100
AcDbScale
 70
     0
300
3/8" = 1'-0"
140
0.375
141
12.0
290
     0
  0
SCALE
  5
52
102
{ACAD_REACTORS
330
47
102
}
330
47
100
AcDbScale
 70
     0
300
1/2" = 1'-0"
140
0.5
141
12.0
290
     0
  0
SCALE
  5
53
102
{ACAD_REACTORS
330
47
102
}
330
47
100
AcDbScale
 70
     0
300
3/4" = 1'-0"
140
0.75
141
12.0
290
     0
  0
SCALE
  5
54
102
{ACAD_REACTORS
330
47
102
}
330
47
100
AcDbScale
 70
     0
300
1" = 1'-0"
140
1.0
141
12.0
290
     0
  0
SCALE
  5
55
102
{ACAD_REACTORS
330
47
102
}
330
47
100
AcDbScale
 70
     0
300
1-1/2" = 1'-0"
140
1.5
141
12.0
290
     0
  0
SCALE
  5
56
102
{ACAD_REACTORS
330
47
102
}
330
47
100
AcDbScale
 70
     0
300
3" = 1'-0"
140
3.0
141
12.0
290
     0
  0
SCALE
  5
57
102
{ACAD_REACTORS
330
47
102
}
330
47
100
AcDbScale
 70
     0
300
6" = 1'-0"
140
6.0
141
12.0
290
     0
  0
SCALE
  5
58
102
{ACAD_REACTORS
330
47
102
}
330
47
100
AcDbScale
 70
     0
300
1'-0" = 1'-0"
140
12.0
141
12.0
290
     0
  0
TABLESTYLE
  5
5A
102
{ACAD_REACTORS
330
59
102
}
102
{ACAD_XDICTIONARY
360
179
102
}
330
59
100
AcDbTableStyle
  3
Standard
 70
     0
 71
     0
 40
0.06
 41
0.06
280
     0
281
     0
  7
Standard
140
0.18
170
     2
 62
     0
 63
   257
283
     0
 90
        4
 91
        0
  1

274
    -2
284
     1
 64
     0
275
    -2
285
     1
 65
     0
276
    -2
286
     1
 66
     0
277
    -2
287
     1
 67
     0
278
    -2
288
     1
 68
     0
279
    -2
289
     1
 69
     0
  7
Standard
140
0.25
170
     5
 62
     0
 63
   257
283
     0
 90
        4
 91
        0
  1

274
    -2
284
     1
 64
     0
275
    -2
285
     1
 65
     0
276
    -2
286
     1
 66
     0
277
    -2
287
     1
 67
     0
278
    -2
288
     1
 68
     0
279
    -2
289
     1
 69
     0
  7
Standard
140
0.18
170
     5
 62
     0
 63
   257
283
     0
 90
        4
 91
        0
  1

274
    -2
284
     1
 64
     0
275
    -2
285
     1
 65
     0
276
    -2
286
     1
 66
     0
277
    -2
287
     1
 67
     0
278
    -2
288
     1
 68
     0
279
    -2
289
     1
 69
     0
  0
VISUALSTYLE
  5
2F
102
{ACAD_REACTORS
330
2A
102
}
102
{ACAD_XDICTIONARY
360
151
102
}
330
2A
100
AcDbVisualStyle
  2
2dWireframe
 70
     4
 71
     0
 72
     2
 73
     0
 90
        0
 40
0.6
 41
30.0
 62
     5
 63
     7
421
 16777215
 74
     1
 91
        4
 64
     7
 65
   257
 75
     1
175
     1
 42
1.0
 92
        0
 66
   257
 43
1.0
 76
     1
 77
     6
 78
     2
 67
     7
 79
     5
170
     0
171
     0
290
     0
174
     0
 93
        1
 44
0.0
173
     0
291
     0
 45
0.0
  0
VISUALSTYLE
  5
32
102
{ACAD_REACTORS
330
2A
102
}
102
{ACAD_XDICTIONARY
360
157
102
}
330
2A
100
AcDbVisualStyle
  2
Basic
 70
     7
 71
     1
 72
     0
 73
     1
 90
        0
 40
0.6
 41
30.0
 62
     5
 63
     7
421
 16777215
 74
     0
 91
        4
 64
     7
 65
   257
 75
     1
175
     1
 42
1.0
 92
        8
 66
     7
 43
1.0
 76
     1
 77
     6
 78
     2
 67
     7
 79
     5
170
     0
171
     0
290
     0
174
     0
 93
        1
 44
0.0
173
     0
291
     1
 45
0.0
  0
VISUALSTYLE
  5
36
102
{ACAD_REACTORS
330
2A
102
}
102
{ACAD_XDICTIONARY
360
15F
102
}
330
2A
100
AcDbVisualStyle
  2
Brighten
 70
    12
 71
     2
 72
     2
 73
     0
 90
        0
 40
0.6
 41
30.0
 62
     5
 63
     7
421
 16777215
 74
     1
 91
        4
 64
     7
 65
   257
 75
     1
175
     1
 42
1.0
 92
        8
 66
     7
 43
1.0
 76
     1
 77
     6
 78
     2
 67
     7
 79
     5
170
     0
171
     0
290
     0
174
     0
 93
        1
 44
50.0
173
     0
291
     1
 45
0.0
  0
VISUALSTYLE
  5
3A
102
{ACAD_REACTORS
330
2A
102
}
102
{ACAD_XDICTIONARY
360
167
102
}
330
2A
100
AcDbVisualStyle
  2
ColorChange
 70
    16
 71
     2
 72
     2
 73
     3
 90
        0
 40
0.6
 41
30.0
 62
     5
 63
     8
421
  8421504
 74
     1
 91
        4
 64
     7
 65
   257
 75
     1
175
     1
 42
1.0
 92
        8
 66
     8
424
  8421504
 43
1.0
 76
     1
 77
     6
 78
     2
 67
     7
 79
     5
170
     0
171
     0
290
     0
174
     0
 93
        1
 44
0.0
173
     0
291
     1
 45
0.0
  0
VISUALSTYLE
  5
34
102
{ACAD_REACTORS
330
2A
102
}
102
{ACAD_XDICTIONARY
360
15B
102
}
330
2A
100
AcDbVisualStyle
  2
Conceptual
 70
     9
 71
     3
 72
     2
 73
     0
 90
        0
 40
0.6
 41
30.0
 62
     5
 63
     7
421
 16777215
 74
     2
 91
        2
 64
     7
 65
   257
 75
     1
175
     1
 42
179.0
 92
        8
 66
     7
 43
1.0
 76
     1
 77
     6
 78
     2
 67
     7
 79
     3
170
     0
171
     0
290
     0
174
     0
 93
        1
 44
0.0
173
     0
291
     0
 45
0.0
  0
VISUALSTYLE
  5
35
102
{ACAD_REACTORS
330
2A
102
}
102
{ACAD_XDICTIONARY
360
15D
102
}
330
2A
100
AcDbVisualStyle
  2
Dim
 70
    11
 71
     2
 72
     2
 73
     0
 90
        0
 40
0.6
 41
30.0
 62
     5
 63
     7
421
 16777215
 74
     1
 91
        4
 64
     7
 65
   257
 75
     1
175
     1
 42
1.0
 92
        8
 66
     7
 43
1.0
 76
     1
 77
     6
 78
     2
 67
     7
 79
     5
170
     0
171
     0
290
     0
174
     0
 93
        1
 44
-50.0
173
     0
291
     1
 45
0.0
  0
VISUALSTYLE
  5
3D
102
{ACAD_REACTORS
330
2A
102
}
102
{ACAD_XDICTIONARY
360
16D
102
}
330
2A
100
AcDbVisualStyle
  2
EdgeColorOff
 70
    22
 71
     2
 72
     2
 73
     0
 90
        0
 40
0.6
 41
30.0
 62
     5
 63
     7
421
 16777215
 74
     1
 91
        4
 64
     7
 65
   257
 75
     1
175
     1
 42
1.0
 92
        8
 66
     7
 43
1.0
 76
     1
 77
     6
 78
     2
 67
     7
 79
     5
170
     0
171
     0
290
     0
174
     0
 93
        1
 44
0.0
173
     0
291
     1
 45
0.0
  0
VISUALSTYLE
  5
39
102
{ACAD_REACTORS
330
2A
102
}
102
{ACAD_XDICTIONARY
360
165
102
}
330
2A
100
AcDbVisualStyle
  2
Facepattern
 70
    15
 71
     2
 72
     2
 73
     0
 90
        0
 40
0.6
 41
30.0
 62
     5
 63
     7
421
 16777215
 74
     1
 91
        4
 64
     7
 65
   257
 75
     1
175
     1
 42
1.0
 92
        8
 66
     7
 43
1.0
 76
     1
 77
     6
 78
     2
 67
     7
 79
     5
170
     0
171
     0
290
     0
174
     0
 93
        1
 44
0.0
173
     0
291
     1
 45
0.0
  0
VISUALSTYLE
  5
2B
102
{ACAD_REACTORS
330
2A
102
}
102
{ACAD_XDICTIONARY
360
149
102
}
330
2A
100
AcDbVisualStyle
  2
Flat
 70
     0
 71
     2
 72
     1
 73
     1
 90
        2
 40
0.6
 41
30.0
 62
     5
 63
     7
421
 16777215
 74
     0
 91
        0
 64
     7
 65
   257
 75
     1
175
     1
 42
1.0
 92
        8
 66
     7
 43
1.0
 76
     1
 77
     6
 78
     2
 67
     7
 79
     5
170
     0
171
     0
290
     0
174
     0
 93
       13
 44
0.0
173
     0
291
     1
 45
0.0
  0
VISUALSTYLE
  5
2C
102
{ACAD_REACTORS
330
2A
102
}
102
{ACAD_XDICTIONARY
360
14B
102
}
330
2A
100
AcDbVisualStyle
  2
FlatWithEdges
 70
     1
 71
     2
 72
     1
 73
     1
 90
        2
 40
0.6
 41
30.0
 62
     5
 63
     7
421
 16777215
 74
     1
 91
        0
 64
     7
 65
   257
 75
     1
175
     1
 42
1.0
 92
        0
 66
   257
 43
1.0
 76
     1
 77
     6
 78
     2
 67
     7
 79
     5
170
     0
171
     0
290
     0
174
     0
 93
       13
 44
0.0
173
     0
291
     1
 45
0.0
  0
VISUALSTYLE
  5
2D
102
{ACAD_REACTORS
330
2A
102
}
102
{ACAD_XDICTIONARY
360
14D
102
}
330
2A
100
AcDbVisualStyle
  2
Gouraud
 70
     2
 71
     2
 72
     2
 73
     1
 90
        2
 40
0.6
 41
30.0
 62
     5
 63
     7
421
 16777215
 74
     0
 91
        0
 64
     7
 65
   257
 75
     1
175
     1
 42
1.0
 92
        0
 66
     7
 43
1.0
 76
     1
 77
     6
 78
     2
 67
     7
 79
     5
170
     0
171
     0
290
     0
174
     0
 93
       13
 44
0.0
173
     0
291
     1
 45
0.0
  0
VISUALSTYLE
  5
2E
102
{ACAD_REACTORS
330
2A
102
}
102
{ACAD_XDICTIONARY
360
14F
102
}
330
2A
100
AcDbVisualStyle
  2
GouraudWithEdges
 70
     3
 71
     2
 72
     2
 73
     1
 90
        2
 40
0.6
 41
30.0
 62
     5
 63
     7
421
 16777215
 74
     1
 91
        0
 64
     7
 65
   257
 75
     1
175
     1
 42
1.0
 92
        0
 66
   257
 43
1.0
 76
     1
 77
     6
 78
     2
 67
     7
 79
     5
170
     0
171
     0
290
     0
174
     0
 93
       13
 44
0.0
173
     0
291
     1
 45
0.0
  0
VISUALSTYLE
  5
31
102
{ACAD_REACTORS
330
2A
102
}
102
{ACAD_XDICTIONARY
360
155
102
}
330
2A
100
AcDbVisualStyle
  2
Hidden
 70
     6
 71
     1
 72
     2
 73
     2
 90
        0
 40
0.6
 41
30.0
 62
     5
 63
     7
421
 16777215
 74
     2
 91
        2
 64
     7
 65
   257
 75
     2
175
     1
 42
40.0
 92
        0
 66
   257
 43
1.0
 76
     1
 77
     6
 78
     2
 67
     7
 79
     3
170
     0
171
     0
290
     0
174
     0
 93
        1
 44
0.0
173
     0
291
     0
 45
0.0
  0
VISUALSTYLE
  5
3B
102
{ACAD_REACTORS
330
2A
102
}
102
{ACAD_XDICTIONARY
360
169
102
}
330
2A
100
AcDbVisualStyle
  2
JitterOff
 70
    20
 71
     2
 72
     2
 73
     0
 90
        0
 40
0.6
 41
30.0
 62
     5
 63
     7
421
 16777215
 74
     1
 91
        4
 64
     7
 65
   257
 75
     1
175
     1
 42
1.0
 92
       10
 66
     7
 43
1.0
 76
     1
 77
     6
 78
     2
 67
     7
 79
     5
170
     0
171
     0
290
     0
174
     0
 93
        1
 44
0.0
173
     0
291
     1
 45
0.0
  0
VISUALSTYLE
  5
38
102
{ACAD_REACTORS
330
2A
102
}
102
{ACAD_XDICTIONARY
360
163
102
}
330
2A
100
AcDbVisualStyle
  2
Linepattern
 70
    14
 71
     2
 72
     2
 73
     0
 90
        0
 40
0.6
 41
30.0
 62
     5
 63
     7
421
 16777215
 74
     1
 91
        4
 64
     7
 65
   257
 75
     7
175
     7
 42
1.0
 92
        8
 66
     7
 43
1.0
 76
     1
 77
     6
 78
     2
 67
     7
 79
     5
170
     0
171
     0
290
     0
174
     0
 93
        1
 44
0.0
173
     0
291
     1
 45
0.0
  0
VISUALSTYLE
  5
3C
102
{ACAD_REACTORS
330
2A
102
}
102
{ACAD_XDICTIONARY
360
16B
102
}
330
2A
100
AcDbVisualStyle
  2
OverhangOff
 70
    21
 71
     2
 72
     2
 73
     0
 90
        0
 40
0.6
 41
30.0
 62
     5
 63
     7
421
 16777215
 74
     1
 91
        4
 64
     7
 65
   257
 75
     1
175
     1
 42
1.0
 92
        9
 66
     7
 43
1.0
 76
     1
 77
     6
 78
     2
 67
     7
 79
     5
170
     0
171
     0
290
     0
174
     0
 93
        1
 44
0.0
173
     0
291
     1
 45
0.0
  0
VISUALSTYLE
  5
33
102
{ACAD_REACTORS
330
2A
102
}
102
{ACAD_XDICTIONARY
360
159
102
}
330
2A
100
AcDbVisualStyle
  2
Realistic
 70
     8
 71
     2
 72
     3
 73
     0
 90
        2
 40
0.6
 41
30.0
 62
     5
 63
     7
421
 16777215
 74
     0
 91
        0
 64
     7
 65
   257
 75
     1
175
     1
 42
1.0
 92
        8
 66
   257
 43
1.0
 76
     1
 77
     6
 78
     2
 67
     7
 79
     3
170
     0
171
     0
290
     0
174
     0
 93
       13
 44
0.0
173
     0
291
     0
 45
0.0
  0
VISUALSTYLE
  5
42
102
{ACAD_REACTORS
330
2A
102
}
102
{ACAD_XDICTIONARY
360
177
102
}
330
2A
100
AcDbVisualStyle
  2
Shaded
 70
    27
 71
     2
 72
     2
 73
     1
 90
        2
 40
0.6
 41
30.0
 62
     5
 63
     7
421
 16777215
 74
     0
 91
        4
 64
     7
 65
   257
 75
     1
175
     1
 42
1.0
 92
        8
 66
   257
 43
1.0
 76
     1
 77
     6
 78
     2
 67
     8
425
  7895160
 79
     3
170
     0
171
     0
290
     0
174
     0
 93
        5
 44
0.0
173
     0
291
     0
 45
0.0
  0
VISUALSTYLE
  5
41
102
{ACAD_REACTORS
330
2A
102
}
102
{ACAD_XDICTIONARY
360
175
102
}
330
2A
100
AcDbVisualStyle
  2
Shaded with edges
 70
    26
 71
     2
 72
     2
 73
     1
 90
        2
 40
0.6
 41
30.0
 62
     5
 63
     7
421
 16777215
 74
     1
 91
       10
 64
     7
 65
   257
 75
     2
175
     1
 42
1.0
 92
        8
 66
   257
 43
1.0
 76
     1
 77
     6
 78
     2
 67
     7
 79
     3
170
     0
171
     0
290
     0
174
     0
 93
        5
 44
0.0
173
     0
291
     0
 45
0.0
  0
VISUALSTYLE
  5
3E
102
{ACAD_REACTORS
330
2A
102
}
102
{ACAD_XDICTIONARY
360
16F
102
}
330
2A
100
AcDbVisualStyle
  2
Shades of Gray
 70
    23
 71
     2
 72
     2
 73
     3
 90
        0
 40
0.6
 41
30.0
 62
     5
 63
     7
421
 16777215
 74
     2
 91
        2
 64
     7
 65
     7
 75
     1
175
     1
 42
40.0
 92
        8
 66
     7
 43
1.0
 76
     1
 77
     6
 78
     2
 67
     7
 79
     3
170
     0
171
     0
290
     0
174
     0
 93
        1
 44
0.0
173
     0
291
     0
 45
0.0
  0
VISUALSTYLE
  5
3F
102
{ACAD_REACTORS
330
2A
102
}
102
{ACAD_XDICTIONARY
360
171
102
}
330
2A
100
AcDbVisualStyle
  2
Sketchy
 70
    24
 71
     1
 72
     2
 73
     2
 90
        0
 40
0.6
 41
30.0
 62
     5
 63
     7
421
 16777215
 74
     2
 91
        2
 64
     7
 65
     7
 75
     1
175
     1
 42
40.0
 92
       11
 66
     7
 43
1.0
 76
     1
 77
     6
 78
     2
 67
     7
 79
     6
170
     0
171
     0
290
     0
174
     0
 93
        1
 44
0.0
173
     0
291
     0
 45
0.0
  0
VISUALSTYLE
  5
37
102
{ACAD_REACTORS
330
2A
102
}
102
{ACAD_XDICTIONARY
360
161
102
}
330
2A
100
AcDbVisualStyle
  2
Thicken
 70
    13
 71
     2
 72
     2
 73
     0
 90
        0
 40
0.6
 41
30.0
 62
     5
 63
     7
421
 16777215
 74
     1
 91
        4
 64
     7
 65
   257
 75
     1
175
     1
 42
1.0
 92
       12
 66
     7
 43
1.0
 76
     1
 77
     6
 78
     2
 67
     7
 79
     5
170
     0
171
     0
290
     0
174
     0
 93
        1
 44
0.0
173
     0
291
     1
 45
0.0
  0
VISUALSTYLE
  5
30
102
{ACAD_REACTORS
330
2A
102
}
102
{ACAD_XDICTIONARY
360
153
102
}
330
2A
100
AcDbVisualStyle
  2
Wireframe
 70
     5
 71
     0
 72
     2
 73
     0
 90
        0
 40
0.6
 41
30.0
 62
     5
 63
     7
421
 16777215
 74
     1
 91
        4
 64
     7
 65
   257
 75
     1
175
     1
 42
1.0
 92
        0
 66
   257
 43
1.0
 76
     1
 77
     6
 78
     2
 67
     7
 79
     3
170
     0
171
     0
290
     0
174
     0
 93
        1
 44
0.0
173
     0
291
     0
 45
0.0
  0
VISUALSTYLE
  5
40
102
{ACAD_REACTORS
330
2A
102
}
102
{ACAD_XDICTIONARY
360
173
102
}
330
2A
100
AcDbVisualStyle
  2
X-Ray
 70
    25
 71
     2
 72
     2
 73
     1
 90
        1
 40
0.5
 41
30.0
 62
     5
 63
     7
421
 16777215
 74
     1
 91
        0
 64
     7
 65
   257
 75
     1
175
     1
 42
1.0
 92
        8
 66
     7
 43
1.0
 76
     1
 77
     6
 78
     2
 67
     7
 79
     3
170
     0
171
     0
290
     0
174
     0
 93
       13
 44
0.0
173
     0
291
     0
 45
0.0
  0
DICTIONARYVAR
  5
147
102
{ACAD_REACTORS
330
146
102
}
330
146
100
DictionaryVariables
280
     0
  1
1:1
  0
DICTIONARYVAR
  5
180
102
{ACAD_REACTORS
330
146
102
}
330
146
100
DictionaryVariables
280
     0
  1
Standard
  0
DICTIONARYVAR
  5
17F
102
{ACAD_REACTORS
330
146
102
}
330
146
100
DictionaryVariables
280
     0
  1
Standard
  0
DICTIONARYVAR
  5
148
102
{ACAD_REACTORS
330
146
102
}
330
146
100
DictionaryVariables
280
     0
  1
2
  0
DICTIONARY
  5
17C
330
5C
100
AcDbDictionary
280
     1
281
     1
  3
ACAD_XREC_ROUNDTRIP
360
17D
  0
DICTIONARY
  5
179
330
5A
100
AcDbDictionary
280
     1
281
     1
  3
ACAD_ROUNDTRIP_2008_TABLESTYLE_CELLSTYLEMAP
360
17A
  0
DICTIONARY
  5
151
330
2F
100
AcDbDictionary
280
     1
281
     1
  3
ACAD_XREC_ROUNDTRIP
360
152
  0
DICTIONARY
  5
157
330
32
100
AcDbDictionary
280
     1
281
     1
  3
ACAD_XREC_ROUNDTRIP
360
158
  0
DICTIONARY
  5
15F
330
36
100
AcDbDictionary
280
     1
281
     1
  3
ACAD_XREC_ROUNDTRIP
360
160
  0
DICTIONARY
  5
167
330
3A
100
AcDbDictionary
280
     1
281
     1
  3
ACAD_XREC_ROUNDTRIP
360
168
  0
DICTIONARY
  5
15B
330
34
100
AcDbDictionary
280
     1
281
     1
  3
ACAD_XREC_ROUNDTRIP
360
15C
  0
DICTIONARY
  5
15D
330
35
100
AcDbDictionary
280
     1
281
     1
  3
ACAD_XREC_ROUNDTRIP
360
15E
  0
DICTIONARY
  5
16D
330
3D
100
AcDbDictionary
280
     1
281
     1
  3
ACAD_XREC_ROUNDTRIP
360
16E
  0
DICTIONARY
  5
165
330
39
100
AcDbDictionary
280
     1
281
     1
  3
ACAD_XREC_ROUNDTRIP
360
166
  0
DICTIONARY
  5
149
330
2B
100
AcDbDictionary
280
     1
281
     1
  3
ACAD_XREC_ROUNDTRIP
360
14A
  0
DICTIONARY
  5
14B
330
2C
100
AcDbDictionary
280
     1
281
     1
  3
ACAD_XREC_ROUNDTRIP
360
14C
  0
DICTIONARY
  5
14D
330
2D
100
AcDbDictionary
280
     1
281
     1
  3
ACAD_XREC_ROUNDTRIP
360
14E
  0
DICTIONARY
  5
14F
330
2E
100
AcDbDictionary
280
     1
281
     1
  3
ACAD_XREC_ROUNDTRIP
360
150
  0
DICTIONARY
  5
155
330
31
100
AcDbDictionary
280
     1
281
     1
  3
ACAD_XREC_ROUNDTRIP
360
156
  0
DICTIONARY
  5
169
330
3B
100
AcDbDictionary
280
     1
281
     1
  3
ACAD_XREC_ROUNDTRIP
360
16A
  0
DICTIONARY
  5
163
330
38
100
AcDbDictionary
280
     1
281
     1
  3
ACAD_XREC_ROUNDTRIP
360
164
  0
DICTIONARY
  5
16B
330
3C
100
AcDbDictionary
280
     1
281
     1
  3
ACAD_XREC_ROUNDTRIP
360
16C
  0
DICTIONARY
  5
159
330
33
100
AcDbDictionary
280
     1
281
     1
  3
ACAD_XREC_ROUNDTRIP
360
15A
  0
DICTIONARY
  5
177
330
42
100
AcDbDictionary
280
     1
281
     1
  3
ACAD_XREC_ROUNDTRIP
360
178
  0
DICTIONARY
  5
175
330
41
100
AcDbDictionary
280
     1
281
     1
  3
ACAD_XREC_ROUNDTRIP
360
176
  0
DICTIONARY
  5
16F
330
3E
100
AcDbDictionary
280
     1
281
     1
  3
ACAD_XREC_ROUNDTRIP
360
170
  0
DICTIONARY
  5
171
330
3F
100
AcDbDictionary
280
     1
281
     1
  3
ACAD_XREC_ROUNDTRIP
360
172
  0
DICTIONARY
  5
161
330
37
100
AcDbDictionary
280
     1
281
     1
  3
ACAD_XREC_ROUNDTRIP
360
162
  0
DICTIONARY
  5
153
330
30
100
AcDbDictionary
280
     1
281
     1
  3
ACAD_XREC_ROUNDTRIP
360
154
  0
DICTIONARY
  5
173
330
40
100
AcDbDictionary
280
     1
281
     1
  3
ACAD_XREC_ROUNDTRIP
360
174
  0
XRECORD
  5
17D
102
{ACAD_REACTORS
330
17C
102
}
330
17C
100
AcDbXrecord
280
     1
102
ACAD_ROUNDTRIP_2010_MLEADER_STYLE
  0
CELLSTYLEMAP
  5
17A
102
{ACAD_REACTORS
330
179
102
}
330
179
100
AcDbCellStyleMap
 90
        3
300
CELLSTYLE
  1
TABLEFORMAT_BEGIN
 90
        5
170
     1
 91
        0
 92
    32768
 62
   257
 93
        1
300
CONTENTFORMAT
  1
CONTENTFORMAT_BEGIN
 90
        0
 91
        0
 92
        4
 93
        0
300

 40
0.0
140
1.0
 94
        5
 62
     0
340
11
144
0.25
309
CONTENTFORMAT_END
171
     1
301
MARGIN
  1
CELLMARGIN_BEGIN
 40
0.06
 40
0.06
 40
0.06
 40
0.06
 40
0.06
 40
0.06
309
CELLMARGIN_END
 94
        6
 95
        1
302
GRIDFORMAT
  1
GRIDFORMAT_BEGIN
 90
        0
 91
        1
 62
     0
 92
       -2
340
14
 93
        0
 40
0.045
309
GRIDFORMAT_END
 95
        2
302
GRIDFORMAT
  1
GRIDFORMAT_BEGIN
 90
        0
 91
        1
 62
     0
 92
       -2
340
14
 93
        0
 40
0.045
309
GRIDFORMAT_END
 95
        4
302
GRIDFORMAT
  1
GRIDFORMAT_BEGIN
 90
        0
 91
        1
 62
     0
 92
       -2
340
14
 93
        0
 40
0.045
309
GRIDFORMAT_END
 95
        8
302
GRIDFORMAT
  1
GRIDFORMAT_BEGIN
 90
        0
 91
        1
 62
     0
 92
       -2
340
14
 93
        0
 40
0.045
309
GRIDFORMAT_END
 95
       16
302
GRIDFORMAT
  1
GRIDFORMAT_BEGIN
 90
        0
 91
        1
 62
     0
 92
       -2
340
14
 93
        0
 40
0.045
309
GRIDFORMAT_END
 95
       32
302
GRIDFORMAT
  1
GRIDFORMAT_BEGIN
 90
        0
 91
        1
 62
     0
 92
       -2
340
14
 93
        0
 40
0.045
309
GRIDFORMAT_END
309
TABLEFORMAT_END
  1
CELLSTYLE_BEGIN
 90
        1
 91
        1
300
_TITLE
309
CELLSTYLE_END
300
CELLSTYLE
  1
TABLEFORMAT_BEGIN
 90
        5
170
     1
 91
        0
 92
        0
 62
   257
 93
        1
300
CONTENTFORMAT
  1
CONTENTFORMAT_BEGIN
 90
        0
 91
        0
 92
        4
 93
        0
300

 40
0.0
140
1.0
 94
        5
 62
     0
340
11
144
0.18
309
CONTENTFORMAT_END
171
     1
301
MARGIN
  1
CELLMARGIN_BEGIN
 40
0.06
 40
0.06
 40
0.06
 40
0.06
 40
0.06
 40
0.06
309
CELLMARGIN_END
 94
        6
 95
        1
302
GRIDFORMAT
  1
GRIDFORMAT_BEGIN
 90
        0
 91
        1
 62
     0
 92
       -2
340
14
 93
        0
 40
0.045
309
GRIDFORMAT_END
 95
        2
302
GRIDFORMAT
  1
GRIDFORMAT_BEGIN
 90
        0
 91
        1
 62
     0
 92
       -2
340
14
 93
        0
 40
0.045
309
GRIDFORMAT_END
 95
        4
302
GRIDFORMAT
  1
GRIDFORMAT_BEGIN
 90
        0
 91
        1
 62
     0
 92
       -2
340
14
 93
        0
 40
0.045
309
GRIDFORMAT_END
 95
        8
302
GRIDFORMAT
  1
GRIDFORMAT_BEGIN
 90
        0
 91
        1
 62
     0
 92
       -2
340
14
 93
        0
 40
0.045
309
GRIDFORMAT_END
 95
       16
302
GRIDFORMAT
  1
GRIDFORMAT_BEGIN
 90
        0
 91
        1
 62
     0
 92
       -2
340
14
 93
        0
 40
0.045
309
GRIDFORMAT_END
 95
       32
302
GRIDFORMAT
  1
GRIDFORMAT_BEGIN
 90
        0
 91
        1
 62
     0
 92
       -2
340
14
 93
        0
 40
0.045
309
GRIDFORMAT_END
309
TABLEFORMAT_END
  1
CELLSTYLE_BEGIN
 90
        2
 91
        1
300
_HEADER
309
CELLSTYLE_END
300
CELLSTYLE
  1
TABLEFORMAT_BEGIN
 90
        5
170
     1
 91
        0
 92
        0
 62
   257
 93
        1
300
CONTENTFORMAT
  1
CONTENTFORMAT_BEGIN
 90
        0
 91
        0
 92
        4
 93
        0
300

 40
0.0
140
1.0
 94
        2
 62
     0
340
11
144
0.18
309
CONTENTFORMAT_END
171
     1
301
MARGIN
  1
CELLMARGIN_BEGIN
 40
0.06
 40
0.06
 40
0.06
 40
0.06
 40
0.06
 40
0.06
309
CELLMARGIN_END
 94
        6
 95
        1
302
GRIDFORMAT
  1
GRIDFORMAT_BEGIN
 90
        0
 91
        1
 62
     0
 92
       -2
340
14
 93
        0
 40
0.045
309
GRIDFORMAT_END
 95
        2
302
GRIDFORMAT
  1
GRIDFORMAT_BEGIN
 90
        0
 91
        1
 62
     0
 92
       -2
340
14
 93
        0
 40
0.045
309
GRIDFORMAT_END
 95
        4
302
GRIDFORMAT
  1
GRIDFORMAT_BEGIN
 90
        0
 91
        1
 62
     0
 92
       -2
340
14
 93
        0
 40
0.045
309
GRIDFORMAT_END
 95
        8
302
GRIDFORMAT
  1
GRIDFORMAT_BEGIN
 90
        0
 91
        1
 62
     0
 92
       -2
340
14
 93
        0
 40
0.045
309
GRIDFORMAT_END
 95
       16
302
GRIDFORMAT
  1
GRIDFORMAT_BEGIN
 90
        0
 91
        1
 62
     0
 92
       -2
340
14
 93
        0
 40
0.045
309
GRIDFORMAT_END
 95
       32
302
GRIDFORMAT
  1
GRIDFORMAT_BEGIN
 90
        0
 91
        1
 62
     0
 92
       -2
340
14
 93
        0
 40
0.045
309
GRIDFORMAT_END
309
TABLEFORMAT_END
  1
CELLSTYLE_BEGIN
 90
        3
 91
        2
300
_DATA
309
CELLSTYLE_END
  0
XRECORD
  5
152
102
{ACAD_REACTORS
330
151
102
}
330
151
100
AcDbXrecord
280
     1
102
RTVSPropertyOp0
 70
     1
102
RTVSPropertyOp1
 70
     1
102
RTVSPropertyOp2
 70
     1
102
RTVSPropertyOp3
 70
     1
102
RTVSPropertyOp4
 70
     1
102
RTVSPropertyOp5
 70
     1
102
RTVSPropertyOp6
 70
     1
102
RTVSPropertyOp7
 70
     1
102
RTVSPropertyOp8
 70
     1
102
RTVSPropertyOp9
 70
     1
102
RTVSPropertyOp10
 70
     1
102
RTVSPropertyOp11
 70
     1
102
RTVSPropertyOp12
 70
     1
102
RTVSPropertyOp13
 70
     1
102
RTVSPropertyOp14
 70
     1
102
RTVSPropertyOp15
 70
     1
102
RTVSPropertyOp16
 70
     1
102
RTVSPropertyOp17
 70
     1
102
RTVSPropertyOp18
 70
     1
102
RTVSPropertyOp19
 70
     1
102
RTVSPropertyOp20
 70
     1
102
RTVSPropertyOp21
 70
     1
102
RTVSPropertyOp22
 70
     1
102
RTVSPropertyOp23
 70
     1
102
RTVSPropertyOp24
 70
     1
102
RTVSPropertyOp25
 70
     1
102
RTVSPropertyOp26
 70
     1
102
RTVSPropertyOp27
 70
     1
102
RTVSPropertyOp28
 70
     1
102
RTVSPropertyOp29
 70
     1
102
RTVSPropertyOp30
 70
     1
102
RTVSPropertyOp31
 70
     1
102
RTVSPropertyOp32
 70
     1
102
RTVSPropertyOp33
 70
     1
102
RTVSPropertyOp34
 70
     1
102
RTVSPropertyOp35
 70
     1
102
RTVSPropertyOp36
 70
     1
102
RTVSPropertyOp37
 70
     1
102
RTVSPropertyOp38
 70
     1
102
RTVSPropertyOp39
 70
     1
102
RTVSPropertyOp40
 70
     1
102
RTVSPropertyOp41
 70
     1
102
RTVSPropertyOp42
 70
     1
102
RTVSPropertyOp43
 70
     1
102
RTVSPropertyOp44
 70
     1
102
RTVSPropertyOp45
 70
     1
102
RTVSPropertyOp46
 70
     1
102
RTVSPropertyOp47
 70
     1
102
RTVSPropertyOp48
 70
     1
102
RTVSPropertyOp49
 70
     1
102
RTVSPropertyOp50
 70
     1
102
RTVSPropertyOp51
 70
     0
102
RTVSPropertyOp52
 70
     0
102
RTVSPropertyOp53
 70
     1
102
RTVSPropertyOp54
 70
     1
102
RTVSPropertyOp55
 70
     1
102
RTVSPropertyOp56
 70
     1
102
RTVSPropertyOp57
 70
     1
102
RTVSPost2010Prop28
280
     1
102
RTVSPost2010PropOp28
 70
     1
102
RTVSPost2010Prop29
280
     1
102
RTVSPost2010PropOp29
 70
     1
102
RTVSPost2010Prop30
280
     0
102
RTVSPost2010PropOp30
 70
     1
102
RTVSPost2010Prop31
280
     0
102
RTVSPost2010PropOp31
 70
     1
102
RTVSPost2010Prop32
280
     0
102
RTVSPost2010PropOp32
 70
     1
102
RTVSPost2010Prop33
280
     0
102
RTVSPost2010PropOp33
 70
     1
102
RTVSPost2010Prop34
280
     0
102
RTVSPost2010PropOp34
 70
     1
102
RTVSPost2010Prop35
280
     0
102
RTVSPost2010PropOp35
 70
     1
102
RTVSPost2010Prop36
280
     0
102
RTVSPost2010PropOp36
 70
     1
102
RTVSPost2010Prop37
 90
       50
102
RTVSPost2010PropOp37
 70
     1
102
RTVSPost2010Prop38
140
0.0
102
RTVSPost2010PropOp38
 70
     1
102
RTVSPost2010Prop39
140
1.0
102
RTVSPost2010PropOp39
 70
     1
102
RTVSPost2010Prop40
 90
        0
102
RTVSPost2010PropOp40
 70
     1
102
RTVSPost2010Prop41ColorIndex
 90
       18
102
RTVSPost2010Prop41ColorRGB
 90
        0
102
RTVSPost2010PropOp41
 70
     1
102
RTVSPost2010Prop42
 90
       50
102
RTVSPost2010PropOp42
 70
     1
102
RTVSPost2010Prop43
 90
        3
102
RTVSPost2010PropOp43
 70
     1
102
RTVSPost2010Prop44ColorIndex
 90
        5
102
RTVSPost2010Prop44ColorRGB
 90
      255
102
RTVSPost2010PropOp44
 70
     1
102
RTVSPost2010Prop45
280
     0
102
RTVSPost2010PropOp45
 70
     1
102
RTVSPost2010Prop46
 90
       50
102
RTVSPost2010PropOp46
 70
     1
102
RTVSPost2010Prop47
 90
       50
102
RTVSPost2010PropOp47
 70
     1
102
RTVSPost2010Prop48
 90
       50
102
RTVSPost2010PropOp48
 70
     1
102
RTVSPost2010Prop49
280
     0
102
RTVSPost2010PropOp49
 70
     1
102
RTVSPost2010Prop50
 90
       50
102
RTVSPost2010PropOp50
 70
     1
102
RTVSPost2010Prop51ColorIndex
 90
      256
102
RTVSPost2010Prop51ColorRGB
 90
-16777216
102
RTVSPost2010PropOp51
 70
     0
102
RTVSPost2010Prop52
140
1.0
102
RTVSPost2010PropOp52
 70
     0
102
RTVSPost2010Prop53
 90
        2
102
RTVSPost2010PropOp53
 70
     1
102
RTVSPost2010Prop54
  1
strokes_ogs.tif
102
RTVSPost2010PropOp54
 70
     1
102
RTVSPost2010Prop55
280
     0
102
RTVSPost2010PropOp55
 70
     1
102
RTVSPost2010Prop56
140
1.0
102
RTVSPost2010PropOp56
 70
     1
102
RTVSPost2010Prop57
140
1.0
102
RTVSPost2010PropOp57
 70
     1
  0
XRECORD
  5
158
102
{ACAD_REACTORS
330
157
102
}
330
157
100
AcDbXrecord
280
     1
102
RTVSPropertyOp0
 70
     1
102
RTVSPropertyOp1
 70
     1
102
RTVSPropertyOp2
 70
     1
102
RTVSPropertyOp3
 70
     1
102
RTVSPropertyOp4
 70
     1
102
RTVSPropertyOp5
 70
     1
102
RTVSPropertyOp6
 70
     1
102
RTVSPropertyOp7
 70
     1
102
RTVSPropertyOp8
 70
     1
102
RTVSPropertyOp9
 70
     1
102
RTVSPropertyOp10
 70
     1
102
RTVSPropertyOp11
 70
     1
102
RTVSPropertyOp12
 70
     1
102
RTVSPropertyOp13
 70
     1
102
RTVSPropertyOp14
 70
     1
102
RTVSPropertyOp15
 70
     1
102
RTVSPropertyOp16
 70
     1
102
RTVSPropertyOp17
 70
     1
102
RTVSPropertyOp18
 70
     1
102
RTVSPropertyOp19
 70
     1
102
RTVSPropertyOp20
 70
     1
102
RTVSPropertyOp21
 70
     1
102
RTVSPropertyOp22
 70
     1
102
RTVSPropertyOp23
 70
     1
102
RTVSPropertyOp24
 70
     1
102
RTVSPropertyOp25
 70
     1
102
RTVSPropertyOp26
 70
     1
102
RTVSPropertyOp27
 70
     1
102
RTVSPropertyOp28
 70
     1
102
RTVSPropertyOp29
 70
     1
102
RTVSPropertyOp30
 70
     1
102
RTVSPropertyOp31
 70
     1
102
RTVSPropertyOp32
 70
     1
102
RTVSPropertyOp33
 70
     1
102
RTVSPropertyOp34
 70
     1
102
RTVSPropertyOp35
 70
     1
102
RTVSPropertyOp36
 70
     1
102
RTVSPropertyOp37
 70
     1
102
RTVSPropertyOp38
 70
     1
102
RTVSPropertyOp39
 70
     1
102
RTVSPropertyOp40
 70
     1
102
RTVSPropertyOp41
 70
     1
102
RTVSPropertyOp42
 70
     1
102
RTVSPropertyOp43
 70
     1
102
RTVSPropertyOp44
 70
     1
102
RTVSPropertyOp45
 70
     1
102
RTVSPropertyOp46
 70
     1
102
RTVSPropertyOp47
 70
     1
102
RTVSPropertyOp48
 70
     1
102
RTVSPropertyOp49
 70
     1
102
RTVSPropertyOp50
 70
     1
102
RTVSPropertyOp51
 70
     0
102
RTVSPropertyOp52
 70
     0
102
RTVSPropertyOp53
 70
     1
102
RTVSPropertyOp54
 70
     1
102
RTVSPropertyOp55
 70
     1
102
RTVSPropertyOp56
 70
     1
102
RTVSPropertyOp57
 70
     1
102
RTVSPost2010Prop28
280
     0
102
RTVSPost2010PropOp28
 70
     1
102
RTVSPost2010Prop29
280
     1
102
RTVSPost2010PropOp29
 70
     1
102
RTVSPost2010Prop30
280
     1
102
RTVSPost2010PropOp30
 70
     1
102
RTVSPost2010Prop31
280
     0
102
RTVSPost2010PropOp31
 70
     1
102
RTVSPost2010Prop32
280
     0
102
RTVSPost2010PropOp32
 70
     1
102
RTVSPost2010Prop33
280
     0
102
RTVSPost2010PropOp33
 70
     1
102
RTVSPost2010Prop34
280
     0
102
RTVSPost2010PropOp34
 70
     1
102
RTVSPost2010Prop35
280
     0
102
RTVSPost2010PropOp35
 70
     1
102
RTVSPost2010Prop36
280
     0
102
RTVSPost2010PropOp36
 70
     1
102
RTVSPost2010Prop37
 90
       50
102
RTVSPost2010PropOp37
 70
     1
102
RTVSPost2010Prop38
140
0.0
102
RTVSPost2010PropOp38
 70
     1
102
RTVSPost2010Prop39
140
1.0
102
RTVSPost2010PropOp39
 70
     1
102
RTVSPost2010Prop40
 90
        0
102
RTVSPost2010PropOp40
 70
     1
102
RTVSPost2010Prop41ColorIndex
 90
       18
102
RTVSPost2010Prop41ColorRGB
 90
        0
102
RTVSPost2010PropOp41
 70
     1
102
RTVSPost2010Prop42
 90
       50
102
RTVSPost2010PropOp42
 70
     1
102
RTVSPost2010Prop43
 90
        3
102
RTVSPost2010PropOp43
 70
     1
102
RTVSPost2010Prop44ColorIndex
 90
        5
102
RTVSPost2010Prop44ColorRGB
 90
      255
102
RTVSPost2010PropOp44
 70
     1
102
RTVSPost2010Prop45
280
     0
102
RTVSPost2010PropOp45
 70
     1
102
RTVSPost2010Prop46
 90
       50
102
RTVSPost2010PropOp46
 70
     1
102
RTVSPost2010Prop47
 90
       50
102
RTVSPost2010PropOp47
 70
     1
102
RTVSPost2010Prop48
 90
       50
102
RTVSPost2010PropOp48
 70
     1
102
RTVSPost2010Prop49
280
     0
102
RTVSPost2010PropOp49
 70
     1
102
RTVSPost2010Prop50
 90
       50
102
RTVSPost2010PropOp50
 70
     1
102
RTVSPost2010Prop51ColorIndex
 90
      256
102
RTVSPost2010Prop51ColorRGB
 90
-16777216
102
RTVSPost2010PropOp51
 70
     0
102
RTVSPost2010Prop52
140
1.0
102
RTVSPost2010PropOp52
 70
     0
102
RTVSPost2010Prop53
 90
        2
102
RTVSPost2010PropOp53
 70
     1
102
RTVSPost2010Prop54
  1
strokes_ogs.tif
102
RTVSPost2010PropOp54
 70
     1
102
RTVSPost2010Prop55
280
     0
102
RTVSPost2010PropOp55
 70
     1
102
RTVSPost2010Prop56
140
1.0
102
RTVSPost2010PropOp56
 70
     1
102
RTVSPost2010Prop57
140
1.0
102
RTVSPost2010PropOp57
 70
     1
  0
XRECORD
  5
160
102
{ACAD_REACTORS
330
15F
102
}
330
15F
100
AcDbXrecord
280
     1
102
RTVSPropertyOp0
 70
     1
102
RTVSPropertyOp1
 70
     1
102
RTVSPropertyOp2
 70
     1
102
RTVSPropertyOp3
 70
     1
102
RTVSPropertyOp4
 70
     1
102
RTVSPropertyOp5
 70
     1
102
RTVSPropertyOp6
 70
     1
102
RTVSPropertyOp7
 70
     1
102
RTVSPropertyOp8
 70
     1
102
RTVSPropertyOp9
 70
     1
102
RTVSPropertyOp10
 70
     1
102
RTVSPropertyOp11
 70
     1
102
RTVSPropertyOp12
 70
     1
102
RTVSPropertyOp13
 70
     1
102
RTVSPropertyOp14
 70
     1
102
RTVSPropertyOp15
 70
     1
102
RTVSPropertyOp16
 70
     1
102
RTVSPropertyOp17
 70
     1
102
RTVSPropertyOp18
 70
     1
102
RTVSPropertyOp19
 70
     1
102
RTVSPropertyOp20
 70
     1
102
RTVSPropertyOp21
 70
     1
102
RTVSPropertyOp22
 70
     1
102
RTVSPropertyOp23
 70
     1
102
RTVSPropertyOp24
 70
     1
102
RTVSPropertyOp25
 70
     1
102
RTVSPropertyOp26
 70
     1
102
RTVSPropertyOp27
 70
     1
102
RTVSPropertyOp28
 70
     1
102
RTVSPropertyOp29
 70
     1
102
RTVSPropertyOp30
 70
     1
102
RTVSPropertyOp31
 70
     1
102
RTVSPropertyOp32
 70
     1
102
RTVSPropertyOp33
 70
     1
102
RTVSPropertyOp34
 70
     1
102
RTVSPropertyOp35
 70
     1
102
RTVSPropertyOp36
 70
     1
102
RTVSPropertyOp37
 70
     1
102
RTVSPropertyOp38
 70
     1
102
RTVSPropertyOp39
 70
     1
102
RTVSPropertyOp40
 70
     1
102
RTVSPropertyOp41
 70
     1
102
RTVSPropertyOp42
 70
     1
102
RTVSPropertyOp43
 70
     1
102
RTVSPropertyOp44
 70
     1
102
RTVSPropertyOp45
 70
     1
102
RTVSPropertyOp46
 70
     1
102
RTVSPropertyOp47
 70
     1
102
RTVSPropertyOp48
 70
     1
102
RTVSPropertyOp49
 70
     1
102
RTVSPropertyOp50
 70
     1
102
RTVSPropertyOp51
 70
     0
102
RTVSPropertyOp52
 70
     0
102
RTVSPropertyOp53
 70
     1
102
RTVSPropertyOp54
 70
     1
102
RTVSPropertyOp55
 70
     1
102
RTVSPropertyOp56
 70
     1
102
RTVSPropertyOp57
 70
     1
102
RTVSPost2010Prop28
280
     0
102
RTVSPost2010PropOp28
 70
     1
102
RTVSPost2010Prop29
280
     1
102
RTVSPost2010PropOp29
 70
     1
102
RTVSPost2010Prop30
280
     1
102
RTVSPost2010PropOp30
 70
     1
102
RTVSPost2010Prop31
280
     0
102
RTVSPost2010PropOp31
 70
     1
102
RTVSPost2010Prop32
280
     0
102
RTVSPost2010PropOp32
 70
     1
102
RTVSPost2010Prop33
280
     0
102
RTVSPost2010PropOp33
 70
     1
102
RTVSPost2010Prop34
280
     0
102
RTVSPost2010PropOp34
 70
     1
102
RTVSPost2010Prop35
280
     0
102
RTVSPost2010PropOp35
 70
     1
102
RTVSPost2010Prop36
280
     0
102
RTVSPost2010PropOp36
 70
     1
102
RTVSPost2010Prop37
 90
       50
102
RTVSPost2010PropOp37
 70
     1
102
RTVSPost2010Prop38
140
0.0
102
RTVSPost2010PropOp38
 70
     1
102
RTVSPost2010Prop39
140
1.0
102
RTVSPost2010PropOp39
 70
     1
102
RTVSPost2010Prop40
 90
        0
102
RTVSPost2010PropOp40
 70
     1
102
RTVSPost2010Prop41ColorIndex
 90
       18
102
RTVSPost2010Prop41ColorRGB
 90
        0
102
RTVSPost2010PropOp41
 70
     1
102
RTVSPost2010Prop42
 90
       50
102
RTVSPost2010PropOp42
 70
     1
102
RTVSPost2010Prop43
 90
        3
102
RTVSPost2010PropOp43
 70
     1
102
RTVSPost2010Prop44ColorIndex
 90
        5
102
RTVSPost2010Prop44ColorRGB
 90
      255
102
RTVSPost2010PropOp44
 70
     1
102
RTVSPost2010Prop45
280
     0
102
RTVSPost2010PropOp45
 70
     1
102
RTVSPost2010Prop46
 90
       50
102
RTVSPost2010PropOp46
 70
     1
102
RTVSPost2010Prop47
 90
       50
102
RTVSPost2010PropOp47
 70
     1
102
RTVSPost2010Prop48
 90
       50
102
RTVSPost2010PropOp48
 70
     1
102
RTVSPost2010Prop49
280
     0
102
RTVSPost2010PropOp49
 70
     1
102
RTVSPost2010Prop50
 90
       50
102
RTVSPost2010PropOp50
 70
     1
102
RTVSPost2010Prop51ColorIndex
 90
      256
102
RTVSPost2010Prop51ColorRGB
 90
-16777216
102
RTVSPost2010PropOp51
 70
     0
102
RTVSPost2010Prop52
140
1.0
102
RTVSPost2010PropOp52
 70
     0
102
RTVSPost2010Prop53
 90
        2
102
RTVSPost2010PropOp53
 70
     1
102
RTVSPost2010Prop54
  1
strokes_ogs.tif
102
RTVSPost2010PropOp54
 70
     1
102
RTVSPost2010Prop55
280
     0
102
RTVSPost2010PropOp55
 70
     1
102
RTVSPost2010Prop56
140
1.0
102
RTVSPost2010PropOp56
 70
     1
102
RTVSPost2010Prop57
140
1.0
102
RTVSPost2010PropOp57
 70
     1
  0
XRECORD
  5
168
102
{ACAD_REACTORS
330
167
102
}
330
167
100
AcDbXrecord
280
     1
102
RTVSPropertyOp0
 70
     1
102
RTVSPropertyOp1
 70
     1
102
RTVSPropertyOp2
 70
     1
102
RTVSPropertyOp3
 70
     1
102
RTVSPropertyOp4
 70
     1
102
RTVSPropertyOp5
 70
     1
102
RTVSPropertyOp6
 70
     1
102
RTVSPropertyOp7
 70
     1
102
RTVSPropertyOp8
 70
     1
102
RTVSPropertyOp9
 70
     1
102
RTVSPropertyOp10
 70
     1
102
RTVSPropertyOp11
 70
     1
102
RTVSPropertyOp12
 70
     1
102
RTVSPropertyOp13
 70
     1
102
RTVSPropertyOp14
 70
     1
102
RTVSPropertyOp15
 70
     1
102
RTVSPropertyOp16
 70
     1
102
RTVSPropertyOp17
 70
     1
102
RTVSPropertyOp18
 70
     1
102
RTVSPropertyOp19
 70
     1
102
RTVSPropertyOp20
 70
     1
102
RTVSPropertyOp21
 70
     1
102
RTVSPropertyOp22
 70
     1
102
RTVSPropertyOp23
 70
     1
102
RTVSPropertyOp24
 70
     1
102
RTVSPropertyOp25
 70
     1
102
RTVSPropertyOp26
 70
     1
102
RTVSPropertyOp27
 70
     1
102
RTVSPropertyOp28
 70
     1
102
RTVSPropertyOp29
 70
     1
102
RTVSPropertyOp30
 70
     1
102
RTVSPropertyOp31
 70
     1
102
RTVSPropertyOp32
 70
     1
102
RTVSPropertyOp33
 70
     1
102
RTVSPropertyOp34
 70
     1
102
RTVSPropertyOp35
 70
     1
102
RTVSPropertyOp36
 70
     1
102
RTVSPropertyOp37
 70
     1
102
RTVSPropertyOp38
 70
     1
102
RTVSPropertyOp39
 70
     1
102
RTVSPropertyOp40
 70
     1
102
RTVSPropertyOp41
 70
     1
102
RTVSPropertyOp42
 70
     1
102
RTVSPropertyOp43
 70
     1
102
RTVSPropertyOp44
 70
     1
102
RTVSPropertyOp45
 70
     1
102
RTVSPropertyOp46
 70
     1
102
RTVSPropertyOp47
 70
     1
102
RTVSPropertyOp48
 70
     1
102
RTVSPropertyOp49
 70
     1
102
RTVSPropertyOp50
 70
     1
102
RTVSPropertyOp51
 70
     0
102
RTVSPropertyOp52
 70
     0
102
RTVSPropertyOp53
 70
     1
102
RTVSPropertyOp54
 70
     1
102
RTVSPropertyOp55
 70
     1
102
RTVSPropertyOp56
 70
     1
102
RTVSPropertyOp57
 70
     1
102
RTVSPost2010Prop28
280
     0
102
RTVSPost2010PropOp28
 70
     1
102
RTVSPost2010Prop29
280
     1
102
RTVSPost2010PropOp29
 70
     1
102
RTVSPost2010Prop30
280
     1
102
RTVSPost2010PropOp30
 70
     1
102
RTVSPost2010Prop31
280
     0
102
RTVSPost2010PropOp31
 70
     1
102
RTVSPost2010Prop32
280
     0
102
RTVSPost2010PropOp32
 70
     1
102
RTVSPost2010Prop33
280
     0
102
RTVSPost2010PropOp33
 70
     1
102
RTVSPost2010Prop34
280
     0
102
RTVSPost2010PropOp34
 70
     1
102
RTVSPost2010Prop35
280
     0
102
RTVSPost2010PropOp35
 70
     1
102
RTVSPost2010Prop36
280
     0
102
RTVSPost2010PropOp36
 70
     1
102
RTVSPost2010Prop37
 90
       50
102
RTVSPost2010PropOp37
 70
     1
102
RTVSPost2010Prop38
140
0.0
102
RTVSPost2010PropOp38
 70
     1
102
RTVSPost2010Prop39
140
1.0
102
RTVSPost2010PropOp39
 70
     1
102
RTVSPost2010Prop40
 90
        0
102
RTVSPost2010PropOp40
 70
     1
102
RTVSPost2010Prop41ColorIndex
 90
       18
102
RTVSPost2010Prop41ColorRGB
 90
        0
102
RTVSPost2010PropOp41
 70
     1
102
RTVSPost2010Prop42
 90
       50
102
RTVSPost2010PropOp42
 70
     1
102
RTVSPost2010Prop43
 90
        3
102
RTVSPost2010PropOp43
 70
     1
102
RTVSPost2010Prop44ColorIndex
 90
        5
102
RTVSPost2010Prop44ColorRGB
 90
      255
102
RTVSPost2010PropOp44
 70
     1
102
RTVSPost2010Prop45
280
     0
102
RTVSPost2010PropOp45
 70
     1
102
RTVSPost2010Prop46
 90
       50
102
RTVSPost2010PropOp46
 70
     1
102
RTVSPost2010Prop47
 90
       50
102
RTVSPost2010PropOp47
 70
     1
102
RTVSPost2010Prop48
 90
       50
102
RTVSPost2010PropOp48
 70
     1
102
RTVSPost2010Prop49
280
     0
102
RTVSPost2010PropOp49
 70
     1
102
RTVSPost2010Prop50
 90
       50
102
RTVSPost2010PropOp50
 70
     1
102
RTVSPost2010Prop51ColorIndex
 90
      256
102
RTVSPost2010Prop51ColorRGB
 90
-16777216
102
RTVSPost2010PropOp51
 70
     0
102
RTVSPost2010Prop52
140
1.0
102
RTVSPost2010PropOp52
 70
     0
102
RTVSPost2010Prop53
 90
        2
102
RTVSPost2010PropOp53
 70
     1
102
RTVSPost2010Prop54
  1
strokes_ogs.tif
102
RTVSPost2010PropOp54
 70
     1
102
RTVSPost2010Prop55
280
     0
102
RTVSPost2010PropOp55
 70
     1
102
RTVSPost2010Prop56
140
1.0
102
RTVSPost2010PropOp56
 70
     1
102
RTVSPost2010Prop57
140
1.0
102
RTVSPost2010PropOp57
 70
     1
  0
XRECORD
  5
15C
102
{ACAD_REACTORS
330
15B
102
}
330
15B
100
AcDbXrecord
280
     1
102
RTVSPropertyOp0
 70
     1
102
RTVSPropertyOp1
 70
     1
102
RTVSPropertyOp2
 70
     1
102
RTVSPropertyOp3
 70
     1
102
RTVSPropertyOp4
 70
     1
102
RTVSPropertyOp5
 70
     1
102
RTVSPropertyOp6
 70
     1
102
RTVSPropertyOp7
 70
     1
102
RTVSPropertyOp8
 70
     1
102
RTVSPropertyOp9
 70
     1
102
RTVSPropertyOp10
 70
     1
102
RTVSPropertyOp11
 70
     1
102
RTVSPropertyOp12
 70
     1
102
RTVSPropertyOp13
 70
     1
102
RTVSPropertyOp14
 70
     1
102
RTVSPropertyOp15
 70
     1
102
RTVSPropertyOp16
 70
     1
102
RTVSPropertyOp17
 70
     1
102
RTVSPropertyOp18
 70
     1
102
RTVSPropertyOp19
 70
     1
102
RTVSPropertyOp20
 70
     1
102
RTVSPropertyOp21
 70
     1
102
RTVSPropertyOp22
 70
     1
102
RTVSPropertyOp23
 70
     1
102
RTVSPropertyOp24
 70
     1
102
RTVSPropertyOp25
 70
     1
102
RTVSPropertyOp26
 70
     1
102
RTVSPropertyOp27
 70
     1
102
RTVSPropertyOp28
 70
     1
102
RTVSPropertyOp29
 70
     1
102
RTVSPropertyOp30
 70
     1
102
RTVSPropertyOp31
 70
     1
102
RTVSPropertyOp32
 70
     1
102
RTVSPropertyOp33
 70
     1
102
RTVSPropertyOp34
 70
     1
102
RTVSPropertyOp35
 70
     1
102
RTVSPropertyOp36
 70
     1
102
RTVSPropertyOp37
 70
     1
102
RTVSPropertyOp38
 70
     1
102
RTVSPropertyOp39
 70
     1
102
RTVSPropertyOp40
 70
     1
102
RTVSPropertyOp41
 70
     1
102
RTVSPropertyOp42
 70
     1
102
RTVSPropertyOp43
 70
     1
102
RTVSPropertyOp44
 70
     1
102
RTVSPropertyOp45
 70
     1
102
RTVSPropertyOp46
 70
     1
102
RTVSPropertyOp47
 70
     1
102
RTVSPropertyOp48
 70
     1
102
RTVSPropertyOp49
 70
     1
102
RTVSPropertyOp50
 70
     1
102
RTVSPropertyOp51
 70
     0
102
RTVSPropertyOp52
 70
     0
102
RTVSPropertyOp53
 70
     1
102
RTVSPropertyOp54
 70
     1
102
RTVSPropertyOp55
 70
     1
102
RTVSPropertyOp56
 70
     1
102
RTVSPropertyOp57
 70
     1
102
RTVSPost2010Prop28
280
     0
102
RTVSPost2010PropOp28
 70
     1
102
RTVSPost2010Prop29
280
     1
102
RTVSPost2010PropOp29
 70
     1
102
RTVSPost2010Prop30
280
     1
102
RTVSPost2010PropOp30
 70
     1
102
RTVSPost2010Prop31
280
     0
102
RTVSPost2010PropOp31
 70
     1
102
RTVSPost2010Prop32
280
     0
102
RTVSPost2010PropOp32
 70
     1
102
RTVSPost2010Prop33
280
     0
102
RTVSPost2010PropOp33
 70
     1
102
RTVSPost2010Prop34
280
     0
102
RTVSPost2010PropOp34
 70
     1
102
RTVSPost2010Prop35
280
     0
102
RTVSPost2010PropOp35
 70
     1
102
RTVSPost2010Prop36
280
     0
102
RTVSPost2010PropOp36
 70
     1
102
RTVSPost2010Prop37
 90
       50
102
RTVSPost2010PropOp37
 70
     1
102
RTVSPost2010Prop38
140
0.0
102
RTVSPost2010PropOp38
 70
     1
102
RTVSPost2010Prop39
140
1.0
102
RTVSPost2010PropOp39
 70
     1
102
RTVSPost2010Prop40
 90
        0
102
RTVSPost2010PropOp40
 70
     1
102
RTVSPost2010Prop41ColorIndex
 90
       18
102
RTVSPost2010Prop41ColorRGB
 90
        0
102
RTVSPost2010PropOp41
 70
     1
102
RTVSPost2010Prop42
 90
       50
102
RTVSPost2010PropOp42
 70
     1
102
RTVSPost2010Prop43
 90
        3
102
RTVSPost2010PropOp43
 70
     1
102
RTVSPost2010Prop44ColorIndex
 90
        5
102
RTVSPost2010Prop44ColorRGB
 90
      255
102
RTVSPost2010PropOp44
 70
     1
102
RTVSPost2010Prop45
280
     0
102
RTVSPost2010PropOp45
 70
     1
102
RTVSPost2010Prop46
 90
       50
102
RTVSPost2010PropOp46
 70
     1
102
RTVSPost2010Prop47
 90
       50
102
RTVSPost2010PropOp47
 70
     1
102
RTVSPost2010Prop48
 90
       50
102
RTVSPost2010PropOp48
 70
     1
102
RTVSPost2010Prop49
280
     0
102
RTVSPost2010PropOp49
 70
     1
102
RTVSPost2010Prop50
 90
       50
102
RTVSPost2010PropOp50
 70
     1
102
RTVSPost2010Prop51ColorIndex
 90
      256
102
RTVSPost2010Prop51ColorRGB
 90
-16777216
102
RTVSPost2010PropOp51
 70
     0
102
RTVSPost2010Prop52
140
1.0
102
RTVSPost2010PropOp52
 70
     0
102
RTVSPost2010Prop53
 90
        2
102
RTVSPost2010PropOp53
 70
     1
102
RTVSPost2010Prop54
  1
strokes_ogs.tif
102
RTVSPost2010PropOp54
 70
     1
102
RTVSPost2010Prop55
280
     0
102
RTVSPost2010PropOp55
 70
     1
102
RTVSPost2010Prop56
140
1.0
102
RTVSPost2010PropOp56
 70
     1
102
RTVSPost2010Prop57
140
1.0
102
RTVSPost2010PropOp57
 70
     1
  0
XRECORD
  5
15E
102
{ACAD_REACTORS
330
15D
102
}
330
15D
100
AcDbXrecord
280
     1
102
RTVSPropertyOp0
 70
     1
102
RTVSPropertyOp1
 70
     1
102
RTVSPropertyOp2
 70
     1
102
RTVSPropertyOp3
 70
     1
102
RTVSPropertyOp4
 70
     1
102
RTVSPropertyOp5
 70
     1
102
RTVSPropertyOp6
 70
     1
102
RTVSPropertyOp7
 70
     1
102
RTVSPropertyOp8
 70
     1
102
RTVSPropertyOp9
 70
     1
102
RTVSPropertyOp10
 70
     1
102
RTVSPropertyOp11
 70
     1
102
RTVSPropertyOp12
 70
     1
102
RTVSPropertyOp13
 70
     1
102
RTVSPropertyOp14
 70
     1
102
RTVSPropertyOp15
 70
     1
102
RTVSPropertyOp16
 70
     1
102
RTVSPropertyOp17
 70
     1
102
RTVSPropertyOp18
 70
     1
102
RTVSPropertyOp19
 70
     1
102
RTVSPropertyOp20
 70
     1
102
RTVSPropertyOp21
 70
     1
102
RTVSPropertyOp22
 70
     1
102
RTVSPropertyOp23
 70
     1
102
RTVSPropertyOp24
 70
     1
102
RTVSPropertyOp25
 70
     1
102
RTVSPropertyOp26
 70
     1
102
RTVSPropertyOp27
 70
     1
102
RTVSPropertyOp28
 70
     1
102
RTVSPropertyOp29
 70
     1
102
RTVSPropertyOp30
 70
     1
102
RTVSPropertyOp31
 70
     1
102
RTVSPropertyOp32
 70
     1
102
RTVSPropertyOp33
 70
     1
102
RTVSPropertyOp34
 70
     1
102
RTVSPropertyOp35
 70
     1
102
RTVSPropertyOp36
 70
     1
102
RTVSPropertyOp37
 70
     1
102
RTVSPropertyOp38
 70
     1
102
RTVSPropertyOp39
 70
     1
102
RTVSPropertyOp40
 70
     1
102
RTVSPropertyOp41
 70
     1
102
RTVSPropertyOp42
 70
     1
102
RTVSPropertyOp43
 70
     1
102
RTVSPropertyOp44
 70
     1
102
RTVSPropertyOp45
 70
     1
102
RTVSPropertyOp46
 70
     1
102
RTVSPropertyOp47
 70
     1
102
RTVSPropertyOp48
 70
     1
102
RTVSPropertyOp49
 70
     1
102
RTVSPropertyOp50
 70
     1
102
RTVSPropertyOp51
 70
     0
102
RTVSPropertyOp52
 70
     0
102
RTVSPropertyOp53
 70
     1
102
RTVSPropertyOp54
 70
     1
102
RTVSPropertyOp55
 70
     1
102
RTVSPropertyOp56
 70
     1
102
RTVSPropertyOp57
 70
     1
102
RTVSPost2010Prop28
280
     0
102
RTVSPost2010PropOp28
 70
     1
102
RTVSPost2010Prop29
280
     1
102
RTVSPost2010PropOp29
 70
     1
102
RTVSPost2010Prop30
280
     1
102
RTVSPost2010PropOp30
 70
     1
102
RTVSPost2010Prop31
280
     0
102
RTVSPost2010PropOp31
 70
     1
102
RTVSPost2010Prop32
280
     0
102
RTVSPost2010PropOp32
 70
     1
102
RTVSPost2010Prop33
280
     0
102
RTVSPost2010PropOp33
 70
     1
102
RTVSPost2010Prop34
280
     0
102
RTVSPost2010PropOp34
 70
     1
102
RTVSPost2010Prop35
280
     0
102
RTVSPost2010PropOp35
 70
     1
102
RTVSPost2010Prop36
280
     0
102
RTVSPost2010PropOp36
 70
     1
102
RTVSPost2010Prop37
 90
       50
102
RTVSPost2010PropOp37
 70
     1
102
RTVSPost2010Prop38
140
0.0
102
RTVSPost2010PropOp38
 70
     1
102
RTVSPost2010Prop39
140
1.0
102
RTVSPost2010PropOp39
 70
     1
102
RTVSPost2010Prop40
 90
        0
102
RTVSPost2010PropOp40
 70
     1
102
RTVSPost2010Prop41ColorIndex
 90
       18
102
RTVSPost2010Prop41ColorRGB
 90
        0
102
RTVSPost2010PropOp41
 70
     1
102
RTVSPost2010Prop42
 90
       50
102
RTVSPost2010PropOp42
 70
     1
102
RTVSPost2010Prop43
 90
        3
102
RTVSPost2010PropOp43
 70
     1
102
RTVSPost2010Prop44ColorIndex
 90
        5
102
RTVSPost2010Prop44ColorRGB
 90
      255
102
RTVSPost2010PropOp44
 70
     1
102
RTVSPost2010Prop45
280
     0
102
RTVSPost2010PropOp45
 70
     1
102
RTVSPost2010Prop46
 90
       50
102
RTVSPost2010PropOp46
 70
     1
102
RTVSPost2010Prop47
 90
       50
102
RTVSPost2010PropOp47
 70
     1
102
RTVSPost2010Prop48
 90
       50
102
RTVSPost2010PropOp48
 70
     1
102
RTVSPost2010Prop49
280
     0
102
RTVSPost2010PropOp49
 70
     1
102
RTVSPost2010Prop50
 90
       50
102
RTVSPost2010PropOp50
 70
     1
102
RTVSPost2010Prop51ColorIndex
 90
      256
102
RTVSPost2010Prop51ColorRGB
 90
-16777216
102
RTVSPost2010PropOp51
 70
     0
102
RTVSPost2010Prop52
140
1.0
102
RTVSPost2010PropOp52
 70
     0
102
RTVSPost2010Prop53
 90
        2
102
RTVSPost2010PropOp53
 70
     1
102
RTVSPost2010Prop54
  1
strokes_ogs.tif
102
RTVSPost2010PropOp54
 70
     1
102
RTVSPost2010Prop55
280
     0
102
RTVSPost2010PropOp55
 70
     1
102
RTVSPost2010Prop56
140
1.0
102
RTVSPost2010PropOp56
 70
     1
102
RTVSPost2010Prop57
140
1.0
102
RTVSPost2010PropOp57
 70
     1
  0
XRECORD
  5
16E
102
{ACAD_REACTORS
330
16D
102
}
330
16D
100
AcDbXrecord
280
     1
102
RTVSPropertyOp0
 70
     0
102
RTVSPropertyOp1
 70
     0
102
RTVSPropertyOp2
 70
     0
102
RTVSPropertyOp3
 70
     0
102
RTVSPropertyOp4
 70
     0
102
RTVSPropertyOp5
 70
     0
102
RTVSPropertyOp6
 70
     0
102
RTVSPropertyOp7
 70
     0
102
RTVSPropertyOp8
 70
     0
102
RTVSPropertyOp9
 70
     0
102
RTVSPropertyOp10
 70
     0
102
RTVSPropertyOp11
 70
     0
102
RTVSPropertyOp12
 70
     0
102
RTVSPropertyOp13
 70
     0
102
RTVSPropertyOp14
 70
     2
102
RTVSPropertyOp15
 70
     0
102
RTVSPropertyOp16
 70
     0
102
RTVSPropertyOp17
 70
     0
102
RTVSPropertyOp18
 70
     0
102
RTVSPropertyOp19
 70
     0
102
RTVSPropertyOp20
 70
     0
102
RTVSPropertyOp21
 70
     0
102
RTVSPropertyOp22
 70
     0
102
RTVSPropertyOp23
 70
     0
102
RTVSPropertyOp24
 70
     0
102
RTVSPropertyOp25
 70
     0
102
RTVSPropertyOp26
 70
     0
102
RTVSPropertyOp27
 70
     0
102
RTVSPropertyOp28
 70
     0
102
RTVSPropertyOp29
 70
     0
102
RTVSPropertyOp30
 70
     0
102
RTVSPropertyOp31
 70
     0
102
RTVSPropertyOp32
 70
     0
102
RTVSPropertyOp33
 70
     0
102
RTVSPropertyOp34
 70
     0
102
RTVSPropertyOp35
 70
     0
102
RTVSPropertyOp36
 70
     0
102
RTVSPropertyOp37
 70
     0
102
RTVSPropertyOp38
 70
     0
102
RTVSPropertyOp39
 70
     0
102
RTVSPropertyOp40
 70
     0
102
RTVSPropertyOp41
 70
     0
102
RTVSPropertyOp42
 70
     0
102
RTVSPropertyOp43
 70
     0
102
RTVSPropertyOp44
 70
     0
102
RTVSPropertyOp45
 70
     0
102
RTVSPropertyOp46
 70
     0
102
RTVSPropertyOp47
 70
     0
102
RTVSPropertyOp48
 70
     0
102
RTVSPropertyOp49
 70
     0
102
RTVSPropertyOp50
 70
     0
102
RTVSPropertyOp51
 70
     0
102
RTVSPropertyOp52
 70
     0
102
RTVSPropertyOp53
 70
     0
102
RTVSPropertyOp54
 70
     0
102
RTVSPropertyOp55
 70
     0
102
RTVSPropertyOp56
 70
     0
102
RTVSPropertyOp57
 70
     0
102
RTVSPost2010Prop28
280
     0
102
RTVSPost2010PropOp28
 70
     0
102
RTVSPost2010Prop29
280
     1
102
RTVSPost2010PropOp29
 70
     0
102
RTVSPost2010Prop30
280
     1
102
RTVSPost2010PropOp30
 70
     0
102
RTVSPost2010Prop31
280
     0
102
RTVSPost2010PropOp31
 70
     0
102
RTVSPost2010Prop32
280
     0
102
RTVSPost2010PropOp32
 70
     0
102
RTVSPost2010Prop33
280
     0
102
RTVSPost2010PropOp33
 70
     0
102
RTVSPost2010Prop34
280
     0
102
RTVSPost2010PropOp34
 70
     0
102
RTVSPost2010Prop35
280
     0
102
RTVSPost2010PropOp35
 70
     0
102
RTVSPost2010Prop36
280
     0
102
RTVSPost2010PropOp36
 70
     0
102
RTVSPost2010Prop37
 90
       50
102
RTVSPost2010PropOp37
 70
     0
102
RTVSPost2010Prop38
140
0.0
102
RTVSPost2010PropOp38
 70
     0
102
RTVSPost2010Prop39
140
1.0
102
RTVSPost2010PropOp39
 70
     0
102
RTVSPost2010Prop40
 90
        0
102
RTVSPost2010PropOp40
 70
     0
102
RTVSPost2010Prop41ColorIndex
 90
       18
102
RTVSPost2010Prop41ColorRGB
 90
        0
102
RTVSPost2010PropOp41
 70
     0
102
RTVSPost2010Prop42
 90
       50
102
RTVSPost2010PropOp42
 70
     0
102
RTVSPost2010Prop43
 90
        3
102
RTVSPost2010PropOp43
 70
     0
102
RTVSPost2010Prop44ColorIndex
 90
        5
102
RTVSPost2010Prop44ColorRGB
 90
      255
102
RTVSPost2010PropOp44
 70
     0
102
RTVSPost2010Prop45
280
     0
102
RTVSPost2010PropOp45
 70
     0
102
RTVSPost2010Prop46
 90
       50
102
RTVSPost2010PropOp46
 70
     0
102
RTVSPost2010Prop47
 90
       50
102
RTVSPost2010PropOp47
 70
     0
102
RTVSPost2010Prop48
 90
       50
102
RTVSPost2010PropOp48
 70
     0
102
RTVSPost2010Prop49
280
     0
102
RTVSPost2010PropOp49
 70
     0
102
RTVSPost2010Prop50
 90
       50
102
RTVSPost2010PropOp50
 70
     0
102
RTVSPost2010Prop51ColorIndex
 90
      256
102
RTVSPost2010Prop51ColorRGB
 90
-16777216
102
RTVSPost2010PropOp51
 70
     0
102
RTVSPost2010Prop52
140
1.0
102
RTVSPost2010PropOp52
 70
     0
102
RTVSPost2010Prop53
 90
        2
102
RTVSPost2010PropOp53
 70
     0
102
RTVSPost2010Prop54
  1
strokes_ogs.tif
102
RTVSPost2010PropOp54
 70
     0
102
RTVSPost2010Prop55
280
     0
102
RTVSPost2010PropOp55
 70
     0
102
RTVSPost2010Prop56
140
1.0
102
RTVSPost2010PropOp56
 70
     0
102
RTVSPost2010Prop57
140
1.0
102
RTVSPost2010PropOp57
 70
     0
  0
XRECORD
  5
166
102
{ACAD_REACTORS
330
165
102
}
330
165
100
AcDbXrecord
280
     1
102
RTVSPropertyOp0
 70
     1
102
RTVSPropertyOp1
 70
     1
102
RTVSPropertyOp2
 70
     1
102
RTVSPropertyOp3
 70
     1
102
RTVSPropertyOp4
 70
     1
102
RTVSPropertyOp5
 70
     1
102
RTVSPropertyOp6
 70
     1
102
RTVSPropertyOp7
 70
     1
102
RTVSPropertyOp8
 70
     1
102
RTVSPropertyOp9
 70
     1
102
RTVSPropertyOp10
 70
     1
102
RTVSPropertyOp11
 70
     1
102
RTVSPropertyOp12
 70
     1
102
RTVSPropertyOp13
 70
     1
102
RTVSPropertyOp14
 70
     1
102
RTVSPropertyOp15
 70
     1
102
RTVSPropertyOp16
 70
     1
102
RTVSPropertyOp17
 70
     1
102
RTVSPropertyOp18
 70
     1
102
RTVSPropertyOp19
 70
     1
102
RTVSPropertyOp20
 70
     1
102
RTVSPropertyOp21
 70
     1
102
RTVSPropertyOp22
 70
     1
102
RTVSPropertyOp23
 70
     1
102
RTVSPropertyOp24
 70
     1
102
RTVSPropertyOp25
 70
     1
102
RTVSPropertyOp26
 70
     1
102
RTVSPropertyOp27
 70
     1
102
RTVSPropertyOp28
 70
     1
102
RTVSPropertyOp29
 70
     1
102
RTVSPropertyOp30
 70
     1
102
RTVSPropertyOp31
 70
     1
102
RTVSPropertyOp32
 70
     1
102
RTVSPropertyOp33
 70
     1
102
RTVSPropertyOp34
 70
     1
102
RTVSPropertyOp35
 70
     1
102
RTVSPropertyOp36
 70
     1
102
RTVSPropertyOp37
 70
     1
102
RTVSPropertyOp38
 70
     1
102
RTVSPropertyOp39
 70
     1
102
RTVSPropertyOp40
 70
     1
102
RTVSPropertyOp41
 70
     1
102
RTVSPropertyOp42
 70
     1
102
RTVSPropertyOp43
 70
     1
102
RTVSPropertyOp44
 70
     1
102
RTVSPropertyOp45
 70
     1
102
RTVSPropertyOp46
 70
     1
102
RTVSPropertyOp47
 70
     1
102
RTVSPropertyOp48
 70
     1
102
RTVSPropertyOp49
 70
     1
102
RTVSPropertyOp50
 70
     1
102
RTVSPropertyOp51
 70
     0
102
RTVSPropertyOp52
 70
     0
102
RTVSPropertyOp53
 70
     1
102
RTVSPropertyOp54
 70
     1
102
RTVSPropertyOp55
 70
     1
102
RTVSPropertyOp56
 70
     1
102
RTVSPropertyOp57
 70
     1
102
RTVSPost2010Prop28
280
     0
102
RTVSPost2010PropOp28
 70
     1
102
RTVSPost2010Prop29
280
     1
102
RTVSPost2010PropOp29
 70
     1
102
RTVSPost2010Prop30
280
     1
102
RTVSPost2010PropOp30
 70
     1
102
RTVSPost2010Prop31
280
     0
102
RTVSPost2010PropOp31
 70
     1
102
RTVSPost2010Prop32
280
     0
102
RTVSPost2010PropOp32
 70
     1
102
RTVSPost2010Prop33
280
     0
102
RTVSPost2010PropOp33
 70
     1
102
RTVSPost2010Prop34
280
     0
102
RTVSPost2010PropOp34
 70
     1
102
RTVSPost2010Prop35
280
     0
102
RTVSPost2010PropOp35
 70
     1
102
RTVSPost2010Prop36
280
     0
102
RTVSPost2010PropOp36
 70
     1
102
RTVSPost2010Prop37
 90
       50
102
RTVSPost2010PropOp37
 70
     1
102
RTVSPost2010Prop38
140
0.0
102
RTVSPost2010PropOp38
 70
     1
102
RTVSPost2010Prop39
140
1.0
102
RTVSPost2010PropOp39
 70
     1
102
RTVSPost2010Prop40
 90
        0
102
RTVSPost2010PropOp40
 70
     1
102
RTVSPost2010Prop41ColorIndex
 90
       18
102
RTVSPost2010Prop41ColorRGB
 90
        0
102
RTVSPost2010PropOp41
 70
     1
102
RTVSPost2010Prop42
 90
       50
102
RTVSPost2010PropOp42
 70
     1
102
RTVSPost2010Prop43
 90
        3
102
RTVSPost2010PropOp43
 70
     1
102
RTVSPost2010Prop44ColorIndex
 90
        5
102
RTVSPost2010Prop44ColorRGB
 90
      255
102
RTVSPost2010PropOp44
 70
     1
102
RTVSPost2010Prop45
280
     0
102
RTVSPost2010PropOp45
 70
     1
102
RTVSPost2010Prop46
 90
       50
102
RTVSPost2010PropOp46
 70
     1
102
RTVSPost2010Prop47
 90
       50
102
RTVSPost2010PropOp47
 70
     1
102
RTVSPost2010Prop48
 90
       50
102
RTVSPost2010PropOp48
 70
     1
102
RTVSPost2010Prop49
280
     0
102
RTVSPost2010PropOp49
 70
     1
102
RTVSPost2010Prop50
 90
       50
102
RTVSPost2010PropOp50
 70
     1
102
RTVSPost2010Prop51ColorIndex
 90
      256
102
RTVSPost2010Prop51ColorRGB
 90
-16777216
102
RTVSPost2010PropOp51
 70
     0
102
RTVSPost2010Prop52
140
1.0
102
RTVSPost2010PropOp52
 70
     0
102
RTVSPost2010Prop53
 90
        2
102
RTVSPost2010PropOp53
 70
     1
102
RTVSPost2010Prop54
  1
strokes_ogs.tif
102
RTVSPost2010PropOp54
 70
     1
102
RTVSPost2010Prop55
280
     0
102
RTVSPost2010PropOp55
 70
     1
102
RTVSPost2010Prop56
140
1.0
102
RTVSPost2010PropOp56
 70
     1
102
RTVSPost2010Prop57
140
1.0
102
RTVSPost2010PropOp57
 70
     1
  0
XRECORD
  5
14A
102
{ACAD_REACTORS
330
149
102
}
330
149
100
AcDbXrecord
280
     1
102
RTVSPropertyOp0
 70
     1
102
RTVSPropertyOp1
 70
     1
102
RTVSPropertyOp2
 70
     1
102
RTVSPropertyOp3
 70
     1
102
RTVSPropertyOp4
 70
     1
102
RTVSPropertyOp5
 70
     1
102
RTVSPropertyOp6
 70
     1
102
RTVSPropertyOp7
 70
     1
102
RTVSPropertyOp8
 70
     1
102
RTVSPropertyOp9
 70
     1
102
RTVSPropertyOp10
 70
     1
102
RTVSPropertyOp11
 70
     1
102
RTVSPropertyOp12
 70
     1
102
RTVSPropertyOp13
 70
     1
102
RTVSPropertyOp14
 70
     1
102
RTVSPropertyOp15
 70
     1
102
RTVSPropertyOp16
 70
     1
102
RTVSPropertyOp17
 70
     1
102
RTVSPropertyOp18
 70
     1
102
RTVSPropertyOp19
 70
     1
102
RTVSPropertyOp20
 70
     1
102
RTVSPropertyOp21
 70
     1
102
RTVSPropertyOp22
 70
     1
102
RTVSPropertyOp23
 70
     1
102
RTVSPropertyOp24
 70
     1
102
RTVSPropertyOp25
 70
     1
102
RTVSPropertyOp26
 70
     1
102
RTVSPropertyOp27
 70
     1
102
RTVSPropertyOp28
 70
     1
102
RTVSPropertyOp29
 70
     1
102
RTVSPropertyOp30
 70
     1
102
RTVSPropertyOp31
 70
     1
102
RTVSPropertyOp32
 70
     1
102
RTVSPropertyOp33
 70
     1
102
RTVSPropertyOp34
 70
     1
102
RTVSPropertyOp35
 70
     1
102
RTVSPropertyOp36
 70
     1
102
RTVSPropertyOp37
 70
     1
102
RTVSPropertyOp38
 70
     1
102
RTVSPropertyOp39
 70
     1
102
RTVSPropertyOp40
 70
     1
102
RTVSPropertyOp41
 70
     1
102
RTVSPropertyOp42
 70
     1
102
RTVSPropertyOp43
 70
     1
102
RTVSPropertyOp44
 70
     1
102
RTVSPropertyOp45
 70
     1
102
RTVSPropertyOp46
 70
     1
102
RTVSPropertyOp47
 70
     1
102
RTVSPropertyOp48
 70
     1
102
RTVSPropertyOp49
 70
     1
102
RTVSPropertyOp50
 70
     1
102
RTVSPropertyOp51
 70
     0
102
RTVSPropertyOp52
 70
     0
102
RTVSPropertyOp53
 70
     1
102
RTVSPropertyOp54
 70
     1
102
RTVSPropertyOp55
 70
     1
102
RTVSPropertyOp56
 70
     1
102
RTVSPropertyOp57
 70
     1
102
RTVSPost2010Prop28
280
     0
102
RTVSPost2010PropOp28
 70
     1
102
RTVSPost2010Prop29
280
     1
102
RTVSPost2010PropOp29
 70
     1
102
RTVSPost2010Prop30
280
     1
102
RTVSPost2010PropOp30
 70
     1
102
RTVSPost2010Prop31
280
     0
102
RTVSPost2010PropOp31
 70
     1
102
RTVSPost2010Prop32
280
     0
102
RTVSPost2010PropOp32
 70
     1
102
RTVSPost2010Prop33
280
     0
102
RTVSPost2010PropOp33
 70
     1
102
RTVSPost2010Prop34
280
     0
102
RTVSPost2010PropOp34
 70
     1
102
RTVSPost2010Prop35
280
     0
102
RTVSPost2010PropOp35
 70
     1
102
RTVSPost2010Prop36
280
     0
102
RTVSPost2010PropOp36
 70
     1
102
RTVSPost2010Prop37
 90
       50
102
RTVSPost2010PropOp37
 70
     1
102
RTVSPost2010Prop38
140
0.0
102
RTVSPost2010PropOp38
 70
     1
102
RTVSPost2010Prop39
140
1.0
102
RTVSPost2010PropOp39
 70
     1
102
RTVSPost2010Prop40
 90
        0
102
RTVSPost2010PropOp40
 70
     1
102
RTVSPost2010Prop41ColorIndex
 90
       18
102
RTVSPost2010Prop41ColorRGB
 90
        0
102
RTVSPost2010PropOp41
 70
     1
102
RTVSPost2010Prop42
 90
       50
102
RTVSPost2010PropOp42
 70
     1
102
RTVSPost2010Prop43
 90
        3
102
RTVSPost2010PropOp43
 70
     1
102
RTVSPost2010Prop44ColorIndex
 90
        5
102
RTVSPost2010Prop44ColorRGB
 90
      255
102
RTVSPost2010PropOp44
 70
     1
102
RTVSPost2010Prop45
280
     0
102
RTVSPost2010PropOp45
 70
     1
102
RTVSPost2010Prop46
 90
       50
102
RTVSPost2010PropOp46
 70
     1
102
RTVSPost2010Prop47
 90
       50
102
RTVSPost2010PropOp47
 70
     1
102
RTVSPost2010Prop48
 90
       50
102
RTVSPost2010PropOp48
 70
     1
102
RTVSPost2010Prop49
280
     0
102
RTVSPost2010PropOp49
 70
     1
102
RTVSPost2010Prop50
 90
       50
102
RTVSPost2010PropOp50
 70
     1
102
RTVSPost2010Prop51ColorIndex
 90
      256
102
RTVSPost2010Prop51ColorRGB
 90
-16777216
102
RTVSPost2010PropOp51
 70
     0
102
RTVSPost2010Prop52
140
1.0
102
RTVSPost2010PropOp52
 70
     0
102
RTVSPost2010Prop53
 90
        2
102
RTVSPost2010PropOp53
 70
     1
102
RTVSPost2010Prop54
  1
strokes_ogs.tif
102
RTVSPost2010PropOp54
 70
     1
102
RTVSPost2010Prop55
280
     0
102
RTVSPost2010PropOp55
 70
     1
102
RTVSPost2010Prop56
140
1.0
102
RTVSPost2010PropOp56
 70
     1
102
RTVSPost2010Prop57
140
1.0
102
RTVSPost2010PropOp57
 70
     1
  0
XRECORD
  5
14C
102
{ACAD_REACTORS
330
14B
102
}
330
14B
100
AcDbXrecord
280
     1
102
RTVSPropertyOp0
 70
     1
102
RTVSPropertyOp1
 70
     1
102
RTVSPropertyOp2
 70
     1
102
RTVSPropertyOp3
 70
     1
102
RTVSPropertyOp4
 70
     1
102
RTVSPropertyOp5
 70
     1
102
RTVSPropertyOp6
 70
     1
102
RTVSPropertyOp7
 70
     1
102
RTVSPropertyOp8
 70
     1
102
RTVSPropertyOp9
 70
     1
102
RTVSPropertyOp10
 70
     1
102
RTVSPropertyOp11
 70
     1
102
RTVSPropertyOp12
 70
     1
102
RTVSPropertyOp13
 70
     1
102
RTVSPropertyOp14
 70
     1
102
RTVSPropertyOp15
 70
     1
102
RTVSPropertyOp16
 70
     1
102
RTVSPropertyOp17
 70
     1
102
RTVSPropertyOp18
 70
     1
102
RTVSPropertyOp19
 70
     1
102
RTVSPropertyOp20
 70
     1
102
RTVSPropertyOp21
 70
     1
102
RTVSPropertyOp22
 70
     1
102
RTVSPropertyOp23
 70
     1
102
RTVSPropertyOp24
 70
     1
102
RTVSPropertyOp25
 70
     1
102
RTVSPropertyOp26
 70
     1
102
RTVSPropertyOp27
 70
     1
102
RTVSPropertyOp28
 70
     1
102
RTVSPropertyOp29
 70
     1
102
RTVSPropertyOp30
 70
     1
102
RTVSPropertyOp31
 70
     1
102
RTVSPropertyOp32
 70
     1
102
RTVSPropertyOp33
 70
     1
102
RTVSPropertyOp34
 70
     1
102
RTVSPropertyOp35
 70
     1
102
RTVSPropertyOp36
 70
     1
102
RTVSPropertyOp37
 70
     1
102
RTVSPropertyOp38
 70
     1
102
RTVSPropertyOp39
 70
     1
102
RTVSPropertyOp40
 70
     1
102
RTVSPropertyOp41
 70
     1
102
RTVSPropertyOp42
 70
     1
102
RTVSPropertyOp43
 70
     1
102
RTVSPropertyOp44
 70
     1
102
RTVSPropertyOp45
 70
     1
102
RTVSPropertyOp46
 70
     1
102
RTVSPropertyOp47
 70
     1
102
RTVSPropertyOp48
 70
     1
102
RTVSPropertyOp49
 70
     1
102
RTVSPropertyOp50
 70
     1
102
RTVSPropertyOp51
 70
     0
102
RTVSPropertyOp52
 70
     0
102
RTVSPropertyOp53
 70
     1
102
RTVSPropertyOp54
 70
     1
102
RTVSPropertyOp55
 70
     1
102
RTVSPropertyOp56
 70
     1
102
RTVSPropertyOp57
 70
     1
102
RTVSPost2010Prop28
280
     0
102
RTVSPost2010PropOp28
 70
     1
102
RTVSPost2010Prop29
280
     1
102
RTVSPost2010PropOp29
 70
     1
102
RTVSPost2010Prop30
280
     1
102
RTVSPost2010PropOp30
 70
     1
102
RTVSPost2010Prop31
280
     0
102
RTVSPost2010PropOp31
 70
     1
102
RTVSPost2010Prop32
280
     0
102
RTVSPost2010PropOp32
 70
     1
102
RTVSPost2010Prop33
280
     0
102
RTVSPost2010PropOp33
 70
     1
102
RTVSPost2010Prop34
280
     0
102
RTVSPost2010PropOp34
 70
     1
102
RTVSPost2010Prop35
280
     0
102
RTVSPost2010PropOp35
 70
     1
102
RTVSPost2010Prop36
280
     0
102
RTVSPost2010PropOp36
 70
     1
102
RTVSPost2010Prop37
 90
       50
102
RTVSPost2010PropOp37
 70
     1
102
RTVSPost2010Prop38
140
0.0
102
RTVSPost2010PropOp38
 70
     1
102
RTVSPost2010Prop39
140
1.0
102
RTVSPost2010PropOp39
 70
     1
102
RTVSPost2010Prop40
 90
        0
102
RTVSPost2010PropOp40
 70
     1
102
RTVSPost2010Prop41ColorIndex
 90
       18
102
RTVSPost2010Prop41ColorRGB
 90
        0
102
RTVSPost2010PropOp41
 70
     1
102
RTVSPost2010Prop42
 90
       50
102
RTVSPost2010PropOp42
 70
     1
102
RTVSPost2010Prop43
 90
        3
102
RTVSPost2010PropOp43
 70
     1
102
RTVSPost2010Prop44ColorIndex
 90
        5
102
RTVSPost2010Prop44ColorRGB
 90
      255
102
RTVSPost2010PropOp44
 70
     1
102
RTVSPost2010Prop45
280
     0
102
RTVSPost2010PropOp45
 70
     1
102
RTVSPost2010Prop46
 90
       50
102
RTVSPost2010PropOp46
 70
     1
102
RTVSPost2010Prop47
 90
       50
102
RTVSPost2010PropOp47
 70
     1
102
RTVSPost2010Prop48
 90
       50
102
RTVSPost2010PropOp48
 70
     1
102
RTVSPost2010Prop49
280
     0
102
RTVSPost2010PropOp49
 70
     1
102
RTVSPost2010Prop50
 90
       50
102
RTVSPost2010PropOp50
 70
     1
102
RTVSPost2010Prop51ColorIndex
 90
      256
102
RTVSPost2010Prop51ColorRGB
 90
-16777216
102
RTVSPost2010PropOp51
 70
     0
102
RTVSPost2010Prop52
140
1.0
102
RTVSPost2010PropOp52
 70
     0
102
RTVSPost2010Prop53
 90
        2
102
RTVSPost2010PropOp53
 70
     1
102
RTVSPost2010Prop54
  1
strokes_ogs.tif
102
RTVSPost2010PropOp54
 70
     1
102
RTVSPost2010Prop55
280
     0
102
RTVSPost2010PropOp55
 70
     1
102
RTVSPost2010Prop56
140
1.0
102
RTVSPost2010PropOp56
 70
     1
102
RTVSPost2010Prop57
140
1.0
102
RTVSPost2010PropOp57
 70
     1
  0
XRECORD
  5
14E
102
{ACAD_REACTORS
330
14D
102
}
330
14D
100
AcDbXrecord
280
     1
102
RTVSPropertyOp0
 70
     1
102
RTVSPropertyOp1
 70
     1
102
RTVSPropertyOp2
 70
     1
102
RTVSPropertyOp3
 70
     1
102
RTVSPropertyOp4
 70
     1
102
RTVSPropertyOp5
 70
     1
102
RTVSPropertyOp6
 70
     1
102
RTVSPropertyOp7
 70
     1
102
RTVSPropertyOp8
 70
     1
102
RTVSPropertyOp9
 70
     1
102
RTVSPropertyOp10
 70
     1
102
RTVSPropertyOp11
 70
     1
102
RTVSPropertyOp12
 70
     1
102
RTVSPropertyOp13
 70
     1
102
RTVSPropertyOp14
 70
     1
102
RTVSPropertyOp15
 70
     1
102
RTVSPropertyOp16
 70
     1
102
RTVSPropertyOp17
 70
     1
102
RTVSPropertyOp18
 70
     1
102
RTVSPropertyOp19
 70
     1
102
RTVSPropertyOp20
 70
     1
102
RTVSPropertyOp21
 70
     1
102
RTVSPropertyOp22
 70
     1
102
RTVSPropertyOp23
 70
     1
102
RTVSPropertyOp24
 70
     1
102
RTVSPropertyOp25
 70
     1
102
RTVSPropertyOp26
 70
     1
102
RTVSPropertyOp27
 70
     1
102
RTVSPropertyOp28
 70
     1
102
RTVSPropertyOp29
 70
     1
102
RTVSPropertyOp30
 70
     1
102
RTVSPropertyOp31
 70
     1
102
RTVSPropertyOp32
 70
     1
102
RTVSPropertyOp33
 70
     1
102
RTVSPropertyOp34
 70
     1
102
RTVSPropertyOp35
 70
     1
102
RTVSPropertyOp36
 70
     1
102
RTVSPropertyOp37
 70
     1
102
RTVSPropertyOp38
 70
     1
102
RTVSPropertyOp39
 70
     1
102
RTVSPropertyOp40
 70
     1
102
RTVSPropertyOp41
 70
     1
102
RTVSPropertyOp42
 70
     1
102
RTVSPropertyOp43
 70
     1
102
RTVSPropertyOp44
 70
     1
102
RTVSPropertyOp45
 70
     1
102
RTVSPropertyOp46
 70
     1
102
RTVSPropertyOp47
 70
     1
102
RTVSPropertyOp48
 70
     1
102
RTVSPropertyOp49
 70
     1
102
RTVSPropertyOp50
 70
     1
102
RTVSPropertyOp51
 70
     0
102
RTVSPropertyOp52
 70
     0
102
RTVSPropertyOp53
 70
     1
102
RTVSPropertyOp54
 70
     1
102
RTVSPropertyOp55
 70
     1
102
RTVSPropertyOp56
 70
     1
102
RTVSPropertyOp57
 70
     1
102
RTVSPost2010Prop28
280
     0
102
RTVSPost2010PropOp28
 70
     1
102
RTVSPost2010Prop29
280
     1
102
RTVSPost2010PropOp29
 70
     1
102
RTVSPost2010Prop30
280
     1
102
RTVSPost2010PropOp30
 70
     1
102
RTVSPost2010Prop31
280
     0
102
RTVSPost2010PropOp31
 70
     1
102
RTVSPost2010Prop32
280
     0
102
RTVSPost2010PropOp32
 70
     1
102
RTVSPost2010Prop33
280
     0
102
RTVSPost2010PropOp33
 70
     1
102
RTVSPost2010Prop34
280
     0
102
RTVSPost2010PropOp34
 70
     1
102
RTVSPost2010Prop35
280
     0
102
RTVSPost2010PropOp35
 70
     1
102
RTVSPost2010Prop36
280
     0
102
RTVSPost2010PropOp36
 70
     1
102
RTVSPost2010Prop37
 90
       50
102
RTVSPost2010PropOp37
 70
     1
102
RTVSPost2010Prop38
140
0.0
102
RTVSPost2010PropOp38
 70
     1
102
RTVSPost2010Prop39
140
1.0
102
RTVSPost2010PropOp39
 70
     1
102
RTVSPost2010Prop40
 90
        0
102
RTVSPost2010PropOp40
 70
     1
102
RTVSPost2010Prop41ColorIndex
 90
       18
102
RTVSPost2010Prop41ColorRGB
 90
        0
102
RTVSPost2010PropOp41
 70
     1
102
RTVSPost2010Prop42
 90
       50
102
RTVSPost2010PropOp42
 70
     1
102
RTVSPost2010Prop43
 90
        3
102
RTVSPost2010PropOp43
 70
     1
102
RTVSPost2010Prop44ColorIndex
 90
        5
102
RTVSPost2010Prop44ColorRGB
 90
      255
102
RTVSPost2010PropOp44
 70
     1
102
RTVSPost2010Prop45
280
     0
102
RTVSPost2010PropOp45
 70
     1
102
RTVSPost2010Prop46
 90
       50
102
RTVSPost2010PropOp46
 70
     1
102
RTVSPost2010Prop47
 90
       50
102
RTVSPost2010PropOp47
 70
     1
102
RTVSPost2010Prop48
 90
       50
102
RTVSPost2010PropOp48
 70
     1
102
RTVSPost2010Prop49
280
     0
102
RTVSPost2010PropOp49
 70
     1
102
RTVSPost2010Prop50
 90
       50
102
RTVSPost2010PropOp50
 70
     1
102
RTVSPost2010Prop51ColorIndex
 90
      256
102
RTVSPost2010Prop51ColorRGB
 90
-16777216
102
RTVSPost2010PropOp51
 70
     0
102
RTVSPost2010Prop52
140
1.0
102
RTVSPost2010PropOp52
 70
     0
102
RTVSPost2010Prop53
 90
        2
102
RTVSPost2010PropOp53
 70
     1
102
RTVSPost2010Prop54
  1
strokes_ogs.tif
102
RTVSPost2010PropOp54
 70
     1
102
RTVSPost2010Prop55
280
     0
102
RTVSPost2010PropOp55
 70
     1
102
RTVSPost2010Prop56
140
1.0
102
RTVSPost2010PropOp56
 70
     1
102
RTVSPost2010Prop57
140
1.0
102
RTVSPost2010PropOp57
 70
     1
  0
XRECORD
  5
150
102
{ACAD_REACTORS
330
14F
102
}
330
14F
100
AcDbXrecord
280
     1
102
RTVSPropertyOp0
 70
     1
102
RTVSPropertyOp1
 70
     1
102
RTVSPropertyOp2
 70
     1
102
RTVSPropertyOp3
 70
     1
102
RTVSPropertyOp4
 70
     1
102
RTVSPropertyOp5
 70
     1
102
RTVSPropertyOp6
 70
     1
102
RTVSPropertyOp7
 70
     1
102
RTVSPropertyOp8
 70
     1
102
RTVSPropertyOp9
 70
     1
102
RTVSPropertyOp10
 70
     1
102
RTVSPropertyOp11
 70
     1
102
RTVSPropertyOp12
 70
     1
102
RTVSPropertyOp13
 70
     1
102
RTVSPropertyOp14
 70
     1
102
RTVSPropertyOp15
 70
     1
102
RTVSPropertyOp16
 70
     1
102
RTVSPropertyOp17
 70
     1
102
RTVSPropertyOp18
 70
     1
102
RTVSPropertyOp19
 70
     1
102
RTVSPropertyOp20
 70
     1
102
RTVSPropertyOp21
 70
     1
102
RTVSPropertyOp22
 70
     1
102
RTVSPropertyOp23
 70
     1
102
RTVSPropertyOp24
 70
     1
102
RTVSPropertyOp25
 70
     1
102
RTVSPropertyOp26
 70
     1
102
RTVSPropertyOp27
 70
     1
102
RTVSPropertyOp28
 70
     1
102
RTVSPropertyOp29
 70
     1
102
RTVSPropertyOp30
 70
     1
102
RTVSPropertyOp31
 70
     1
102
RTVSPropertyOp32
 70
     1
102
RTVSPropertyOp33
 70
     1
102
RTVSPropertyOp34
 70
     1
102
RTVSPropertyOp35
 70
     1
102
RTVSPropertyOp36
 70
     1
102
RTVSPropertyOp37
 70
     1
102
RTVSPropertyOp38
 70
     1
102
RTVSPropertyOp39
 70
     1
102
RTVSPropertyOp40
 70
     1
102
RTVSPropertyOp41
 70
     1
102
RTVSPropertyOp42
 70
     1
102
RTVSPropertyOp43
 70
     1
102
RTVSPropertyOp44
 70
     1
102
RTVSPropertyOp45
 70
     1
102
RTVSPropertyOp46
 70
     1
102
RTVSPropertyOp47
 70
     1
102
RTVSPropertyOp48
 70
     1
102
RTVSPropertyOp49
 70
     1
102
RTVSPropertyOp50
 70
     1
102
RTVSPropertyOp51
 70
     0
102
RTVSPropertyOp52
 70
     0
102
RTVSPropertyOp53
 70
     1
102
RTVSPropertyOp54
 70
     1
102
RTVSPropertyOp55
 70
     1
102
RTVSPropertyOp56
 70
     1
102
RTVSPropertyOp57
 70
     1
102
RTVSPost2010Prop28
280
     0
102
RTVSPost2010PropOp28
 70
     1
102
RTVSPost2010Prop29
280
     1
102
RTVSPost2010PropOp29
 70
     1
102
RTVSPost2010Prop30
280
     1
102
RTVSPost2010PropOp30
 70
     1
102
RTVSPost2010Prop31
280
     0
102
RTVSPost2010PropOp31
 70
     1
102
RTVSPost2010Prop32
280
     0
102
RTVSPost2010PropOp32
 70
     1
102
RTVSPost2010Prop33
280
     0
102
RTVSPost2010PropOp33
 70
     1
102
RTVSPost2010Prop34
280
     0
102
RTVSPost2010PropOp34
 70
     1
102
RTVSPost2010Prop35
280
     0
102
RTVSPost2010PropOp35
 70
     1
102
RTVSPost2010Prop36
280
     0
102
RTVSPost2010PropOp36
 70
     1
102
RTVSPost2010Prop37
 90
       50
102
RTVSPost2010PropOp37
 70
     1
102
RTVSPost2010Prop38
140
0.0
102
RTVSPost2010PropOp38
 70
     1
102
RTVSPost2010Prop39
140
1.0
102
RTVSPost2010PropOp39
 70
     1
102
RTVSPost2010Prop40
 90
        0
102
RTVSPost2010PropOp40
 70
     1
102
RTVSPost2010Prop41ColorIndex
 90
       18
102
RTVSPost2010Prop41ColorRGB
 90
        0
102
RTVSPost2010PropOp41
 70
     1
102
RTVSPost2010Prop42
 90
       50
102
RTVSPost2010PropOp42
 70
     1
102
RTVSPost2010Prop43
 90
        3
102
RTVSPost2010PropOp43
 70
     1
102
RTVSPost2010Prop44ColorIndex
 90
        5
102
RTVSPost2010Prop44ColorRGB
 90
      255
102
RTVSPost2010PropOp44
 70
     1
102
RTVSPost2010Prop45
280
     0
102
RTVSPost2010PropOp45
 70
     1
102
RTVSPost2010Prop46
 90
       50
102
RTVSPost2010PropOp46
 70
     1
102
RTVSPost2010Prop47
 90
       50
102
RTVSPost2010PropOp47
 70
     1
102
RTVSPost2010Prop48
 90
       50
102
RTVSPost2010PropOp48
 70
     1
102
RTVSPost2010Prop49
280
     0
102
RTVSPost2010PropOp49
 70
     1
102
RTVSPost2010Prop50
 90
       50
102
RTVSPost2010PropOp50
 70
     1
102
RTVSPost2010Prop51ColorIndex
 90
      256
102
RTVSPost2010Prop51ColorRGB
 90
-16777216
102
RTVSPost2010PropOp51
 70
     0
102
RTVSPost2010Prop52
140
1.0
102
RTVSPost2010PropOp52
 70
     0
102
RTVSPost2010Prop53
 90
        2
102
RTVSPost2010PropOp53
 70
     1
102
RTVSPost2010Prop54
  1
strokes_ogs.tif
102
RTVSPost2010PropOp54
 70
     1
102
RTVSPost2010Prop55
280
     0
102
RTVSPost2010PropOp55
 70
     1
102
RTVSPost2010Prop56
140
1.0
102
RTVSPost2010PropOp56
 70
     1
102
RTVSPost2010Prop57
140
1.0
102
RTVSPost2010PropOp57
 70
     1
  0
XRECORD
  5
156
102
{ACAD_REACTORS
330
155
102
}
330
155
100
AcDbXrecord
280
     1
102
RTVSPropertyOp0
 70
     1
102
RTVSPropertyOp1
 70
     1
102
RTVSPropertyOp2
 70
     1
102
RTVSPropertyOp3
 70
     1
102
RTVSPropertyOp4
 70
     1
102
RTVSPropertyOp5
 70
     1
102
RTVSPropertyOp6
 70
     1
102
RTVSPropertyOp7
 70
     1
102
RTVSPropertyOp8
 70
     1
102
RTVSPropertyOp9
 70
     1
102
RTVSPropertyOp10
 70
     1
102
RTVSPropertyOp11
 70
     1
102
RTVSPropertyOp12
 70
     1
102
RTVSPropertyOp13
 70
     1
102
RTVSPropertyOp14
 70
     1
102
RTVSPropertyOp15
 70
     1
102
RTVSPropertyOp16
 70
     1
102
RTVSPropertyOp17
 70
     1
102
RTVSPropertyOp18
 70
     1
102
RTVSPropertyOp19
 70
     1
102
RTVSPropertyOp20
 70
     1
102
RTVSPropertyOp21
 70
     1
102
RTVSPropertyOp22
 70
     1
102
RTVSPropertyOp23
 70
     1
102
RTVSPropertyOp24
 70
     1
102
RTVSPropertyOp25
 70
     1
102
RTVSPropertyOp26
 70
     1
102
RTVSPropertyOp27
 70
     1
102
RTVSPropertyOp28
 70
     1
102
RTVSPropertyOp29
 70
     1
102
RTVSPropertyOp30
 70
     1
102
RTVSPropertyOp31
 70
     1
102
RTVSPropertyOp32
 70
     1
102
RTVSPropertyOp33
 70
     1
102
RTVSPropertyOp34
 70
     1
102
RTVSPropertyOp35
 70
     1
102
RTVSPropertyOp36
 70
     1
102
RTVSPropertyOp37
 70
     1
102
RTVSPropertyOp38
 70
     1
102
RTVSPropertyOp39
 70
     1
102
RTVSPropertyOp40
 70
     1
102
RTVSPropertyOp41
 70
     1
102
RTVSPropertyOp42
 70
     1
102
RTVSPropertyOp43
 70
     1
102
RTVSPropertyOp44
 70
     1
102
RTVSPropertyOp45
 70
     1
102
RTVSPropertyOp46
 70
     1
102
RTVSPropertyOp47
 70
     1
102
RTVSPropertyOp48
 70
     1
102
RTVSPropertyOp49
 70
     1
102
RTVSPropertyOp50
 70
     1
102
RTVSPropertyOp51
 70
     0
102
RTVSPropertyOp52
 70
     0
102
RTVSPropertyOp53
 70
     1
102
RTVSPropertyOp54
 70
     1
102
RTVSPropertyOp55
 70
     1
102
RTVSPropertyOp56
 70
     1
102
RTVSPropertyOp57
 70
     1
102
RTVSPost2010Prop28
280
     0
102
RTVSPost2010PropOp28
 70
     1
102
RTVSPost2010Prop29
280
     1
102
RTVSPost2010PropOp29
 70
     1
102
RTVSPost2010Prop30
280
     1
102
RTVSPost2010PropOp30
 70
     1
102
RTVSPost2010Prop31
280
     0
102
RTVSPost2010PropOp31
 70
     1
102
RTVSPost2010Prop32
280
     0
102
RTVSPost2010PropOp32
 70
     1
102
RTVSPost2010Prop33
280
     0
102
RTVSPost2010PropOp33
 70
     1
102
RTVSPost2010Prop34
280
     0
102
RTVSPost2010PropOp34
 70
     1
102
RTVSPost2010Prop35
280
     0
102
RTVSPost2010PropOp35
 70
     1
102
RTVSPost2010Prop36
280
     0
102
RTVSPost2010PropOp36
 70
     1
102
RTVSPost2010Prop37
 90
       50
102
RTVSPost2010PropOp37
 70
     1
102
RTVSPost2010Prop38
140
0.0
102
RTVSPost2010PropOp38
 70
     1
102
RTVSPost2010Prop39
140
1.0
102
RTVSPost2010PropOp39
 70
     1
102
RTVSPost2010Prop40
 90
        0
102
RTVSPost2010PropOp40
 70
     1
102
RTVSPost2010Prop41ColorIndex
 90
       18
102
RTVSPost2010Prop41ColorRGB
 90
        0
102
RTVSPost2010PropOp41
 70
     1
102
RTVSPost2010Prop42
 90
       50
102
RTVSPost2010PropOp42
 70
     1
102
RTVSPost2010Prop43
 90
        3
102
RTVSPost2010PropOp43
 70
     1
102
RTVSPost2010Prop44ColorIndex
 90
        5
102
RTVSPost2010Prop44ColorRGB
 90
      255
102
RTVSPost2010PropOp44
 70
     1
102
RTVSPost2010Prop45
280
     0
102
RTVSPost2010PropOp45
 70
     1
102
RTVSPost2010Prop46
 90
       50
102
RTVSPost2010PropOp46
 70
     1
102
RTVSPost2010Prop47
 90
       50
102
RTVSPost2010PropOp47
 70
     1
102
RTVSPost2010Prop48
 90
       50
102
RTVSPost2010PropOp48
 70
     1
102
RTVSPost2010Prop49
280
     0
102
RTVSPost2010PropOp49
 70
     1
102
RTVSPost2010Prop50
 90
       50
102
RTVSPost2010PropOp50
 70
     1
102
RTVSPost2010Prop51ColorIndex
 90
      256
102
RTVSPost2010Prop51ColorRGB
 90
-16777216
102
RTVSPost2010PropOp51
 70
     0
102
RTVSPost2010Prop52
140
1.0
102
RTVSPost2010PropOp52
 70
     0
102
RTVSPost2010Prop53
 90
        2
102
RTVSPost2010PropOp53
 70
     1
102
RTVSPost2010Prop54
  1
strokes_ogs.tif
102
RTVSPost2010PropOp54
 70
     1
102
RTVSPost2010Prop55
280
     0
102
RTVSPost2010PropOp55
 70
     1
102
RTVSPost2010Prop56
140
1.0
102
RTVSPost2010PropOp56
 70
     1
102
RTVSPost2010Prop57
140
1.0
102
RTVSPost2010PropOp57
 70
     1
  0
XRECORD
  5
16A
102
{ACAD_REACTORS
330
169
102
}
330
169
100
AcDbXrecord
280
     1
102
RTVSPropertyOp0
 70
     0
102
RTVSPropertyOp1
 70
     0
102
RTVSPropertyOp2
 70
     0
102
RTVSPropertyOp3
 70
     0
102
RTVSPropertyOp4
 70
     0
102
RTVSPropertyOp5
 70
     0
102
RTVSPropertyOp6
 70
     0
102
RTVSPropertyOp7
 70
     0
102
RTVSPropertyOp8
 70
     0
102
RTVSPropertyOp9
 70
     0
102
RTVSPropertyOp10
 70
     0
102
RTVSPropertyOp11
 70
     0
102
RTVSPropertyOp12
 70
     0
102
RTVSPropertyOp13
 70
     0
102
RTVSPropertyOp14
 70
     2
102
RTVSPropertyOp15
 70
     0
102
RTVSPropertyOp16
 70
     0
102
RTVSPropertyOp17
 70
     0
102
RTVSPropertyOp18
 70
     0
102
RTVSPropertyOp19
 70
     0
102
RTVSPropertyOp20
 70
     0
102
RTVSPropertyOp21
 70
     0
102
RTVSPropertyOp22
 70
     0
102
RTVSPropertyOp23
 70
     0
102
RTVSPropertyOp24
 70
     0
102
RTVSPropertyOp25
 70
     0
102
RTVSPropertyOp26
 70
     0
102
RTVSPropertyOp27
 70
     0
102
RTVSPropertyOp28
 70
     0
102
RTVSPropertyOp29
 70
     0
102
RTVSPropertyOp30
 70
     0
102
RTVSPropertyOp31
 70
     0
102
RTVSPropertyOp32
 70
     0
102
RTVSPropertyOp33
 70
     0
102
RTVSPropertyOp34
 70
     0
102
RTVSPropertyOp35
 70
     0
102
RTVSPropertyOp36
 70
     0
102
RTVSPropertyOp37
 70
     0
102
RTVSPropertyOp38
 70
     0
102
RTVSPropertyOp39
 70
     0
102
RTVSPropertyOp40
 70
     0
102
RTVSPropertyOp41
 70
     0
102
RTVSPropertyOp42
 70
     0
102
RTVSPropertyOp43
 70
     0
102
RTVSPropertyOp44
 70
     0
102
RTVSPropertyOp45
 70
     0
102
RTVSPropertyOp46
 70
     0
102
RTVSPropertyOp47
 70
     0
102
RTVSPropertyOp48
 70
     0
102
RTVSPropertyOp49
 70
     0
102
RTVSPropertyOp50
 70
     0
102
RTVSPropertyOp51
 70
     0
102
RTVSPropertyOp52
 70
     0
102
RTVSPropertyOp53
 70
     0
102
RTVSPropertyOp54
 70
     0
102
RTVSPropertyOp55
 70
     0
102
RTVSPropertyOp56
 70
     0
102
RTVSPropertyOp57
 70
     0
102
RTVSPost2010Prop28
280
     0
102
RTVSPost2010PropOp28
 70
     0
102
RTVSPost2010Prop29
280
     1
102
RTVSPost2010PropOp29
 70
     0
102
RTVSPost2010Prop30
280
     1
102
RTVSPost2010PropOp30
 70
     0
102
RTVSPost2010Prop31
280
     0
102
RTVSPost2010PropOp31
 70
     0
102
RTVSPost2010Prop32
280
     0
102
RTVSPost2010PropOp32
 70
     0
102
RTVSPost2010Prop33
280
     0
102
RTVSPost2010PropOp33
 70
     0
102
RTVSPost2010Prop34
280
     0
102
RTVSPost2010PropOp34
 70
     0
102
RTVSPost2010Prop35
280
     0
102
RTVSPost2010PropOp35
 70
     0
102
RTVSPost2010Prop36
280
     0
102
RTVSPost2010PropOp36
 70
     0
102
RTVSPost2010Prop37
 90
       50
102
RTVSPost2010PropOp37
 70
     0
102
RTVSPost2010Prop38
140
0.0
102
RTVSPost2010PropOp38
 70
     0
102
RTVSPost2010Prop39
140
1.0
102
RTVSPost2010PropOp39
 70
     0
102
RTVSPost2010Prop40
 90
        0
102
RTVSPost2010PropOp40
 70
     0
102
RTVSPost2010Prop41ColorIndex
 90
       18
102
RTVSPost2010Prop41ColorRGB
 90
        0
102
RTVSPost2010PropOp41
 70
     0
102
RTVSPost2010Prop42
 90
       50
102
RTVSPost2010PropOp42
 70
     0
102
RTVSPost2010Prop43
 90
        3
102
RTVSPost2010PropOp43
 70
     0
102
RTVSPost2010Prop44ColorIndex
 90
        5
102
RTVSPost2010Prop44ColorRGB
 90
      255
102
RTVSPost2010PropOp44
 70
     0
102
RTVSPost2010Prop45
280
     0
102
RTVSPost2010PropOp45
 70
     0
102
RTVSPost2010Prop46
 90
       50
102
RTVSPost2010PropOp46
 70
     0
102
RTVSPost2010Prop47
 90
       50
102
RTVSPost2010PropOp47
 70
     0
102
RTVSPost2010Prop48
 90
       50
102
RTVSPost2010PropOp48
 70
     0
102
RTVSPost2010Prop49
280
     0
102
RTVSPost2010PropOp49
 70
     0
102
RTVSPost2010Prop50
 90
       50
102
RTVSPost2010PropOp50
 70
     0
102
RTVSPost2010Prop51ColorIndex
 90
      256
102
RTVSPost2010Prop51ColorRGB
 90
-16777216
102
RTVSPost2010PropOp51
 70
     0
102
RTVSPost2010Prop52
140
1.0
102
RTVSPost2010PropOp52
 70
     0
102
RTVSPost2010Prop53
 90
        2
102
RTVSPost2010PropOp53
 70
     0
102
RTVSPost2010Prop54
  1
strokes_ogs.tif
102
RTVSPost2010PropOp54
 70
     0
102
RTVSPost2010Prop55
280
     0
102
RTVSPost2010PropOp55
 70
     0
102
RTVSPost2010Prop56
140
1.0
102
RTVSPost2010PropOp56
 70
     0
102
RTVSPost2010Prop57
140
1.0
102
RTVSPost2010PropOp57
 70
     0
  0
XRECORD
  5
164
102
{ACAD_REACTORS
330
163
102
}
330
163
100
AcDbXrecord
280
     1
102
RTVSPropertyOp0
 70
     1
102
RTVSPropertyOp1
 70
     1
102
RTVSPropertyOp2
 70
     1
102
RTVSPropertyOp3
 70
     1
102
RTVSPropertyOp4
 70
     1
102
RTVSPropertyOp5
 70
     1
102
RTVSPropertyOp6
 70
     1
102
RTVSPropertyOp7
 70
     1
102
RTVSPropertyOp8
 70
     1
102
RTVSPropertyOp9
 70
     1
102
RTVSPropertyOp10
 70
     1
102
RTVSPropertyOp11
 70
     1
102
RTVSPropertyOp12
 70
     1
102
RTVSPropertyOp13
 70
     1
102
RTVSPropertyOp14
 70
     1
102
RTVSPropertyOp15
 70
     1
102
RTVSPropertyOp16
 70
     1
102
RTVSPropertyOp17
 70
     1
102
RTVSPropertyOp18
 70
     1
102
RTVSPropertyOp19
 70
     1
102
RTVSPropertyOp20
 70
     1
102
RTVSPropertyOp21
 70
     1
102
RTVSPropertyOp22
 70
     1
102
RTVSPropertyOp23
 70
     1
102
RTVSPropertyOp24
 70
     1
102
RTVSPropertyOp25
 70
     1
102
RTVSPropertyOp26
 70
     1
102
RTVSPropertyOp27
 70
     1
102
RTVSPropertyOp28
 70
     1
102
RTVSPropertyOp29
 70
     1
102
RTVSPropertyOp30
 70
     1
102
RTVSPropertyOp31
 70
     1
102
RTVSPropertyOp32
 70
     1
102
RTVSPropertyOp33
 70
     1
102
RTVSPropertyOp34
 70
     1
102
RTVSPropertyOp35
 70
     1
102
RTVSPropertyOp36
 70
     1
102
RTVSPropertyOp37
 70
     1
102
RTVSPropertyOp38
 70
     1
102
RTVSPropertyOp39
 70
     1
102
RTVSPropertyOp40
 70
     1
102
RTVSPropertyOp41
 70
     1
102
RTVSPropertyOp42
 70
     1
102
RTVSPropertyOp43
 70
     1
102
RTVSPropertyOp44
 70
     1
102
RTVSPropertyOp45
 70
     1
102
RTVSPropertyOp46
 70
     1
102
RTVSPropertyOp47
 70
     1
102
RTVSPropertyOp48
 70
     1
102
RTVSPropertyOp49
 70
     1
102
RTVSPropertyOp50
 70
     1
102
RTVSPropertyOp51
 70
     0
102
RTVSPropertyOp52
 70
     0
102
RTVSPropertyOp53
 70
     1
102
RTVSPropertyOp54
 70
     1
102
RTVSPropertyOp55
 70
     1
102
RTVSPropertyOp56
 70
     1
102
RTVSPropertyOp57
 70
     1
102
RTVSPost2010Prop28
280
     0
102
RTVSPost2010PropOp28
 70
     1
102
RTVSPost2010Prop29
280
     1
102
RTVSPost2010PropOp29
 70
     1
102
RTVSPost2010Prop30
280
     1
102
RTVSPost2010PropOp30
 70
     1
102
RTVSPost2010Prop31
280
     0
102
RTVSPost2010PropOp31
 70
     1
102
RTVSPost2010Prop32
280
     0
102
RTVSPost2010PropOp32
 70
     1
102
RTVSPost2010Prop33
280
     0
102
RTVSPost2010PropOp33
 70
     1
102
RTVSPost2010Prop34
280
     0
102
RTVSPost2010PropOp34
 70
     1
102
RTVSPost2010Prop35
280
     0
102
RTVSPost2010PropOp35
 70
     1
102
RTVSPost2010Prop36
280
     0
102
RTVSPost2010PropOp36
 70
     1
102
RTVSPost2010Prop37
 90
       50
102
RTVSPost2010PropOp37
 70
     1
102
RTVSPost2010Prop38
140
0.0
102
RTVSPost2010PropOp38
 70
     1
102
RTVSPost2010Prop39
140
1.0
102
RTVSPost2010PropOp39
 70
     1
102
RTVSPost2010Prop40
 90
        0
102
RTVSPost2010PropOp40
 70
     1
102
RTVSPost2010Prop41ColorIndex
 90
       18
102
RTVSPost2010Prop41ColorRGB
 90
        0
102
RTVSPost2010PropOp41
 70
     1
102
RTVSPost2010Prop42
 90
       50
102
RTVSPost2010PropOp42
 70
     1
102
RTVSPost2010Prop43
 90
        3
102
RTVSPost2010PropOp43
 70
     1
102
RTVSPost2010Prop44ColorIndex
 90
        5
102
RTVSPost2010Prop44ColorRGB
 90
      255
102
RTVSPost2010PropOp44
 70
     1
102
RTVSPost2010Prop45
280
     0
102
RTVSPost2010PropOp45
 70
     1
102
RTVSPost2010Prop46
 90
       50
102
RTVSPost2010PropOp46
 70
     1
102
RTVSPost2010Prop47
 90
       50
102
RTVSPost2010PropOp47
 70
     1
102
RTVSPost2010Prop48
 90
       50
102
RTVSPost2010PropOp48
 70
     1
102
RTVSPost2010Prop49
280
     0
102
RTVSPost2010PropOp49
 70
     1
102
RTVSPost2010Prop50
 90
       50
102
RTVSPost2010PropOp50
 70
     1
102
RTVSPost2010Prop51ColorIndex
 90
      256
102
RTVSPost2010Prop51ColorRGB
 90
-16777216
102
RTVSPost2010PropOp51
 70
     0
102
RTVSPost2010Prop52
140
1.0
102
RTVSPost2010PropOp52
 70
     0
102
RTVSPost2010Prop53
 90
        2
102
RTVSPost2010PropOp53
 70
     1
102
RTVSPost2010Prop54
  1
strokes_ogs.tif
102
RTVSPost2010PropOp54
 70
     1
102
RTVSPost2010Prop55
280
     0
102
RTVSPost2010PropOp55
 70
     1
102
RTVSPost2010Prop56
140
1.0
102
RTVSPost2010PropOp56
 70
     1
102
RTVSPost2010Prop57
140
1.0
102
RTVSPost2010PropOp57
 70
     1
  0
XRECORD
  5
16C
102
{ACAD_REACTORS
330
16B
102
}
330
16B
100
AcDbXrecord
280
     1
102
RTVSPropertyOp0
 70
     0
102
RTVSPropertyOp1
 70
     0
102
RTVSPropertyOp2
 70
     0
102
RTVSPropertyOp3
 70
     0
102
RTVSPropertyOp4
 70
     0
102
RTVSPropertyOp5
 70
     0
102
RTVSPropertyOp6
 70
     0
102
RTVSPropertyOp7
 70
     0
102
RTVSPropertyOp8
 70
     0
102
RTVSPropertyOp9
 70
     0
102
RTVSPropertyOp10
 70
     0
102
RTVSPropertyOp11
 70
     0
102
RTVSPropertyOp12
 70
     0
102
RTVSPropertyOp13
 70
     0
102
RTVSPropertyOp14
 70
     2
102
RTVSPropertyOp15
 70
     0
102
RTVSPropertyOp16
 70
     0
102
RTVSPropertyOp17
 70
     0
102
RTVSPropertyOp18
 70
     0
102
RTVSPropertyOp19
 70
     0
102
RTVSPropertyOp20
 70
     0
102
RTVSPropertyOp21
 70
     0
102
RTVSPropertyOp22
 70
     0
102
RTVSPropertyOp23
 70
     0
102
RTVSPropertyOp24
 70
     0
102
RTVSPropertyOp25
 70
     0
102
RTVSPropertyOp26
 70
     0
102
RTVSPropertyOp27
 70
     0
102
RTVSPropertyOp28
 70
     0
102
RTVSPropertyOp29
 70
     0
102
RTVSPropertyOp30
 70
     0
102
RTVSPropertyOp31
 70
     0
102
RTVSPropertyOp32
 70
     0
102
RTVSPropertyOp33
 70
     0
102
RTVSPropertyOp34
 70
     0
102
RTVSPropertyOp35
 70
     0
102
RTVSPropertyOp36
 70
     0
102
RTVSPropertyOp37
 70
     0
102
RTVSPropertyOp38
 70
     0
102
RTVSPropertyOp39
 70
     0
102
RTVSPropertyOp40
 70
     0
102
RTVSPropertyOp41
 70
     0
102
RTVSPropertyOp42
 70
     0
102
RTVSPropertyOp43
 70
     0
102
RTVSPropertyOp44
 70
     0
102
RTVSPropertyOp45
 70
     0
102
RTVSPropertyOp46
 70
     0
102
RTVSPropertyOp47
 70
     0
102
RTVSPropertyOp48
 70
     0
102
RTVSPropertyOp49
 70
     0
102
RTVSPropertyOp50
 70
     0
102
RTVSPropertyOp51
 70
     0
102
RTVSPropertyOp52
 70
     0
102
RTVSPropertyOp53
 70
     0
102
RTVSPropertyOp54
 70
     0
102
RTVSPropertyOp55
 70
     0
102
RTVSPropertyOp56
 70
     0
102
RTVSPropertyOp57
 70
     0
102
RTVSPost2010Prop28
280
     0
102
RTVSPost2010PropOp28
 70
     0
102
RTVSPost2010Prop29
280
     1
102
RTVSPost2010PropOp29
 70
     0
102
RTVSPost2010Prop30
280
     1
102
RTVSPost2010PropOp30
 70
     0
102
RTVSPost2010Prop31
280
     0
102
RTVSPost2010PropOp31
 70
     0
102
RTVSPost2010Prop32
280
     0
102
RTVSPost2010PropOp32
 70
     0
102
RTVSPost2010Prop33
280
     0
102
RTVSPost2010PropOp33
 70
     0
102
RTVSPost2010Prop34
280
     0
102
RTVSPost2010PropOp34
 70
     0
102
RTVSPost2010Prop35
280
     0
102
RTVSPost2010PropOp35
 70
     0
102
RTVSPost2010Prop36
280
     0
102
RTVSPost2010PropOp36
 70
     0
102
RTVSPost2010Prop37
 90
       50
102
RTVSPost2010PropOp37
 70
     0
102
RTVSPost2010Prop38
140
0.0
102
RTVSPost2010PropOp38
 70
     0
102
RTVSPost2010Prop39
140
1.0
102
RTVSPost2010PropOp39
 70
     0
102
RTVSPost2010Prop40
 90
        0
102
RTVSPost2010PropOp40
 70
     0
102
RTVSPost2010Prop41ColorIndex
 90
       18
102
RTVSPost2010Prop41ColorRGB
 90
        0
102
RTVSPost2010PropOp41
 70
     0
102
RTVSPost2010Prop42
 90
       50
102
RTVSPost2010PropOp42
 70
     0
102
RTVSPost2010Prop43
 90
        3
102
RTVSPost2010PropOp43
 70
     0
102
RTVSPost2010Prop44ColorIndex
 90
        5
102
RTVSPost2010Prop44ColorRGB
 90
      255
102
RTVSPost2010PropOp44
 70
     0
102
RTVSPost2010Prop45
280
     0
102
RTVSPost2010PropOp45
 70
     0
102
RTVSPost2010Prop46
 90
       50
102
RTVSPost2010PropOp46
 70
     0
102
RTVSPost2010Prop47
 90
       50
102
RTVSPost2010PropOp47
 70
     0
102
RTVSPost2010Prop48
 90
       50
102
RTVSPost2010PropOp48
 70
     0
102
RTVSPost2010Prop49
280
     0
102
RTVSPost2010PropOp49
 70
     0
102
RTVSPost2010Prop50
 90
       50
102
RTVSPost2010PropOp50
 70
     0
102
RTVSPost2010Prop51ColorIndex
 90
      256
102
RTVSPost2010Prop51ColorRGB
 90
-16777216
102
RTVSPost2010PropOp51
 70
     0
102
RTVSPost2010Prop52
140
1.0
102
RTVSPost2010PropOp52
 70
     0
102
RTVSPost2010Prop53
 90
        2
102
RTVSPost2010PropOp53
 70
     0
102
RTVSPost2010Prop54
  1
strokes_ogs.tif
102
RTVSPost2010PropOp54
 70
     0
102
RTVSPost2010Prop55
280
     0
102
RTVSPost2010PropOp55
 70
     0
102
RTVSPost2010Prop56
140
1.0
102
RTVSPost2010PropOp56
 70
     0
102
RTVSPost2010Prop57
140
1.0
102
RTVSPost2010PropOp57
 70
     0
  0
XRECORD
  5
15A
102
{ACAD_REACTORS
330
159
102
}
330
159
100
AcDbXrecord
280
     1
102
RTVSPropertyOp0
 70
     1
102
RTVSPropertyOp1
 70
     1
102
RTVSPropertyOp2
 70
     1
102
RTVSPropertyOp3
 70
     1
102
RTVSPropertyOp4
 70
     1
102
RTVSPropertyOp5
 70
     1
102
RTVSPropertyOp6
 70
     1
102
RTVSPropertyOp7
 70
     1
102
RTVSPropertyOp8
 70
     1
102
RTVSPropertyOp9
 70
     1
102
RTVSPropertyOp10
 70
     1
102
RTVSPropertyOp11
 70
     1
102
RTVSPropertyOp12
 70
     1
102
RTVSPropertyOp13
 70
     1
102
RTVSPropertyOp14
 70
     1
102
RTVSPropertyOp15
 70
     1
102
RTVSPropertyOp16
 70
     1
102
RTVSPropertyOp17
 70
     1
102
RTVSPropertyOp18
 70
     1
102
RTVSPropertyOp19
 70
     1
102
RTVSPropertyOp20
 70
     1
102
RTVSPropertyOp21
 70
     1
102
RTVSPropertyOp22
 70
     1
102
RTVSPropertyOp23
 70
     1
102
RTVSPropertyOp24
 70
     1
102
RTVSPropertyOp25
 70
     1
102
RTVSPropertyOp26
 70
     1
102
RTVSPropertyOp27
 70
     1
102
RTVSPropertyOp28
 70
     1
102
RTVSPropertyOp29
 70
     1
102
RTVSPropertyOp30
 70
     1
102
RTVSPropertyOp31
 70
     1
102
RTVSPropertyOp32
 70
     1
102
RTVSPropertyOp33
 70
     1
102
RTVSPropertyOp34
 70
     1
102
RTVSPropertyOp35
 70
     1
102
RTVSPropertyOp36
 70
     1
102
RTVSPropertyOp37
 70
     1
102
RTVSPropertyOp38
 70
     1
102
RTVSPropertyOp39
 70
     1
102
RTVSPropertyOp40
 70
     1
102
RTVSPropertyOp41
 70
     1
102
RTVSPropertyOp42
 70
     1
102
RTVSPropertyOp43
 70
     1
102
RTVSPropertyOp44
 70
     1
102
RTVSPropertyOp45
 70
     1
102
RTVSPropertyOp46
 70
     1
102
RTVSPropertyOp47
 70
     1
102
RTVSPropertyOp48
 70
     1
102
RTVSPropertyOp49
 70
     1
102
RTVSPropertyOp50
 70
     1
102
RTVSPropertyOp51
 70
     0
102
RTVSPropertyOp52
 70
     0
102
RTVSPropertyOp53
 70
     1
102
RTVSPropertyOp54
 70
     1
102
RTVSPropertyOp55
 70
     1
102
RTVSPropertyOp56
 70
     1
102
RTVSPropertyOp57
 70
     1
102
RTVSPost2010Prop28
280
     0
102
RTVSPost2010PropOp28
 70
     1
102
RTVSPost2010Prop29
280
     1
102
RTVSPost2010PropOp29
 70
     1
102
RTVSPost2010Prop30
280
     1
102
RTVSPost2010PropOp30
 70
     1
102
RTVSPost2010Prop31
280
     0
102
RTVSPost2010PropOp31
 70
     1
102
RTVSPost2010Prop32
280
     0
102
RTVSPost2010PropOp32
 70
     1
102
RTVSPost2010Prop33
280
     0
102
RTVSPost2010PropOp33
 70
     1
102
RTVSPost2010Prop34
280
     0
102
RTVSPost2010PropOp34
 70
     1
102
RTVSPost2010Prop35
280
     0
102
RTVSPost2010PropOp35
 70
     1
102
RTVSPost2010Prop36
280
     0
102
RTVSPost2010PropOp36
 70
     1
102
RTVSPost2010Prop37
 90
       50
102
RTVSPost2010PropOp37
 70
     1
102
RTVSPost2010Prop38
140
0.0
102
RTVSPost2010PropOp38
 70
     1
102
RTVSPost2010Prop39
140
1.0
102
RTVSPost2010PropOp39
 70
     1
102
RTVSPost2010Prop40
 90
        0
102
RTVSPost2010PropOp40
 70
     1
102
RTVSPost2010Prop41ColorIndex
 90
       18
102
RTVSPost2010Prop41ColorRGB
 90
        0
102
RTVSPost2010PropOp41
 70
     1
102
RTVSPost2010Prop42
 90
       50
102
RTVSPost2010PropOp42
 70
     1
102
RTVSPost2010Prop43
 90
        3
102
RTVSPost2010PropOp43
 70
     1
102
RTVSPost2010Prop44ColorIndex
 90
        5
102
RTVSPost2010Prop44ColorRGB
 90
      255
102
RTVSPost2010PropOp44
 70
     1
102
RTVSPost2010Prop45
280
     0
102
RTVSPost2010PropOp45
 70
     1
102
RTVSPost2010Prop46
 90
       50
102
RTVSPost2010PropOp46
 70
     1
102
RTVSPost2010Prop47
 90
       50
102
RTVSPost2010PropOp47
 70
     1
102
RTVSPost2010Prop48
 90
       50
102
RTVSPost2010PropOp48
 70
     1
102
RTVSPost2010Prop49
280
     0
102
RTVSPost2010PropOp49
 70
     1
102
RTVSPost2010Prop50
 90
       50
102
RTVSPost2010PropOp50
 70
     1
102
RTVSPost2010Prop51ColorIndex
 90
      256
102
RTVSPost2010Prop51ColorRGB
 90
-16777216
102
RTVSPost2010PropOp51
 70
     0
102
RTVSPost2010Prop52
140
1.0
102
RTVSPost2010PropOp52
 70
     0
102
RTVSPost2010Prop53
 90
        2
102
RTVSPost2010PropOp53
 70
     1
102
RTVSPost2010Prop54
  1
strokes_ogs.tif
102
RTVSPost2010PropOp54
 70
     1
102
RTVSPost2010Prop55
280
     0
102
RTVSPost2010PropOp55
 70
     1
102
RTVSPost2010Prop56
140
1.0
102
RTVSPost2010PropOp56
 70
     1
102
RTVSPost2010Prop57
140
1.0
102
RTVSPost2010PropOp57
 70
     1
  0
XRECORD
  5
178
102
{ACAD_REACTORS
330
177
102
}
330
177
100
AcDbXrecord
280
     1
102
RTVSPropertyOp0
 70
     1
102
RTVSPropertyOp1
 70
     1
102
RTVSPropertyOp2
 70
     1
102
RTVSPropertyOp3
 70
     1
102
RTVSPropertyOp4
 70
     1
102
RTVSPropertyOp5
 70
     1
102
RTVSPropertyOp6
 70
     1
102
RTVSPropertyOp7
 70
     1
102
RTVSPropertyOp8
 70
     1
102
RTVSPropertyOp9
 70
     1
102
RTVSPropertyOp10
 70
     1
102
RTVSPropertyOp11
 70
     1
102
RTVSPropertyOp12
 70
     1
102
RTVSPropertyOp13
 70
     1
102
RTVSPropertyOp14
 70
     1
102
RTVSPropertyOp15
 70
     1
102
RTVSPropertyOp16
 70
     1
102
RTVSPropertyOp17
 70
     1
102
RTVSPropertyOp18
 70
     1
102
RTVSPropertyOp19
 70
     1
102
RTVSPropertyOp20
 70
     1
102
RTVSPropertyOp21
 70
     1
102
RTVSPropertyOp22
 70
     1
102
RTVSPropertyOp23
 70
     1
102
RTVSPropertyOp24
 70
     1
102
RTVSPropertyOp25
 70
     1
102
RTVSPropertyOp26
 70
     1
102
RTVSPropertyOp27
 70
     1
102
RTVSPropertyOp28
 70
     1
102
RTVSPropertyOp29
 70
     1
102
RTVSPropertyOp30
 70
     1
102
RTVSPropertyOp31
 70
     1
102
RTVSPropertyOp32
 70
     1
102
RTVSPropertyOp33
 70
     1
102
RTVSPropertyOp34
 70
     1
102
RTVSPropertyOp35
 70
     1
102
RTVSPropertyOp36
 70
     1
102
RTVSPropertyOp37
 70
     1
102
RTVSPropertyOp38
 70
     1
102
RTVSPropertyOp39
 70
     1
102
RTVSPropertyOp40
 70
     1
102
RTVSPropertyOp41
 70
     1
102
RTVSPropertyOp42
 70
     1
102
RTVSPropertyOp43
 70
     1
102
RTVSPropertyOp44
 70
     1
102
RTVSPropertyOp45
 70
     1
102
RTVSPropertyOp46
 70
     1
102
RTVSPropertyOp47
 70
     1
102
RTVSPropertyOp48
 70
     1
102
RTVSPropertyOp49
 70
     1
102
RTVSPropertyOp50
 70
     1
102
RTVSPropertyOp51
 70
     0
102
RTVSPropertyOp52
 70
     0
102
RTVSPropertyOp53
 70
     1
102
RTVSPropertyOp54
 70
     1
102
RTVSPropertyOp55
 70
     1
102
RTVSPropertyOp56
 70
     1
102
RTVSPropertyOp57
 70
     1
102
RTVSPost2010Prop28
280
     0
102
RTVSPost2010PropOp28
 70
     1
102
RTVSPost2010Prop29
280
     1
102
RTVSPost2010PropOp29
 70
     1
102
RTVSPost2010Prop30
280
     1
102
RTVSPost2010PropOp30
 70
     1
102
RTVSPost2010Prop31
280
     0
102
RTVSPost2010PropOp31
 70
     1
102
RTVSPost2010Prop32
280
     0
102
RTVSPost2010PropOp32
 70
     1
102
RTVSPost2010Prop33
280
     0
102
RTVSPost2010PropOp33
 70
     1
102
RTVSPost2010Prop34
280
     0
102
RTVSPost2010PropOp34
 70
     1
102
RTVSPost2010Prop35
280
     0
102
RTVSPost2010PropOp35
 70
     1
102
RTVSPost2010Prop36
280
     0
102
RTVSPost2010PropOp36
 70
     1
102
RTVSPost2010Prop37
 90
       50
102
RTVSPost2010PropOp37
 70
     1
102
RTVSPost2010Prop38
140
0.0
102
RTVSPost2010PropOp38
 70
     1
102
RTVSPost2010Prop39
140
1.0
102
RTVSPost2010PropOp39
 70
     1
102
RTVSPost2010Prop40
 90
        0
102
RTVSPost2010PropOp40
 70
     1
102
RTVSPost2010Prop41ColorIndex
 90
       18
102
RTVSPost2010Prop41ColorRGB
 90
        0
102
RTVSPost2010PropOp41
 70
     1
102
RTVSPost2010Prop42
 90
       50
102
RTVSPost2010PropOp42
 70
     1
102
RTVSPost2010Prop43
 90
        3
102
RTVSPost2010PropOp43
 70
     1
102
RTVSPost2010Prop44ColorIndex
 90
        5
102
RTVSPost2010Prop44ColorRGB
 90
      255
102
RTVSPost2010PropOp44
 70
     1
102
RTVSPost2010Prop45
280
     0
102
RTVSPost2010PropOp45
 70
     1
102
RTVSPost2010Prop46
 90
       50
102
RTVSPost2010PropOp46
 70
     1
102
RTVSPost2010Prop47
 90
       50
102
RTVSPost2010PropOp47
 70
     1
102
RTVSPost2010Prop48
 90
       50
102
RTVSPost2010PropOp48
 70
     1
102
RTVSPost2010Prop49
280
     0
102
RTVSPost2010PropOp49
 70
     1
102
RTVSPost2010Prop50
 90
       50
102
RTVSPost2010PropOp50
 70
     1
102
RTVSPost2010Prop51ColorIndex
 90
      256
102
RTVSPost2010Prop51ColorRGB
 90
-16777216
102
RTVSPost2010PropOp51
 70
     0
102
RTVSPost2010Prop52
140
1.0
102
RTVSPost2010PropOp52
 70
     0
102
RTVSPost2010Prop53
 90
        2
102
RTVSPost2010PropOp53
 70
     1
102
RTVSPost2010Prop54
  1
strokes_ogs.tif
102
RTVSPost2010PropOp54
 70
     1
102
RTVSPost2010Prop55
280
     0
102
RTVSPost2010PropOp55
 70
     1
102
RTVSPost2010Prop56
140
1.0
102
RTVSPost2010PropOp56
 70
     1
102
RTVSPost2010Prop57
140
1.0
102
RTVSPost2010PropOp57
 70
     1
  0
XRECORD
  5
176
102
{ACAD_REACTORS
330
175
102
}
330
175
100
AcDbXrecord
280
     1
102
RTVSPropertyOp0
 70
     1
102
RTVSPropertyOp1
 70
     1
102
RTVSPropertyOp2
 70
     1
102
RTVSPropertyOp3
 70
     1
102
RTVSPropertyOp4
 70
     1
102
RTVSPropertyOp5
 70
     1
102
RTVSPropertyOp6
 70
     1
102
RTVSPropertyOp7
 70
     1
102
RTVSPropertyOp8
 70
     1
102
RTVSPropertyOp9
 70
     1
102
RTVSPropertyOp10
 70
     1
102
RTVSPropertyOp11
 70
     1
102
RTVSPropertyOp12
 70
     1
102
RTVSPropertyOp13
 70
     1
102
RTVSPropertyOp14
 70
     1
102
RTVSPropertyOp15
 70
     1
102
RTVSPropertyOp16
 70
     1
102
RTVSPropertyOp17
 70
     1
102
RTVSPropertyOp18
 70
     1
102
RTVSPropertyOp19
 70
     1
102
RTVSPropertyOp20
 70
     1
102
RTVSPropertyOp21
 70
     1
102
RTVSPropertyOp22
 70
     1
102
RTVSPropertyOp23
 70
     1
102
RTVSPropertyOp24
 70
     1
102
RTVSPropertyOp25
 70
     1
102
RTVSPropertyOp26
 70
     1
102
RTVSPropertyOp27
 70
     1
102
RTVSPropertyOp28
 70
     1
102
RTVSPropertyOp29
 70
     1
102
RTVSPropertyOp30
 70
     1
102
RTVSPropertyOp31
 70
     1
102
RTVSPropertyOp32
 70
     1
102
RTVSPropertyOp33
 70
     1
102
RTVSPropertyOp34
 70
     1
102
RTVSPropertyOp35
 70
     1
102
RTVSPropertyOp36
 70
     1
102
RTVSPropertyOp37
 70
     1
102
RTVSPropertyOp38
 70
     1
102
RTVSPropertyOp39
 70
     1
102
RTVSPropertyOp40
 70
     1
102
RTVSPropertyOp41
 70
     1
102
RTVSPropertyOp42
 70
     1
102
RTVSPropertyOp43
 70
     1
102
RTVSPropertyOp44
 70
     1
102
RTVSPropertyOp45
 70
     1
102
RTVSPropertyOp46
 70
     1
102
RTVSPropertyOp47
 70
     1
102
RTVSPropertyOp48
 70
     1
102
RTVSPropertyOp49
 70
     1
102
RTVSPropertyOp50
 70
     1
102
RTVSPropertyOp51
 70
     0
102
RTVSPropertyOp52
 70
     0
102
RTVSPropertyOp53
 70
     1
102
RTVSPropertyOp54
 70
     1
102
RTVSPropertyOp55
 70
     1
102
RTVSPropertyOp56
 70
     1
102
RTVSPropertyOp57
 70
     1
102
RTVSPost2010Prop28
280
     0
102
RTVSPost2010PropOp28
 70
     1
102
RTVSPost2010Prop29
280
     1
102
RTVSPost2010PropOp29
 70
     1
102
RTVSPost2010Prop30
280
     1
102
RTVSPost2010PropOp30
 70
     1
102
RTVSPost2010Prop31
280
     0
102
RTVSPost2010PropOp31
 70
     1
102
RTVSPost2010Prop32
280
     0
102
RTVSPost2010PropOp32
 70
     1
102
RTVSPost2010Prop33
280
     0
102
RTVSPost2010PropOp33
 70
     1
102
RTVSPost2010Prop34
280
     0
102
RTVSPost2010PropOp34
 70
     1
102
RTVSPost2010Prop35
280
     0
102
RTVSPost2010PropOp35
 70
     1
102
RTVSPost2010Prop36
280
     0
102
RTVSPost2010PropOp36
 70
     1
102
RTVSPost2010Prop37
 90
       50
102
RTVSPost2010PropOp37
 70
     1
102
RTVSPost2010Prop38
140
0.0
102
RTVSPost2010PropOp38
 70
     1
102
RTVSPost2010Prop39
140
1.0
102
RTVSPost2010PropOp39
 70
     1
102
RTVSPost2010Prop40
 90
        0
102
RTVSPost2010PropOp40
 70
     1
102
RTVSPost2010Prop41ColorIndex
 90
       18
102
RTVSPost2010Prop41ColorRGB
 90
        0
102
RTVSPost2010PropOp41
 70
     1
102
RTVSPost2010Prop42
 90
       50
102
RTVSPost2010PropOp42
 70
     1
102
RTVSPost2010Prop43
 90
        3
102
RTVSPost2010PropOp43
 70
     1
102
RTVSPost2010Prop44ColorIndex
 90
        5
102
RTVSPost2010Prop44ColorRGB
 90
      255
102
RTVSPost2010PropOp44
 70
     1
102
RTVSPost2010Prop45
280
     0
102
RTVSPost2010PropOp45
 70
     1
102
RTVSPost2010Prop46
 90
       50
102
RTVSPost2010PropOp46
 70
     1
102
RTVSPost2010Prop47
 90
       50
102
RTVSPost2010PropOp47
 70
     1
102
RTVSPost2010Prop48
 90
       50
102
RTVSPost2010PropOp48
 70
     1
102
RTVSPost2010Prop49
280
     0
102
RTVSPost2010PropOp49
 70
     1
102
RTVSPost2010Prop50
 90
       50
102
RTVSPost2010PropOp50
 70
     1
102
RTVSPost2010Prop51ColorIndex
 90
      256
102
RTVSPost2010Prop51ColorRGB
 90
-16777216
102
RTVSPost2010PropOp51
 70
     0
102
RTVSPost2010Prop52
140
1.0
102
RTVSPost2010PropOp52
 70
     0
102
RTVSPost2010Prop53
 90
        2
102
RTVSPost2010PropOp53
 70
     1
102
RTVSPost2010Prop54
  1
strokes_ogs.tif
102
RTVSPost2010PropOp54
 70
     1
102
RTVSPost2010Prop55
280
     0
102
RTVSPost2010PropOp55
 70
     1
102
RTVSPost2010Prop56
140
1.0
102
RTVSPost2010PropOp56
 70
     1
102
RTVSPost2010Prop57
140
1.0
102
RTVSPost2010PropOp57
 70
     1
  0
XRECORD
  5
170
102
{ACAD_REACTORS
330
16F
102
}
330
16F
100
AcDbXrecord
280
     1
102
RTVSPropertyOp0
 70
     1
102
RTVSPropertyOp1
 70
     1
102
RTVSPropertyOp2
 70
     1
102
RTVSPropertyOp3
 70
     1
102
RTVSPropertyOp4
 70
     1
102
RTVSPropertyOp5
 70
     1
102
RTVSPropertyOp6
 70
     1
102
RTVSPropertyOp7
 70
     1
102
RTVSPropertyOp8
 70
     1
102
RTVSPropertyOp9
 70
     1
102
RTVSPropertyOp10
 70
     1
102
RTVSPropertyOp11
 70
     1
102
RTVSPropertyOp12
 70
     1
102
RTVSPropertyOp13
 70
     1
102
RTVSPropertyOp14
 70
     1
102
RTVSPropertyOp15
 70
     1
102
RTVSPropertyOp16
 70
     1
102
RTVSPropertyOp17
 70
     1
102
RTVSPropertyOp18
 70
     1
102
RTVSPropertyOp19
 70
     1
102
RTVSPropertyOp20
 70
     1
102
RTVSPropertyOp21
 70
     1
102
RTVSPropertyOp22
 70
     1
102
RTVSPropertyOp23
 70
     1
102
RTVSPropertyOp24
 70
     1
102
RTVSPropertyOp25
 70
     1
102
RTVSPropertyOp26
 70
     1
102
RTVSPropertyOp27
 70
     1
102
RTVSPropertyOp28
 70
     1
102
RTVSPropertyOp29
 70
     1
102
RTVSPropertyOp30
 70
     1
102
RTVSPropertyOp31
 70
     1
102
RTVSPropertyOp32
 70
     1
102
RTVSPropertyOp33
 70
     1
102
RTVSPropertyOp34
 70
     1
102
RTVSPropertyOp35
 70
     1
102
RTVSPropertyOp36
 70
     1
102
RTVSPropertyOp37
 70
     1
102
RTVSPropertyOp38
 70
     1
102
RTVSPropertyOp39
 70
     1
102
RTVSPropertyOp40
 70
     1
102
RTVSPropertyOp41
 70
     1
102
RTVSPropertyOp42
 70
     1
102
RTVSPropertyOp43
 70
     1
102
RTVSPropertyOp44
 70
     1
102
RTVSPropertyOp45
 70
     1
102
RTVSPropertyOp46
 70
     1
102
RTVSPropertyOp47
 70
     1
102
RTVSPropertyOp48
 70
     1
102
RTVSPropertyOp49
 70
     1
102
RTVSPropertyOp50
 70
     1
102
RTVSPropertyOp51
 70
     0
102
RTVSPropertyOp52
 70
     0
102
RTVSPropertyOp53
 70
     1
102
RTVSPropertyOp54
 70
     1
102
RTVSPropertyOp55
 70
     1
102
RTVSPropertyOp56
 70
     1
102
RTVSPropertyOp57
 70
     1
102
RTVSPost2010Prop28
280
     0
102
RTVSPost2010PropOp28
 70
     1
102
RTVSPost2010Prop29
280
     1
102
RTVSPost2010PropOp29
 70
     1
102
RTVSPost2010Prop30
280
     1
102
RTVSPost2010PropOp30
 70
     1
102
RTVSPost2010Prop31
280
     0
102
RTVSPost2010PropOp31
 70
     1
102
RTVSPost2010Prop32
280
     0
102
RTVSPost2010PropOp32
 70
     1
102
RTVSPost2010Prop33
280
     0
102
RTVSPost2010PropOp33
 70
     1
102
RTVSPost2010Prop34
280
     0
102
RTVSPost2010PropOp34
 70
     1
102
RTVSPost2010Prop35
280
     0
102
RTVSPost2010PropOp35
 70
     1
102
RTVSPost2010Prop36
280
     0
102
RTVSPost2010PropOp36
 70
     1
102
RTVSPost2010Prop37
 90
       50
102
RTVSPost2010PropOp37
 70
     1
102
RTVSPost2010Prop38
140
0.0
102
RTVSPost2010PropOp38
 70
     1
102
RTVSPost2010Prop39
140
1.0
102
RTVSPost2010PropOp39
 70
     1
102
RTVSPost2010Prop40
 90
        0
102
RTVSPost2010PropOp40
 70
     1
102
RTVSPost2010Prop41ColorIndex
 90
       18
102
RTVSPost2010Prop41ColorRGB
 90
        0
102
RTVSPost2010PropOp41
 70
     1
102
RTVSPost2010Prop42
 90
       50
102
RTVSPost2010PropOp42
 70
     1
102
RTVSPost2010Prop43
 90
        3
102
RTVSPost2010PropOp43
 70
     1
102
RTVSPost2010Prop44ColorIndex
 90
        5
102
RTVSPost2010Prop44ColorRGB
 90
      255
102
RTVSPost2010PropOp44
 70
     1
102
RTVSPost2010Prop45
280
     0
102
RTVSPost2010PropOp45
 70
     1
102
RTVSPost2010Prop46
 90
       50
102
RTVSPost2010PropOp46
 70
     1
102
RTVSPost2010Prop47
 90
       50
102
RTVSPost2010PropOp47
 70
     1
102
RTVSPost2010Prop48
 90
       50
102
RTVSPost2010PropOp48
 70
     1
102
RTVSPost2010Prop49
280
     0
102
RTVSPost2010PropOp49
 70
     1
102
RTVSPost2010Prop50
 90
       50
102
RTVSPost2010PropOp50
 70
     1
102
RTVSPost2010Prop51ColorIndex
 90
      256
102
RTVSPost2010Prop51ColorRGB
 90
-16777216
102
RTVSPost2010PropOp51
 70
     0
102
RTVSPost2010Prop52
140
1.0
102
RTVSPost2010PropOp52
 70
     0
102
RTVSPost2010Prop53
 90
        2
102
RTVSPost2010PropOp53
 70
     1
102
RTVSPost2010Prop54
  1
strokes_ogs.tif
102
RTVSPost2010PropOp54
 70
     1
102
RTVSPost2010Prop55
280
     0
102
RTVSPost2010PropOp55
 70
     1
102
RTVSPost2010Prop56
140
1.0
102
RTVSPost2010PropOp56
 70
     1
102
RTVSPost2010Prop57
140
1.0
102
RTVSPost2010PropOp57
 70
     1
  0
XRECORD
  5
172
102
{ACAD_REACTORS
330
171
102
}
330
171
100
AcDbXrecord
280
     1
102
RTVSPropertyOp0
 70
     1
102
RTVSPropertyOp1
 70
     1
102
RTVSPropertyOp2
 70
     1
102
RTVSPropertyOp3
 70
     1
102
RTVSPropertyOp4
 70
     1
102
RTVSPropertyOp5
 70
     1
102
RTVSPropertyOp6
 70
     1
102
RTVSPropertyOp7
 70
     1
102
RTVSPropertyOp8
 70
     1
102
RTVSPropertyOp9
 70
     1
102
RTVSPropertyOp10
 70
     1
102
RTVSPropertyOp11
 70
     1
102
RTVSPropertyOp12
 70
     1
102
RTVSPropertyOp13
 70
     1
102
RTVSPropertyOp14
 70
     1
102
RTVSPropertyOp15
 70
     1
102
RTVSPropertyOp16
 70
     1
102
RTVSPropertyOp17
 70
     1
102
RTVSPropertyOp18
 70
     1
102
RTVSPropertyOp19
 70
     1
102
RTVSPropertyOp20
 70
     1
102
RTVSPropertyOp21
 70
     1
102
RTVSPropertyOp22
 70
     1
102
RTVSPropertyOp23
 70
     1
102
RTVSPropertyOp24
 70
     1
102
RTVSPropertyOp25
 70
     1
102
RTVSPropertyOp26
 70
     1
102
RTVSPropertyOp27
 70
     1
102
RTVSPropertyOp28
 70
     1
102
RTVSPropertyOp29
 70
     1
102
RTVSPropertyOp30
 70
     1
102
RTVSPropertyOp31
 70
     1
102
RTVSPropertyOp32
 70
     1
102
RTVSPropertyOp33
 70
     1
102
RTVSPropertyOp34
 70
     1
102
RTVSPropertyOp35
 70
     1
102
RTVSPropertyOp36
 70
     1
102
RTVSPropertyOp37
 70
     1
102
RTVSPropertyOp38
 70
     1
102
RTVSPropertyOp39
 70
     1
102
RTVSPropertyOp40
 70
     1
102
RTVSPropertyOp41
 70
     1
102
RTVSPropertyOp42
 70
     1
102
RTVSPropertyOp43
 70
     1
102
RTVSPropertyOp44
 70
     1
102
RTVSPropertyOp45
 70
     1
102
RTVSPropertyOp46
 70
     1
102
RTVSPropertyOp47
 70
     1
102
RTVSPropertyOp48
 70
     1
102
RTVSPropertyOp49
 70
     1
102
RTVSPropertyOp50
 70
     1
102
RTVSPropertyOp51
 70
     0
102
RTVSPropertyOp52
 70
     0
102
RTVSPropertyOp53
 70
     1
102
RTVSPropertyOp54
 70
     1
102
RTVSPropertyOp55
 70
     1
102
RTVSPropertyOp56
 70
     1
102
RTVSPropertyOp57
 70
     1
102
RTVSPost2010Prop28
280
     0
102
RTVSPost2010PropOp28
 70
     1
102
RTVSPost2010Prop29
280
     1
102
RTVSPost2010PropOp29
 70
     1
102
RTVSPost2010Prop30
280
     1
102
RTVSPost2010PropOp30
 70
     1
102
RTVSPost2010Prop31
280
     0
102
RTVSPost2010PropOp31
 70
     1
102
RTVSPost2010Prop32
280
     0
102
RTVSPost2010PropOp32
 70
     1
102
RTVSPost2010Prop33
280
     0
102
RTVSPost2010PropOp33
 70
     1
102
RTVSPost2010Prop34
280
     0
102
RTVSPost2010PropOp34
 70
     1
102
RTVSPost2010Prop35
280
     0
102
RTVSPost2010PropOp35
 70
     1
102
RTVSPost2010Prop36
280
     0
102
RTVSPost2010PropOp36
 70
     1
102
RTVSPost2010Prop37
 90
       50
102
RTVSPost2010PropOp37
 70
     1
102
RTVSPost2010Prop38
140
0.0
102
RTVSPost2010PropOp38
 70
     1
102
RTVSPost2010Prop39
140
1.0
102
RTVSPost2010PropOp39
 70
     1
102
RTVSPost2010Prop40
 90
        0
102
RTVSPost2010PropOp40
 70
     1
102
RTVSPost2010Prop41ColorIndex
 90
       18
102
RTVSPost2010Prop41ColorRGB
 90
        0
102
RTVSPost2010PropOp41
 70
     1
102
RTVSPost2010Prop42
 90
       50
102
RTVSPost2010PropOp42
 70
     1
102
RTVSPost2010Prop43
 90
        3
102
RTVSPost2010PropOp43
 70
     1
102
RTVSPost2010Prop44ColorIndex
 90
        5
102
RTVSPost2010Prop44ColorRGB
 90
      255
102
RTVSPost2010PropOp44
 70
     1
102
RTVSPost2010Prop45
280
     0
102
RTVSPost2010PropOp45
 70
     1
102
RTVSPost2010Prop46
 90
       50
102
RTVSPost2010PropOp46
 70
     1
102
RTVSPost2010Prop47
 90
       50
102
RTVSPost2010PropOp47
 70
     1
102
RTVSPost2010Prop48
 90
       50
102
RTVSPost2010PropOp48
 70
     1
102
RTVSPost2010Prop49
280
     0
102
RTVSPost2010PropOp49
 70
     1
102
RTVSPost2010Prop50
 90
       50
102
RTVSPost2010PropOp50
 70
     1
102
RTVSPost2010Prop51ColorIndex
 90
      256
102
RTVSPost2010Prop51ColorRGB
 90
-16777216
102
RTVSPost2010PropOp51
 70
     0
102
RTVSPost2010Prop52
140
1.0
102
RTVSPost2010PropOp52
 70
     0
102
RTVSPost2010Prop53
 90
        2
102
RTVSPost2010PropOp53
 70
     1
102
RTVSPost2010Prop54
  1
strokes_ogs.tif
102
RTVSPost2010PropOp54
 70
     1
102
RTVSPost2010Prop55
280
     0
102
RTVSPost2010PropOp55
 70
     1
102
RTVSPost2010Prop56
140
1.0
102
RTVSPost2010PropOp56
 70
     1
102
RTVSPost2010Prop57
140
1.0
102
RTVSPost2010PropOp57
 70
     1
  0
XRECORD
  5
162
102
{ACAD_REACTORS
330
161
102
}
330
161
100
AcDbXrecord
280
     1
102
RTVSPropertyOp0
 70
     1
102
RTVSPropertyOp1
 70
     1
102
RTVSPropertyOp2
 70
     1
102
RTVSPropertyOp3
 70
     1
102
RTVSPropertyOp4
 70
     1
102
RTVSPropertyOp5
 70
     1
102
RTVSPropertyOp6
 70
     1
102
RTVSPropertyOp7
 70
     1
102
RTVSPropertyOp8
 70
     1
102
RTVSPropertyOp9
 70
     1
102
RTVSPropertyOp10
 70
     1
102
RTVSPropertyOp11
 70
     1
102
RTVSPropertyOp12
 70
     1
102
RTVSPropertyOp13
 70
     1
102
RTVSPropertyOp14
 70
     1
102
RTVSPropertyOp15
 70
     1
102
RTVSPropertyOp16
 70
     1
102
RTVSPropertyOp17
 70
     1
102
RTVSPropertyOp18
 70
     1
102
RTVSPropertyOp19
 70
     1
102
RTVSPropertyOp20
 70
     1
102
RTVSPropertyOp21
 70
     1
102
RTVSPropertyOp22
 70
     1
102
RTVSPropertyOp23
 70
     1
102
RTVSPropertyOp24
 70
     1
102
RTVSPropertyOp25
 70
     1
102
RTVSPropertyOp26
 70
     1
102
RTVSPropertyOp27
 70
     1
102
RTVSPropertyOp28
 70
     1
102
RTVSPropertyOp29
 70
     1
102
RTVSPropertyOp30
 70
     1
102
RTVSPropertyOp31
 70
     1
102
RTVSPropertyOp32
 70
     1
102
RTVSPropertyOp33
 70
     1
102
RTVSPropertyOp34
 70
     1
102
RTVSPropertyOp35
 70
     1
102
RTVSPropertyOp36
 70
     1
102
RTVSPropertyOp37
 70
     1
102
RTVSPropertyOp38
 70
     1
102
RTVSPropertyOp39
 70
     1
102
RTVSPropertyOp40
 70
     1
102
RTVSPropertyOp41
 70
     1
102
RTVSPropertyOp42
 70
     1
102
RTVSPropertyOp43
 70
     1
102
RTVSPropertyOp44
 70
     1
102
RTVSPropertyOp45
 70
     1
102
RTVSPropertyOp46
 70
     1
102
RTVSPropertyOp47
 70
     1
102
RTVSPropertyOp48
 70
     1
102
RTVSPropertyOp49
 70
     1
102
RTVSPropertyOp50
 70
     1
102
RTVSPropertyOp51
 70
     0
102
RTVSPropertyOp52
 70
     0
102
RTVSPropertyOp53
 70
     1
102
RTVSPropertyOp54
 70
     1
102
RTVSPropertyOp55
 70
     1
102
RTVSPropertyOp56
 70
     1
102
RTVSPropertyOp57
 70
     1
102
RTVSPost2010Prop28
280
     0
102
RTVSPost2010PropOp28
 70
     1
102
RTVSPost2010Prop29
280
     1
102
RTVSPost2010PropOp29
 70
     1
102
RTVSPost2010Prop30
280
     1
102
RTVSPost2010PropOp30
 70
     1
102
RTVSPost2010Prop31
280
     0
102
RTVSPost2010PropOp31
 70
     1
102
RTVSPost2010Prop32
280
     0
102
RTVSPost2010PropOp32
 70
     1
102
RTVSPost2010Prop33
280
     0
102
RTVSPost2010PropOp33
 70
     1
102
RTVSPost2010Prop34
280
     0
102
RTVSPost2010PropOp34
 70
     1
102
RTVSPost2010Prop35
280
     0
102
RTVSPost2010PropOp35
 70
     1
102
RTVSPost2010Prop36
280
     0
102
RTVSPost2010PropOp36
 70
     1
102
RTVSPost2010Prop37
 90
       50
102
RTVSPost2010PropOp37
 70
     1
102
RTVSPost2010Prop38
140
0.0
102
RTVSPost2010PropOp38
 70
     1
102
RTVSPost2010Prop39
140
1.0
102
RTVSPost2010PropOp39
 70
     1
102
RTVSPost2010Prop40
 90
        0
102
RTVSPost2010PropOp40
 70
     1
102
RTVSPost2010Prop41ColorIndex
 90
       18
102
RTVSPost2010Prop41ColorRGB
 90
        0
102
RTVSPost2010PropOp41
 70
     1
102
RTVSPost2010Prop42
 90
       50
102
RTVSPost2010PropOp42
 70
     1
102
RTVSPost2010Prop43
 90
        3
102
RTVSPost2010PropOp43
 70
     1
102
RTVSPost2010Prop44ColorIndex
 90
        5
102
RTVSPost2010Prop44ColorRGB
 90
      255
102
RTVSPost2010PropOp44
 70
     1
102
RTVSPost2010Prop45
280
     0
102
RTVSPost2010PropOp45
 70
     1
102
RTVSPost2010Prop46
 90
       50
102
RTVSPost2010PropOp46
 70
     1
102
RTVSPost2010Prop47
 90
       50
102
RTVSPost2010PropOp47
 70
     1
102
RTVSPost2010Prop48
 90
       50
102
RTVSPost2010PropOp48
 70
     1
102
RTVSPost2010Prop49
280
     0
102
RTVSPost2010PropOp49
 70
     1
102
RTVSPost2010Prop50
 90
       50
102
RTVSPost2010PropOp50
 70
     1
102
RTVSPost2010Prop51ColorIndex
 90
      256
102
RTVSPost2010Prop51ColorRGB
 90
-16777216
102
RTVSPost2010PropOp51
 70
     0
102
RTVSPost2010Prop52
140
1.0
102
RTVSPost2010PropOp52
 70
     0
102
RTVSPost2010Prop53
 90
        2
102
RTVSPost2010PropOp53
 70
     1
102
RTVSPost2010Prop54
  1
strokes_ogs.tif
102
RTVSPost2010PropOp54
 70
     1
102
RTVSPost2010Prop55
280
     0
102
RTVSPost2010PropOp55
 70
     1
102
RTVSPost2010Prop56
140
1.0
102
RTVSPost2010PropOp56
 70
     1
102
RTVSPost2010Prop57
140
1.0
102
RTVSPost2010PropOp57
 70
     1
  0
XRECORD
  5
154
102
{ACAD_REACTORS
330
153
102
}
330
153
100
AcDbXrecord
280
     1
102
RTVSPropertyOp0
 70
     1
102
RTVSPropertyOp1
 70
     1
102
RTVSPropertyOp2
 70
     1
102
RTVSPropertyOp3
 70
     1
102
RTVSPropertyOp4
 70
     1
102
RTVSPropertyOp5
 70
     1
102
RTVSPropertyOp6
 70
     1
102
RTVSPropertyOp7
 70
     1
102
RTVSPropertyOp8
 70
     1
102
RTVSPropertyOp9
 70
     1
102
RTVSPropertyOp10
 70
     1
102
RTVSPropertyOp11
 70
     1
102
RTVSPropertyOp12
 70
     1
102
RTVSPropertyOp13
 70
     1
102
RTVSPropertyOp14
 70
     1
102
RTVSPropertyOp15
 70
     1
102
RTVSPropertyOp16
 70
     1
102
RTVSPropertyOp17
 70
     1
102
RTVSPropertyOp18
 70
     1
102
RTVSPropertyOp19
 70
     1
102
RTVSPropertyOp20
 70
     1
102
RTVSPropertyOp21
 70
     1
102
RTVSPropertyOp22
 70
     1
102
RTVSPropertyOp23
 70
     1
102
RTVSPropertyOp24
 70
     1
102
RTVSPropertyOp25
 70
     1
102
RTVSPropertyOp26
 70
     1
102
RTVSPropertyOp27
 70
     1
102
RTVSPropertyOp28
 70
     1
102
RTVSPropertyOp29
 70
     1
102
RTVSPropertyOp30
 70
     1
102
RTVSPropertyOp31
 70
     1
102
RTVSPropertyOp32
 70
     1
102
RTVSPropertyOp33
 70
     1
102
RTVSPropertyOp34
 70
     1
102
RTVSPropertyOp35
 70
     1
102
RTVSPropertyOp36
 70
     1
102
RTVSPropertyOp37
 70
     1
102
RTVSPropertyOp38
 70
     1
102
RTVSPropertyOp39
 70
     1
102
RTVSPropertyOp40
 70
     1
102
RTVSPropertyOp41
 70
     1
102
RTVSPropertyOp42
 70
     1
102
RTVSPropertyOp43
 70
     1
102
RTVSPropertyOp44
 70
     1
102
RTVSPropertyOp45
 70
     1
102
RTVSPropertyOp46
 70
     1
102
RTVSPropertyOp47
 70
     1
102
RTVSPropertyOp48
 70
     1
102
RTVSPropertyOp49
 70
     1
102
RTVSPropertyOp50
 70
     1
102
RTVSPropertyOp51
 70
     0
102
RTVSPropertyOp52
 70
     0
102
RTVSPropertyOp53
 70
     1
102
RTVSPropertyOp54
 70
     1
102
RTVSPropertyOp55
 70
     1
102
RTVSPropertyOp56
 70
     1
102
RTVSPropertyOp57
 70
     1
102
RTVSPost2010Prop28
280
     0
102
RTVSPost2010PropOp28
 70
     1
102
RTVSPost2010Prop29
280
     1
102
RTVSPost2010PropOp29
 70
     1
102
RTVSPost2010Prop30
280
     1
102
RTVSPost2010PropOp30
 70
     1
102
RTVSPost2010Prop31
280
     0
102
RTVSPost2010PropOp31
 70
     1
102
RTVSPost2010Prop32
280
     0
102
RTVSPost2010PropOp32
 70
     1
102
RTVSPost2010Prop33
280
     0
102
RTVSPost2010PropOp33
 70
     1
102
RTVSPost2010Prop34
280
     0
102
RTVSPost2010PropOp34
 70
     1
102
RTVSPost2010Prop35
280
     0
102
RTVSPost2010PropOp35
 70
     1
102
RTVSPost2010Prop36
280
     0
102
RTVSPost2010PropOp36
 70
     1
102
RTVSPost2010Prop37
 90
       50
102
RTVSPost2010PropOp37
 70
     1
102
RTVSPost2010Prop38
140
0.0
102
RTVSPost2010PropOp38
 70
     1
102
RTVSPost2010Prop39
140
1.0
102
RTVSPost2010PropOp39
 70
     1
102
RTVSPost2010Prop40
 90
        0
102
RTVSPost2010PropOp40
 70
     1
102
RTVSPost2010Prop41ColorIndex
 90
       18
102
RTVSPost2010Prop41ColorRGB
 90
        0
102
RTVSPost2010PropOp41
 70
     1
102
RTVSPost2010Prop42
 90
       50
102
RTVSPost2010PropOp42
 70
     1
102
RTVSPost2010Prop43
 90
        3
102
RTVSPost2010PropOp43
 70
     1
102
RTVSPost2010Prop44ColorIndex
 90
        5
102
RTVSPost2010Prop44ColorRGB
 90
      255
102
RTVSPost2010PropOp44
 70
     1
102
RTVSPost2010Prop45
280
     0
102
RTVSPost2010PropOp45
 70
     1
102
RTVSPost2010Prop46
 90
       50
102
RTVSPost2010PropOp46
 70
     1
102
RTVSPost2010Prop47
 90
       50
102
RTVSPost2010PropOp47
 70
     1
102
RTVSPost2010Prop48
 90
       50
102
RTVSPost2010PropOp48
 70
     1
102
RTVSPost2010Prop49
280
     0
102
RTVSPost2010PropOp49
 70
     1
102
RTVSPost2010Prop50
 90
       50
102
RTVSPost2010PropOp50
 70
     1
102
RTVSPost2010Prop51ColorIndex
 90
      256
102
RTVSPost2010Prop51ColorRGB
 90
-16777216
102
RTVSPost2010PropOp51
 70
     0
102
RTVSPost2010Prop52
140
1.0
102
RTVSPost2010PropOp52
 70
     0
102
RTVSPost2010Prop53
 90
        2
102
RTVSPost2010PropOp53
 70
     1
102
RTVSPost2010Prop54
  1
strokes_ogs.tif
102
RTVSPost2010PropOp54
 70
     1
102
RTVSPost2010Prop55
280
     0
102
RTVSPost2010PropOp55
 70
     1
102
RTVSPost2010Prop56
140
1.0
102
RTVSPost2010PropOp56
 70
     1
102
RTVSPost2010Prop57
140
1.0
102
RTVSPost2010PropOp57
 70
     1
  0
XRECORD
  5
174
102
{ACAD_REACTORS
330
173
102
}
330
173
100
AcDbXrecord
280
     1
102
RTVSPropertyOp0
 70
     1
102
RTVSPropertyOp1
 70
     1
102
RTVSPropertyOp2
 70
     1
102
RTVSPropertyOp3
 70
     1
102
RTVSPropertyOp4
 70
     1
102
RTVSPropertyOp5
 70
     1
102
RTVSPropertyOp6
 70
     1
102
RTVSPropertyOp7
 70
     1
102
RTVSPropertyOp8
 70
     1
102
RTVSPropertyOp9
 70
     1
102
RTVSPropertyOp10
 70
     1
102
RTVSPropertyOp11
 70
     1
102
RTVSPropertyOp12
 70
     1
102
RTVSPropertyOp13
 70
     1
102
RTVSPropertyOp14
 70
     1
102
RTVSPropertyOp15
 70
     1
102
RTVSPropertyOp16
 70
     1
102
RTVSPropertyOp17
 70
     1
102
RTVSPropertyOp18
 70
     1
102
RTVSPropertyOp19
 70
     1
102
RTVSPropertyOp20
 70
     1
102
RTVSPropertyOp21
 70
     1
102
RTVSPropertyOp22
 70
     1
102
RTVSPropertyOp23
 70
     1
102
RTVSPropertyOp24
 70
     1
102
RTVSPropertyOp25
 70
     1
102
RTVSPropertyOp26
 70
     1
102
RTVSPropertyOp27
 70
     1
102
RTVSPropertyOp28
 70
     1
102
RTVSPropertyOp29
 70
     1
102
RTVSPropertyOp30
 70
     1
102
RTVSPropertyOp31
 70
     1
102
RTVSPropertyOp32
 70
     1
102
RTVSPropertyOp33
 70
     1
102
RTVSPropertyOp34
 70
     1
102
RTVSPropertyOp35
 70
     1
102
RTVSPropertyOp36
 70
     1
102
RTVSPropertyOp37
 70
     1
102
RTVSPropertyOp38
 70
     1
102
RTVSPropertyOp39
 70
     1
102
RTVSPropertyOp40
 70
     1
102
RTVSPropertyOp41
 70
     1
102
RTVSPropertyOp42
 70
     1
102
RTVSPropertyOp43
 70
     1
102
RTVSPropertyOp44
 70
     1
102
RTVSPropertyOp45
 70
     1
102
RTVSPropertyOp46
 70
     1
102
RTVSPropertyOp47
 70
     1
102
RTVSPropertyOp48
 70
     1
102
RTVSPropertyOp49
 70
     1
102
RTVSPropertyOp50
 70
     1
102
RTVSPropertyOp51
 70
     0
102
RTVSPropertyOp52
 70
     0
102
RTVSPropertyOp53
 70
     1
102
RTVSPropertyOp54
 70
     1
102
RTVSPropertyOp55
 70
     1
102
RTVSPropertyOp56
 70
     1
102
RTVSPropertyOp57
 70
     1
102
RTVSPost2010Prop28
280
     0
102
RTVSPost2010PropOp28
 70
     1
102
RTVSPost2010Prop29
280
     1
102
RTVSPost2010PropOp29
 70
     1
102
RTVSPost2010Prop30
280
     1
102
RTVSPost2010PropOp30
 70
     1
102
RTVSPost2010Prop31
280
     0
102
RTVSPost2010PropOp31
 70
     1
102
RTVSPost2010Prop32
280
     0
102
RTVSPost2010PropOp32
 70
     1
102
RTVSPost2010Prop33
280
     0
102
RTVSPost2010PropOp33
 70
     1
102
RTVSPost2010Prop34
280
     0
102
RTVSPost2010PropOp34
 70
     1
102
RTVSPost2010Prop35
280
     0
102
RTVSPost2010PropOp35
 70
     1
102
RTVSPost2010Prop36
280
     0
102
RTVSPost2010PropOp36
 70
     1
102
RTVSPost2010Prop37
 90
       50
102
RTVSPost2010PropOp37
 70
     1
102
RTVSPost2010Prop38
140
0.0
102
RTVSPost2010PropOp38
 70
     1
102
RTVSPost2010Prop39
140
1.0
102
RTVSPost2010PropOp39
 70
     1
102
RTVSPost2010Prop40
 90
        0
102
RTVSPost2010PropOp40
 70
     1
102
RTVSPost2010Prop41ColorIndex
 90
       18
102
RTVSPost2010Prop41ColorRGB
 90
        0
102
RTVSPost2010PropOp41
 70
     1
102
RTVSPost2010Prop42
 90
       50
102
RTVSPost2010PropOp42
 70
     1
102
RTVSPost2010Prop43
 90
        3
102
RTVSPost2010PropOp43
 70
     1
102
RTVSPost2010Prop44ColorIndex
 90
        5
102
RTVSPost2010Prop44ColorRGB
 90
      255
102
RTVSPost2010PropOp44
 70
     1
102
RTVSPost2010Prop45
280
     0
102
RTVSPost2010PropOp45
 70
     1
102
RTVSPost2010Prop46
 90
       50
102
RTVSPost2010PropOp46
 70
     1
102
RTVSPost2010Prop47
 90
       50
102
RTVSPost2010PropOp47
 70
     1
102
RTVSPost2010Prop48
 90
       50
102
RTVSPost2010PropOp48
 70
     1
102
RTVSPost2010Prop49
280
     0
102
RTVSPost2010PropOp49
 70
     1
102
RTVSPost2010Prop50
 90
       50
102
RTVSPost2010PropOp50
 70
     1
102
RTVSPost2010Prop51ColorIndex
 90
      256
102
RTVSPost2010Prop51ColorRGB
 90
-16777216
102
RTVSPost2010PropOp51
 70
     0
102
RTVSPost2010Prop52
140
1.0
102
RTVSPost2010PropOp52
 70
     0
102
RTVSPost2010Prop53
 90
        2
102
RTVSPost2010PropOp53
 70
     1
102
RTVSPost2010Prop54
  1
strokes_ogs.tif
102
RTVSPost2010PropOp54
 70
     1
102
RTVSPost2010Prop55
280
     0
102
RTVSPost2010PropOp55
 70
     1
102
RTVSPost2010Prop56
140
1.0
102
RTVSPost2010PropOp56
 70
     1
102
RTVSPost2010Prop57
140
1.0
102
RTVSPost2010PropOp57
 70
     1
  0
ENDSEC
  0
EOF
