ISO-10303-21;
HEADER;
/* Generated by software containing ST-Developer
 * from STEP Tools, Inc. (www.steptools.com) 
 */

FILE_DESCRIPTION(
/* description */ ('',
'CAx-IF Rec.Pracs.---Representation and Presentation of Product Manufa
cturing Information (PMI)---4.0---2014-10-13'),
/* implementation_level */ '2;1');

FILE_NAME(
/* name */ 'knob v3.step',
/* time_stamp */ '2025-03-25T01:32:41Z',
/* author */ (''),
/* organization */ (''),
/* preprocessor_version */ 'ST-DEVELOPER v20',
/* originating_system */ 'Autodesk Translation Framework v13.20.0.188',

/* authorisation */ '');

FILE_SCHEMA (('AP242_MANAGED_MODEL_BASED_3D_ENGINEERING_MIM_LF { 1 0 10303 442 1 1 4 }'));
ENDSEC;

DATA;
#10=MECHANICAL_DESIGN_GEOMETRIC_PRESENTATION_REPRESENTATION('',(#13),#164);
#11=SHAPE_REPRESENTATION_RELATIONSHIP('SRR','None',#171,#12);
#12=ADVANCED_BREP_SHAPE_REPRESENTATION('',(#14),#163);
#13=STYLED_ITEM('',(#180),#14);
#14=MANIFOLD_SOLID_BREP('Body1',#88);
#15=CONICAL_SURFACE('',#111,8.5,0.229231933276995);
#16=FACE_BOUND('',#39,.T.);
#17=CYLINDRICAL_SURFACE('',#106,3.1);
#18=LINE('',#147,#23);
#19=LINE('',#150,#24);
#20=LINE('',#153,#25);
#21=LINE('',#155,#26);
#22=LINE('',#160,#27);
#23=VECTOR('',#122,10.);
#24=VECTOR('',#125,10.);
#25=VECTOR('',#128,10.);
#26=VECTOR('',#131,10.);
#27=VECTOR('',#138,8.5);
#28=FACE_OUTER_BOUND('',#34,.T.);
#29=FACE_OUTER_BOUND('',#35,.T.);
#30=FACE_OUTER_BOUND('',#36,.T.);
#31=FACE_OUTER_BOUND('',#37,.T.);
#32=FACE_OUTER_BOUND('',#38,.T.);
#33=FACE_OUTER_BOUND('',#40,.T.);
#34=EDGE_LOOP('',(#60));
#35=EDGE_LOOP('',(#61,#62));
#36=EDGE_LOOP('',(#63,#64,#65,#66));
#37=EDGE_LOOP('',(#67,#68,#69,#70));
#38=EDGE_LOOP('',(#71));
#39=EDGE_LOOP('',(#72,#73));
#40=EDGE_LOOP('',(#74,#75,#76,#77));
#41=CIRCLE('',#103,5.93333333333333);
#42=CIRCLE('',#105,3.1);
#43=CIRCLE('',#107,3.1);
#44=CIRCLE('',#110,8.5);
#45=VERTEX_POINT('',#141);
#46=VERTEX_POINT('',#144);
#47=VERTEX_POINT('',#145);
#48=VERTEX_POINT('',#149);
#49=VERTEX_POINT('',#151);
#50=VERTEX_POINT('',#157);
#51=EDGE_CURVE('',#45,#45,#41,.T.);
#52=EDGE_CURVE('',#46,#47,#42,.T.);
#53=EDGE_CURVE('',#47,#46,#18,.T.);
#54=EDGE_CURVE('',#48,#47,#19,.T.);
#55=EDGE_CURVE('',#49,#48,#43,.T.);
#56=EDGE_CURVE('',#49,#46,#20,.T.);
#57=EDGE_CURVE('',#48,#49,#21,.T.);
#58=EDGE_CURVE('',#50,#50,#44,.T.);
#59=EDGE_CURVE('',#45,#50,#22,.T.);
#60=ORIENTED_EDGE('',*,*,#51,.F.);
#61=ORIENTED_EDGE('',*,*,#52,.F.);
#62=ORIENTED_EDGE('',*,*,#53,.F.);
#63=ORIENTED_EDGE('',*,*,#52,.T.);
#64=ORIENTED_EDGE('',*,*,#54,.F.);
#65=ORIENTED_EDGE('',*,*,#55,.F.);
#66=ORIENTED_EDGE('',*,*,#56,.T.);
#67=ORIENTED_EDGE('',*,*,#53,.T.);
#68=ORIENTED_EDGE('',*,*,#56,.F.);
#69=ORIENTED_EDGE('',*,*,#57,.F.);
#70=ORIENTED_EDGE('',*,*,#54,.T.);
#71=ORIENTED_EDGE('',*,*,#58,.F.);
#72=ORIENTED_EDGE('',*,*,#57,.T.);
#73=ORIENTED_EDGE('',*,*,#55,.T.);
#74=ORIENTED_EDGE('',*,*,#51,.T.);
#75=ORIENTED_EDGE('',*,*,#59,.T.);
#76=ORIENTED_EDGE('',*,*,#58,.T.);
#77=ORIENTED_EDGE('',*,*,#59,.F.);
#78=PLANE('',#102);
#79=PLANE('',#104);
#80=PLANE('',#108);
#81=PLANE('',#109);
#82=ADVANCED_FACE('',(#28),#78,.T.);
#83=ADVANCED_FACE('',(#29),#79,.F.);
#84=ADVANCED_FACE('',(#30),#17,.F.);
#85=ADVANCED_FACE('',(#31),#80,.F.);
#86=ADVANCED_FACE('',(#32,#16),#81,.F.);
#87=ADVANCED_FACE('',(#33),#15,.T.);
#88=CLOSED_SHELL('',(#82,#83,#84,#85,#86,#87));
#89=DERIVED_UNIT_ELEMENT(#91,1.);
#90=DERIVED_UNIT_ELEMENT(#166,-3.);
#91=(
MASS_UNIT()
NAMED_UNIT(*)
SI_UNIT(.KILO.,.GRAM.)
);
#92=DERIVED_UNIT((#89,#90));
#93=MEASURE_REPRESENTATION_ITEM('density measure',
POSITIVE_RATIO_MEASURE(7850.),#92);
#94=PROPERTY_DEFINITION_REPRESENTATION(#99,#96);
#95=PROPERTY_DEFINITION_REPRESENTATION(#100,#97);
#96=REPRESENTATION('material name',(#98),#163);
#97=REPRESENTATION('density',(#93),#163);
#98=DESCRIPTIVE_REPRESENTATION_ITEM('Steel','Steel');
#99=PROPERTY_DEFINITION('material property','material name',#173);
#100=PROPERTY_DEFINITION('material property','density of part',#173);
#101=AXIS2_PLACEMENT_3D('',#139,#112,#113);
#102=AXIS2_PLACEMENT_3D('',#140,#114,#115);
#103=AXIS2_PLACEMENT_3D('',#142,#116,#117);
#104=AXIS2_PLACEMENT_3D('',#143,#118,#119);
#105=AXIS2_PLACEMENT_3D('',#146,#120,#121);
#106=AXIS2_PLACEMENT_3D('',#148,#123,#124);
#107=AXIS2_PLACEMENT_3D('',#152,#126,#127);
#108=AXIS2_PLACEMENT_3D('',#154,#129,#130);
#109=AXIS2_PLACEMENT_3D('',#156,#132,#133);
#110=AXIS2_PLACEMENT_3D('',#158,#134,#135);
#111=AXIS2_PLACEMENT_3D('',#159,#136,#137);
#112=DIRECTION('axis',(0.,0.,1.));
#113=DIRECTION('refdir',(1.,0.,0.));
#114=DIRECTION('center_axis',(0.,0.,1.));
#115=DIRECTION('ref_axis',(-1.,0.,0.));
#116=DIRECTION('center_axis',(0.,0.,-1.));
#117=DIRECTION('ref_axis',(1.,0.,0.));
#118=DIRECTION('center_axis',(0.,0.,1.));
#119=DIRECTION('ref_axis',(1.,0.,0.));
#120=DIRECTION('center_axis',(0.,0.,1.));
#121=DIRECTION('ref_axis',(1.,0.,0.));
#122=DIRECTION('',(-1.07069457440442E-16,1.,0.));
#123=DIRECTION('center_axis',(0.,0.,1.));
#124=DIRECTION('ref_axis',(-1.,1.22464679914735E-16,0.));
#125=DIRECTION('',(0.,0.,1.));
#126=DIRECTION('center_axis',(0.,0.,1.));
#127=DIRECTION('ref_axis',(1.,0.,0.));
#128=DIRECTION('',(0.,0.,1.));
#129=DIRECTION('center_axis',(1.,1.07069457440442E-16,0.));
#130=DIRECTION('ref_axis',(-1.07069457440442E-16,1.,0.));
#131=DIRECTION('',(-1.07069457440442E-16,1.,0.));
#132=DIRECTION('center_axis',(0.,0.,1.));
#133=DIRECTION('ref_axis',(1.,0.,0.));
#134=DIRECTION('center_axis',(0.,0.,1.));
#135=DIRECTION('ref_axis',(1.,0.,0.));
#136=DIRECTION('center_axis',(0.,0.,-1.));
#137=DIRECTION('ref_axis',(1.,0.,0.));
#138=DIRECTION('',(-0.227229615606419,-2.78276021423884E-17,-0.973841209741793));
#139=CARTESIAN_POINT('',(0.,0.,0.));
#140=CARTESIAN_POINT('Origin',(0.,0.,11.));
#141=CARTESIAN_POINT('',(-5.93333333333333,7.26623767494096E-16,11.));
#142=CARTESIAN_POINT('Origin',(0.,0.,11.));
#143=CARTESIAN_POINT('Origin',(-0.7,0.,6.));
#144=CARTESIAN_POINT('',(1.7,2.59229627936314,6.));
#145=CARTESIAN_POINT('',(1.7,-2.59229627936314,6.));
#146=CARTESIAN_POINT('Origin',(0.,0.,6.));
#147=CARTESIAN_POINT('',(1.7,-1.29614813968157,6.));
#148=CARTESIAN_POINT('Origin',(0.,0.,0.));
#149=CARTESIAN_POINT('',(1.7,-2.59229627936314,0.));
#150=CARTESIAN_POINT('',(1.7,-2.59229627936314,0.));
#151=CARTESIAN_POINT('',(1.7,2.59229627936314,0.));
#152=CARTESIAN_POINT('Origin',(0.,0.,0.));
#153=CARTESIAN_POINT('',(1.7,2.59229627936314,0.));
#154=CARTESIAN_POINT('Origin',(1.7,-2.59229627936314,0.));
#155=CARTESIAN_POINT('',(1.7,-1.29614813968157,0.));
#156=CARTESIAN_POINT('Origin',(0.,0.,0.));
#157=CARTESIAN_POINT('',(-8.5,-1.04094977927525E-15,-6.83268058910651E-32));
#158=CARTESIAN_POINT('Origin',(0.,0.,0.));
#159=CARTESIAN_POINT('Origin',(0.,0.,0.));
#160=CARTESIAN_POINT('',(-8.5,-1.04094977927525E-15,0.));
#161=UNCERTAINTY_MEASURE_WITH_UNIT(LENGTH_MEASURE(0.01),#165,
'DISTANCE_ACCURACY_VALUE',
'Maximum model space distance between geometric entities at asserted c
onnectivities');
#162=UNCERTAINTY_MEASURE_WITH_UNIT(LENGTH_MEASURE(0.01),#165,
'DISTANCE_ACCURACY_VALUE',
'Maximum model space distance between geometric entities at asserted c
onnectivities');
#163=(
GEOMETRIC_REPRESENTATION_CONTEXT(3)
GLOBAL_UNCERTAINTY_ASSIGNED_CONTEXT((#161))
GLOBAL_UNIT_ASSIGNED_CONTEXT((#165,#167,#168))
REPRESENTATION_CONTEXT('','3D')
);
#164=(
GEOMETRIC_REPRESENTATION_CONTEXT(3)
GLOBAL_UNCERTAINTY_ASSIGNED_CONTEXT((#162))
GLOBAL_UNIT_ASSIGNED_CONTEXT((#165,#167,#168))
REPRESENTATION_CONTEXT('','3D')
);
#165=(
LENGTH_UNIT()
NAMED_UNIT(*)
SI_UNIT(.MILLI.,.METRE.)
);
#166=(
LENGTH_UNIT()
NAMED_UNIT(*)
SI_UNIT($,.METRE.)
);
#167=(
NAMED_UNIT(*)
PLANE_ANGLE_UNIT()
SI_UNIT($,.RADIAN.)
);
#168=(
NAMED_UNIT(*)
SI_UNIT($,.STERADIAN.)
SOLID_ANGLE_UNIT()
);
#169=SHAPE_DEFINITION_REPRESENTATION(#170,#171);
#170=PRODUCT_DEFINITION_SHAPE('',$,#173);
#171=SHAPE_REPRESENTATION('',(#101),#163);
#172=PRODUCT_DEFINITION_CONTEXT('part definition',#177,'design');
#173=PRODUCT_DEFINITION('knob','knob v3',#174,#172);
#174=PRODUCT_DEFINITION_FORMATION('',$,#179);
#175=PRODUCT_RELATED_PRODUCT_CATEGORY('knob v3','knob v3',(#179));
#176=APPLICATION_PROTOCOL_DEFINITION('international standard',
'ap242_managed_model_based_3d_engineering',2011,#177);
#177=APPLICATION_CONTEXT('Managed model based 3d engineering');
#178=PRODUCT_CONTEXT('part definition',#177,'mechanical');
#179=PRODUCT('knob','knob v3',$,(#178));
#180=PRESENTATION_STYLE_ASSIGNMENT((#181));
#181=SURFACE_STYLE_USAGE(.BOTH.,#182);
#182=SURFACE_SIDE_STYLE('',(#183));
#183=SURFACE_STYLE_FILL_AREA(#184);
#184=FILL_AREA_STYLE('Steel - Satin',(#185));
#185=FILL_AREA_STYLE_COLOUR('Steel - Satin',#186);
#186=COLOUR_RGB('Steel - Satin',0.627450980392157,0.627450980392157,0.627450980392157);
ENDSEC;
END-ISO-10303-21;
