  0
SECTION
  2
HEADER
  9
$ACADVER
  1
AC1009
  0
ENDSEC
  0
SECTION
  2
TABLES
  0
TABLE
  2
LAYER
  70
1
  0
LAYER
  2
Layer_0
  70
0
  62
7
  6
CONTINUOUS
  0
ENDTAB
  0
ENDSEC
  0
SECTION
  2
ENTITIES
  0
POLYLINE
  5
90
  8
Layer_0
  62
7
  70
1
  66
1
  10
0
  20
0
  30
0
  0
VERTEX
  5
90
  8
Layer_0
  10
49.097412
  20
44.77713
  0
VERTEX
  5
91
  8
Layer_0
  10
49.097412
  20
44.600922
  0
SEQEND
  0
POLYLINE
  5
93
  8
Layer_0
  62
7
  70
1
  66
1
  10
0
  20
0
  30
0
  0
VERTEX
  5
93
  8
Layer_0
  10
75.882324
  20
108.83555
  0
VERTEX
  5
94
  8
Layer_0
  10
93.150879
  20
108.83556
  0
VERTEX
  5
95
  8
Layer_0
  10
93.150879
  20
110.30662
  0
VERTEX
  5
96
  8
Layer_0
  10
93.175537
  20
110.30662
  0
VERTEX
  5
97
  8
Layer_0
  10
93.175537
  20
111.83771
  0
VERTEX
  5
98
  8
Layer_0
  10
109.13879
  20
111.83771
  0
VERTEX
  5
99
  8
Layer_0
  10
109.13879
  20
110.30662
  0
VERTEX
  5
9a
  8
Layer_0
  10
109.15283
  20
110.30662
  0
VERTEX
  5
9b
  8
Layer_0
  10
109.15283
  20
108.83556
  0
VERTEX
  5
9c
  8
Layer_0
  10
126.42139
  20
108.83558
  0
VERTEX
  5
9d
  8
Layer_0
  10
126.42139
  20
110.30664
  0
VERTEX
  5
9e
  8
Layer_0
  10
126.43188
  20
110.30664
  0
VERTEX
  5
9f
  8
Layer_0
  10
126.43188
  20
111.83772
  0
VERTEX
  5
a0
  8
Layer_0
  10
142.39514
  20
111.83772
  0
VERTEX
  5
a1
  8
Layer_0
  10
142.39514
  20
110.30664
  0
VERTEX
  5
a2
  8
Layer_0
  10
142.39868
  20
110.30664
  0
VERTEX
  5
a3
  8
Layer_0
  10
142.39868
  20
108.83558
  0
VERTEX
  5
a4
  8
Layer_0
  10
161.54382
  20
108.8356
  0
VERTEX
  5
a5
  8
Layer_0
  10
161.54382
  20
99.920898
  0
VERTEX
  5
a6
  8
Layer_0
  10
158.54175
  20
99.920898
  0
VERTEX
  5
a7
  8
Layer_0
  10
158.54175
  20
90.3853
  0
VERTEX
  5
a8
  8
Layer_0
  10
161.54382
  20
90.385307
  0
VERTEX
  5
a9
  8
Layer_0
  10
161.54382
  20
81.579987
  0
VERTEX
  5
aa
  8
Layer_0
  10
158.54175
  20
81.579971
  0
VERTEX
  5
ab
  8
Layer_0
  10
158.54175
  20
72.044388
  0
VERTEX
  5
ac
  8
Layer_0
  10
161.54382
  20
72.044395
  0
VERTEX
  5
ad
  8
Layer_0
  10
161.54382
  20
63.242599
  0
VERTEX
  5
ae
  8
Layer_0
  10
158.54175
  20
63.242599
  0
VERTEX
  5
af
  8
Layer_0
  10
158.54175
  20
53.707001
  0
VERTEX
  5
b0
  8
Layer_0
  10
161.54395
  20
53.707008
  0
VERTEX
  5
b1
  8
Layer_0
  10
161.54395
  20
44.778183
  0
VERTEX
  5
b2
  8
Layer_0
  10
142.39868
  20
44.778168
  0
VERTEX
  5
b3
  8
Layer_0
  10
142.39868
  20
41.77607
  0
VERTEX
  5
b4
  8
Layer_0
  10
126.43542
  20
41.776062
  0
VERTEX
  5
b5
  8
Layer_0
  10
126.43542
  20
43.395298
  0
VERTEX
  5
b6
  8
Layer_0
  10
126.42139
  20
43.395298
  0
VERTEX
  5
b7
  8
Layer_0
  10
126.42139
  20
44.77816
  0
VERTEX
  5
b8
  8
Layer_0
  10
109.15283
  20
44.778149
  0
VERTEX
  5
b9
  8
Layer_0
  10
109.15283
  20
43.39529
  0
VERTEX
  5
ba
  8
Layer_0
  10
109.13879
  20
43.39529
  0
VERTEX
  5
bb
  8
Layer_0
  10
109.13879
  20
41.776051
  0
VERTEX
  5
bc
  8
Layer_0
  10
93.175537
  20
41.776043
  0
VERTEX
  5
bd
  8
Layer_0
  10
93.150879
  20
43.395279
  0
VERTEX
  5
be
  8
Layer_0
  10
93.150879
  20
44.778141
  0
VERTEX
  5
bf
  8
Layer_0
  10
75.882324
  20
44.778133
  0
VERTEX
  5
c0
  8
Layer_0
  10
75.882324
  20
41.776031
  0
VERTEX
  5
c1
  8
Layer_0
  10
59.922729
  20
41.776024
  0
VERTEX
  5
c2
  8
Layer_0
  10
59.922729
  20
44.778122
  0
VERTEX
  5
c3
  8
Layer_0
  10
49.095947
  20
44.778122
  0
VERTEX
  5
c4
  8
Layer_0
  10
49.095947
  20
108.83553
  0
VERTEX
  5
c5
  8
Layer_0
  10
49.099487
  20
108.83553
  0
VERTEX
  5
c6
  8
Layer_0
  10
59.922729
  20
108.83555
  0
VERTEX
  5
c7
  8
Layer_0
  10
59.922729
  20
111.83768
  0
VERTEX
  5
c8
  8
Layer_0
  10
75.882324
  20
111.83768
  0
SEQEND
  0
POLYLINE
  5
ca
  8
Layer_0
  62
7
  70
1
  66
1
  10
0
  20
0
  30
0
  0
VERTEX
  5
ca
  8
Layer_0
  10
106.39148
  20
49.650581
  0
VERTEX
  5
cb
  8
Layer_0
  10
102.16235
  20
49.6506
  0
VERTEX
  5
cc
  8
Layer_0
  10
103.64404
  20
51.763283
  0
VERTEX
  5
cd
  8
Layer_0
  10
105.38696
  20
51.953392
  0
VERTEX
  5
ce
  8
Layer_0
  10
106.39148
  20
51.69249
  0
SEQEND
  0
POLYLINE
  5
d0
  8
Layer_0
  62
7
  70
1
  66
1
  10
0
  20
0
  30
0
  0
VERTEX
  5
d0
  8
Layer_0
  10
106.39148
  20
60.323807
  0
VERTEX
  5
d1
  8
Layer_0
  10
105.23987
  20
59.959167
  0
VERTEX
  5
d2
  8
Layer_0
  10
102.55103
  20
61.522614
  0
VERTEX
  5
d3
  8
Layer_0
  10
106.39148
  20
65.195389
  0
SEQEND
  0
POLYLINE
  5
d5
  8
Layer_0
  62
7
  70
1
  66
1
  10
0
  20
0
  30
0
  0
VERTEX
  5
d5
  8
Layer_0
  10
106.39148
  20
69.495338
  0
VERTEX
  5
d6
  8
Layer_0
  10
93.776001
  20
74.714287
  0
VERTEX
  5
d7
  8
Layer_0
  10
94.229614
  20
77.663292
  0
VERTEX
  5
d8
  8
Layer_0
  10
95.588135
  20
79.129379
  0
VERTEX
  5
d9
  8
Layer_0
  10
106.39148
  20
83.092117
  0
SEQEND
  0
POLYLINE
  5
db
  8
Layer_0
  62
7
  70
1
  66
1
  10
0
  20
0
  30
0
  0
VERTEX
  5
db
  8
Layer_0
  10
106.39148
  20
85.71019
  0
VERTEX
  5
dc
  8
Layer_0
  10
94.387207
  20
81.307297
  0
VERTEX
  5
dd
  8
Layer_0
  10
91.265869
  20
83.181023
  0
VERTEX
  5
de
  8
Layer_0
  10
83.328003
  20
94.846344
  0
VERTEX
  5
df
  8
Layer_0
  10
85.336548
  20
95.845764
  0
VERTEX
  5
e0
  8
Layer_0
  10
106.39148
  20
98.974335
  0
SEQEND
  0
POLYLINE
  5
e2
  8
Layer_0
  62
7
  70
1
  66
1
  10
0
  20
0
  30
0
  0
VERTEX
  5
e2
  8
Layer_0
  10
106.39148
  20
101.22267
  0
VERTEX
  5
e3
  8
Layer_0
  10
85.228638
  20
98.077637
  0
VERTEX
  5
e4
  8
Layer_0
  10
78.71936
  20
103.46518
  0
VERTEX
  5
e5
  8
Layer_0
  10
78.433228
  20
103.96004
  0
VERTEX
  5
e6
  8
Layer_0
  10
106.39148
  20
103.96005
  0
SEQEND
  0
POLYLINE
  5
e8
  8
Layer_0
  62
7
  70
1
  66
1
  10
0
  20
0
  30
0
  0
VERTEX
  5
e8
  8
Layer_0
  10
104.3728
  20
67.616531
  0
VERTEX
  5
e9
  8
Layer_0
  10
98.907715
  20
62.386253
  0
VERTEX
  5
ea
  8
Layer_0
  10
87.217896
  20
61.756462
  0
VERTEX
  5
eb
  8
Layer_0
  10
84.243652
  20
62.559929
  0
VERTEX
  5
ec
  8
Layer_0
  10
83.790894
  20
62.760582
  0
VERTEX
  5
ed
  8
Layer_0
  10
82.806641
  20
66.437553
  0
VERTEX
  5
ee
  8
Layer_0
  10
92.062866
  20
72.71032
  0
SEQEND
  0
POLYLINE
  5
f0
  8
Layer_0
  62
7
  70
1
  66
1
  10
0
  20
0
  30
0
  0
VERTEX
  5
f0
  8
Layer_0
  10
103.54614
  20
53.967949
  0
VERTEX
  5
f1
  8
Layer_0
  10
102.1969
  20
53.821274
  0
VERTEX
  5
f2
  8
Layer_0
  10
96.357056
  20
54.4249
  0
VERTEX
  5
f3
  8
Layer_0
  10
90.241943
  20
59.73613
  0
VERTEX
  5
f4
  8
Layer_0
  10
99.34021
  20
60.224266
  0
VERTEX
  5
f5
  8
Layer_0
  10
102.97534
  20
58.117485
  0
SEQEND
  0
POLYLINE
  5
f7
  8
Layer_0
  62
7
  70
1
  66
1
  10
0
  20
0
  30
0
  0
VERTEX
  5
f7
  8
Layer_0
  10
99.498047
  20
51.882591
  0
VERTEX
  5
f8
  8
Layer_0
  10
97.932129
  20
49.6506
  0
VERTEX
  5
f9
  8
Layer_0
  10
91.601196
  20
49.650593
  0
VERTEX
  5
fa
  8
Layer_0
  10
95.874634
  20
52.25774
  0
SEQEND
  0
POLYLINE
  5
fc
  8
Layer_0
  62
7
  70
1
  66
1
  10
0
  20
0
  30
0
  0
VERTEX
  5
fc
  8
Layer_0
  10
92.693115
  20
53.555073
  0
VERTEX
  5
fd
  8
Layer_0
  10
86.291016
  20
49.650459
  0
VERTEX
  5
fe
  8
Layer_0
  10
85.994263
  20
49.650459
  0
VERTEX
  5
ff
  8
Layer_0
  10
85.267944
  20
59.86702
  0
VERTEX
  5
100
  8
Layer_0
  10
85.494263
  20
59.806816
  0
SEQEND
  0
POLYLINE
  5
102
  8
Layer_0
  62
7
  70
1
  66
1
  10
0
  20
0
  30
0
  0
VERTEX
  5
102
  8
Layer_0
  10
91.708862
  20
79.710777
  0
VERTEX
  5
103
  8
Layer_0
  10
91.187012
  20
79.150986
  0
VERTEX
  5
104
  8
Layer_0
  10
62.84436
  20
81.307091
  0
VERTEX
  5
105
  8
Layer_0
  10
62.942505
  20
81.997124
  0
VERTEX
  5
106
  8
Layer_0
  10
77.094482
  20
84.755997
  0
VERTEX
  5
107
  8
Layer_0
  10
88.380127
  20
81.714699
  0
SEQEND
  0
POLYLINE
  5
109
  8
Layer_0
  62
7
  70
1
  66
1
  10
0
  20
0
  30
0
  0
VERTEX
  5
109
  8
Layer_0
  10
90.181641
  20
77.038368
  0
VERTEX
  5
10a
  8
Layer_0
  10
89.817871
  20
74.62764
  0
VERTEX
  5
10b
  8
Layer_0
  10
80.087769
  20
68.029053
  0
VERTEX
  5
10c
  8
Layer_0
  10
58.167114
  20
72.427696
  0
VERTEX
  5
10d
  8
Layer_0
  10
57.644775
  20
75.366165
  0
VERTEX
  5
10e
  8
Layer_0
  10
61.761475
  20
79.200386
  0
SEQEND
  0
POLYLINE
  5
110
  8
Layer_0
  62
7
  70
1
  66
1
  10
0
  20
0
  30
0
  0
VERTEX
  5
110
  8
Layer_0
  10
85.977173
  20
84.783066
  0
VERTEX
  5
111
  8
Layer_0
  10
79.073364
  20
86.64537
  0
VERTEX
  5
112
  8
Layer_0
  10
78.000122
  20
93.41301
  0
VERTEX
  5
113
  8
Layer_0
  10
79.85144
  20
93.776794
  0
SEQEND
  0
POLYLINE
  5
115
  8
Layer_0
  62
7
  70
1
  66
1
  10
0
  20
0
  30
0
  0
VERTEX
  5
115
  8
Layer_0
  10
82.047485
  20
49.65593
  0
VERTEX
  5
116
  8
Layer_0
  10
72.829956
  20
54.978123
  0
VERTEX
  5
117
  8
Layer_0
  10
75.341431
  20
57.460514
  0
VERTEX
  5
118
  8
Layer_0
  10
81.289185
  20
60.393925
  0
SEQEND
  0
POLYLINE
  5
11a
  8
Layer_0
  62
7
  70
1
  66
1
  10
0
  20
0
  30
0
  0
VERTEX
  5
11a
  8
Layer_0
  10
81.792236
  20
97.008209
  0
VERTEX
  5
11b
  8
Layer_0
  10
79.980103
  20
96.106552
  0
VERTEX
  5
11c
  8
Layer_0
  10
75.548096
  20
95.232315
  0
VERTEX
  5
11d
  8
Layer_0
  10
57.438477
  20
94.971382
  0
VERTEX
  5
11e
  8
Layer_0
  10
57.03418
  20
95.17244
  0
VERTEX
  5
11f
  8
Layer_0
  10
76.325439
  20
101.53711
  0
SEQEND
  0
POLYLINE
  5
121
  8
Layer_0
  62
7
  70
1
  66
1
  10
0
  20
0
  30
0
  0
VERTEX
  5
121
  8
Layer_0
  10
79.851318
  20
62.597752
  0
VERTEX
  5
122
  8
Layer_0
  10
73.430542
  20
59.426601
  0
VERTEX
  5
123
  8
Layer_0
  10
58.314697
  20
63.244774
  0
VERTEX
  5
124
  8
Layer_0
  10
58.47229
  20
70.054131
  0
VERTEX
  5
125
  8
Layer_0
  10
78.955566
  20
65.94931
  0
SEQEND
  0
POLYLINE
  5
127
  8
Layer_0
  62
7
  70
1
  66
1
  10
0
  20
0
  30
0
  0
VERTEX
  5
127
  8
Layer_0
  10
75.114868
  20
86.678299
  0
VERTEX
  5
128
  8
Layer_0
  10
62.529785
  20
84.22879
  0
VERTEX
  5
129
  8
Layer_0
  10
59.121704
  20
92.820793
  0
VERTEX
  5
12a
  8
Layer_0
  10
74.100708
  20
93.03833
  0
SEQEND
  0
POLYLINE
  5
12c
  8
Layer_0
  62
7
  70
1
  66
1
  10
0
  20
0
  30
0
  0
VERTEX
  5
12c
  8
Layer_0
  10
74.563232
  20
103.49248
  0
VERTEX
  5
12d
  8
Layer_0
  10
56.463379
  20
97.523651
  0
VERTEX
  5
12e
  8
Layer_0
  10
55.782593
  20
103.95913
  0
VERTEX
  5
12f
  8
Layer_0
  10
74.292603
  20
103.95914
  0
SEQEND
  0
POLYLINE
  5
131
  8
Layer_0
  62
7
  70
1
  66
1
  10
0
  20
0
  30
0
  0
VERTEX
  5
131
  8
Layer_0
  10
71.0177
  20
57.644821
  0
VERTEX
  5
132
  8
Layer_0
  10
68.940552
  20
55.598282
  0
VERTEX
  5
133
  8
Layer_0
  10
57.415039
  20
50.000969
  0
VERTEX
  5
134
  8
Layer_0
  10
54.655151
  20
55.703091
  0
VERTEX
  5
135
  8
Layer_0
  10
57.319336
  20
61.104271
  0
SEQEND
  0
POLYLINE
  5
137
  8
Layer_0
  62
7
  70
1
  66
1
  10
0
  20
0
  30
0
  0
VERTEX
  5
137
  8
Layer_0
  10
59.102661
  20
82.719124
  0
VERTEX
  5
138
  8
Layer_0
  10
58.806763
  20
80.715172
  0
VERTEX
  5
139
  8
Layer_0
  10
54.817749
  20
77.001511
  0
VERTEX
  5
13a
  8
Layer_0
  10
54.773927
  20
77.472361
  0
VERTEX
  5
13b
  8
Layer_0
  10
54.733266
  20
77.911564
  0
VERTEX
  5
13c
  8
Layer_0
  10
54.695633
  20
78.321154
  0
VERTEX
  5
13d
  8
Layer_0
  10
54.660901
  20
78.703167
  0
VERTEX
  5
13e
  8
Layer_0
  10
54.599638
  20
79.392602
  0
VERTEX
  5
13f
  8
Layer_0
  10
54.548469
  20
79.996149
  0
VERTEX
  5
140
  8
Layer_0
  10
54.506387
  20
80.53009
  0
VERTEX
  5
141
  8
Layer_0
  10
54.472384
  20
81.010706
  0
VERTEX
  5
142
  8
Layer_0
  10
54.445452
  20
81.454278
  0
VERTEX
  5
143
  8
Layer_0
  10
54.424583
  20
81.877089
  0
VERTEX
  5
144
  8
Layer_0
  10
54.408769
  20
82.295418
  0
VERTEX
  5
145
  8
Layer_0
  10
54.397003
  20
82.725548
  0
VERTEX
  5
146
  8
Layer_0
  10
54.388277
  20
83.18376
  0
VERTEX
  5
147
  8
Layer_0
  10
54.381583
  20
83.686335
  0
VERTEX
  5
148
  8
Layer_0
  10
54.375913
  20
84.249555
  0
VERTEX
  5
149
  8
Layer_0
  10
54.37026
  20
84.889701
  0
VERTEX
  5
14a
  8
Layer_0
  10
54.367124
  20
85.243709
  0
VERTEX
  5
14b
  8
Layer_0
  10
54.363615
  20
85.623054
  0
VERTEX
  5
14c
  8
Layer_0
  10
54.359606
  20
86.029771
  0
VERTEX
  5
14d
  8
Layer_0
  10
54.354971
  20
86.465896
  0
VERTEX
  5
14e
  8
Layer_0
  10
54.12854
  20
94.77681
  0
VERTEX
  5
14f
  8
Layer_0
  10
54.906738
  20
93.299469
  0
SEQEND
  0
POLYLINE
  5
151
  8
Layer_0
  62
7
  70
1
  66
1
  10
0
  20
0
  30
0
  0
VERTEX
  5
151
  8
Layer_0
  10
56.684448
  20
70.865929
  0
VERTEX
  5
152
  8
Layer_0
  10
56.423096
  20
63.629936
  0
VERTEX
  5
153
  8
Layer_0
  10
54.1698
  20
62.256241
  0
VERTEX
  5
154
  8
Layer_0
  10
54.668579
  20
66.863068
  0
VERTEX
  5
155
  8
Layer_0
  10
55.471436
  20
74.471992
  0
SEQEND
  0
POLYLINE
  5
157
  8
Layer_0
  62
7
  66
1
  10
0
  20
0
  30
0
  0
VERTEX
  5
157
  8
Layer_0
  10
111.16846
  20
49.650585
  0
VERTEX
  5
158
  8
Layer_0
  10
111.16846
  20
103.97754
  0
SEQEND
  0
POLYLINE
  5
15a
  8
Layer_0
  62
7
  66
1
  10
0
  20
0
  30
0
  0
VERTEX
  5
15a
  8
Layer_0
  10
155.08655
  20
103.96034
  0
VERTEX
  5
15b
  8
Layer_0
  10
111.15259
  20
103.96031
  0
SEQEND
  0
POLYLINE
  5
15d
  8
Layer_0
  62
7
  66
1
  10
0
  20
0
  30
0
  0
VERTEX
  5
15d
  8
Layer_0
  10
155.08655
  20
103.96034
  0
VERTEX
  5
15e
  8
Layer_0
  10
155.08655
  20
49.636242
  0
SEQEND
  0
POLYLINE
  5
160
  8
Layer_0
  62
7
  66
1
  10
0
  20
0
  30
0
  0
VERTEX
  5
160
  8
Layer_0
  10
111.15405
  20
49.650585
  0
VERTEX
  5
161
  8
Layer_0
  10
155.1001
  20
49.650604
  0
SEQEND
  0
POLYLINE
  5
163
  8
Layer_0
  62
7
  70
1
  66
1
  10
0
  20
0
  30
0
  0
VERTEX
  5
163
  8
Layer_0
  10
188.02869
  20
216.34428
  0
VERTEX
  5
164
  8
Layer_0
  10
188.02869
  20
200.4446
  0
VERTEX
  5
165
  8
Layer_0
  10
189.49976
  20
200.4446
  0
VERTEX
  5
166
  8
Layer_0
  10
189.49976
  20
200.41286
  0
VERTEX
  5
167
  8
Layer_0
  10
191.03076
  20
200.41286
  0
VERTEX
  5
168
  8
Layer_0
  10
191.03076
  20
183.11967
  0
VERTEX
  5
169
  8
Layer_0
  10
189.49976
  20
183.11967
  0
VERTEX
  5
16a
  8
Layer_0
  10
189.49976
  20
183.08792
  0
VERTEX
  5
16b
  8
Layer_0
  10
188.02869
  20
183.08792
  0
VERTEX
  5
16c
  8
Layer_0
  10
188.02869
  20
167.18825
  0
VERTEX
  5
16d
  8
Layer_0
  10
189.49976
  20
167.18825
  0
VERTEX
  5
16e
  8
Layer_0
  10
189.49976
  20
167.15648
  0
VERTEX
  5
16f
  8
Layer_0
  10
191.03076
  20
167.15648
  0
VERTEX
  5
170
  8
Layer_0
  10
191.03076
  20
149.86331
  0
VERTEX
  5
171
  8
Layer_0
  10
189.49976
  20
149.86331
  0
VERTEX
  5
172
  8
Layer_0
  10
189.49976
  20
149.83157
  0
VERTEX
  5
173
  8
Layer_0
  10
188.02869
  20
149.83157
  0
VERTEX
  5
174
  8
Layer_0
  10
188.02869
  20
133.93187
  0
VERTEX
  5
175
  8
Layer_0
  10
189.49976
  20
133.93187
  0
VERTEX
  5
176
  8
Layer_0
  10
189.49976
  20
133.90012
  0
VERTEX
  5
177
  8
Layer_0
  10
191.03076
  20
133.90012
  0
VERTEX
  5
178
  8
Layer_0
  10
191.03076
  20
114.75134
  0
VERTEX
  5
179
  8
Layer_0
  10
178.75061
  20
114.75134
  0
VERTEX
  5
17a
  8
Layer_0
  10
178.75061
  20
117.74643
  0
VERTEX
  5
17b
  8
Layer_0
  10
169.21497
  20
117.74643
  0
VERTEX
  5
17c
  8
Layer_0
  10
169.21497
  20
114.75134
  0
VERTEX
  5
17d
  8
Layer_0
  10
160.40967
  20
114.75134
  0
VERTEX
  5
17e
  8
Layer_0
  10
160.40967
  20
117.74643
  0
VERTEX
  5
17f
  8
Layer_0
  10
150.87415
  20
117.74643
  0
VERTEX
  5
180
  8
Layer_0
  10
150.87415
  20
114.75134
  0
VERTEX
  5
181
  8
Layer_0
  10
142.07227
  20
114.75134
  0
VERTEX
  5
182
  8
Layer_0
  10
142.07227
  20
117.74643
  0
VERTEX
  5
183
  8
Layer_0
  10
132.5332
  20
117.74643
  0
VERTEX
  5
184
  8
Layer_0
  10
132.5332
  20
114.75134
  0
VERTEX
  5
185
  8
Layer_0
  10
120.96912
  20
114.75134
  0
VERTEX
  5
186
  8
Layer_0
  10
120.96912
  20
133.90012
  0
VERTEX
  5
187
  8
Layer_0
  10
122.58838
  20
133.90012
  0
VERTEX
  5
188
  8
Layer_0
  10
122.58838
  20
133.93187
  0
VERTEX
  5
189
  8
Layer_0
  10
123.96777
  20
133.93187
  0
VERTEX
  5
18a
  8
Layer_0
  10
123.96777
  20
149.83157
  0
VERTEX
  5
18b
  8
Layer_0
  10
122.58838
  20
149.83157
  0
VERTEX
  5
18c
  8
Layer_0
  10
122.58838
  20
149.86331
  0
VERTEX
  5
18d
  8
Layer_0
  10
120.96912
  20
149.86331
  0
VERTEX
  5
18e
  8
Layer_0
  10
120.96912
  20
167.15648
  0
VERTEX
  5
18f
  8
Layer_0
  10
122.58838
  20
167.15648
  0
VERTEX
  5
190
  8
Layer_0
  10
122.58838
  20
167.18825
  0
VERTEX
  5
191
  8
Layer_0
  10
123.96777
  20
167.18825
  0
VERTEX
  5
192
  8
Layer_0
  10
123.96777
  20
183.08792
  0
VERTEX
  5
193
  8
Layer_0
  10
122.58838
  20
183.08792
  0
VERTEX
  5
194
  8
Layer_0
  10
122.58838
  20
183.11967
  0
VERTEX
  5
195
  8
Layer_0
  10
120.96912
  20
183.11967
  0
VERTEX
  5
196
  8
Layer_0
  10
120.96912
  20
200.41286
  0
VERTEX
  5
197
  8
Layer_0
  10
122.58838
  20
200.41286
  0
VERTEX
  5
198
  8
Layer_0
  10
122.58838
  20
200.45164
  0
VERTEX
  5
199
  8
Layer_0
  10
123.96423
  20
200.45164
  0
VERTEX
  5
19a
  8
Layer_0
  10
123.96423
  20
216.35135
  0
VERTEX
  5
19b
  8
Layer_0
  10
122.58838
  20
216.35135
  0
VERTEX
  5
19c
  8
Layer_0
  10
122.58838
  20
216.37605
  0
VERTEX
  5
19d
  8
Layer_0
  10
120.96912
  20
216.37605
  0
VERTEX
  5
19e
  8
Layer_0
  10
120.96912
  20
227.19926
  0
VERTEX
  5
19f
  8
Layer_0
  10
191.03076
  20
227.19926
  0
VERTEX
  5
1a0
  8
Layer_0
  10
191.03076
  20
216.37605
  0
VERTEX
  5
1a1
  8
Layer_0
  10
189.49976
  20
216.37605
  0
VERTEX
  5
1a2
  8
Layer_0
  10
189.49976
  20
216.34428
  0
SEQEND
  0
POLYLINE
  5
1a4
  8
Layer_0
  62
7
  70
1
  66
1
  10
0
  20
0
  30
0
  0
VERTEX
  5
1a4
  8
Layer_0
  10
143.48706
  20
123.49942
  0
VERTEX
  5
1a5
  8
Layer_0
  10
142.96606
  20
125.21338
  0
VERTEX
  5
1a6
  8
Layer_0
  10
144.55652
  20
132.83543
  0
VERTEX
  5
1a7
  8
Layer_0
  10
147.98901
  20
134.09622
  0
VERTEX
  5
1a8
  8
Layer_0
  10
149.20422
  20
123.49942
  0
SEQEND
  0
POLYLINE
  5
1aa
  8
Layer_0
  62
7
  70
1
  66
1
  10
0
  20
0
  30
0
  0
VERTEX
  5
1aa
  8
Layer_0
  10
151.42615
  20
123.49942
  0
VERTEX
  5
1ab
  8
Layer_0
  10
150.05872
  20
135.4257
  0
VERTEX
  5
1ac
  8
Layer_0
  10
152.15503
  20
137.62146
  0
VERTEX
  5
1ad
  8
Layer_0
  10
158.0365
  20
129.48724
  0
VERTEX
  5
1ae
  8
Layer_0
  10
158.38977
  20
127.25189
  0
VERTEX
  5
1af
  8
Layer_0
  10
158.04028
  20
123.49942
  0
SEQEND
  0
POLYLINE
  5
1b1
  8
Layer_0
  62
7
  70
1
  66
1
  10
0
  20
0
  30
0
  0
VERTEX
  5
1b1
  8
Layer_0
  10
160.24609
  20
123.49942
  0
VERTEX
  5
1b2
  8
Layer_0
  10
160.46448
  20
125.84354
  0
VERTEX
  5
1b3
  8
Layer_0
  10
170.13635
  20
131.32889
  0
VERTEX
  5
1b4
  8
Layer_0
  10
171.44446
  20
125.4785
  0
VERTEX
  5
1b5
  8
Layer_0
  10
170.6626
  20
123.49942
  0
SEQEND
  0
POLYLINE
  5
1b7
  8
Layer_0
  62
7
  70
1
  66
1
  10
0
  20
0
  30
0
  0
VERTEX
  5
1b7
  8
Layer_0
  10
133.70056
  20
127.02557
  0
VERTEX
  5
1b8
  8
Layer_0
  10
139.79968
  20
147.28212
  0
VERTEX
  5
1b9
  8
Layer_0
  10
142.58557
  20
134.52921
  0
VERTEX
  5
1ba
  8
Layer_0
  10
141.02124
  20
127.02557
  0
SEQEND
  0
POLYLINE
  5
1bc
  8
Layer_0
  62
7
  70
1
  66
1
  10
0
  20
0
  30
0
  0
VERTEX
  5
1bc
  8
Layer_0
  10
176.97961
  20
127.20259
  0
VERTEX
  5
1bd
  8
Layer_0
  10
179.89575
  20
129.66431
  0
VERTEX
  5
1be
  8
Layer_0
  10
181.01355
  20
127.35983
  0
SEQEND
  0
POLYLINE
  5
1c0
  8
Layer_0
  62
7
  70
1
  66
1
  10
0
  20
0
  30
0
  0
VERTEX
  5
1c0
  8
Layer_0
  10
173.15039
  20
128.30502
  0
VERTEX
  5
1c1
  8
Layer_0
  10
171.94531
  20
133.72166
  0
VERTEX
  5
1c2
  8
Layer_0
  10
172.88953
  20
137.65111
  0
VERTEX
  5
1c3
  8
Layer_0
  10
177.05554
  20
138.84239
  0
VERTEX
  5
1c4
  8
Layer_0
  10
178.70117
  20
132.98312
  0
SEQEND
  0
POLYLINE
  5
1c6
  8
Layer_0
  62
7
  70
1
  66
1
  10
0
  20
0
  30
0
  0
VERTEX
  5
1c6
  8
Layer_0
  10
160.23621
  20
129.85117
  0
VERTEX
  5
1c7
  8
Layer_0
  10
160.12756
  20
130.55087
  0
VERTEX
  5
1c8
  8
Layer_0
  10
165.08557
  20
152.62038
  0
VERTEX
  5
1c9
  8
Layer_0
  10
170.88062
  20
139.1378
  0
VERTEX
  5
1ca
  8
Layer_0
  10
169.97351
  20
135.36641
  0
SEQEND
  0
POLYLINE
  5
1cc
  8
Layer_0
  62
7
  70
1
  66
1
  10
0
  20
0
  30
0
  0
VERTEX
  5
1cc
  8
Layer_0
  10
132.17419
  20
130.20601
  0
VERTEX
  5
1cd
  8
Layer_0
  10
128.84583
  20
151.1226
  0
VERTEX
  5
1ce
  8
Layer_0
  10
128.84583
  20
157.47668
  0
VERTEX
  5
1cf
  8
Layer_0
  10
134.06433
  20
160.60612
  0
VERTEX
  5
1d0
  8
Layer_0
  10
138.58862
  20
151.49731
  0
SEQEND
  0
POLYLINE
  5
1d2
  8
Layer_0
  62
7
  70
1
  66
1
  10
0
  20
0
  30
0
  0
VERTEX
  5
1d2
  8
Layer_0
  10
182.28003
  20
130.70819
  0
VERTEX
  5
1d3
  8
Layer_0
  10
181.08533
  20
133.1796
  0
VERTEX
  5
1d4
  8
Layer_0
  10
178.93982
  20
140.81177
  0
VERTEX
  5
1d5
  8
Layer_0
  10
182.28003
  20
148.93674
  0
SEQEND
  0
POLYLINE
  5
1d7
  8
Layer_0
  62
7
  70
1
  66
1
  10
0
  20
0
  30
0
  0
VERTEX
  5
1d7
  8
Layer_0
  10
158.51477
  20
133.78076
  0
VERTEX
  5
1d8
  8
Layer_0
  10
153.24646
  20
141.04871
  0
VERTEX
  5
1d9
  8
Layer_0
  10
152.35571
  20
152.10835
  0
VERTEX
  5
1da
  8
Layer_0
  10
154.56628
  20
156.60814
  0
VERTEX
  5
1db
  8
Layer_0
  10
163.43469
  20
155.68208
  0
SEQEND
  0
POLYLINE
  5
1dd
  8
Layer_0
  62
7
  70
1
  66
1
  10
0
  20
0
  30
0
  0
VERTEX
  5
1dd
  8
Layer_0
  10
144.42651
  20
136.80389
  0
VERTEX
  5
1de
  8
Layer_0
  10
141.57532
  20
149.85228
  0
VERTEX
  5
1df
  8
Layer_0
  10
150.27014
  20
150.67004
  0
VERTEX
  5
1e0
  8
Layer_0
  10
151.05249
  20
141.00951
  0
VERTEX
  5
1e1
  8
Layer_0
  10
148.45081
  20
138.29149
  0
SEQEND
  0
POLYLINE
  5
1e3
  8
Layer_0
  62
7
  70
1
  66
1
  10
0
  20
0
  30
0
  0
VERTEX
  5
1e3
  8
Layer_0
  10
172.59631
  20
141.56088
  0
VERTEX
  5
1e4
  8
Layer_0
  10
166.44287
  20
155.88943
  0
VERTEX
  5
1e5
  8
Layer_0
  10
176.3324
  20
160.15321
  0
VERTEX
  5
1e6
  8
Layer_0
  10
180.97083
  20
152.34354
  0
VERTEX
  5
1e7
  8
Layer_0
  10
177.06116
  20
142.83136
  0
SEQEND
  0
POLYLINE
  5
1e9
  8
Layer_0
  62
7
  70
1
  66
1
  10
0
  20
0
  30
0
  0
VERTEX
  5
1e9
  8
Layer_0
  10
140.42444
  20
153.69298
  0
VERTEX
  5
1ea
  8
Layer_0
  10
135.68811
  20
163.22583
  0
VERTEX
  5
1eb
  8
Layer_0
  10
136.94263
  20
167.97308
  0
VERTEX
  5
1ec
  8
Layer_0
  10
149.68921
  20
171.59653
  0
VERTEX
  5
1ed
  8
Layer_0
  10
152.83301
  20
158.9819
  0
VERTEX
  5
1ee
  8
Layer_0
  10
150.69922
  20
154.6579
  0
SEQEND
  0
POLYLINE
  5
1f0
  8
Layer_0
  62
7
  70
1
  66
1
  10
0
  20
0
  30
0
  0
VERTEX
  5
1f0
  8
Layer_0
  10
182.84973
  20
154.55992
  0
VERTEX
  5
1f1
  8
Layer_0
  10
177.81543
  20
163.03896
  0
VERTEX
  5
1f2
  8
Layer_0
  10
178.69043
  20
172.23709
  0
VERTEX
  5
1f3
  8
Layer_0
  10
183.15442
  20
175.9048
  0
VERTEX
  5
1f4
  8
Layer_0
  10
183.15442
  20
154.56664
  0
SEQEND
  0
POLYLINE
  5
1f6
  8
Layer_0
  62
7
  70
1
  66
1
  10
0
  20
0
  30
0
  0
VERTEX
  5
1f6
  8
Layer_0
  10
166.03052
  20
159.76973
  0
VERTEX
  5
1f7
  8
Layer_0
  10
168.21411
  20
184.11383
  0
VERTEX
  5
1f8
  8
Layer_0
  10
175.9635
  20
173.98953
  0
VERTEX
  5
1f9
  8
Layer_0
  10
176.55066
  20
172.9269
  0
VERTEX
  5
1fa
  8
Layer_0
  10
175.69788
  20
163.93486
  0
SEQEND
  0
POLYLINE
  5
1fc
  8
Layer_0
  62
7
  70
1
  66
1
  10
0
  20
0
  30
0
  0
VERTEX
  5
1fc
  8
Layer_0
  10
161.96265
  20
159.77879
  0
VERTEX
  5
1fd
  8
Layer_0
  10
154.82617
  20
160.52699
  0
VERTEX
  5
1fe
  8
Layer_0
  10
151.52991
  20
173.76338
  0
VERTEX
  5
1ff
  8
Layer_0
  10
154.47302
  20
185.17709
  0
SEQEND
  0
POLYLINE
  5
201
  8
Layer_0
  62
7
  70
1
  66
1
  10
0
  20
0
  30
0
  0
VERTEX
  5
201
  8
Layer_0
  10
163.97229
  20
161.29611
  0
VERTEX
  5
202
  8
Layer_0
  10
155.99365
  20
188.35777
  0
VERTEX
  5
203
  8
Layer_0
  10
165.80774
  20
189.70709
  0
VERTEX
  5
204
  8
Layer_0
  10
166.30713
  20
187.34358
  0
SEQEND
  0
POLYLINE
  5
206
  8
Layer_0
  62
7
  70
1
  66
1
  10
0
  20
0
  30
0
  0
VERTEX
  5
206
  8
Layer_0
  10
128.84558
  20
161.63367
  0
VERTEX
  5
207
  8
Layer_0
  10
128.84558
  20
183.90384
  0
VERTEX
  5
208
  8
Layer_0
  10
134.92236
  20
173.42763
  0
VERTEX
  5
209
  8
Layer_0
  10
135.10706
  20
170.10936
  0
VERTEX
  5
20a
  8
Layer_0
  10
133.61816
  20
164.49631
  0
SEQEND
  0
POLYLINE
  5
20c
  8
Layer_0
  62
7
  70
1
  66
1
  10
0
  20
0
  30
0
  0
VERTEX
  5
20c
  8
Layer_0
  10
137.18152
  20
172.04015
  0
VERTEX
  5
20d
  8
Layer_0
  10
137.07275
  20
174.07867
  0
VERTEX
  5
20e
  8
Layer_0
  10
142.26563
  20
198.14703
  0
VERTEX
  5
20f
  8
Layer_0
  10
148.01599
  20
200.0376
  0
VERTEX
  5
210
  8
Layer_0
  10
153.24084
  20
189.68698
  0
VERTEX
  5
211
  8
Layer_0
  10
149.5968
  20
175.5755
  0
SEQEND
  0
POLYLINE
  5
213
  8
Layer_0
  62
7
  70
1
  66
1
  10
0
  20
0
  30
0
  0
VERTEX
  5
213
  8
Layer_0
  10
177.95105
  20
175.959
  0
VERTEX
  5
214
  8
Layer_0
  10
177.87439
  20
176.09726
  0
VERTEX
  5
215
  8
Layer_0
  10
180.27039
  20
193.66568
  0
VERTEX
  5
216
  8
Layer_0
  10
183.15442
  20
192.05376
  0
VERTEX
  5
217
  8
Layer_0
  10
183.15442
  20
180.23204
  0
SEQEND
  0
POLYLINE
  5
219
  8
Layer_0
  62
7
  70
1
  66
1
  10
0
  20
0
  30
0
  0
VERTEX
  5
219
  8
Layer_0
  10
135.5415
  20
177.80075
  0
VERTEX
  5
21a
  8
Layer_0
  10
128.84546
  20
189.34682
  0
VERTEX
  5
21b
  8
Layer_0
  10
128.84546
  20
199.09506
  0
VERTEX
  5
21c
  8
Layer_0
  10
138.07825
  20
201.091
  0
VERTEX
  5
21d
  8
Layer_0
  10
140.12561
  20
199.01332
  0
SEQEND
  0
POLYLINE
  5
21f
  8
Layer_0
  62
7
  70
1
  66
1
  10
0
  20
0
  30
0
  0
VERTEX
  5
21f
  8
Layer_0
  10
176.00732
  20
178.78539
  0
VERTEX
  5
220
  8
Layer_0
  10
168.32751
  20
188.82068
  0
VERTEX
  5
221
  8
Layer_0
  10
167.86084
  20
191.02657
  0
VERTEX
  5
222
  8
Layer_0
  10
175.14355
  20
197.78152
  0
VERTEX
  5
223
  8
Layer_0
  10
178.22876
  20
195.07446
  0
SEQEND
  0
POLYLINE
  5
225
  8
Layer_0
  62
7
  70
1
  66
1
  10
0
  20
0
  30
0
  0
VERTEX
  5
225
  8
Layer_0
  10
154.94653
  20
192.14909
  0
VERTEX
  5
226
  8
Layer_0
  10
149.64038
  20
202.66667
  0
VERTEX
  5
227
  8
Layer_0
  10
150.66138
  20
208.43774
  0
VERTEX
  5
228
  8
Layer_0
  10
158.94849
  20
210.63391
  0
VERTEX
  5
229
  8
Layer_0
  10
164.20044
  20
204.24228
  0
VERTEX
  5
22a
  8
Layer_0
  10
165.39502
  20
193.58734
  0
SEQEND
  0
POLYLINE
  5
22c
  8
Layer_0
  62
7
  70
1
  66
1
  10
0
  20
0
  30
0
  0
VERTEX
  5
22c
  8
Layer_0
  10
167.44836
  20
195.06445
  0
VERTEX
  5
22d
  8
Layer_0
  10
166.29163
  20
205.40408
  0
VERTEX
  5
22e
  8
Layer_0
  10
168.22986
  20
221.97897
  0
VERTEX
  5
22f
  8
Layer_0
  10
173.98462
  20
221.97897
  0
VERTEX
  5
230
  8
Layer_0
  10
175.40466
  20
210.7128
  0
VERTEX
  5
231
  8
Layer_0
  10
174.18225
  20
201.31737
  0
SEQEND
  0
POLYLINE
  5
233
  8
Layer_0
  62
7
  70
1
  66
1
  10
0
  20
0
  30
0
  0
VERTEX
  5
233
  8
Layer_0
  10
183.15442
  20
196.17506
  0
VERTEX
  5
234
  8
Layer_0
  10
179.89001
  20
197.99942
  0
VERTEX
  5
235
  8
Layer_0
  10
176.38672
  20
201.0618
  0
VERTEX
  5
236
  8
Layer_0
  10
177.39209
  20
208.78207
  0
VERTEX
  5
237
  8
Layer_0
  10
183.15442
  20
209.14839
  0
SEQEND
  0
POLYLINE
  5
239
  8
Layer_0
  62
7
  70
1
  66
1
  10
0
  20
0
  30
0
  0
VERTEX
  5
239
  8
Layer_0
  10
141.6626
  20
201.95792
  0
VERTEX
  5
23a
  8
Layer_0
  10
139.20178
  20
204.45926
  0
VERTEX
  5
23b
  8
Layer_0
  10
138.18091
  20
210.33832
  0
VERTEX
  5
23c
  8
Layer_0
  10
140.45166
  20
221.97882
  0
VERTEX
  5
23d
  8
Layer_0
  10
147.66772
  20
221.97882
  0
VERTEX
  5
23e
  8
Layer_0
  10
148.74902
  20
210.81087
  0
VERTEX
  5
23f
  8
Layer_0
  10
148.74902
  20
210.50568
  0
VERTEX
  5
240
  8
Layer_0
  10
147.58228
  20
203.9075
  0
SEQEND
  0
POLYLINE
  5
242
  8
Layer_0
  62
7
  70
1
  66
1
  10
0
  20
0
  30
0
  0
VERTEX
  5
242
  8
Layer_0
  10
128.84558
  20
203.06522
  0
VERTEX
  5
243
  8
Layer_0
  10
128.84558
  20
213.99374
  0
VERTEX
  5
244
  8
Layer_0
  10
131.6366
  20
218.40378
  0
VERTEX
  5
245
  8
Layer_0
  10
136.06848
  20
209.39319
  0
VERTEX
  5
246
  8
Layer_0
  10
136.86145
  20
204.80402
  0
SEQEND
  0
POLYLINE
  5
248
  8
Layer_0
  62
7
  70
1
  66
1
  10
0
  20
0
  30
0
  0
VERTEX
  5
248
  8
Layer_0
  10
164.44495
  20
208.68423
  0
VERTEX
  5
249
  8
Layer_0
  10
160.66431
  20
213.28268
  0
VERTEX
  5
24a
  8
Layer_0
  10
163.53271
  20
221.97874
  0
VERTEX
  5
24b
  8
Layer_0
  10
166.00171
  20
221.97874
  0
SEQEND
  0
POLYLINE
  5
24d
  8
Layer_0
  62
7
  70
1
  66
1
  10
0
  20
0
  30
0
  0
VERTEX
  5
24d
  8
Layer_0
  10
177.38135
  20
212.73114
  0
VERTEX
  5
24e
  8
Layer_0
  10
176.2146
  20
221.9782
  0
VERTEX
  5
24f
  8
Layer_0
  10
183.15332
  20
221.97849
  0
VERTEX
  5
250
  8
Layer_0
  10
183.15332
  20
213.09787
  0
SEQEND
  0
POLYLINE
  5
252
  8
Layer_0
  62
7
  70
1
  66
1
  10
0
  20
0
  30
0
  0
VERTEX
  5
252
  8
Layer_0
  10
153.63171
  20
213.20413
  0
VERTEX
  5
253
  8
Layer_0
  10
160.85376
  20
221.97864
  0
VERTEX
  5
254
  8
Layer_0
  10
160.99463
  20
221.97864
  0
VERTEX
  5
255
  8
Layer_0
  10
158.53625
  20
214.5041
  0
SEQEND
  0
POLYLINE
  5
257
  8
Layer_0
  62
7
  70
1
  66
1
  10
0
  20
0
  30
0
  0
VERTEX
  5
257
  8
Layer_0
  10
136.62256
  20
214.17892
  0
VERTEX
  5
258
  8
Layer_0
  10
132.83716
  20
221.87012
  0
VERTEX
  5
259
  8
Layer_0
  10
132.8385
  20
221.97885
  0
VERTEX
  5
25a
  8
Layer_0
  10
138.14307
  20
221.97885
  0
SEQEND
  0
POLYLINE
  5
25c
  8
Layer_0
  62
7
  70
1
  66
1
  10
0
  20
0
  30
0
  0
VERTEX
  5
25c
  8
Layer_0
  10
150.61768
  20
214.28758
  0
VERTEX
  5
25d
  8
Layer_0
  10
149.87158
  20
221.97879
  0
VERTEX
  5
25e
  8
Layer_0
  10
156.95618
  20
221.97879
  0
SEQEND
  0
POLYLINE
  5
260
  8
Layer_0
  62
7
  70
1
  66
1
  10
0
  20
0
  30
0
  0
VERTEX
  5
260
  8
Layer_0
  10
128.84558
  20
219.2117
  0
VERTEX
  5
261
  8
Layer_0
  10
128.84558
  20
221.97816
  0
VERTEX
  5
262
  8
Layer_0
  10
130.59583
  20
221.97816
  0
SEQEND
  0
POLYLINE
  5
264
  8
Layer_0
  62
7
  70
1
  66
1
  10
0
  20
0
  30
0
  0
VERTEX
  5
264
  8
Layer_0
  10
262.02869
  20
216.34428
  0
VERTEX
  5
265
  8
Layer_0
  10
262.02869
  20
200.4446
  0
VERTEX
  5
266
  8
Layer_0
  10
263.49976
  20
200.4446
  0
VERTEX
  5
267
  8
Layer_0
  10
263.49976
  20
200.41286
  0
VERTEX
  5
268
  8
Layer_0
  10
265.03076
  20
200.41286
  0
VERTEX
  5
269
  8
Layer_0
  10
265.03076
  20
183.11969
  0
VERTEX
  5
26a
  8
Layer_0
  10
263.49976
  20
183.11969
  0
VERTEX
  5
26b
  8
Layer_0
  10
263.49976
  20
183.08792
  0
VERTEX
  5
26c
  8
Layer_0
  10
262.02869
  20
183.08792
  0
VERTEX
  5
26d
  8
Layer_0
  10
262.02869
  20
167.18825
  0
VERTEX
  5
26e
  8
Layer_0
  10
263.49976
  20
167.18825
  0
VERTEX
  5
26f
  8
Layer_0
  10
263.49976
  20
167.15649
  0
VERTEX
  5
270
  8
Layer_0
  10
265.03076
  20
167.15649
  0
VERTEX
  5
271
  8
Layer_0
  10
265.03076
  20
149.86331
  0
VERTEX
  5
272
  8
Layer_0
  10
263.49976
  20
149.86331
  0
VERTEX
  5
273
  8
Layer_0
  10
263.49976
  20
149.83157
  0
VERTEX
  5
274
  8
Layer_0
  10
262.02869
  20
149.83157
  0
VERTEX
  5
275
  8
Layer_0
  10
262.02869
  20
133.93188
  0
VERTEX
  5
276
  8
Layer_0
  10
263.49976
  20
133.93188
  0
VERTEX
  5
277
  8
Layer_0
  10
263.49976
  20
133.90012
  0
VERTEX
  5
278
  8
Layer_0
  10
265.03076
  20
133.90012
  0
VERTEX
  5
279
  8
Layer_0
  10
265.03076
  20
114.75134
  0
VERTEX
  5
27a
  8
Layer_0
  10
252.75061
  20
114.75134
  0
VERTEX
  5
27b
  8
Layer_0
  10
252.75061
  20
117.74643
  0
VERTEX
  5
27c
  8
Layer_0
  10
243.21497
  20
117.74643
  0
VERTEX
  5
27d
  8
Layer_0
  10
243.21497
  20
114.75134
  0
VERTEX
  5
27e
  8
Layer_0
  10
234.40967
  20
114.75134
  0
VERTEX
  5
27f
  8
Layer_0
  10
234.40967
  20
117.74643
  0
VERTEX
  5
280
  8
Layer_0
  10
224.87402
  20
117.74643
  0
VERTEX
  5
281
  8
Layer_0
  10
224.87402
  20
114.75134
  0
VERTEX
  5
282
  8
Layer_0
  10
216.07227
  20
114.75134
  0
VERTEX
  5
283
  8
Layer_0
  10
216.07227
  20
117.74643
  0
VERTEX
  5
284
  8
Layer_0
  10
206.5332
  20
117.74643
  0
VERTEX
  5
285
  8
Layer_0
  10
206.5332
  20
114.75134
  0
VERTEX
  5
286
  8
Layer_0
  10
194.96912
  20
114.75134
  0
VERTEX
  5
287
  8
Layer_0
  10
194.96912
  20
133.90012
  0
VERTEX
  5
288
  8
Layer_0
  10
196.58838
  20
133.90012
  0
VERTEX
  5
289
  8
Layer_0
  10
196.58838
  20
133.93188
  0
VERTEX
  5
28a
  8
Layer_0
  10
197.96765
  20
133.93188
  0
VERTEX
  5
28b
  8
Layer_0
  10
197.96765
  20
149.83157
  0
VERTEX
  5
28c
  8
Layer_0
  10
196.58838
  20
149.83157
  0
VERTEX
  5
28d
  8
Layer_0
  10
196.58838
  20
149.86331
  0
VERTEX
  5
28e
  8
Layer_0
  10
194.96912
  20
149.86331
  0
VERTEX
  5
28f
  8
Layer_0
  10
194.96912
  20
167.15649
  0
VERTEX
  5
290
  8
Layer_0
  10
196.58838
  20
167.15649
  0
VERTEX
  5
291
  8
Layer_0
  10
196.58838
  20
167.18825
  0
VERTEX
  5
292
  8
Layer_0
  10
197.96765
  20
167.18825
  0
VERTEX
  5
293
  8
Layer_0
  10
197.96765
  20
183.08792
  0
VERTEX
  5
294
  8
Layer_0
  10
196.58838
  20
183.08792
  0
VERTEX
  5
295
  8
Layer_0
  10
196.58838
  20
183.11969
  0
VERTEX
  5
296
  8
Layer_0
  10
194.96912
  20
183.11969
  0
VERTEX
  5
297
  8
Layer_0
  10
194.96912
  20
200.41286
  0
VERTEX
  5
298
  8
Layer_0
  10
196.58838
  20
200.41286
  0
VERTEX
  5
299
  8
Layer_0
  10
196.58838
  20
200.45166
  0
VERTEX
  5
29a
  8
Layer_0
  10
197.96423
  20
200.45166
  0
VERTEX
  5
29b
  8
Layer_0
  10
197.96423
  20
216.35135
  0
VERTEX
  5
29c
  8
Layer_0
  10
196.58838
  20
216.35135
  0
VERTEX
  5
29d
  8
Layer_0
  10
196.58838
  20
216.37605
  0
VERTEX
  5
29e
  8
Layer_0
  10
194.96912
  20
216.37605
  0
VERTEX
  5
29f
  8
Layer_0
  10
194.96912
  20
227.19926
  0
VERTEX
  5
2a0
  8
Layer_0
  10
265.03076
  20
227.19926
  0
VERTEX
  5
2a1
  8
Layer_0
  10
265.03076
  20
216.37605
  0
VERTEX
  5
2a2
  8
Layer_0
  10
263.49976
  20
216.37605
  0
VERTEX
  5
2a3
  8
Layer_0
  10
263.49976
  20
216.34428
  0
SEQEND
  0
POLYLINE
  5
2a5
  8
Layer_0
  62
7
  70
1
  66
1
  10
0
  20
0
  30
0
  0
VERTEX
  5
2a5
  8
Layer_0
  10
207.87683
  20
123.49939
  0
VERTEX
  5
2a6
  8
Layer_0
  10
204.63318
  20
125.93204
  0
VERTEX
  5
2a7
  8
Layer_0
  10
211.71985
  20
129.64444
  0
VERTEX
  5
2a8
  8
Layer_0
  10
212.8125
  20
123.49939
  0
SEQEND
  0
POLYLINE
  5
2aa
  8
Layer_0
  62
7
  70
1
  66
1
  10
0
  20
0
  30
0
  0
VERTEX
  5
2aa
  8
Layer_0
  10
218.07166
  20
123.49939
  0
VERTEX
  5
2ab
  8
Layer_0
  10
220.70288
  20
125.08521
  0
VERTEX
  5
2ac
  8
Layer_0
  10
221.91309
  20
123.49939
  0
SEQEND
  0
POLYLINE
  5
2ae
  8
Layer_0
  62
7
  70
1
  66
1
  10
0
  20
0
  30
0
  0
VERTEX
  5
2ae
  8
Layer_0
  10
225.62292
  20
123.49939
  0
VERTEX
  5
2af
  8
Layer_0
  10
222.16931
  20
128.02029
  0
VERTEX
  5
2b0
  8
Layer_0
  10
224.93884
  20
143.186
  0
VERTEX
  5
2b1
  8
Layer_0
  10
231.42944
  20
123.49939
  0
SEQEND
  0
POLYLINE
  5
2b3
  8
Layer_0
  62
7
  70
1
  66
1
  10
0
  20
0
  30
0
  0
VERTEX
  5
2b3
  8
Layer_0
  10
233.9679
  20
123.49939
  0
VERTEX
  5
2b4
  8
Layer_0
  10
226.65442
  20
145.68735
  0
VERTEX
  5
2b5
  8
Layer_0
  10
229.69568
  20
144.38736
  0
VERTEX
  5
2b6
  8
Layer_0
  10
240.77002
  20
135.22882
  0
VERTEX
  5
2b7
  8
Layer_0
  10
235.42261
  20
123.49939
  0
SEQEND
  0
POLYLINE
  5
2b9
  8
Layer_0
  62
7
  70
1
  66
1
  10
0
  20
0
  30
0
  0
VERTEX
  5
2b9
  8
Layer_0
  10
238.23413
  20
123.49939
  0
VERTEX
  5
2ba
  8
Layer_0
  10
243.26306
  20
134.52908
  0
VERTEX
  5
2bb
  8
Layer_0
  10
243.35999
  20
134.66736
  0
VERTEX
  5
2bc
  8
Layer_0
  10
252.17993
  20
129.80249
  0
VERTEX
  5
2bd
  8
Layer_0
  10
254.98987
  20
123.49939
  0
SEQEND
  0
POLYLINE
  5
2bf
  8
Layer_0
  62
7
  70
1
  66
1
  10
0
  20
0
  30
0
  0
VERTEX
  5
2bf
  8
Layer_0
  10
257.1543
  20
124.92776
  0
VERTEX
  5
2c0
  8
Layer_0
  10
254.03723
  20
131.9201
  0
VERTEX
  5
2c1
  8
Layer_0
  10
257.1543
  20
149.17151
  0
SEQEND
  0
POLYLINE
  5
2c3
  8
Layer_0
  62
7
  70
1
  66
1
  10
0
  20
0
  30
0
  0
VERTEX
  5
2c3
  8
Layer_0
  10
214.71179
  20
125.62674
  0
VERTEX
  5
2c4
  8
Layer_0
  10
213.50757
  20
132.38257
  0
VERTEX
  5
2c5
  8
Layer_0
  10
213.50049
  20
132.78601
  0
VERTEX
  5
2c6
  8
Layer_0
  10
213.96802
  20
137.7301
  0
VERTEX
  5
2c7
  8
Layer_0
  10
220.09912
  20
147.31229
  0
VERTEX
  5
2c8
  8
Layer_0
  10
223.16272
  20
145.98276
  0
VERTEX
  5
2c9
  8
Layer_0
  10
220.02905
  20
128.82782
  0
SEQEND
  0
POLYLINE
  5
2cb
  8
Layer_0
  62
7
  70
1
  66
1
  10
0
  20
0
  30
0
  0
VERTEX
  5
2cb
  8
Layer_0
  10
202.8457
  20
129.09448
  0
VERTEX
  5
2cc
  8
Layer_0
  10
202.8457
  20
133.09564
  0
VERTEX
  5
2cd
  8
Layer_0
  10
208.17883
  20
131.8905
  0
SEQEND
  0
POLYLINE
  5
2cf
  8
Layer_0
  62
7
  70
1
  66
1
  10
0
  20
0
  30
0
  0
VERTEX
  5
2cf
  8
Layer_0
  10
252.11987
  20
133.94864
  0
VERTEX
  5
2d0
  8
Layer_0
  10
244.18005
  20
138.33041
  0
VERTEX
  5
2d1
  8
Layer_0
  10
243.87146
  20
149.13251
  0
VERTEX
  5
2d2
  8
Layer_0
  10
244.25671
  20
157.4256
  0
VERTEX
  5
2d3
  8
Layer_0
  10
247.0426
  20
161.68051
  0
VERTEX
  5
2d4
  8
Layer_0
  10
256.39929
  20
157.61279
  0
SEQEND
  0
POLYLINE
  5
2d6
  8
Layer_0
  62
7
  70
1
  66
1
  10
0
  20
0
  30
0
  0
VERTEX
  5
2d6
  8
Layer_0
  10
211.51904
  20
135.1004
  0
VERTEX
  5
2d7
  8
Layer_0
  10
202.8457
  20
137.06055
  0
VERTEX
  5
2d8
  8
Layer_0
  10
202.8457
  20
144.23834
  0
VERTEX
  5
2d9
  8
Layer_0
  10
206.65247
  20
142.80176
  0
VERTEX
  5
2da
  8
Layer_0
  10
211.76355
  20
137.72025
  0
SEQEND
  0
POLYLINE
  5
2dc
  8
Layer_0
  62
7
  70
1
  66
1
  10
0
  20
0
  30
0
  0
VERTEX
  5
2dc
  8
Layer_0
  10
241.9967
  20
138.54761
  0
VERTEX
  5
2dd
  8
Layer_0
  10
233.98682
  20
145.17526
  0
VERTEX
  5
2de
  8
Layer_0
  10
241.75891
  20
146.91788
  0
SEQEND
  0
POLYLINE
  5
2e0
  8
Layer_0
  62
7
  70
1
  66
1
  10
0
  20
0
  30
0
  0
VERTEX
  5
2e0
  8
Layer_0
  10
212.82239
  20
141.15744
  0
VERTEX
  5
2e1
  8
Layer_0
  10
208.56995
  20
145.37189
  0
VERTEX
  5
2e2
  8
Layer_0
  10
214.18091
  20
161.06956
  0
VERTEX
  5
2e3
  8
Layer_0
  10
218.36243
  20
149.81354
  0
SEQEND
  0
POLYLINE
  5
2e5
  8
Layer_0
  62
7
  70
1
  66
1
  10
0
  20
0
  30
0
  0
VERTEX
  5
2e5
  8
Layer_0
  10
206.51672
  20
146.87851
  0
VERTEX
  5
2e6
  8
Layer_0
  10
202.8457
  20
148.26407
  0
VERTEX
  5
2e7
  8
Layer_0
  10
202.8457
  20
179.01578
  0
VERTEX
  5
2e8
  8
Layer_0
  10
206.59814
  20
178.53986
  0
VERTEX
  5
2e9
  8
Layer_0
  10
212.87085
  20
164.64378
  0
SEQEND
  0
POLYLINE
  5
2eb
  8
Layer_0
  62
7
  70
1
  66
1
  10
0
  20
0
  30
0
  0
VERTEX
  5
2eb
  8
Layer_0
  10
230.11401
  20
148.26743
  0
VERTEX
  5
2ec
  8
Layer_0
  10
227.2522
  20
149.48816
  0
VERTEX
  5
2ed
  8
Layer_0
  10
231.91223
  20
161.02032
  0
VERTEX
  5
2ee
  8
Layer_0
  10
232.35278
  20
161.04013
  0
VERTEX
  5
2ef
  8
Layer_0
  10
242.05676
  20
156.88387
  0
VERTEX
  5
2f0
  8
Layer_0
  10
241.78015
  20
150.87711
  0
SEQEND
  0
POLYLINE
  5
2f2
  8
Layer_0
  62
7
  70
1
  66
1
  10
0
  20
0
  30
0
  0
VERTEX
  5
2f2
  8
Layer_0
  10
224.48767
  20
149.44885
  0
VERTEX
  5
2f3
  8
Layer_0
  10
220.47473
  20
151.19272
  0
VERTEX
  5
2f4
  8
Layer_0
  10
215.71692
  20
163.99408
  0
VERTEX
  5
2f5
  8
Layer_0
  10
228.08289
  20
169.63747
  0
VERTEX
  5
2f6
  8
Layer_0
  10
230.06531
  20
163.11815
  0
VERTEX
  5
2f7
  8
Layer_0
  10
224.62927
  20
149.64572
  0
SEQEND
  0
POLYLINE
  5
2f9
  8
Layer_0
  62
7
  70
1
  66
1
  10
0
  20
0
  30
0
  0
VERTEX
  5
2f9
  8
Layer_0
  10
242.93115
  20
160.55759
  0
VERTEX
  5
2fa
  8
Layer_0
  10
234.16541
  20
164.31927
  0
VERTEX
  5
2fb
  8
Layer_0
  10
239.84717
  20
181.46452
  0
VERTEX
  5
2fc
  8
Layer_0
  10
240.02551
  20
181.62259
  0
VERTEX
  5
2fd
  8
Layer_0
  10
245.11926
  20
174.45322
  0
VERTEX
  5
2fe
  8
Layer_0
  10
245.62598
  20
164.67421
  0
SEQEND
  0
POLYLINE
  5
300
  8
Layer_0
  62
7
  70
1
  66
1
  10
0
  20
0
  30
0
  0
VERTEX
  5
300
  8
Layer_0
  10
257.1543
  20
161.3315
  0
VERTEX
  5
301
  8
Layer_0
  10
247.76953
  20
165.41273
  0
VERTEX
  5
302
  8
Layer_0
  10
247.28137
  20
174.80731
  0
VERTEX
  5
303
  8
Layer_0
  10
249.69885
  20
179.74132
  0
VERTEX
  5
304
  8
Layer_0
  10
254.83508
  20
186.59534
  0
VERTEX
  5
305
  8
Layer_0
  10
257.1543
  20
187.59645
  0
SEQEND
  0
POLYLINE
  5
307
  8
Layer_0
  62
7
  70
1
  66
1
  10
0
  20
0
  30
0
  0
VERTEX
  5
307
  8
Layer_0
  10
231.92285
  20
165.17625
  0
VERTEX
  5
308
  8
Layer_0
  10
229.66846
  20
172.59177
  0
VERTEX
  5
309
  8
Layer_0
  10
228.9679
  20
179.82011
  0
VERTEX
  5
30a
  8
Layer_0
  10
237.0874
  20
180.77531
  0
SEQEND
  0
POLYLINE
  5
30c
  8
Layer_0
  62
7
  70
1
  66
1
  10
0
  20
0
  30
0
  0
VERTEX
  5
30c
  8
Layer_0
  10
214.41382
  20
167.46095
  0
VERTEX
  5
30d
  8
Layer_0
  10
208.83691
  20
179.81042
  0
VERTEX
  5
30e
  8
Layer_0
  10
224.75427
  20
186.07307
  0
VERTEX
  5
30f
  8
Layer_0
  10
226.6604
  20
180.90305
  0
VERTEX
  5
310
  8
Layer_0
  10
227.38794
  20
173.3893
  0
SEQEND
  0
POLYLINE
  5
312
  8
Layer_0
  62
7
  70
1
  66
1
  10
0
  20
0
  30
0
  0
VERTEX
  5
312
  8
Layer_0
  10
246.02173
  20
178.17528
  0
VERTEX
  5
313
  8
Layer_0
  10
241.19312
  20
184.96986
  0
VERTEX
  5
314
  8
Layer_0
  10
241.05823
  20
187.37302
  0
VERTEX
  5
315
  8
Layer_0
  10
243.52881
  20
198.47183
  0
VERTEX
  5
316
  8
Layer_0
  10
247.67834
  20
181.5631
  0
SEQEND
  0
POLYLINE
  5
318
  8
Layer_0
  62
7
  70
1
  66
1
  10
0
  20
0
  30
0
  0
VERTEX
  5
318
  8
Layer_0
  10
206.87573
  20
182.45891
  0
VERTEX
  5
319
  8
Layer_0
  10
202.84546
  20
182.97107
  0
VERTEX
  5
31a
  8
Layer_0
  10
202.84546
  20
221.97879
  0
VERTEX
  5
31b
  8
Layer_0
  10
206.36353
  20
221.97879
  0
VERTEX
  5
31c
  8
Layer_0
  10
213.66394
  20
214.41615
  0
VERTEX
  5
31d
  8
Layer_0
  10
207.36462
  20
183.05998
  0
VERTEX
  5
31e
  8
Layer_0
  10
207.34241
  20
182.97118
  0
SEQEND
  0
POLYLINE
  5
320
  8
Layer_0
  62
7
  70
1
  66
1
  10
0
  20
0
  30
0
  0
VERTEX
  5
320
  8
Layer_0
  10
228.24597
  20
183.69055
  0
VERTEX
  5
321
  8
Layer_0
  10
226.47595
  20
188.49597
  0
VERTEX
  5
322
  8
Layer_0
  10
227.64832
  20
193.56781
  0
VERTEX
  5
323
  8
Layer_0
  10
229.45703
  20
196.16774
  0
VERTEX
  5
324
  8
Layer_0
  10
238.9292
  20
186.43806
  0
VERTEX
  5
325
  8
Layer_0
  10
239.00464
  20
185.09843
  0
VERTEX
  5
326
  8
Layer_0
  10
238.81445
  20
184.94121
  0
SEQEND
  0
POLYLINE
  5
328
  8
Layer_0
  62
7
  70
1
  66
1
  10
0
  20
0
  30
0
  0
VERTEX
  5
328
  8
Layer_0
  10
249.39978
  20
184.24216
  0
VERTEX
  5
329
  8
Layer_0
  10
245.98877
  20
198.15677
  0
VERTEX
  5
32a
  8
Layer_0
  10
252.58728
  20
188.4962
  0
SEQEND
  0
POLYLINE
  5
32c
  8
Layer_0
  62
7
  70
1
  66
1
  10
0
  20
0
  30
0
  0
VERTEX
  5
32c
  8
Layer_0
  10
210.8291
  20
184.61594
  0
VERTEX
  5
32d
  8
Layer_0
  10
220.14404
  20
205.13925
  0
VERTEX
  5
32e
  8
Layer_0
  10
225.4928
  20
194.41478
  0
VERTEX
  5
32f
  8
Layer_0
  10
224.46729
  20
189.9828
  0
SEQEND
  0
POLYLINE
  5
331
  8
Layer_0
  62
7
  70
1
  66
1
  10
0
  20
0
  30
0
  0
VERTEX
  5
331
  8
Layer_0
  10
239.40649
  20
190.47531
  0
VERTEX
  5
332
  8
Layer_0
  10
231.01648
  20
199.09172
  0
VERTEX
  5
333
  8
Layer_0
  10
241.34644
  20
218.74884
  0
VERTEX
  5
334
  8
Layer_0
  10
241.49768
  20
218.41371
  0
VERTEX
  5
335
  8
Layer_0
  10
242.47485
  20
204.35109
  0
VERTEX
  5
336
  8
Layer_0
  10
242.43689
  20
204.06531
  0
SEQEND
  0
POLYLINE
  5
338
  8
Layer_0
  62
7
  70
1
  66
1
  10
0
  20
0
  30
0
  0
VERTEX
  5
338
  8
Layer_0
  10
254.64001
  20
190.57416
  0
VERTEX
  5
339
  8
Layer_0
  10
244.59924
  20
205.26733
  0
VERTEX
  5
33a
  8
Layer_0
  10
243.82788
  20
216.3261
  0
VERTEX
  5
33b
  8
Layer_0
  10
252.63611
  20
210.70291
  0
VERTEX
  5
33c
  8
Layer_0
  10
257.15442
  20
205.82669
  0
VERTEX
  5
33d
  8
Layer_0
  10
257.15442
  20
191.65915
  0
SEQEND
  0
POLYLINE
  5
33f
  8
Layer_0
  62
7
  70
1
  66
1
  10
0
  20
0
  30
0
  0
VERTEX
  5
33f
  8
Layer_0
  10
211.55701
  20
192.41582
  0
VERTEX
  5
340
  8
Layer_0
  10
215.74902
  20
213.28311
  0
VERTEX
  5
341
  8
Layer_0
  10
218.01392
  20
213.1259
  0
VERTEX
  5
342
  8
Layer_0
  10
218.88354
  20
208.54688
  0
SEQEND
  0
POLYLINE
  5
344
  8
Layer_0
  62
7
  70
1
  66
1
  10
0
  20
0
  30
0
  0
VERTEX
  5
344
  8
Layer_0
  10
226.88257
  20
197.49722
  0
VERTEX
  5
345
  8
Layer_0
  10
221.06091
  20
209.16678
  0
VERTEX
  5
346
  8
Layer_0
  10
220.0509
  20
214.47424
  0
VERTEX
  5
347
  8
Layer_0
  10
222.69128
  20
218.94582
  0
VERTEX
  5
348
  8
Layer_0
  10
228.33813
  20
199.57535
  0
SEQEND
  0
POLYLINE
  5
34a
  8
Layer_0
  62
7
  70
1
  66
1
  10
0
  20
0
  30
0
  0
VERTEX
  5
34a
  8
Layer_0
  10
229.89172
  20
202.66754
  0
VERTEX
  5
34b
  8
Layer_0
  10
224.26355
  20
221.979
  0
VERTEX
  5
34c
  8
Layer_0
  10
240.04468
  20
221.979
  0
SEQEND
  0
POLYLINE
  5
34e
  8
Layer_0
  62
7
  70
1
  66
1
  10
0
  20
0
  30
0
  0
VERTEX
  5
34e
  8
Layer_0
  10
257.1543
  20
210.40813
  0
VERTEX
  5
34f
  8
Layer_0
  10
254.64502
  20
213.11606
  0
VERTEX
  5
350
  8
Layer_0
  10
257.1543
  20
219.68254
  0
SEQEND
  0
POLYLINE
  5
352
  8
Layer_0
  62
7
  70
1
  66
1
  10
0
  20
0
  30
0
  0
VERTEX
  5
352
  8
Layer_0
  10
218.38367
  20
217.04552
  0
VERTEX
  5
353
  8
Layer_0
  10
215.30957
  20
217.25125
  0
VERTEX
  5
354
  8
Layer_0
  10
210.74695
  20
221.97864
  0
VERTEX
  5
355
  8
Layer_0
  10
221.29651
  20
221.97864
  0
SEQEND
  0
POLYLINE
  5
357
  8
Layer_0
  62
7
  70
1
  66
1
  10
0
  20
0
  30
0
  0
VERTEX
  5
357
  8
Layer_0
  10
60.124023
  20
123.43605
  0
VERTEX
  5
358
  8
Layer_0
  10
67.121338
  20
140.90544
  0
VERTEX
  5
359
  8
Layer_0
  10
79.602417
  20
123.43605
  0
SEQEND
  0
POLYLINE
  5
35b
  8
Layer_0
  62
7
  70
1
  66
1
  10
0
  20
0
  30
0
  0
VERTEX
  5
35b
  8
Layer_0
  10
83.766602
  20
123.43605
  0
VERTEX
  5
35c
  8
Layer_0
  10
87.0802
  20
131.32414
  0
VERTEX
  5
35d
  8
Layer_0
  10
94.769409
  20
123.43605
  0
SEQEND
  0
POLYLINE
  5
35f
  8
Layer_0
  62
7
  70
1
  66
1
  10
0
  20
0
  30
0
  0
VERTEX
  5
35f
  8
Layer_0
  10
100.54785
  20
123.43605
  0
VERTEX
  5
360
  8
Layer_0
  10
100.1626
  20
137.26176
  0
VERTEX
  5
361
  8
Layer_0
  10
106.38684
  20
127.21676
  0
VERTEX
  5
362
  8
Layer_0
  10
106.6748
  20
125.4143
  0
VERTEX
  5
363
  8
Layer_0
  10
105.87634
  20
123.43605
  0
SEQEND
  0
POLYLINE
  5
365
  8
Layer_0
  62
7
  70
1
  66
1
  10
0
  20
0
  30
0
  0
VERTEX
  5
365
  8
Layer_0
  10
57.75293
  20
124.23298
  0
VERTEX
  5
366
  8
Layer_0
  10
56.525391
  20
147.99664
  0
VERTEX
  5
367
  8
Layer_0
  10
56.525391
  20
161.32155
  0
VERTEX
  5
368
  8
Layer_0
  10
65.198853
  20
157.10458
  0
VERTEX
  5
369
  8
Layer_0
  10
66.236206
  20
154.91895
  0
VERTEX
  5
36a
  8
Layer_0
  10
65.833618
  20
144.40227
  0
SEQEND
  0
POLYLINE
  5
36c
  8
Layer_0
  62
7
  70
1
  66
1
  10
0
  20
0
  30
0
  0
VERTEX
  5
36c
  8
Layer_0
  10
98.348877
  20
124.2923
  0
VERTEX
  5
36d
  8
Layer_0
  10
88.14502
  20
134.76047
  0
VERTEX
  5
36e
  8
Layer_0
  10
88.378052
  20
135.86363
  0
VERTEX
  5
36f
  8
Layer_0
  10
97.936157
  20
138.83748
  0
SEQEND
  0
POLYLINE
  5
371
  8
Layer_0
  62
7
  70
1
  66
1
  10
0
  20
0
  30
0
  0
VERTEX
  5
371
  8
Layer_0
  10
81.817139
  20
125.29666
  0
VERTEX
  5
372
  8
Layer_0
  10
68.022583
  20
144.60815
  0
VERTEX
  5
373
  8
Layer_0
  10
68.380859
  20
153.94412
  0
VERTEX
  5
374
  8
Layer_0
  10
77.037842
  20
157.06599
  0
VERTEX
  5
375
  8
Layer_0
  10
84.869751
  20
147.29663
  0
VERTEX
  5
376
  8
Layer_0
  10
86.439087
  20
137.70479
  0
VERTEX
  5
377
  8
Layer_0
  10
85.830444
  20
134.83966
  0
SEQEND
  0
POLYLINE
  5
379
  8
Layer_0
  62
7
  70
1
  66
1
  10
0
  20
0
  30
0
  0
VERTEX
  5
379
  8
Layer_0
  10
108.45068
  20
128.47707
  0
VERTEX
  5
37a
  8
Layer_0
  10
108.44458
  20
128.49747
  0
VERTEX
  5
37b
  8
Layer_0
  10
109.06396
  20
139.96936
  0
VERTEX
  5
37c
  8
Layer_0
  10
110.83386
  20
139.42517
  0
VERTEX
  5
37d
  8
Layer_0
  10
110.83386
  20
133.14146
  0
SEQEND
  0
POLYLINE
  5
37f
  8
Layer_0
  62
7
  70
1
  66
1
  10
0
  20
0
  30
0
  0
VERTEX
  5
37f
  8
Layer_0
  10
106.46826
  20
132.34819
  0
VERTEX
  5
380
  8
Layer_0
  10
100.58081
  20
141.85068
  0
VERTEX
  5
381
  8
Layer_0
  10
102.67688
  20
147.79889
  0
VERTEX
  5
382
  8
Layer_0
  10
106.96216
  20
141.41779
  0
SEQEND
  0
POLYLINE
  5
384
  8
Layer_0
  62
7
  70
1
  66
1
  10
0
  20
0
  30
0
  0
VERTEX
  5
384
  8
Layer_0
  10
88.356445
  20
139.85179
  0
VERTEX
  5
385
  8
Layer_0
  10
87.041748
  20
147.88776
  0
VERTEX
  5
386
  8
Layer_0
  10
91.983765
  20
155.87399
  0
VERTEX
  5
387
  8
Layer_0
  10
99.549316
  20
159.09447
  0
VERTEX
  5
388
  8
Layer_0
  10
101.37964
  20
154.52469
  0
VERTEX
  5
389
  8
Layer_0
  10
101.33569
  20
151.34424
  0
VERTEX
  5
38a
  8
Layer_0
  10
98.386719
  20
142.97357
  0
SEQEND
  0
POLYLINE
  5
38c
  8
Layer_0
  62
7
  70
1
  66
1
  10
0
  20
0
  30
0
  0
VERTEX
  5
38c
  8
Layer_0
  10
110.83496
  20
143.4166
  0
VERTEX
  5
38d
  8
Layer_0
  10
108.56421
  20
144.1163
  0
VERTEX
  5
38e
  8
Layer_0
  10
103.51355
  20
151.63976
  0
VERTEX
  5
38f
  8
Layer_0
  10
103.54053
  20
153.6091
  0
VERTEX
  5
390
  8
Layer_0
  10
110.83496
  20
157.03867
  0
SEQEND
  0
POLYLINE
  5
392
  8
Layer_0
  62
7
  70
1
  66
1
  10
0
  20
0
  30
0
  0
VERTEX
  5
392
  8
Layer_0
  10
85.717041
  20
151.01894
  0
VERTEX
  5
393
  8
Layer_0
  10
78.780762
  20
159.66614
  0
VERTEX
  5
394
  8
Layer_0
  10
81.43689
  20
166.71747
  0
VERTEX
  5
395
  8
Layer_0
  10
88.117676
  20
163.76129
  0
VERTEX
  5
396
  8
Layer_0
  10
90.072266
  20
158.05087
  0
SEQEND
  0
POLYLINE
  5
398
  8
Layer_0
  62
7
  70
1
  66
1
  10
0
  20
0
  30
0
  0
VERTEX
  5
398
  8
Layer_0
  10
102.92224
  20
157.39125
  0
VERTEX
  5
399
  8
Layer_0
  10
101.06958
  20
162.00989
  0
VERTEX
  5
39a
  8
Layer_0
  10
100.82056
  20
169.41528
  0
VERTEX
  5
39b
  8
Layer_0
  10
102.44885
  20
175.78714
  0
VERTEX
  5
39c
  8
Layer_0
  10
110.83435
  20
179.59058
  0
VERTEX
  5
39d
  8
Layer_0
  10
110.83435
  20
161.11163
  0
SEQEND
  0
POLYLINE
  5
39f
  8
Layer_0
  62
7
  70
1
  66
1
  10
0
  20
0
  30
0
  0
VERTEX
  5
39f
  8
Layer_0
  10
67.767578
  20
157.73538
  0
VERTEX
  5
3a0
  8
Layer_0
  10
66.95813
  20
159.43964
  0
VERTEX
  5
3a1
  8
Layer_0
  10
68.901855
  20
180.64204
  0
VERTEX
  5
3a2
  8
Layer_0
  10
71.905273
  20
185.62535
  0
VERTEX
  5
3a3
  8
Layer_0
  10
72.009277
  20
185.66486
  0
VERTEX
  5
3a4
  8
Layer_0
  10
77.287231
  20
176.4174
  0
VERTEX
  5
3a5
  8
Layer_0
  10
79.557983
  20
168.70551
  0
VERTEX
  5
3a6
  8
Layer_0
  10
76.630127
  20
160.92625
  0
SEQEND
  0
POLYLINE
  5
3a8
  8
Layer_0
  62
7
  70
1
  66
1
  10
0
  20
0
  30
0
  0
VERTEX
  5
3a8
  8
Layer_0
  10
91.984009
  20
159.93112
  0
VERTEX
  5
3a9
  8
Layer_0
  10
90.050781
  20
165.57498
  0
VERTEX
  5
3aa
  8
Layer_0
  10
91.94104
  20
172.25198
  0
VERTEX
  5
3ab
  8
Layer_0
  10
98.674805
  20
168.31235
  0
VERTEX
  5
3ac
  8
Layer_0
  10
98.86499
  20
162.84642
  0
SEQEND
  0
POLYLINE
  5
3ae
  8
Layer_0
  62
7
  70
1
  66
1
  10
0
  20
0
  30
0
  0
VERTEX
  5
3ae
  8
Layer_0
  10
64.932129
  20
161.31094
  0
VERTEX
  5
3af
  8
Layer_0
  10
56.525635
  20
165.3968
  0
VERTEX
  5
3b0
  8
Layer_0
  10
56.525635
  20
194.71198
  0
VERTEX
  5
3b1
  8
Layer_0
  10
66.713867
  20
180.79016
  0
SEQEND
  0
POLYLINE
  5
3b3
  8
Layer_0
  62
7
  70
1
  66
1
  10
0
  20
0
  30
0
  0
VERTEX
  5
3b3
  8
Layer_0
  10
88.231445
  20
167.76068
  0
VERTEX
  5
3b4
  8
Layer_0
  10
83.011597
  20
170.06516
  0
VERTEX
  5
3b5
  8
Layer_0
  10
83.375366
  20
170.88248
  0
VERTEX
  5
3b6
  8
Layer_0
  10
88.953491
  20
176.00363
  0
VERTEX
  5
3b7
  8
Layer_0
  10
90.050659
  20
174.19147
  0
SEQEND
  0
POLYLINE
  5
3b9
  8
Layer_0
  62
7
  70
1
  66
1
  10
0
  20
0
  30
0
  0
VERTEX
  5
3b9
  8
Layer_0
  10
81.057129
  20
171.95616
  0
VERTEX
  5
3ba
  8
Layer_0
  10
79.373657
  20
177.66829
  0
VERTEX
  5
3bb
  8
Layer_0
  10
80.638184
  20
182.51335
  0
VERTEX
  5
3bc
  8
Layer_0
  10
81.33374
  20
181.59778
  0
VERTEX
  5
3bd
  8
Layer_0
  10
81.556274
  20
173.08838
  0
SEQEND
  0
POLYLINE
  5
3bf
  8
Layer_0
  62
7
  70
1
  66
1
  10
0
  20
0
  30
0
  0
VERTEX
  5
3bf
  8
Layer_0
  10
99.136719
  20
172.1727
  0
VERTEX
  5
3c0
  8
Layer_0
  10
91.951782
  20
176.37744
  0
VERTEX
  5
3c1
  8
Layer_0
  10
90.235352
  20
179.19366
  0
VERTEX
  5
3c2
  8
Layer_0
  10
90.398438
  20
185.63461
  0
VERTEX
  5
3c3
  8
Layer_0
  10
93.592041
  20
196.87085
  0
VERTEX
  5
3c4
  8
Layer_0
  10
97.301025
  20
190.04715
  0
VERTEX
  5
3c5
  8
Layer_0
  10
100.48865
  20
177.47044
  0
SEQEND
  0
POLYLINE
  5
3c7
  8
Layer_0
  62
7
  70
1
  66
1
  10
0
  20
0
  30
0
  0
VERTEX
  5
3c7
  8
Layer_0
  10
83.669434
  20
175.55067
  0
VERTEX
  5
3c8
  8
Layer_0
  10
83.505493
  20
181.76401
  0
VERTEX
  5
3c9
  8
Layer_0
  10
84.831177
  20
183.82315
  0
VERTEX
  5
3ca
  8
Layer_0
  10
88.182739
  20
184.08916
  0
VERTEX
  5
3cb
  8
Layer_0
  10
88.068481
  20
179.59819
  0
SEQEND
  0
POLYLINE
  5
3cd
  8
Layer_0
  62
7
  70
1
  66
1
  10
0
  20
0
  30
0
  0
VERTEX
  5
3cd
  8
Layer_0
  10
102.29163
  20
179.77583
  0
VERTEX
  5
3ce
  8
Layer_0
  10
99.707275
  20
189.98734
  0
VERTEX
  5
3cf
  8
Layer_0
  10
110.83521
  20
196.69217
  0
VERTEX
  5
3d0
  8
Layer_0
  10
110.83521
  20
183.6526
  0
SEQEND
  0
POLYLINE
  5
3d2
  8
Layer_0
  62
7
  70
1
  66
1
  10
0
  20
0
  30
0
  0
VERTEX
  5
3d2
  8
Layer_0
  10
77.825684
  20
180.95724
  0
VERTEX
  5
3d3
  8
Layer_0
  10
74.105347
  20
187.47618
  0
VERTEX
  5
3d4
  8
Layer_0
  10
77.173706
  20
190.94281
  0
VERTEX
  5
3d5
  8
Layer_0
  10
78.982422
  20
185.39886
  0
SEQEND
  0
POLYLINE
  5
3d7
  8
Layer_0
  62
7
  70
1
  66
1
  10
0
  20
0
  30
0
  0
VERTEX
  5
3d7
  8
Layer_0
  10
67.821899
  20
184.20683
  0
VERTEX
  5
3d8
  8
Layer_0
  10
56.525269
  20
199.64441
  0
VERTEX
  5
3d9
  8
Layer_0
  10
56.525269
  20
214.80972
  0
VERTEX
  5
3da
  8
Layer_0
  10
66.865845
  20
203.57809
  0
VERTEX
  5
3db
  8
Layer_0
  10
70.11377
  20
187.99887
  0
SEQEND
  0
POLYLINE
  5
3dd
  8
Layer_0
  62
7
  70
1
  66
1
  10
0
  20
0
  30
0
  0
VERTEX
  5
3dd
  8
Layer_0
  10
82.338257
  20
185.1322
  0
VERTEX
  5
3de
  8
Layer_0
  10
81.03479
  20
186.84528
  0
VERTEX
  5
3df
  8
Layer_0
  10
79.644287
  20
191.10019
  0
VERTEX
  5
3e0
  8
Layer_0
  10
81.137695
  20
190.70691
  0
VERTEX
  5
3e1
  8
Layer_0
  10
82.946533
  20
186.0882
  0
SEQEND
  0
POLYLINE
  5
3e3
  8
Layer_0
  62
7
  70
1
  66
1
  10
0
  20
0
  30
0
  0
VERTEX
  5
3e3
  8
Layer_0
  10
84.951416
  20
187.78236
  0
VERTEX
  5
3e4
  8
Layer_0
  10
83.511475
  20
191.45514
  0
VERTEX
  5
3e5
  8
Layer_0
  10
90.739868
  20
195.46301
  0
VERTEX
  5
3e6
  8
Layer_0
  10
88.643921
  20
188.077
  0
SEQEND
  0
POLYLINE
  5
3e8
  8
Layer_0
  62
7
  70
1
  66
1
  10
0
  20
0
  30
0
  0
VERTEX
  5
3e8
  8
Layer_0
  10
72.057739
  20
189.81097
  0
VERTEX
  5
3e9
  8
Layer_0
  10
69.228882
  20
203.38037
  0
VERTEX
  5
3ea
  8
Layer_0
  10
77.276733
  20
205.84296
  0
VERTEX
  5
3eb
  8
Layer_0
  10
76.521729
  20
194.85202
  0
SEQEND
  0
POLYLINE
  5
3ed
  8
Layer_0
  62
7
  70
1
  66
1
  10
0
  20
0
  30
0
  0
VERTEX
  5
3ed
  8
Layer_0
  10
98.506104
  20
193.42442
  0
VERTEX
  5
3ee
  8
Layer_0
  10
94.531128
  20
200.73206
  0
VERTEX
  5
3ef
  8
Layer_0
  10
94.487671
  20
202.69131
  0
VERTEX
  5
3f0
  8
Layer_0
  10
103.94299
  20
211.51472
  0
VERTEX
  5
3f1
  8
Layer_0
  10
110.83496
  20
203.40877
  0
VERTEX
  5
3f2
  8
Layer_0
  10
110.83496
  20
200.84966
  0
SEQEND
  0
POLYLINE
  5
3f4
  8
Layer_0
  62
7
  70
1
  66
1
  10
0
  20
0
  30
0
  0
VERTEX
  5
3f4
  8
Layer_0
  10
81.681274
  20
194.54742
  0
VERTEX
  5
3f5
  8
Layer_0
  10
78.738037
  20
195.32556
  0
VERTEX
  5
3f6
  8
Layer_0
  10
79.573608
  20
207.48792
  0
VERTEX
  5
3f7
  8
Layer_0
  10
79.953857
  20
208.4924
  0
VERTEX
  5
3f8
  8
Layer_0
  10
91.668579
  20
204.27713
  0
VERTEX
  5
3f9
  8
Layer_0
  10
92.305054
  20
203.06522
  0
VERTEX
  5
3fa
  8
Layer_0
  10
92.359375
  20
200.60434
  0
VERTEX
  5
3fb
  8
Layer_0
  10
92.266235
  20
200.41678
  0
SEQEND
  0
POLYLINE
  5
3fd
  8
Layer_0
  62
7
  70
1
  66
1
  10
0
  20
0
  30
0
  0
VERTEX
  5
3fd
  8
Layer_0
  10
93.596802
  20
206.30576
  0
VERTEX
  5
3fe
  8
Layer_0
  10
93.265869
  20
206.93634
  0
VERTEX
  5
3ff
  8
Layer_0
  10
92.619751
  20
220.02435
  0
VERTEX
  5
400
  8
Layer_0
  10
103.17773
  20
220.02434
  0
VERTEX
  5
401
  8
Layer_0
  10
102.9707
  20
215.04106
  0
SEQEND
  0
POLYLINE
  5
403
  8
Layer_0
  62
7
  70
1
  66
1
  10
0
  20
0
  30
0
  0
VERTEX
  5
403
  8
Layer_0
  10
67.968384
  20
206.98492
  0
VERTEX
  5
404
  8
Layer_0
  10
56.525635
  20
219.41495
  0
VERTEX
  5
405
  8
Layer_0
  10
56.525635
  20
221.91457
  0
VERTEX
  5
406
  8
Layer_0
  10
74.952271
  20
221.91457
  0
VERTEX
  5
407
  8
Layer_0
  10
76.696167
  20
220.54547
  0
VERTEX
  5
408
  8
Layer_0
  10
78.276001
  20
211.00334
  0
VERTEX
  5
409
  8
Layer_0
  10
77.901245
  20
210.01782
  0
SEQEND
  0
POLYLINE
  5
40b
  8
Layer_0
  62
7
  70
1
  66
1
  10
0
  20
0
  30
0
  0
VERTEX
  5
40b
  8
Layer_0
  10
110.83496
  20
208.10707
  0
VERTEX
  5
40c
  8
Layer_0
  10
105.13208
  20
214.81439
  0
VERTEX
  5
40d
  8
Layer_0
  10
105.34375
  20
219.74754
  0
VERTEX
  5
40e
  8
Layer_0
  10
110.83496
  20
218.32069
  0
SEQEND
  0
POLYLINE
  5
410
  8
Layer_0
  62
7
  70
1
  66
1
  10
0
  20
0
  30
0
  0
VERTEX
  5
410
  8
Layer_0
  10
91.006714
  20
208.5311
  0
VERTEX
  5
411
  8
Layer_0
  10
80.328613
  20
212.37161
  0
VERTEX
  5
412
  8
Layer_0
  10
79.058105
  20
220.02448
  0
VERTEX
  5
413
  8
Layer_0
  10
90.441895
  20
220.02448
  0
SEQEND
  0
POLYLINE
  5
415
  8
Layer_0
  62
7
  70
1
  66
1
  10
0
  20
0
  30
0
  0
VERTEX
  5
415
  8
Layer_0
  10
51.650513
  20
227.19783
  0
VERTEX
  5
416
  8
Layer_0
  10
51.474365
  20
227.19783
  0
SEQEND
  0
POLYLINE
  5
418
  8
Layer_0
  62
7
  70
1
  66
1
  10
0
  20
0
  30
0
  0
VERTEX
  5
418
  8
Layer_0
  10
115.70898
  20
200.41284
  0
VERTEX
  5
419
  8
Layer_0
  10
115.70898
  20
183.14438
  0
VERTEX
  5
41a
  8
Layer_0
  10
117.18005
  20
183.14438
  0
VERTEX
  5
41b
  8
Layer_0
  10
117.18005
  20
183.11969
  0
VERTEX
  5
41c
  8
Layer_0
  10
118.71106
  20
183.11969
  0
VERTEX
  5
41d
  8
Layer_0
  10
118.71106
  20
167.15649
  0
VERTEX
  5
41e
  8
Layer_0
  10
117.18005
  20
167.15649
  0
VERTEX
  5
41f
  8
Layer_0
  10
117.18005
  20
167.14236
  0
VERTEX
  5
420
  8
Layer_0
  10
115.70898
  20
167.14236
  0
VERTEX
  5
421
  8
Layer_0
  10
115.70898
  20
149.8739
  0
VERTEX
  5
422
  8
Layer_0
  10
117.18005
  20
149.8739
  0
VERTEX
  5
423
  8
Layer_0
  10
117.18005
  20
149.86331
  0
VERTEX
  5
424
  8
Layer_0
  10
118.71106
  20
149.86331
  0
VERTEX
  5
425
  8
Layer_0
  10
118.71106
  20
133.90012
  0
VERTEX
  5
426
  8
Layer_0
  10
117.18005
  20
133.90012
  0
VERTEX
  5
427
  8
Layer_0
  10
117.18005
  20
133.89659
  0
VERTEX
  5
428
  8
Layer_0
  10
115.70898
  20
133.89659
  0
VERTEX
  5
429
  8
Layer_0
  10
115.70898
  20
114.75136
  0
VERTEX
  5
42a
  8
Layer_0
  10
106.79431
  20
114.75136
  0
VERTEX
  5
42b
  8
Layer_0
  10
106.79431
  20
117.75348
  0
VERTEX
  5
42c
  8
Layer_0
  10
97.258667
  20
117.75348
  0
VERTEX
  5
42d
  8
Layer_0
  10
97.258667
  20
114.75136
  0
VERTEX
  5
42e
  8
Layer_0
  10
88.453369
  20
114.75136
  0
VERTEX
  5
42f
  8
Layer_0
  10
88.453369
  20
117.75348
  0
VERTEX
  5
430
  8
Layer_0
  10
78.917725
  20
117.75348
  0
VERTEX
  5
431
  8
Layer_0
  10
78.917725
  20
114.75136
  0
VERTEX
  5
432
  8
Layer_0
  10
70.115967
  20
114.75136
  0
VERTEX
  5
433
  8
Layer_0
  10
70.115967
  20
117.75348
  0
VERTEX
  5
434
  8
Layer_0
  10
60.580322
  20
117.75348
  0
VERTEX
  5
435
  8
Layer_0
  10
60.580322
  20
114.75136
  0
VERTEX
  5
436
  8
Layer_0
  10
51.651489
  20
114.75136
  0
VERTEX
  5
437
  8
Layer_0
  10
51.651489
  20
133.89659
  0
VERTEX
  5
438
  8
Layer_0
  10
48.649414
  20
133.89659
  0
VERTEX
  5
439
  8
Layer_0
  10
48.649414
  20
149.85977
  0
VERTEX
  5
43a
  8
Layer_0
  10
50.268677
  20
149.85977
  0
VERTEX
  5
43b
  8
Layer_0
  10
50.268677
  20
149.8739
  0
VERTEX
  5
43c
  8
Layer_0
  10
51.651489
  20
149.8739
  0
VERTEX
  5
43d
  8
Layer_0
  10
51.651489
  20
167.14236
  0
VERTEX
  5
43e
  8
Layer_0
  10
50.268677
  20
167.14236
  0
VERTEX
  5
43f
  8
Layer_0
  10
50.268677
  20
167.15649
  0
VERTEX
  5
440
  8
Layer_0
  10
48.649414
  20
167.15649
  0
VERTEX
  5
441
  8
Layer_0
  10
48.649414
  20
183.11969
  0
VERTEX
  5
442
  8
Layer_0
  10
50.268677
  20
183.14438
  0
VERTEX
  5
443
  8
Layer_0
  10
51.651489
  20
183.14438
  0
VERTEX
  5
444
  8
Layer_0
  10
51.651489
  20
200.41284
  0
VERTEX
  5
445
  8
Layer_0
  10
48.649414
  20
200.41284
  0
VERTEX
  5
446
  8
Layer_0
  10
48.649414
  20
216.37251
  0
VERTEX
  5
447
  8
Layer_0
  10
51.651489
  20
216.37251
  0
VERTEX
  5
448
  8
Layer_0
  10
51.651489
  20
227.19926
  0
VERTEX
  5
449
  8
Layer_0
  10
115.70898
  20
227.19926
  0
VERTEX
  5
44a
  8
Layer_0
  10
115.70898
  20
227.19574
  0
VERTEX
  5
44b
  8
Layer_0
  10
115.70898
  20
216.37251
  0
VERTEX
  5
44c
  8
Layer_0
  10
118.71106
  20
216.37251
  0
VERTEX
  5
44d
  8
Layer_0
  10
118.71106
  20
200.41284
  0
SEQEND
  0
POLYLINE
  5
44f
  8
Layer_0
  62
7
  70
1
  66
1
  10
0
  20
0
  30
0
  0
VERTEX
  5
44f
  8
Layer_0
  10
226.55725
  20
52.38504
  0
VERTEX
  5
450
  8
Layer_0
  10
221.32361
  20
49.651428
  0
VERTEX
  5
451
  8
Layer_0
  10
203.34668
  20
49.651428
  0
VERTEX
  5
452
  8
Layer_0
  10
214.35962
  20
59.497467
  0
VERTEX
  5
453
  8
Layer_0
  10
217.5741
  20
60.980835
  0
VERTEX
  5
454
  8
Layer_0
  10
217.91089
  20
60.910034
  0
VERTEX
  5
455
  8
Layer_0
  10
226.55725
  20
52.410339
  0
SEQEND
  0
POLYLINE
  5
457
  8
Layer_0
  62
7
  70
1
  66
1
  10
0
  20
0
  30
0
  0
VERTEX
  5
457
  8
Layer_0
  10
226.55725
  20
55.457611
  0
VERTEX
  5
458
  8
Layer_0
  10
219.58398
  20
62.310791
  0
VERTEX
  5
459
  8
Layer_0
  10
221.43652
  20
78.526947
  0
VERTEX
  5
45a
  8
Layer_0
  10
226.55725
  20
79.442108
  0
SEQEND
  0
POLYLINE
  5
45c
  8
Layer_0
  62
7
  70
1
  66
1
  10
0
  20
0
  30
0
  0
VERTEX
  5
45c
  8
Layer_0
  10
226.55725
  20
81.649902
  0
VERTEX
  5
45d
  8
Layer_0
  10
220.8114
  20
80.622681
  0
VERTEX
  5
45e
  8
Layer_0
  10
218.83948
  20
82.562134
  0
VERTEX
  5
45f
  8
Layer_0
  10
225.15613
  20
91.219025
  0
VERTEX
  5
460
  8
Layer_0
  10
226.55725
  20
90.578339
  0
SEQEND
  0
POLYLINE
  5
462
  8
Layer_0
  62
7
  70
1
  66
1
  10
0
  20
0
  30
0
  0
VERTEX
  5
462
  8
Layer_0
  10
226.55725
  20
92.968597
  0
VERTEX
  5
463
  8
Layer_0
  10
225.58484
  20
93.412445
  0
VERTEX
  5
464
  8
Layer_0
  10
224.10229
  20
96.231201
  0
VERTEX
  5
465
  8
Layer_0
  10
226.55725
  20
97.72345
  0
SEQEND
  0
POLYLINE
  5
467
  8
Layer_0
  62
7
  70
1
  66
1
  10
0
  20
0
  30
0
  0
VERTEX
  5
467
  8
Layer_0
  10
226.55725
  20
100.26547
  0
VERTEX
  5
468
  8
Layer_0
  10
222.54944
  20
97.828583
  0
VERTEX
  5
469
  8
Layer_0
  10
219.11133
  20
99.081848
  0
VERTEX
  5
46a
  8
Layer_0
  10
218.27893
  20
103.96021
  0
VERTEX
  5
46b
  8
Layer_0
  10
223.72253
  20
103.96021
  0
VERTEX
  5
46c
  8
Layer_0
  10
226.55725
  20
100.60611
  0
SEQEND
  0
POLYLINE
  5
46e
  8
Layer_0
  62
7
  70
1
  66
1
  10
0
  20
0
  30
0
  0
VERTEX
  5
46e
  8
Layer_0
  10
223.52185
  20
92.674683
  0
VERTEX
  5
46f
  8
Layer_0
  10
217.06946
  20
83.831848
  0
VERTEX
  5
470
  8
Layer_0
  10
213.28418
  20
85.733368
  0
VERTEX
  5
471
  8
Layer_0
  10
215.41882
  20
93.760529
  0
VERTEX
  5
472
  8
Layer_0
  10
218.44873
  20
97.013458
  0
VERTEX
  5
473
  8
Layer_0
  10
221.9032
  20
95.748047
  0
SEQEND
  0
POLYLINE
  5
475
  8
Layer_0
  62
7
  70
1
  66
1
  10
0
  20
0
  30
0
  0
VERTEX
  5
475
  8
Layer_0
  10
219.30737
  20
79.053284
  0
VERTEX
  5
476
  8
Layer_0
  10
217.51501
  20
63.342529
  0
VERTEX
  5
477
  8
Layer_0
  10
209.00562
  20
68.376831
  0
VERTEX
  5
478
  8
Layer_0
  10
207.39673
  20
70.690186
  0
VERTEX
  5
479
  8
Layer_0
  10
210.00427
  20
83.620972
  0
VERTEX
  5
47a
  8
Layer_0
  10
211.86157
  20
84.017212
  0
VERTEX
  5
47b
  8
Layer_0
  10
216.77063
  20
81.552094
  0
SEQEND
  0
POLYLINE
  5
47d
  8
Layer_0
  62
7
  70
1
  66
1
  10
0
  20
0
  30
0
  0
VERTEX
  5
47d
  8
Layer_0
  10
216.98816
  20
98.621277
  0
VERTEX
  5
47e
  8
Layer_0
  10
214.24573
  20
95.677795
  0
VERTEX
  5
47f
  8
Layer_0
  10
208.95044
  20
98.832916
  0
VERTEX
  5
480
  8
Layer_0
  10
209.06299
  20
103.95956
  0
VERTEX
  5
481
  8
Layer_0
  10
216.07678
  20
103.95956
  0
SEQEND
  0
POLYLINE
  5
483
  8
Layer_0
  62
7
  70
1
  66
1
  10
0
  20
0
  30
0
  0
VERTEX
  5
483
  8
Layer_0
  10
215.10938
  20
62.239868
  0
VERTEX
  5
484
  8
Layer_0
  10
213.38196
  20
61.44696
  0
VERTEX
  5
485
  8
Layer_0
  10
205.55579
  20
59.290863
  0
VERTEX
  5
486
  8
Layer_0
  10
202.60181
  20
62.783203
  0
VERTEX
  5
487
  8
Layer_0
  10
208.26038
  20
66.290741
  0
SEQEND
  0
POLYLINE
  5
489
  8
Layer_0
  62
7
  70
1
  66
1
  10
0
  20
0
  30
0
  0
VERTEX
  5
489
  8
Layer_0
  10
213.18115
  20
93.782013
  0
VERTEX
  5
48a
  8
Layer_0
  10
211.13379
  20
86.086578
  0
VERTEX
  5
48b
  8
Layer_0
  10
209.12402
  20
85.658325
  0
VERTEX
  5
48c
  8
Layer_0
  10
207.23474
  20
86.216858
  0
VERTEX
  5
48d
  8
Layer_0
  10
201.1571
  20
89.453339
  0
VERTEX
  5
48e
  8
Layer_0
  10
201.62964
  20
93.477692
  0
VERTEX
  5
48f
  8
Layer_0
  10
207.8324
  20
96.969574
  0
SEQEND
  0
POLYLINE
  5
491
  8
Layer_0
  62
7
  70
1
  66
1
  10
0
  20
0
  30
0
  0
VERTEX
  5
491
  8
Layer_0
  10
209.59167
  20
58.14563
  0
VERTEX
  5
492
  8
Layer_0
  10
200.08582
  20
49.651459
  0
VERTEX
  5
493
  8
Layer_0
  10
199.74731
  20
49.651459
  0
VERTEX
  5
494
  8
Layer_0
  10
199.85352
  20
54.159271
  0
VERTEX
  5
495
  8
Layer_0
  10
205.57239
  20
57.042511
  0
SEQEND
  0
POLYLINE
  5
497
  8
Layer_0
  62
7
  70
1
  66
1
  10
0
  20
0
  30
0
  0
VERTEX
  5
497
  8
Layer_0
  10
207.82068
  20
83.778107
  0
VERTEX
  5
498
  8
Layer_0
  10
205.39856
  20
71.771759
  0
VERTEX
  5
499
  8
Layer_0
  10
201.20654
  20
72.792236
  0
VERTEX
  5
49a
  8
Layer_0
  10
199.78857
  20
74.534454
  0
VERTEX
  5
49b
  8
Layer_0
  10
207.2074
  20
83.957672
  0
SEQEND
  0
POLYLINE
  5
49d
  8
Layer_0
  62
7
  70
1
  66
1
  10
0
  20
0
  30
0
  0
VERTEX
  5
49d
  8
Layer_0
  10
206.87061
  20
103.17169
  0
VERTEX
  5
49e
  8
Layer_0
  10
206.7782
  20
98.865814
  0
VERTEX
  5
49f
  8
Layer_0
  10
201.21704
  20
95.736847
  0
VERTEX
  5
4a0
  8
Layer_0
  10
199.72864
  20
100.03387
  0
SEQEND
  0
POLYLINE
  5
4a2
  8
Layer_0
  62
7
  70
1
  66
1
  10
0
  20
0
  30
0
  0
VERTEX
  5
4a2
  8
Layer_0
  10
206.70764
  20
67.882782
  0
VERTEX
  5
4a3
  8
Layer_0
  10
200.45642
  20
64.010254
  0
VERTEX
  5
4a4
  8
Layer_0
  10
196.50281
  20
62.397461
  0
VERTEX
  5
4a5
  8
Layer_0
  10
196.73682
  20
66.020477
  0
VERTEX
  5
4a6
  8
Layer_0
  10
200.95593
  20
70.619354
  0
VERTEX
  5
4a7
  8
Layer_0
  10
205.58301
  20
69.495544
  0
SEQEND
  0
POLYLINE
  5
4a9
  8
Layer_0
  62
7
  70
1
  66
1
  10
0
  20
0
  30
0
  0
VERTEX
  5
4a9
  8
Layer_0
  10
205.15405
  20
84.859131
  0
VERTEX
  5
4aa
  8
Layer_0
  10
198.09937
  20
75.897858
  0
VERTEX
  5
4ab
  8
Layer_0
  10
195.18872
  20
77.385864
  0
VERTEX
  5
4ac
  8
Layer_0
  10
197.12781
  20
86.711304
  0
VERTEX
  5
4ad
  8
Layer_0
  10
199.89172
  20
87.661072
  0
SEQEND
  0
POLYLINE
  5
4af
  8
Layer_0
  62
7
  70
1
  66
1
  10
0
  20
0
  30
0
  0
VERTEX
  5
4af
  8
Layer_0
  10
203.45483
  20
58.41156
  0
VERTEX
  5
4b0
  8
Layer_0
  10
199.31616
  20
56.326721
  0
VERTEX
  5
4b1
  8
Layer_0
  10
197.49646
  20
60.463989
  0
VERTEX
  5
4b2
  8
Layer_0
  10
200.63599
  20
61.73996
  0
SEQEND
  0
POLYLINE
  5
4b4
  8
Layer_0
  62
7
  70
1
  66
1
  10
0
  20
0
  30
0
  0
VERTEX
  5
4b4
  8
Layer_0
  10
203.27124
  20
103.95956
  0
VERTEX
  5
4b5
  8
Layer_0
  10
198.58838
  20
101.90088
  0
VERTEX
  5
4b6
  8
Layer_0
  10
196.34253
  20
103.95956
  0
SEQEND
  0
POLYLINE
  5
4b8
  8
Layer_0
  62
7
  70
1
  66
1
  10
0
  20
0
  30
0
  0
VERTEX
  5
4b8
  8
Layer_0
  10
199.50635
  20
94.037231
  0
VERTEX
  5
4b9
  8
Layer_0
  10
198.98987
  20
89.644043
  0
VERTEX
  5
4ba
  8
Layer_0
  10
196.14453
  20
88.67157
  0
VERTEX
  5
4bb
  8
Layer_0
  10
190.03491
  20
90.273407
  0
VERTEX
  5
4bc
  8
Layer_0
  10
189.70325
  20
90.621124
  0
VERTEX
  5
4bd
  8
Layer_0
  10
189.62183
  20
96.860992
  0
VERTEX
  5
4be
  8
Layer_0
  10
193.92932
  20
103.22104
  0
VERTEX
  5
4bf
  8
Layer_0
  10
197.44238
  20
100.00601
  0
SEQEND
  0
POLYLINE
  5
4c1
  8
Layer_0
  62
7
  70
1
  66
1
  10
0
  20
0
  30
0
  0
VERTEX
  5
4c1
  8
Layer_0
  10
199.15881
  20
71.868347
  0
VERTEX
  5
4c2
  8
Layer_0
  10
195.67236
  20
68.066559
  0
VERTEX
  5
4c3
  8
Layer_0
  10
191.94104
  20
72.086273
  0
VERTEX
  5
4c4
  8
Layer_0
  10
191.53345
  20
74.230591
  0
VERTEX
  5
4c5
  8
Layer_0
  10
193.97192
  20
75.572296
  0
VERTEX
  5
4c6
  8
Layer_0
  10
197.70325
  20
73.660675
  0
SEQEND
  0
POLYLINE
  5
4c8
  8
Layer_0
  62
7
  70
1
  66
1
  10
0
  20
0
  30
0
  0
VERTEX
  5
4c8
  8
Layer_0
  10
197.6925
  20
54.620331
  0
VERTEX
  5
4c9
  8
Layer_0
  10
197.57239
  20
49.650909
  0
VERTEX
  5
4ca
  8
Layer_0
  10
190.05237
  20
49.650909
  0
VERTEX
  5
4cb
  8
Layer_0
  10
187.0481
  20
58.04184
  0
VERTEX
  5
4cc
  8
Layer_0
  10
195.19373
  20
60.296204
  0
SEQEND
  0
POLYLINE
  5
4ce
  8
Layer_0
  62
7
  70
1
  66
1
  10
0
  20
0
  30
0
  0
VERTEX
  5
4ce
  8
Layer_0
  10
194.91138
  20
86.74942
  0
VERTEX
  5
4cf
  8
Layer_0
  10
192.99475
  20
77.504913
  0
VERTEX
  5
4d0
  8
Layer_0
  10
190.16504
  20
75.95285
  0
VERTEX
  5
4d1
  8
Layer_0
  10
183.81689
  20
77.380554
  0
VERTEX
  5
4d2
  8
Layer_0
  10
189.98547
  20
88.041412
  0
SEQEND
  0
POLYLINE
  5
4d4
  8
Layer_0
  62
7
  70
1
  66
1
  10
0
  20
0
  30
0
  0
VERTEX
  5
4d4
  8
Layer_0
  10
194.55334
  20
66.069
  0
VERTEX
  5
4d5
  8
Layer_0
  10
194.4281
  20
64.075653
  0
VERTEX
  5
4d6
  8
Layer_0
  10
190.18665
  20
67.800659
  0
VERTEX
  5
4d7
  8
Layer_0
  10
191.18616
  20
69.702148
  0
SEQEND
  0
POLYLINE
  5
4d9
  8
Layer_0
  62
7
  70
1
  66
1
  10
0
  20
0
  30
0
  0
VERTEX
  5
4d9
  8
Layer_0
  10
193.42944
  20
62.066193
  0
VERTEX
  5
4da
  8
Layer_0
  10
185.74963
  20
59.942932
  0
VERTEX
  5
4db
  8
Layer_0
  10
183.62061
  20
61.056213
  0
VERTEX
  5
4dc
  8
Layer_0
  10
183.93628
  20
63.283081
  0
VERTEX
  5
4dd
  8
Layer_0
  10
188.71509
  20
66.209778
  0
SEQEND
  0
POLYLINE
  5
4df
  8
Layer_0
  62
7
  70
1
  66
1
  10
0
  20
0
  30
0
  0
VERTEX
  5
4df
  8
Layer_0
  10
191.80103
  20
103.95956
  0
VERTEX
  5
4e0
  8
Layer_0
  10
188.13416
  20
98.54422
  0
VERTEX
  5
4e1
  8
Layer_0
  10
175.50476
  20
103.95956
  0
SEQEND
  0
POLYLINE
  5
4e3
  8
Layer_0
  62
7
  70
1
  66
1
  10
0
  20
0
  30
0
  0
VERTEX
  5
4e3
  8
Layer_0
  10
189.80127
  20
71.744019
  0
VERTEX
  5
4e4
  8
Layer_0
  10
188.00891
  20
68.322479
  0
VERTEX
  5
4e5
  8
Layer_0
  10
183.64783
  20
65.657166
  0
VERTEX
  5
4e6
  8
Layer_0
  10
181.66626
  20
74.22049
  0
VERTEX
  5
4e7
  8
Layer_0
  10
181.66626
  20
74.224487
  0
VERTEX
  5
4e8
  8
Layer_0
  10
181.86133
  20
74.842438
  0
VERTEX
  5
4e9
  8
Layer_0
  10
182.47473
  20
75.457062
  0
VERTEX
  5
4ea
  8
Layer_0
  10
189.39368
  20
73.897827
  0
SEQEND
  0
POLYLINE
  5
4ec
  8
Layer_0
  62
7
  70
1
  66
1
  10
0
  20
0
  30
0
  0
VERTEX
  5
4ec
  8
Layer_0
  10
188.11755
  20
89.144379
  0
VERTEX
  5
4ed
  8
Layer_0
  10
182.172
  20
78.868805
  0
VERTEX
  5
4ee
  8
Layer_0
  10
176.13184
  20
90.419891
  0
VERTEX
  5
4ef
  8
Layer_0
  10
188.11169
  20
89.149872
  0
SEQEND
  0
POLYLINE
  5
4f1
  8
Layer_0
  62
7
  70
1
  66
1
  10
0
  20
0
  30
0
  0
VERTEX
  5
4f1
  8
Layer_0
  10
187.65576
  20
49.922943
  0
VERTEX
  5
4f2
  8
Layer_0
  10
172.24841
  20
55.323578
  0
VERTEX
  5
4f3
  8
Layer_0
  10
172.24841
  20
55.363708
  0
VERTEX
  5
4f4
  8
Layer_0
  10
182.37183
  20
59.258606
  0
VERTEX
  5
4f5
  8
Layer_0
  10
184.75598
  20
58.014648
  0
SEQEND
  0
POLYLINE
  5
4f7
  8
Layer_0
  62
7
  70
1
  66
1
  10
0
  20
0
  30
0
  0
VERTEX
  5
4f7
  8
Layer_0
  10
187.52075
  20
91.397736
  0
VERTEX
  5
4f8
  8
Layer_0
  10
174.57849
  20
92.766022
  0
VERTEX
  5
4f9
  8
Layer_0
  10
172.24915
  20
94.14566
  0
VERTEX
  5
4fa
  8
Layer_0
  10
172.24915
  20
102.98975
  0
VERTEX
  5
4fb
  8
Layer_0
  10
187.45496
  20
96.469971
  0
SEQEND
  0
POLYLINE
  5
4fd
  8
Layer_0
  62
7
  70
1
  66
1
  10
0
  20
0
  30
0
  0
VERTEX
  5
4fd
  8
Layer_0
  10
181.85071
  20
49.651276
  0
VERTEX
  5
4fe
  8
Layer_0
  10
172.24866
  20
49.651276
  0
VERTEX
  5
4ff
  8
Layer_0
  10
172.24866
  20
53.019714
  0
SEQEND
  0
POLYLINE
  5
501
  8
Layer_0
  62
7
  70
1
  66
1
  10
0
  20
0
  30
0
  0
VERTEX
  5
501
  8
Layer_0
  10
181.82849
  20
63.896332
  0
VERTEX
  5
502
  8
Layer_0
  10
181.45374
  20
61.235687
  0
VERTEX
  5
503
  8
Layer_0
  10
172.24841
  20
57.692749
  0
VERTEX
  5
504
  8
Layer_0
  10
172.24841
  20
66.848755
  0
VERTEX
  5
505
  8
Layer_0
  10
179.85742
  20
72.384705
  0
SEQEND
  0
POLYLINE
  5
507
  8
Layer_0
  62
7
  70
1
  66
1
  10
0
  20
0
  30
0
  0
VERTEX
  5
507
  8
Layer_0
  10
180.7804
  20
76.837769
  0
VERTEX
  5
508
  8
Layer_0
  10
180.61267
  20
76.669586
  0
VERTEX
  5
509
  8
Layer_0
  10
172.87842
  20
79.129608
  0
VERTEX
  5
50a
  8
Layer_0
  10
172.24866
  20
79.635834
  0
VERTEX
  5
50b
  8
Layer_0
  10
172.24866
  20
91.624115
  0
VERTEX
  5
50c
  8
Layer_0
  10
173.41125
  20
90.935333
  0
SEQEND
  0
POLYLINE
  5
50e
  8
Layer_0
  62
7
  70
1
  66
1
  10
0
  20
0
  30
0
  0
VERTEX
  5
50e
  8
Layer_0
  10
177.9021
  20
75.246307
  0
VERTEX
  5
50f
  8
Layer_0
  10
173.44958
  20
74.697906
  0
VERTEX
  5
510
  8
Layer_0
  10
173.44958
  20
76.66391
  0
SEQEND
  0
POLYLINE
  5
512
  8
Layer_0
  62
7
  70
1
  66
1
  10
0
  20
0
  30
0
  0
VERTEX
  5
512
  8
Layer_0
  10
231.42981
  20
90.378235
  0
VERTEX
  5
513
  8
Layer_0
  10
231.42981
  20
81.572906
  0
VERTEX
  5
514
  8
Layer_0
  10
234.43201
  20
81.572906
  0
VERTEX
  5
515
  8
Layer_0
  10
234.43201
  20
72.037323
  0
VERTEX
  5
516
  8
Layer_0
  10
231.42981
  20
72.037323
  0
VERTEX
  5
517
  8
Layer_0
  10
231.42981
  20
63.231995
  0
VERTEX
  5
518
  8
Layer_0
  10
234.43201
  20
63.231995
  0
VERTEX
  5
519
  8
Layer_0
  10
234.43201
  20
53.703461
  0
VERTEX
  5
51a
  8
Layer_0
  10
231.42627
  20
53.703461
  0
VERTEX
  5
51b
  8
Layer_0
  10
231.42627
  20
44.778198
  0
VERTEX
  5
51c
  8
Layer_0
  10
222.15173
  20
44.778198
  0
VERTEX
  5
51d
  8
Layer_0
  10
222.15173
  20
41.779572
  0
VERTEX
  5
51e
  8
Layer_0
  10
222.15527
  20
41.779572
  0
VERTEX
  5
51f
  8
Layer_0
  10
222.15527
  20
41.776062
  0
VERTEX
  5
520
  8
Layer_0
  10
212.61621
  20
41.776062
  0
VERTEX
  5
521
  8
Layer_0
  10
212.61621
  20
44.778198
  0
VERTEX
  5
522
  8
Layer_0
  10
203.81091
  20
44.778198
  0
VERTEX
  5
523
  8
Layer_0
  10
203.81091
  20
41.779572
  0
VERTEX
  5
524
  8
Layer_0
  10
203.81433
  20
41.779572
  0
VERTEX
  5
525
  8
Layer_0
  10
203.81433
  20
41.776062
  0
VERTEX
  5
526
  8
Layer_0
  10
194.27881
  20
41.776062
  0
VERTEX
  5
527
  8
Layer_0
  10
194.27881
  20
41.779572
  0
VERTEX
  5
528
  8
Layer_0
  10
194.28589
  20
41.779572
  0
VERTEX
  5
529
  8
Layer_0
  10
194.28589
  20
44.778198
  0
VERTEX
  5
52a
  8
Layer_0
  10
185.47705
  20
44.778198
  0
VERTEX
  5
52b
  8
Layer_0
  10
185.47705
  20
43.264771
  0
VERTEX
  5
52c
  8
Layer_0
  10
185.47351
  20
43.264771
  0
VERTEX
  5
52d
  8
Layer_0
  10
185.47351
  20
41.776062
  0
VERTEX
  5
52e
  8
Layer_0
  10
175.93787
  20
41.776062
  0
VERTEX
  5
52f
  8
Layer_0
  10
175.93787
  20
41.779572
  0
VERTEX
  5
530
  8
Layer_0
  10
175.94495
  20
41.779572
  0
VERTEX
  5
531
  8
Layer_0
  10
175.94495
  20
44.778198
  0
VERTEX
  5
532
  8
Layer_0
  10
167.20667
  20
44.778198
  0
VERTEX
  5
533
  8
Layer_0
  10
167.20667
  20
53.703461
  0
VERTEX
  5
534
  8
Layer_0
  10
164.20801
  20
53.703461
  0
VERTEX
  5
535
  8
Layer_0
  10
164.37378
  20
63.231995
  0
VERTEX
  5
536
  8
Layer_0
  10
165.92603
  20
63.231995
  0
VERTEX
  5
537
  8
Layer_0
  10
165.92603
  20
63.235504
  0
VERTEX
  5
538
  8
Layer_0
  10
167.21021
  20
63.235504
  0
VERTEX
  5
539
  8
Layer_0
  10
167.21021
  20
72.033783
  0
VERTEX
  5
53a
  8
Layer_0
  10
165.92603
  20
72.033783
  0
VERTEX
  5
53b
  8
Layer_0
  10
165.92603
  20
72.037323
  0
VERTEX
  5
53c
  8
Layer_0
  10
164.21155
  20
72.037323
  0
VERTEX
  5
53d
  8
Layer_0
  10
164.21155
  20
81.572906
  0
VERTEX
  5
53e
  8
Layer_0
  10
167.21021
  20
81.572906
  0
VERTEX
  5
53f
  8
Layer_0
  10
167.21021
  20
90.374725
  0
VERTEX
  5
540
  8
Layer_0
  10
164.21509
  20
90.374725
  0
VERTEX
  5
541
  8
Layer_0
  10
164.21509
  20
99.913818
  0
VERTEX
  5
542
  8
Layer_0
  10
167.21021
  20
99.913818
  0
VERTEX
  5
543
  8
Layer_0
  10
167.21021
  20
108.83911
  0
VERTEX
  5
544
  8
Layer_0
  10
175.77917
  20
108.83911
  0
VERTEX
  5
545
  8
Layer_0
  10
175.77917
  20
111.83771
  0
VERTEX
  5
546
  8
Layer_0
  10
185.31116
  20
111.83771
  0
VERTEX
  5
547
  8
Layer_0
  10
185.31116
  20
108.83911
  0
VERTEX
  5
548
  8
Layer_0
  10
194.28589
  20
108.83911
  0
VERTEX
  5
549
  8
Layer_0
  10
194.28589
  20
111.83771
  0
VERTEX
  5
54a
  8
Layer_0
  10
203.81433
  20
111.83771
  0
VERTEX
  5
54b
  8
Layer_0
  10
203.81433
  20
108.83911
  0
VERTEX
  5
54c
  8
Layer_0
  10
212.61621
  20
108.83911
  0
VERTEX
  5
54d
  8
Layer_0
  10
212.61621
  20
111.83771
  0
VERTEX
  5
54e
  8
Layer_0
  10
222.15527
  20
111.83771
  0
VERTEX
  5
54f
  8
Layer_0
  10
222.15527
  20
108.83911
  0
VERTEX
  5
550
  8
Layer_0
  10
231.42981
  20
108.83911
  0
VERTEX
  5
551
  8
Layer_0
  10
231.42981
  20
99.913818
  0
VERTEX
  5
552
  8
Layer_0
  10
234.43201
  20
99.913818
  0
VERTEX
  5
553
  8
Layer_0
  10
234.43201
  20
90.378235
  0
SEQEND
  0
ENDSEC
  0
EOF
