ISO-10303-21;
HEADER;
/* Generated by software containing ST-Developer
 * from STEP Tools, Inc. (www.steptools.com) 
 */

FILE_DESCRIPTION(
/* description */ (''),
/* implementation_level */ '2;1');

FILE_NAME(
/* name */ '/Users/Earth/Desktop/Handsfree-cableguide v2.step',
/* time_stamp */ '2021-09-04T16:22:38+09:00',
/* author */ (''),
/* organization */ (''),
/* preprocessor_version */ 'ST-DEVELOPER v18.1',
/* originating_system */ 'Autodesk Translation Framework v10.10.0.1391',

/* authorisation */ '');

FILE_SCHEMA (('AUTOMOTIVE_DESIGN { 1 0 10303 214 3 1 1 }'));
ENDSEC;

DATA;
#10=MECHANICAL_DESIGN_GEOMETRIC_PRESENTATION_REPRESENTATION('',(#13),#694);
#11=SHAPE_REPRESENTATION_RELATIONSHIP('SRR','None',#701,#12);
#12=ADVANCED_BREP_SHAPE_REPRESENTATION('',(#14),#693);
#13=STYLED_ITEM('',(#710),#14);
#14=MANIFOLD_SOLID_BREP('\X2\30DC30C730A3\X0\1',#401);
#15=CYLINDRICAL_SURFACE('',#439,2.5);
#16=CYLINDRICAL_SURFACE('',#443,2.5);
#17=CYLINDRICAL_SURFACE('',#445,2.5);
#18=CYLINDRICAL_SURFACE('',#447,1.5);
#19=CYLINDRICAL_SURFACE('',#449,1.5);
#20=FACE_BOUND('',#128,.T.);
#21=FACE_BOUND('',#129,.T.);
#22=FACE_BOUND('',#130,.T.);
#23=FACE_BOUND('',#131,.T.);
#24=FACE_BOUND('',#132,.T.);
#25=FACE_BOUND('',#136,.T.);
#26=FACE_BOUND('',#149,.T.);
#27=FACE_BOUND('',#150,.T.);
#28=FACE_BOUND('',#151,.T.);
#29=FACE_BOUND('',#152,.T.);
#30=PLANE('',#422);
#31=PLANE('',#434);
#32=PLANE('',#451);
#33=PLANE('',#452);
#34=PLANE('',#453);
#35=PLANE('',#454);
#36=PLANE('',#455);
#37=PLANE('',#456);
#38=PLANE('',#457);
#39=PLANE('',#458);
#40=LINE('',#591,#71);
#41=LINE('',#596,#72);
#42=LINE('',#598,#73);
#43=LINE('',#600,#74);
#44=LINE('',#602,#75);
#45=LINE('',#604,#76);
#46=LINE('',#605,#77);
#47=LINE('',#624,#78);
#48=LINE('',#629,#79);
#49=LINE('',#631,#80);
#50=LINE('',#633,#81);
#51=LINE('',#635,#82);
#52=LINE('',#637,#83);
#53=LINE('',#638,#84);
#54=LINE('',#647,#85);
#55=LINE('',#654,#86);
#56=LINE('',#658,#87);
#57=LINE('',#662,#88);
#58=LINE('',#666,#89);
#59=LINE('',#668,#90);
#60=LINE('',#669,#91);
#61=LINE('',#671,#92);
#62=LINE('',#673,#93);
#63=LINE('',#676,#94);
#64=LINE('',#678,#95);
#65=LINE('',#679,#96);
#66=LINE('',#682,#97);
#67=LINE('',#684,#98);
#68=LINE('',#685,#99);
#69=LINE('',#687,#100);
#70=LINE('',#689,#101);
#71=VECTOR('',#473,3.25);
#72=VECTOR('',#478,10.);
#73=VECTOR('',#479,10.);
#74=VECTOR('',#480,10.);
#75=VECTOR('',#481,10.);
#76=VECTOR('',#482,10.);
#77=VECTOR('',#483,10.);
#78=VECTOR('',#504,3.25);
#79=VECTOR('',#509,10.);
#80=VECTOR('',#510,10.);
#81=VECTOR('',#511,10.);
#82=VECTOR('',#512,10.);
#83=VECTOR('',#513,10.);
#84=VECTOR('',#514,10.);
#85=VECTOR('',#525,2.5);
#86=VECTOR('',#536,2.5);
#87=VECTOR('',#541,2.5);
#88=VECTOR('',#546,1.5);
#89=VECTOR('',#551,1.5);
#90=VECTOR('',#554,10.);
#91=VECTOR('',#555,10.);
#92=VECTOR('',#558,10.);
#93=VECTOR('',#561,10.);
#94=VECTOR('',#564,10.);
#95=VECTOR('',#565,10.);
#96=VECTOR('',#566,10.);
#97=VECTOR('',#569,10.);
#98=VECTOR('',#570,10.);
#99=VECTOR('',#571,10.);
#100=VECTOR('',#574,10.);
#101=VECTOR('',#577,10.);
#102=CONICAL_SURFACE('',#420,3.25,0.349065850398866);
#103=CONICAL_SURFACE('',#432,3.25,0.349065850398866);
#104=FACE_OUTER_BOUND('',#125,.T.);
#105=FACE_OUTER_BOUND('',#126,.T.);
#106=FACE_OUTER_BOUND('',#127,.T.);
#107=FACE_OUTER_BOUND('',#133,.T.);
#108=FACE_OUTER_BOUND('',#134,.T.);
#109=FACE_OUTER_BOUND('',#135,.T.);
#110=FACE_OUTER_BOUND('',#137,.T.);
#111=FACE_OUTER_BOUND('',#138,.T.);
#112=FACE_OUTER_BOUND('',#139,.T.);
#113=FACE_OUTER_BOUND('',#140,.T.);
#114=FACE_OUTER_BOUND('',#141,.T.);
#115=FACE_OUTER_BOUND('',#142,.T.);
#116=FACE_OUTER_BOUND('',#143,.T.);
#117=FACE_OUTER_BOUND('',#144,.T.);
#118=FACE_OUTER_BOUND('',#145,.T.);
#119=FACE_OUTER_BOUND('',#146,.T.);
#120=FACE_OUTER_BOUND('',#147,.T.);
#121=FACE_OUTER_BOUND('',#148,.T.);
#122=FACE_OUTER_BOUND('',#153,.T.);
#123=FACE_OUTER_BOUND('',#154,.T.);
#124=FACE_OUTER_BOUND('',#155,.T.);
#125=EDGE_LOOP('',(#268,#269,#270,#271,#272));
#126=EDGE_LOOP('',(#273,#274,#275,#276,#277));
#127=EDGE_LOOP('',(#278,#279,#280,#281,#282,#283));
#128=EDGE_LOOP('',(#284));
#129=EDGE_LOOP('',(#285));
#130=EDGE_LOOP('',(#286));
#131=EDGE_LOOP('',(#287));
#132=EDGE_LOOP('',(#288));
#133=EDGE_LOOP('',(#289,#290,#291,#292,#293));
#134=EDGE_LOOP('',(#294,#295,#296,#297,#298));
#135=EDGE_LOOP('',(#299,#300,#301,#302,#303,#304));
#136=EDGE_LOOP('',(#305));
#137=EDGE_LOOP('',(#306,#307,#308,#309,#310));
#138=EDGE_LOOP('',(#311,#312,#313,#314,#315));
#139=EDGE_LOOP('',(#316,#317,#318,#319));
#140=EDGE_LOOP('',(#320,#321,#322,#323));
#141=EDGE_LOOP('',(#324,#325,#326,#327));
#142=EDGE_LOOP('',(#328,#329,#330,#331));
#143=EDGE_LOOP('',(#332,#333,#334,#335));
#144=EDGE_LOOP('',(#336,#337,#338,#339));
#145=EDGE_LOOP('',(#340,#341,#342,#343));
#146=EDGE_LOOP('',(#344,#345,#346,#347));
#147=EDGE_LOOP('',(#348,#349,#350,#351));
#148=EDGE_LOOP('',(#352,#353,#354,#355));
#149=EDGE_LOOP('',(#356));
#150=EDGE_LOOP('',(#357));
#151=EDGE_LOOP('',(#358));
#152=EDGE_LOOP('',(#359));
#153=EDGE_LOOP('',(#360,#361,#362,#363,#364,#365));
#154=EDGE_LOOP('',(#366,#367,#368,#369));
#155=EDGE_LOOP('',(#370,#371,#372,#373,#374,#375));
#156=CIRCLE('',#416,3.8802574587119);
#157=CIRCLE('',#417,0.5);
#158=CIRCLE('',#418,4.35010376910486);
#159=CIRCLE('',#419,3.8802574587119);
#160=CIRCLE('',#421,2.56030737921409);
#161=CIRCLE('',#423,2.5);
#162=CIRCLE('',#424,2.5);
#163=CIRCLE('',#425,1.5);
#164=CIRCLE('',#426,1.5);
#165=CIRCLE('',#428,3.8802574587119);
#166=CIRCLE('',#429,0.5);
#167=CIRCLE('',#430,4.35010376910486);
#168=CIRCLE('',#431,3.8802574587119);
#169=CIRCLE('',#433,2.56030737921409);
#170=CIRCLE('',#436,1.);
#171=CIRCLE('',#437,2.5);
#172=CIRCLE('',#438,2.5);
#173=CIRCLE('',#440,2.5);
#174=CIRCLE('',#442,1.);
#175=CIRCLE('',#444,2.5);
#176=CIRCLE('',#446,2.5);
#177=CIRCLE('',#448,1.5);
#178=CIRCLE('',#450,1.5);
#179=VERTEX_POINT('',#582);
#180=VERTEX_POINT('',#583);
#181=VERTEX_POINT('',#585);
#182=VERTEX_POINT('',#590);
#183=VERTEX_POINT('',#594);
#184=VERTEX_POINT('',#595);
#185=VERTEX_POINT('',#597);
#186=VERTEX_POINT('',#599);
#187=VERTEX_POINT('',#601);
#188=VERTEX_POINT('',#603);
#189=VERTEX_POINT('',#606);
#190=VERTEX_POINT('',#608);
#191=VERTEX_POINT('',#610);
#192=VERTEX_POINT('',#612);
#193=VERTEX_POINT('',#615);
#194=VERTEX_POINT('',#616);
#195=VERTEX_POINT('',#618);
#196=VERTEX_POINT('',#623);
#197=VERTEX_POINT('',#627);
#198=VERTEX_POINT('',#628);
#199=VERTEX_POINT('',#630);
#200=VERTEX_POINT('',#632);
#201=VERTEX_POINT('',#634);
#202=VERTEX_POINT('',#636);
#203=VERTEX_POINT('',#640);
#204=VERTEX_POINT('',#642);
#205=VERTEX_POINT('',#646);
#206=VERTEX_POINT('',#652);
#207=VERTEX_POINT('',#656);
#208=VERTEX_POINT('',#660);
#209=VERTEX_POINT('',#664);
#210=VERTEX_POINT('',#675);
#211=VERTEX_POINT('',#677);
#212=VERTEX_POINT('',#681);
#213=VERTEX_POINT('',#683);
#214=EDGE_CURVE('',#179,#180,#156,.T.);
#215=EDGE_CURVE('',#180,#181,#157,.T.);
#216=EDGE_CURVE('',#181,#181,#158,.T.);
#217=EDGE_CURVE('',#180,#179,#159,.T.);
#218=EDGE_CURVE('',#179,#182,#40,.T.);
#219=EDGE_CURVE('',#182,#182,#160,.T.);
#220=EDGE_CURVE('',#183,#184,#41,.T.);
#221=EDGE_CURVE('',#185,#183,#42,.T.);
#222=EDGE_CURVE('',#186,#185,#43,.T.);
#223=EDGE_CURVE('',#187,#186,#44,.T.);
#224=EDGE_CURVE('',#188,#187,#45,.T.);
#225=EDGE_CURVE('',#184,#188,#46,.T.);
#226=EDGE_CURVE('',#189,#189,#161,.T.);
#227=EDGE_CURVE('',#190,#190,#162,.T.);
#228=EDGE_CURVE('',#191,#191,#163,.T.);
#229=EDGE_CURVE('',#192,#192,#164,.T.);
#230=EDGE_CURVE('',#193,#194,#165,.T.);
#231=EDGE_CURVE('',#194,#195,#166,.T.);
#232=EDGE_CURVE('',#195,#195,#167,.T.);
#233=EDGE_CURVE('',#194,#193,#168,.T.);
#234=EDGE_CURVE('',#193,#196,#47,.T.);
#235=EDGE_CURVE('',#196,#196,#169,.T.);
#236=EDGE_CURVE('',#197,#198,#48,.T.);
#237=EDGE_CURVE('',#197,#199,#49,.T.);
#238=EDGE_CURVE('',#200,#199,#50,.T.);
#239=EDGE_CURVE('',#200,#201,#51,.T.);
#240=EDGE_CURVE('',#201,#202,#52,.T.);
#241=EDGE_CURVE('',#202,#198,#53,.T.);
#242=EDGE_CURVE('',#196,#203,#170,.T.);
#243=EDGE_CURVE('',#203,#204,#171,.T.);
#244=EDGE_CURVE('',#204,#203,#172,.T.);
#245=EDGE_CURVE('',#204,#205,#54,.T.);
#246=EDGE_CURVE('',#205,#205,#173,.T.);
#247=EDGE_CURVE('',#182,#205,#174,.T.);
#248=EDGE_CURVE('',#206,#206,#175,.T.);
#249=EDGE_CURVE('',#206,#189,#55,.T.);
#250=EDGE_CURVE('',#207,#207,#176,.T.);
#251=EDGE_CURVE('',#207,#190,#56,.T.);
#252=EDGE_CURVE('',#208,#208,#177,.T.);
#253=EDGE_CURVE('',#208,#191,#57,.T.);
#254=EDGE_CURVE('',#209,#209,#178,.T.);
#255=EDGE_CURVE('',#209,#192,#58,.T.);
#256=EDGE_CURVE('',#198,#183,#59,.T.);
#257=EDGE_CURVE('',#184,#197,#60,.T.);
#258=EDGE_CURVE('',#199,#188,#61,.T.);
#259=EDGE_CURVE('',#187,#200,#62,.T.);
#260=EDGE_CURVE('',#210,#201,#63,.T.);
#261=EDGE_CURVE('',#210,#211,#64,.T.);
#262=EDGE_CURVE('',#202,#211,#65,.T.);
#263=EDGE_CURVE('',#211,#212,#66,.T.);
#264=EDGE_CURVE('',#213,#210,#67,.T.);
#265=EDGE_CURVE('',#212,#213,#68,.T.);
#266=EDGE_CURVE('',#185,#212,#69,.T.);
#267=EDGE_CURVE('',#186,#213,#70,.T.);
#268=ORIENTED_EDGE('',*,*,#214,.T.);
#269=ORIENTED_EDGE('',*,*,#215,.T.);
#270=ORIENTED_EDGE('',*,*,#216,.T.);
#271=ORIENTED_EDGE('',*,*,#215,.F.);
#272=ORIENTED_EDGE('',*,*,#217,.T.);
#273=ORIENTED_EDGE('',*,*,#214,.F.);
#274=ORIENTED_EDGE('',*,*,#218,.T.);
#275=ORIENTED_EDGE('',*,*,#219,.F.);
#276=ORIENTED_EDGE('',*,*,#218,.F.);
#277=ORIENTED_EDGE('',*,*,#217,.F.);
#278=ORIENTED_EDGE('',*,*,#220,.F.);
#279=ORIENTED_EDGE('',*,*,#221,.F.);
#280=ORIENTED_EDGE('',*,*,#222,.F.);
#281=ORIENTED_EDGE('',*,*,#223,.F.);
#282=ORIENTED_EDGE('',*,*,#224,.F.);
#283=ORIENTED_EDGE('',*,*,#225,.F.);
#284=ORIENTED_EDGE('',*,*,#226,.T.);
#285=ORIENTED_EDGE('',*,*,#227,.T.);
#286=ORIENTED_EDGE('',*,*,#228,.T.);
#287=ORIENTED_EDGE('',*,*,#229,.T.);
#288=ORIENTED_EDGE('',*,*,#216,.F.);
#289=ORIENTED_EDGE('',*,*,#230,.T.);
#290=ORIENTED_EDGE('',*,*,#231,.T.);
#291=ORIENTED_EDGE('',*,*,#232,.T.);
#292=ORIENTED_EDGE('',*,*,#231,.F.);
#293=ORIENTED_EDGE('',*,*,#233,.T.);
#294=ORIENTED_EDGE('',*,*,#230,.F.);
#295=ORIENTED_EDGE('',*,*,#234,.T.);
#296=ORIENTED_EDGE('',*,*,#235,.F.);
#297=ORIENTED_EDGE('',*,*,#234,.F.);
#298=ORIENTED_EDGE('',*,*,#233,.F.);
#299=ORIENTED_EDGE('',*,*,#236,.F.);
#300=ORIENTED_EDGE('',*,*,#237,.T.);
#301=ORIENTED_EDGE('',*,*,#238,.F.);
#302=ORIENTED_EDGE('',*,*,#239,.T.);
#303=ORIENTED_EDGE('',*,*,#240,.T.);
#304=ORIENTED_EDGE('',*,*,#241,.T.);
#305=ORIENTED_EDGE('',*,*,#232,.F.);
#306=ORIENTED_EDGE('',*,*,#235,.T.);
#307=ORIENTED_EDGE('',*,*,#242,.T.);
#308=ORIENTED_EDGE('',*,*,#243,.T.);
#309=ORIENTED_EDGE('',*,*,#244,.T.);
#310=ORIENTED_EDGE('',*,*,#242,.F.);
#311=ORIENTED_EDGE('',*,*,#243,.F.);
#312=ORIENTED_EDGE('',*,*,#244,.F.);
#313=ORIENTED_EDGE('',*,*,#245,.T.);
#314=ORIENTED_EDGE('',*,*,#246,.F.);
#315=ORIENTED_EDGE('',*,*,#245,.F.);
#316=ORIENTED_EDGE('',*,*,#219,.T.);
#317=ORIENTED_EDGE('',*,*,#247,.T.);
#318=ORIENTED_EDGE('',*,*,#246,.T.);
#319=ORIENTED_EDGE('',*,*,#247,.F.);
#320=ORIENTED_EDGE('',*,*,#248,.F.);
#321=ORIENTED_EDGE('',*,*,#249,.T.);
#322=ORIENTED_EDGE('',*,*,#226,.F.);
#323=ORIENTED_EDGE('',*,*,#249,.F.);
#324=ORIENTED_EDGE('',*,*,#250,.F.);
#325=ORIENTED_EDGE('',*,*,#251,.T.);
#326=ORIENTED_EDGE('',*,*,#227,.F.);
#327=ORIENTED_EDGE('',*,*,#251,.F.);
#328=ORIENTED_EDGE('',*,*,#252,.F.);
#329=ORIENTED_EDGE('',*,*,#253,.T.);
#330=ORIENTED_EDGE('',*,*,#228,.F.);
#331=ORIENTED_EDGE('',*,*,#253,.F.);
#332=ORIENTED_EDGE('',*,*,#254,.F.);
#333=ORIENTED_EDGE('',*,*,#255,.T.);
#334=ORIENTED_EDGE('',*,*,#229,.F.);
#335=ORIENTED_EDGE('',*,*,#255,.F.);
#336=ORIENTED_EDGE('',*,*,#236,.T.);
#337=ORIENTED_EDGE('',*,*,#256,.T.);
#338=ORIENTED_EDGE('',*,*,#220,.T.);
#339=ORIENTED_EDGE('',*,*,#257,.T.);
#340=ORIENTED_EDGE('',*,*,#257,.F.);
#341=ORIENTED_EDGE('',*,*,#225,.T.);
#342=ORIENTED_EDGE('',*,*,#258,.F.);
#343=ORIENTED_EDGE('',*,*,#237,.F.);
#344=ORIENTED_EDGE('',*,*,#238,.T.);
#345=ORIENTED_EDGE('',*,*,#258,.T.);
#346=ORIENTED_EDGE('',*,*,#224,.T.);
#347=ORIENTED_EDGE('',*,*,#259,.T.);
#348=ORIENTED_EDGE('',*,*,#240,.F.);
#349=ORIENTED_EDGE('',*,*,#260,.F.);
#350=ORIENTED_EDGE('',*,*,#261,.T.);
#351=ORIENTED_EDGE('',*,*,#262,.F.);
#352=ORIENTED_EDGE('',*,*,#263,.F.);
#353=ORIENTED_EDGE('',*,*,#261,.F.);
#354=ORIENTED_EDGE('',*,*,#264,.F.);
#355=ORIENTED_EDGE('',*,*,#265,.F.);
#356=ORIENTED_EDGE('',*,*,#248,.T.);
#357=ORIENTED_EDGE('',*,*,#250,.T.);
#358=ORIENTED_EDGE('',*,*,#252,.T.);
#359=ORIENTED_EDGE('',*,*,#254,.T.);
#360=ORIENTED_EDGE('',*,*,#256,.F.);
#361=ORIENTED_EDGE('',*,*,#241,.F.);
#362=ORIENTED_EDGE('',*,*,#262,.T.);
#363=ORIENTED_EDGE('',*,*,#263,.T.);
#364=ORIENTED_EDGE('',*,*,#266,.F.);
#365=ORIENTED_EDGE('',*,*,#221,.T.);
#366=ORIENTED_EDGE('',*,*,#265,.T.);
#367=ORIENTED_EDGE('',*,*,#267,.F.);
#368=ORIENTED_EDGE('',*,*,#222,.T.);
#369=ORIENTED_EDGE('',*,*,#266,.T.);
#370=ORIENTED_EDGE('',*,*,#259,.F.);
#371=ORIENTED_EDGE('',*,*,#223,.T.);
#372=ORIENTED_EDGE('',*,*,#267,.T.);
#373=ORIENTED_EDGE('',*,*,#264,.T.);
#374=ORIENTED_EDGE('',*,*,#260,.T.);
#375=ORIENTED_EDGE('',*,*,#239,.F.);
#376=TOROIDAL_SURFACE('',#415,4.35010376910486,0.5);
#377=TOROIDAL_SURFACE('',#427,4.35010376910486,0.5);
#378=TOROIDAL_SURFACE('',#435,3.5,1.);
#379=TOROIDAL_SURFACE('',#441,3.5,1.);
#380=ADVANCED_FACE('',(#104),#376,.T.);
#381=ADVANCED_FACE('',(#105),#102,.F.);
#382=ADVANCED_FACE('',(#106,#20,#21,#22,#23,#24),#30,.F.);
#383=ADVANCED_FACE('',(#107),#377,.T.);
#384=ADVANCED_FACE('',(#108),#103,.F.);
#385=ADVANCED_FACE('',(#109,#25),#31,.T.);
#386=ADVANCED_FACE('',(#110),#378,.T.);
#387=ADVANCED_FACE('',(#111),#15,.F.);
#388=ADVANCED_FACE('',(#112),#379,.T.);
#389=ADVANCED_FACE('',(#113),#16,.F.);
#390=ADVANCED_FACE('',(#114),#17,.F.);
#391=ADVANCED_FACE('',(#115),#18,.F.);
#392=ADVANCED_FACE('',(#116),#19,.F.);
#393=ADVANCED_FACE('',(#117),#32,.T.);
#394=ADVANCED_FACE('',(#118),#33,.T.);
#395=ADVANCED_FACE('',(#119),#34,.T.);
#396=ADVANCED_FACE('',(#120),#35,.F.);
#397=ADVANCED_FACE('',(#121,#26,#27,#28,#29),#36,.F.);
#398=ADVANCED_FACE('',(#122),#37,.T.);
#399=ADVANCED_FACE('',(#123),#38,.T.);
#400=ADVANCED_FACE('',(#124),#39,.T.);
#401=CLOSED_SHELL('',(#380,#381,#382,#383,#384,#385,#386,#387,#388,#389,
#390,#391,#392,#393,#394,#395,#396,#397,#398,#399,#400));
#402=DERIVED_UNIT_ELEMENT(#404,1.);
#403=DERIVED_UNIT_ELEMENT(#696,-3.);
#404=(
MASS_UNIT()
NAMED_UNIT(*)
SI_UNIT(.KILO.,.GRAM.)
);
#405=DERIVED_UNIT((#402,#403));
#406=MEASURE_REPRESENTATION_ITEM('density measure',
POSITIVE_RATIO_MEASURE(7850.),#405);
#407=PROPERTY_DEFINITION_REPRESENTATION(#412,#409);
#408=PROPERTY_DEFINITION_REPRESENTATION(#413,#410);
#409=REPRESENTATION('material name',(#411),#693);
#410=REPRESENTATION('density',(#406),#693);
#411=DESCRIPTIVE_REPRESENTATION_ITEM('\X2\92FC\X0\','\X2\92FC\X0\');
#412=PROPERTY_DEFINITION('material property','material name',#703);
#413=PROPERTY_DEFINITION('material property','density of part',#703);
#414=AXIS2_PLACEMENT_3D('placement',#580,#459,#460);
#415=AXIS2_PLACEMENT_3D('',#581,#461,#462);
#416=AXIS2_PLACEMENT_3D('',#584,#463,#464);
#417=AXIS2_PLACEMENT_3D('',#586,#465,#466);
#418=AXIS2_PLACEMENT_3D('',#587,#467,#468);
#419=AXIS2_PLACEMENT_3D('',#588,#469,#470);
#420=AXIS2_PLACEMENT_3D('',#589,#471,#472);
#421=AXIS2_PLACEMENT_3D('',#592,#474,#475);
#422=AXIS2_PLACEMENT_3D('',#593,#476,#477);
#423=AXIS2_PLACEMENT_3D('',#607,#484,#485);
#424=AXIS2_PLACEMENT_3D('',#609,#486,#487);
#425=AXIS2_PLACEMENT_3D('',#611,#488,#489);
#426=AXIS2_PLACEMENT_3D('',#613,#490,#491);
#427=AXIS2_PLACEMENT_3D('',#614,#492,#493);
#428=AXIS2_PLACEMENT_3D('',#617,#494,#495);
#429=AXIS2_PLACEMENT_3D('',#619,#496,#497);
#430=AXIS2_PLACEMENT_3D('',#620,#498,#499);
#431=AXIS2_PLACEMENT_3D('',#621,#500,#501);
#432=AXIS2_PLACEMENT_3D('',#622,#502,#503);
#433=AXIS2_PLACEMENT_3D('',#625,#505,#506);
#434=AXIS2_PLACEMENT_3D('',#626,#507,#508);
#435=AXIS2_PLACEMENT_3D('',#639,#515,#516);
#436=AXIS2_PLACEMENT_3D('',#641,#517,#518);
#437=AXIS2_PLACEMENT_3D('',#643,#519,#520);
#438=AXIS2_PLACEMENT_3D('',#644,#521,#522);
#439=AXIS2_PLACEMENT_3D('',#645,#523,#524);
#440=AXIS2_PLACEMENT_3D('',#648,#526,#527);
#441=AXIS2_PLACEMENT_3D('',#649,#528,#529);
#442=AXIS2_PLACEMENT_3D('',#650,#530,#531);
#443=AXIS2_PLACEMENT_3D('',#651,#532,#533);
#444=AXIS2_PLACEMENT_3D('',#653,#534,#535);
#445=AXIS2_PLACEMENT_3D('',#655,#537,#538);
#446=AXIS2_PLACEMENT_3D('',#657,#539,#540);
#447=AXIS2_PLACEMENT_3D('',#659,#542,#543);
#448=AXIS2_PLACEMENT_3D('',#661,#544,#545);
#449=AXIS2_PLACEMENT_3D('',#663,#547,#548);
#450=AXIS2_PLACEMENT_3D('',#665,#549,#550);
#451=AXIS2_PLACEMENT_3D('',#667,#552,#553);
#452=AXIS2_PLACEMENT_3D('',#670,#556,#557);
#453=AXIS2_PLACEMENT_3D('',#672,#559,#560);
#454=AXIS2_PLACEMENT_3D('',#674,#562,#563);
#455=AXIS2_PLACEMENT_3D('',#680,#567,#568);
#456=AXIS2_PLACEMENT_3D('',#686,#572,#573);
#457=AXIS2_PLACEMENT_3D('',#688,#575,#576);
#458=AXIS2_PLACEMENT_3D('',#690,#578,#579);
#459=DIRECTION('axis',(0.,0.,1.));
#460=DIRECTION('refdir',(1.,0.,0.));
#461=DIRECTION('center_axis',(0.,0.,-1.));
#462=DIRECTION('ref_axis',(-1.,0.,0.));
#463=DIRECTION('center_axis',(0.,-7.15302422866619E-17,1.));
#464=DIRECTION('ref_axis',(1.,0.,0.));
#465=DIRECTION('center_axis',(0.,-1.,0.));
#466=DIRECTION('ref_axis',(1.,0.,0.));
#467=DIRECTION('center_axis',(0.,0.,-1.));
#468=DIRECTION('ref_axis',(1.,0.,0.));
#469=DIRECTION('center_axis',(0.,-7.15302422866619E-17,1.));
#470=DIRECTION('ref_axis',(1.,0.,0.));
#471=DIRECTION('center_axis',(0.,0.,-1.));
#472=DIRECTION('ref_axis',(1.,0.,0.));
#473=DIRECTION('',(0.342020143325669,-4.18853873767699E-17,0.939692620785908));
#474=DIRECTION('center_axis',(0.,0.,-1.));
#475=DIRECTION('ref_axis',(1.,0.,0.));
#476=DIRECTION('center_axis',(0.,0.,1.));
#477=DIRECTION('ref_axis',(1.,0.,0.));
#478=DIRECTION('',(-0.406138466053448,-0.913811548620257,0.));
#479=DIRECTION('',(-1.,0.,0.));
#480=DIRECTION('',(0.,1.,0.));
#481=DIRECTION('',(1.,0.,0.));
#482=DIRECTION('',(0.406138466053448,-0.913811548620257,0.));
#483=DIRECTION('',(0.,-1.,0.));
#484=DIRECTION('center_axis',(0.,0.,1.));
#485=DIRECTION('ref_axis',(1.,0.,0.));
#486=DIRECTION('center_axis',(0.,0.,1.));
#487=DIRECTION('ref_axis',(1.,0.,0.));
#488=DIRECTION('center_axis',(0.,0.,1.));
#489=DIRECTION('ref_axis',(1.,0.,0.));
#490=DIRECTION('center_axis',(0.,0.,1.));
#491=DIRECTION('ref_axis',(1.,0.,0.));
#492=DIRECTION('center_axis',(0.,0.,1.));
#493=DIRECTION('ref_axis',(1.,0.,0.));
#494=DIRECTION('center_axis',(0.,0.,-1.));
#495=DIRECTION('ref_axis',(-1.,0.,0.));
#496=DIRECTION('center_axis',(0.,-1.,0.));
#497=DIRECTION('ref_axis',(-1.,0.,0.));
#498=DIRECTION('center_axis',(0.,0.,1.));
#499=DIRECTION('ref_axis',(-1.,0.,0.));
#500=DIRECTION('center_axis',(0.,0.,-1.));
#501=DIRECTION('ref_axis',(-1.,0.,0.));
#502=DIRECTION('center_axis',(0.,0.,1.));
#503=DIRECTION('ref_axis',(-1.,0.,0.));
#504=DIRECTION('',(-0.342020143325669,-4.18853873767699E-17,-0.939692620785908));
#505=DIRECTION('center_axis',(0.,0.,1.));
#506=DIRECTION('ref_axis',(-1.,0.,0.));
#507=DIRECTION('center_axis',(0.,0.,1.));
#508=DIRECTION('ref_axis',(1.,0.,0.));
#509=DIRECTION('',(0.406138466053448,0.913811548620257,0.));
#510=DIRECTION('',(0.,-1.,0.));
#511=DIRECTION('',(-0.406138466053448,0.913811548620257,0.));
#512=DIRECTION('',(1.,0.,0.));
#513=DIRECTION('',(0.,1.,0.));
#514=DIRECTION('',(-1.,0.,0.));
#515=DIRECTION('center_axis',(0.,0.,-1.));
#516=DIRECTION('ref_axis',(-1.,0.,0.));
#517=DIRECTION('center_axis',(0.,-1.,0.));
#518=DIRECTION('ref_axis',(1.,0.,0.));
#519=DIRECTION('center_axis',(0.,0.,-1.));
#520=DIRECTION('ref_axis',(-1.,0.,0.));
#521=DIRECTION('center_axis',(0.,0.,-1.));
#522=DIRECTION('ref_axis',(-1.,0.,0.));
#523=DIRECTION('center_axis',(0.,0.,-1.));
#524=DIRECTION('ref_axis',(1.,0.,0.));
#525=DIRECTION('',(0.,0.,-1.));
#526=DIRECTION('center_axis',(0.,0.,1.));
#527=DIRECTION('ref_axis',(1.,0.,0.));
#528=DIRECTION('center_axis',(0.,0.,1.));
#529=DIRECTION('ref_axis',(1.,0.,0.));
#530=DIRECTION('center_axis',(0.,-1.,0.));
#531=DIRECTION('ref_axis',(-1.,0.,0.));
#532=DIRECTION('center_axis',(0.,0.,-1.));
#533=DIRECTION('ref_axis',(1.,0.,0.));
#534=DIRECTION('center_axis',(0.,0.,-1.));
#535=DIRECTION('ref_axis',(1.,0.,0.));
#536=DIRECTION('',(0.,0.,-1.));
#537=DIRECTION('center_axis',(0.,0.,-1.));
#538=DIRECTION('ref_axis',(1.,0.,0.));
#539=DIRECTION('center_axis',(0.,0.,-1.));
#540=DIRECTION('ref_axis',(1.,0.,0.));
#541=DIRECTION('',(0.,0.,-1.));
#542=DIRECTION('center_axis',(0.,0.,-1.));
#543=DIRECTION('ref_axis',(1.,0.,0.));
#544=DIRECTION('center_axis',(0.,0.,-1.));
#545=DIRECTION('ref_axis',(1.,0.,0.));
#546=DIRECTION('',(0.,0.,-1.));
#547=DIRECTION('center_axis',(0.,0.,-1.));
#548=DIRECTION('ref_axis',(1.,0.,0.));
#549=DIRECTION('center_axis',(0.,0.,-1.));
#550=DIRECTION('ref_axis',(1.,0.,0.));
#551=DIRECTION('',(0.,0.,-1.));
#552=DIRECTION('center_axis',(-0.913811548620257,0.406138466053448,0.));
#553=DIRECTION('ref_axis',(0.,0.,1.));
#554=DIRECTION('',(0.,0.,-1.));
#555=DIRECTION('',(0.,0.,1.));
#556=DIRECTION('center_axis',(-1.,0.,0.));
#557=DIRECTION('ref_axis',(0.,-1.,0.));
#558=DIRECTION('',(0.,0.,-1.));
#559=DIRECTION('center_axis',(-0.913811548620257,-0.406138466053448,0.));
#560=DIRECTION('ref_axis',(0.,0.,1.));
#561=DIRECTION('',(0.,0.,1.));
#562=DIRECTION('center_axis',(-1.,0.,0.));
#563=DIRECTION('ref_axis',(0.,1.,0.));
#564=DIRECTION('',(0.,0.,1.));
#565=DIRECTION('',(0.,1.,0.));
#566=DIRECTION('',(0.,0.,-1.));
#567=DIRECTION('center_axis',(0.,0.,-1.));
#568=DIRECTION('ref_axis',(-1.,0.,0.));
#569=DIRECTION('',(1.,0.,0.));
#570=DIRECTION('',(-1.,0.,0.));
#571=DIRECTION('',(0.,-1.,0.));
#572=DIRECTION('center_axis',(0.,1.,0.));
#573=DIRECTION('ref_axis',(-1.,0.,0.));
#574=DIRECTION('',(0.,0.,1.));
#575=DIRECTION('center_axis',(1.,0.,0.));
#576=DIRECTION('ref_axis',(0.,1.,0.));
#577=DIRECTION('',(0.,0.,1.));
#578=DIRECTION('center_axis',(0.,-1.,0.));
#579=DIRECTION('ref_axis',(1.,0.,0.));
#580=CARTESIAN_POINT('',(0.,0.,0.));
#581=CARTESIAN_POINT('Origin',(5.,20.,0.5));
#582=CARTESIAN_POINT('',(1.1197425412881,20.,0.328989928337166));
#583=CARTESIAN_POINT('',(8.8802574587119,20.,0.328989928337166));
#584=CARTESIAN_POINT('Origin',(5.,20.,0.328989928337166));
#585=CARTESIAN_POINT('',(9.35010376910486,20.,0.));
#586=CARTESIAN_POINT('Origin',(9.35010376910486,20.,0.5));
#587=CARTESIAN_POINT('Origin',(5.,20.,0.));
#588=CARTESIAN_POINT('Origin',(5.,20.,0.328989928337166));
#589=CARTESIAN_POINT('Origin',(5.,20.,2.06060806459097));
#590=CARTESIAN_POINT('',(2.43969262078591,20.,3.95552296656473));
#591=CARTESIAN_POINT('',(1.75,20.,2.06060806459097));
#592=CARTESIAN_POINT('Origin',(5.,20.,3.95552296656473));
#593=CARTESIAN_POINT('Origin',(15.,20.,0.));
#594=CARTESIAN_POINT('',(8.,40.,0.));
#595=CARTESIAN_POINT('',(0.,22.,0.));
#596=CARTESIAN_POINT('',(2.8659793814433,28.4484536082474,0.));
#597=CARTESIAN_POINT('',(30.,40.,0.));
#598=CARTESIAN_POINT('',(30.,40.,0.));
#599=CARTESIAN_POINT('',(30.,0.,0.));
#600=CARTESIAN_POINT('',(30.,0.,0.));
#601=CARTESIAN_POINT('',(8.,0.,0.));
#602=CARTESIAN_POINT('',(0.,0.,0.));
#603=CARTESIAN_POINT('',(0.,18.,0.));
#604=CARTESIAN_POINT('',(2.8659793814433,11.5515463917526,0.));
#605=CARTESIAN_POINT('',(0.,40.,0.));
#606=CARTESIAN_POINT('',(12.5,5.,0.));
#607=CARTESIAN_POINT('Origin',(15.,5.,0.));
#608=CARTESIAN_POINT('',(22.5,35.,0.));
#609=CARTESIAN_POINT('Origin',(25.,35.,0.));
#610=CARTESIAN_POINT('',(23.5,5.,0.));
#611=CARTESIAN_POINT('Origin',(25.,5.,0.));
#612=CARTESIAN_POINT('',(13.5,35.,0.));
#613=CARTESIAN_POINT('Origin',(15.,35.,0.));
#614=CARTESIAN_POINT('Origin',(5.,20.,12.5));
#615=CARTESIAN_POINT('',(8.8802574587119,20.,12.6710100716628));
#616=CARTESIAN_POINT('',(1.1197425412881,20.,12.6710100716628));
#617=CARTESIAN_POINT('Origin',(5.,20.,12.6710100716628));
#618=CARTESIAN_POINT('',(0.649896230895145,20.,13.));
#619=CARTESIAN_POINT('Origin',(0.649896230895145,20.,12.5));
#620=CARTESIAN_POINT('Origin',(5.,20.,13.));
#621=CARTESIAN_POINT('Origin',(5.,20.,12.6710100716628));
#622=CARTESIAN_POINT('Origin',(5.,20.,10.939391935409));
#623=CARTESIAN_POINT('',(7.56030737921409,20.,9.04447703343527));
#624=CARTESIAN_POINT('',(8.25,20.,10.939391935409));
#625=CARTESIAN_POINT('Origin',(5.,20.,9.04447703343527));
#626=CARTESIAN_POINT('Origin',(15.,20.,13.));
#627=CARTESIAN_POINT('',(0.,22.,13.));
#628=CARTESIAN_POINT('',(8.,40.,13.));
#629=CARTESIAN_POINT('',(2.8659793814433,28.4484536082474,13.));
#630=CARTESIAN_POINT('',(0.,18.,13.));
#631=CARTESIAN_POINT('',(0.,40.,13.));
#632=CARTESIAN_POINT('',(8.,0.,13.));
#633=CARTESIAN_POINT('',(2.8659793814433,11.5515463917526,13.));
#634=CARTESIAN_POINT('',(10.,0.,13.));
#635=CARTESIAN_POINT('',(0.,0.,13.));
#636=CARTESIAN_POINT('',(10.,40.,13.));
#637=CARTESIAN_POINT('',(10.,10.,13.));
#638=CARTESIAN_POINT('',(30.,40.,13.));
#639=CARTESIAN_POINT('Origin',(5.,20.,8.7024568901096));
#640=CARTESIAN_POINT('',(7.5,20.,8.7024568901096));
#641=CARTESIAN_POINT('Origin',(8.5,20.,8.7024568901096));
#642=CARTESIAN_POINT('',(2.5,20.,8.7024568901096));
#643=CARTESIAN_POINT('Origin',(5.,20.,8.7024568901096));
#644=CARTESIAN_POINT('Origin',(5.,20.,8.7024568901096));
#645=CARTESIAN_POINT('Origin',(5.,20.,5.85));
#646=CARTESIAN_POINT('',(2.5,20.,4.2975431098904));
#647=CARTESIAN_POINT('',(2.5,20.,5.85));
#648=CARTESIAN_POINT('Origin',(5.,20.,4.2975431098904));
#649=CARTESIAN_POINT('Origin',(5.,20.,4.2975431098904));
#650=CARTESIAN_POINT('Origin',(1.5,20.,4.2975431098904));
#651=CARTESIAN_POINT('Origin',(15.,5.,1.35));
#652=CARTESIAN_POINT('',(12.5,5.,3.));
#653=CARTESIAN_POINT('Origin',(15.,5.,3.));
#654=CARTESIAN_POINT('',(12.5,5.,1.35));
#655=CARTESIAN_POINT('Origin',(25.,35.,1.35));
#656=CARTESIAN_POINT('',(22.5,35.,3.));
#657=CARTESIAN_POINT('Origin',(25.,35.,3.));
#658=CARTESIAN_POINT('',(22.5,35.,1.35));
#659=CARTESIAN_POINT('Origin',(25.,5.,1.35));
#660=CARTESIAN_POINT('',(23.5,5.,3.));
#661=CARTESIAN_POINT('Origin',(25.,5.,3.));
#662=CARTESIAN_POINT('',(23.5,5.,1.35));
#663=CARTESIAN_POINT('Origin',(15.,35.,1.35));
#664=CARTESIAN_POINT('',(13.5,35.,3.));
#665=CARTESIAN_POINT('Origin',(15.,35.,3.));
#666=CARTESIAN_POINT('',(13.5,35.,1.35));
#667=CARTESIAN_POINT('Origin',(4.,31.,0.));
#668=CARTESIAN_POINT('',(8.,40.,0.));
#669=CARTESIAN_POINT('',(0.,22.,0.));
#670=CARTESIAN_POINT('Origin',(0.,40.,0.));
#671=CARTESIAN_POINT('',(0.,18.,0.));
#672=CARTESIAN_POINT('Origin',(4.,9.,0.));
#673=CARTESIAN_POINT('',(8.,0.,0.));
#674=CARTESIAN_POINT('Origin',(10.,0.,13.));
#675=CARTESIAN_POINT('',(10.,0.,3.));
#676=CARTESIAN_POINT('',(10.,0.,6.5));
#677=CARTESIAN_POINT('',(10.,40.,3.));
#678=CARTESIAN_POINT('',(10.,0.,3.));
#679=CARTESIAN_POINT('',(10.,40.,6.5));
#680=CARTESIAN_POINT('Origin',(20.,20.,3.));
#681=CARTESIAN_POINT('',(30.,40.,3.));
#682=CARTESIAN_POINT('',(25.,40.,3.));
#683=CARTESIAN_POINT('',(30.,0.,3.));
#684=CARTESIAN_POINT('',(10.,0.,3.));
#685=CARTESIAN_POINT('',(30.,10.,3.));
#686=CARTESIAN_POINT('Origin',(30.,40.,0.));
#687=CARTESIAN_POINT('',(30.,40.,0.));
#688=CARTESIAN_POINT('Origin',(30.,0.,0.));
#689=CARTESIAN_POINT('',(30.,0.,0.));
#690=CARTESIAN_POINT('Origin',(0.,0.,0.));
#691=UNCERTAINTY_MEASURE_WITH_UNIT(LENGTH_MEASURE(0.01),#695,
'DISTANCE_ACCURACY_VALUE',
'Maximum model space distance between geometric entities at asserted c
onnectivities');
#692=UNCERTAINTY_MEASURE_WITH_UNIT(LENGTH_MEASURE(0.01),#695,
'DISTANCE_ACCURACY_VALUE',
'Maximum model space distance between geometric entities at asserted c
onnectivities');
#693=(
GEOMETRIC_REPRESENTATION_CONTEXT(3)
GLOBAL_UNCERTAINTY_ASSIGNED_CONTEXT((#691))
GLOBAL_UNIT_ASSIGNED_CONTEXT((#695,#697,#698))
REPRESENTATION_CONTEXT('','3D')
);
#694=(
GEOMETRIC_REPRESENTATION_CONTEXT(3)
GLOBAL_UNCERTAINTY_ASSIGNED_CONTEXT((#692))
GLOBAL_UNIT_ASSIGNED_CONTEXT((#695,#697,#698))
REPRESENTATION_CONTEXT('','3D')
);
#695=(
LENGTH_UNIT()
NAMED_UNIT(*)
SI_UNIT(.MILLI.,.METRE.)
);
#696=(
LENGTH_UNIT()
NAMED_UNIT(*)
SI_UNIT($,.METRE.)
);
#697=(
NAMED_UNIT(*)
PLANE_ANGLE_UNIT()
SI_UNIT($,.RADIAN.)
);
#698=(
NAMED_UNIT(*)
SI_UNIT($,.STERADIAN.)
SOLID_ANGLE_UNIT()
);
#699=SHAPE_DEFINITION_REPRESENTATION(#700,#701);
#700=PRODUCT_DEFINITION_SHAPE('',$,#703);
#701=SHAPE_REPRESENTATION('',(#414),#693);
#702=PRODUCT_DEFINITION_CONTEXT('part definition',#707,'design');
#703=PRODUCT_DEFINITION('Handsfree-cableguide',
'Handsfree-cableguide v2',#704,#702);
#704=PRODUCT_DEFINITION_FORMATION('',$,#709);
#705=PRODUCT_RELATED_PRODUCT_CATEGORY('Handsfree-cableguide v2',
'Handsfree-cableguide v2',(#709));
#706=APPLICATION_PROTOCOL_DEFINITION('international standard',
'automotive_design',2009,#707);
#707=APPLICATION_CONTEXT(
'Core Data for Automotive Mechanical Design Process');
#708=PRODUCT_CONTEXT('part definition',#707,'mechanical');
#709=PRODUCT('Handsfree-cableguide','Handsfree-cableguide v2',$,(#708));
#710=PRESENTATION_STYLE_ASSIGNMENT((#711));
#711=SURFACE_STYLE_USAGE(.BOTH.,#712);
#712=SURFACE_SIDE_STYLE('',(#713));
#713=SURFACE_STYLE_FILL_AREA(#714);
#714=FILL_AREA_STYLE('\X2\92FC\X0\ - \X2\30B530C630F3\X0\',(#715));
#715=FILL_AREA_STYLE_COLOUR('\X2\92FC\X0\ - \X2\30B530C630F3\X0\',#716);
#716=COLOUR_RGB('\X2\92FC\X0\ - \X2\30B530C630F3\X0\',0.627450980392157,
0.627450980392157,0.627450980392157);
ENDSEC;
END-ISO-10303-21;
