ISO-10303-21;
HEADER;
/* Generated by software containing ST-Developer
 * from STEP Tools, Inc. (www.steptools.com) 
 */

FILE_DESCRIPTION(
/* description */ (''),
/* implementation_level */ '2;1');

FILE_NAME(
/* name */ 'Arm.step',
/* time_stamp */ '2025-09-09T21:39:12+02:00',
/* author */ (''),
/* organization */ (''),
/* preprocessor_version */ 'ST-DEVELOPER v20.1',
/* originating_system */ 'Autodesk Translation Framework v14.10.0.0',
/* authorisation */ '');

FILE_SCHEMA (('AUTOMOTIVE_DESIGN { 1 0 10303 214 3 1 1 }'));
ENDSEC;

DATA;
#10=MECHANICAL_DESIGN_GEOMETRIC_PRESENTATION_REPRESENTATION('',(#13),#386);
#11=SHAPE_REPRESENTATION_RELATIONSHIP('SRR','None',#392,#12);
#12=ADVANCED_BREP_SHAPE_REPRESENTATION('',(#14),#385);
#13=STYLED_ITEM('',(#402),#14);
#14=MANIFOLD_SOLID_BREP('Arm',#126);
#15=CONICAL_SURFACE('',#141,2.78983050847458,0.621153719192698);
#16=ELLIPSE('',#133,4.99999999999993,4.93558823210391);
#17=ELLIPSE('',#134,4.99999999999993,4.93558823210391);
#18=ELLIPSE('',#135,4.99999999999993,4.93558823210391);
#19=B_SPLINE_SURFACE_WITH_KNOTS('',3,3,((#230,#231,#232,#233),(#234,#235,
#236,#237),(#238,#239,#240,#241),(#242,#243,#244,#245),(#246,#247,#248,
#249),(#250,#251,#252,#253),(#254,#255,#256,#257),(#258,#259,#260,#261),
(#262,#263,#264,#265),(#266,#267,#268,#269),(#270,#271,#272,#273),(#274,
#275,#276,#277),(#278,#279,#280,#281),(#282,#283,#284,#285),(#286,#287,
#288,#289),(#290,#291,#292,#293)),.UNSPECIFIED.,.T.,.F.,.F.,(4,1,1,1,1,
1,1,1,1,1,1,1,1,4),(4,4),(0.,0.0714285714285714,0.142857142857143,0.214285714285714,
0.285714285714286,0.357142857142857,0.428571428571429,0.523809523809524,
0.571428571428571,0.714285714285714,0.785714285714286,0.857142857142857,
0.928571428571429,1.),(0.500612824942584,1.),.UNSPECIFIED.);
#20=B_SPLINE_SURFACE_WITH_KNOTS('',3,3,((#301,#302,#303,#304),(#305,#306,
#307,#308),(#309,#310,#311,#312),(#313,#314,#315,#316),(#317,#318,#319,
#320),(#321,#322,#323,#324),(#325,#326,#327,#328),(#329,#330,#331,#332),
(#333,#334,#335,#336),(#337,#338,#339,#340),(#341,#342,#343,#344),(#345,
#346,#347,#348),(#349,#350,#351,#352),(#353,#354,#355,#356),(#357,#358,
#359,#360),(#361,#362,#363,#364)),.UNSPECIFIED.,.T.,.F.,.F.,(4,1,1,2,1,
2,1,2,1,1,4),(4,4),(0.,0.0625,0.125,0.25,0.375,0.5,0.625,0.75,0.875,0.9375,
1.),(0.,1.),.UNSPECIFIED.);
#21=FACE_BOUND('',#39,.T.);
#22=FACE_BOUND('',#43,.T.);
#23=B_SPLINE_CURVE_WITH_KNOTS('',3,(#189,#190,#191,#192,#193,#194,#195,
#196,#197,#198,#199,#200,#201,#202,#203,#204,#205,#206,#207,#208,#209,#210,
#211,#212,#213,#214,#215,#216,#217,#218,#219,#220,#221,#222,#223,#224,#225,
#226,#227,#228,#229),.UNSPECIFIED.,.T.,.F.,(4,3,2,2,2,2,2,2,2,2,2,2,2,2,
2,2,2,2,2,4),(-0.161411496136034,0.,0.137180060517432,0.279096885736378,
0.47951781788104,0.592295041293394,0.690897713897758,0.833189013635321,
1.02953190361659,1.21870927516439,1.39982336314357,1.57970888486049,1.76215894200879,
1.94956391443532,2.1433988338822,2.34394669419848,2.54292240906939,2.73946884108499,
2.9333821135102,2.96439987684847),.UNSPECIFIED.);
#24=B_SPLINE_CURVE_WITH_KNOTS('',3,(#369,#370,#371,#372),.UNSPECIFIED.,
 .F.,.F.,(4,4),(0.,1.),.UNSPECIFIED.);
#25=PLANE('',#131);
#26=PLANE('',#132);
#27=PLANE('',#138);
#28=FACE_OUTER_BOUND('',#36,.T.);
#29=FACE_OUTER_BOUND('',#37,.T.);
#30=FACE_OUTER_BOUND('',#38,.T.);
#31=FACE_OUTER_BOUND('',#40,.T.);
#32=FACE_OUTER_BOUND('',#41,.T.);
#33=FACE_OUTER_BOUND('',#42,.T.);
#34=FACE_OUTER_BOUND('',#44,.T.);
#35=FACE_OUTER_BOUND('',#45,.T.);
#36=EDGE_LOOP('',(#86,#87,#88,#89));
#37=EDGE_LOOP('',(#90));
#38=EDGE_LOOP('',(#91));
#39=EDGE_LOOP('',(#92));
#40=EDGE_LOOP('',(#93,#94,#95,#96,#97,#98));
#41=EDGE_LOOP('',(#99,#100,#101,#102,#103,#104,#105));
#42=EDGE_LOOP('',(#106));
#43=EDGE_LOOP('',(#107));
#44=EDGE_LOOP('',(#108,#109,#110));
#45=EDGE_LOOP('',(#111,#112,#113,#114,#115));
#46=LINE('',#184,#50);
#47=LINE('',#295,#51);
#48=LINE('',#380,#52);
#49=LINE('',#382,#53);
#50=VECTOR('',#149,1.5);
#51=VECTOR('',#156,2.48805706926538);
#52=VECTOR('',#175,2.78983050847458);
#53=VECTOR('',#178,6.77966101694915);
#54=CIRCLE('',#129,1.5);
#55=CIRCLE('',#130,1.5);
#56=CIRCLE('',#136,6.77966101694765);
#57=CIRCLE('',#137,6.77966101694765);
#58=CIRCLE('',#139,6.77966101694916);
#59=CIRCLE('',#140,5.57966101694916);
#60=VERTEX_POINT('',#181);
#61=VERTEX_POINT('',#183);
#62=VERTEX_POINT('',#188);
#63=VERTEX_POINT('',#294);
#64=VERTEX_POINT('',#296);
#65=VERTEX_POINT('',#298);
#66=VERTEX_POINT('',#365);
#67=VERTEX_POINT('',#366);
#68=VERTEX_POINT('',#374);
#69=VERTEX_POINT('',#376);
#70=VERTEX_POINT('',#379);
#71=EDGE_CURVE('',#60,#60,#54,.T.);
#72=EDGE_CURVE('',#60,#61,#46,.T.);
#73=EDGE_CURVE('',#61,#61,#55,.T.);
#74=EDGE_CURVE('',#62,#62,#23,.F.);
#75=EDGE_CURVE('',#62,#63,#47,.T.);
#76=EDGE_CURVE('',#63,#64,#16,.T.);
#77=EDGE_CURVE('',#64,#65,#17,.T.);
#78=EDGE_CURVE('',#65,#63,#18,.T.);
#79=EDGE_CURVE('',#66,#67,#56,.T.);
#80=EDGE_CURVE('',#67,#66,#57,.T.);
#81=EDGE_CURVE('',#66,#63,#24,.T.);
#82=EDGE_CURVE('',#68,#68,#58,.T.);
#83=EDGE_CURVE('',#69,#69,#59,.T.);
#84=EDGE_CURVE('',#69,#70,#48,.T.);
#85=EDGE_CURVE('',#68,#67,#49,.T.);
#86=ORIENTED_EDGE('',*,*,#71,.F.);
#87=ORIENTED_EDGE('',*,*,#72,.T.);
#88=ORIENTED_EDGE('',*,*,#73,.F.);
#89=ORIENTED_EDGE('',*,*,#72,.F.);
#90=ORIENTED_EDGE('',*,*,#71,.T.);
#91=ORIENTED_EDGE('',*,*,#74,.F.);
#92=ORIENTED_EDGE('',*,*,#73,.T.);
#93=ORIENTED_EDGE('',*,*,#74,.T.);
#94=ORIENTED_EDGE('',*,*,#75,.T.);
#95=ORIENTED_EDGE('',*,*,#76,.T.);
#96=ORIENTED_EDGE('',*,*,#77,.T.);
#97=ORIENTED_EDGE('',*,*,#78,.T.);
#98=ORIENTED_EDGE('',*,*,#75,.F.);
#99=ORIENTED_EDGE('',*,*,#79,.T.);
#100=ORIENTED_EDGE('',*,*,#80,.T.);
#101=ORIENTED_EDGE('',*,*,#81,.T.);
#102=ORIENTED_EDGE('',*,*,#78,.F.);
#103=ORIENTED_EDGE('',*,*,#77,.F.);
#104=ORIENTED_EDGE('',*,*,#76,.F.);
#105=ORIENTED_EDGE('',*,*,#81,.F.);
#106=ORIENTED_EDGE('',*,*,#82,.T.);
#107=ORIENTED_EDGE('',*,*,#83,.F.);
#108=ORIENTED_EDGE('',*,*,#83,.T.);
#109=ORIENTED_EDGE('',*,*,#84,.T.);
#110=ORIENTED_EDGE('',*,*,#84,.F.);
#111=ORIENTED_EDGE('',*,*,#82,.F.);
#112=ORIENTED_EDGE('',*,*,#85,.T.);
#113=ORIENTED_EDGE('',*,*,#79,.F.);
#114=ORIENTED_EDGE('',*,*,#80,.F.);
#115=ORIENTED_EDGE('',*,*,#85,.F.);
#116=CYLINDRICAL_SURFACE('',#128,1.5);
#117=CYLINDRICAL_SURFACE('',#142,6.77966101694915);
#118=ADVANCED_FACE('',(#28),#116,.T.);
#119=ADVANCED_FACE('',(#29),#25,.T.);
#120=ADVANCED_FACE('',(#30,#21),#26,.T.);
#121=ADVANCED_FACE('',(#31),#19,.T.);
#122=ADVANCED_FACE('',(#32),#20,.T.);
#123=ADVANCED_FACE('',(#33,#22),#27,.T.);
#124=ADVANCED_FACE('',(#34),#15,.F.);
#125=ADVANCED_FACE('',(#35),#117,.T.);
#126=CLOSED_SHELL('',(#118,#119,#120,#121,#122,#123,#124,#125));
#127=AXIS2_PLACEMENT_3D('',#179,#143,#144);
#128=AXIS2_PLACEMENT_3D('',#180,#145,#146);
#129=AXIS2_PLACEMENT_3D('',#182,#147,#148);
#130=AXIS2_PLACEMENT_3D('',#185,#150,#151);
#131=AXIS2_PLACEMENT_3D('',#186,#152,#153);
#132=AXIS2_PLACEMENT_3D('',#187,#154,#155);
#133=AXIS2_PLACEMENT_3D('',#297,#157,#158);
#134=AXIS2_PLACEMENT_3D('',#299,#159,#160);
#135=AXIS2_PLACEMENT_3D('',#300,#161,#162);
#136=AXIS2_PLACEMENT_3D('',#367,#163,#164);
#137=AXIS2_PLACEMENT_3D('',#368,#165,#166);
#138=AXIS2_PLACEMENT_3D('',#373,#167,#168);
#139=AXIS2_PLACEMENT_3D('',#375,#169,#170);
#140=AXIS2_PLACEMENT_3D('',#377,#171,#172);
#141=AXIS2_PLACEMENT_3D('',#378,#173,#174);
#142=AXIS2_PLACEMENT_3D('',#381,#176,#177);
#143=DIRECTION('axis',(0.,0.,1.));
#144=DIRECTION('refdir',(1.,0.,0.));
#145=DIRECTION('center_axis',(-1.,0.,-9.25185853854298E-17));
#146=DIRECTION('ref_axis',(-9.25185853854298E-17,0.,1.));
#147=DIRECTION('center_axis',(-1.,0.,-6.12323399573677E-17));
#148=DIRECTION('ref_axis',(-6.12323399573677E-17,0.,1.));
#149=DIRECTION('',(1.,0.,9.25185853854298E-17));
#150=DIRECTION('center_axis',(1.,0.,6.12323399573677E-17));
#151=DIRECTION('ref_axis',(-9.25185853854298E-17,0.,1.));
#152=DIRECTION('center_axis',(-1.,0.,-6.12323399573677E-17));
#153=DIRECTION('ref_axis',(-6.12323399573677E-17,0.,1.));
#154=DIRECTION('center_axis',(-1.,0.,-6.12323399573677E-17));
#155=DIRECTION('ref_axis',(-6.12323399573677E-17,0.,1.));
#156=DIRECTION('',(1.,-4.00952260606642E-14,-1.04861907714981E-14));
#157=DIRECTION('center_axis',(-0.990388655102666,-0.138312370538332,-6.12323399573677E-17));
#158=DIRECTION('ref_axis',(6.59370027476243E-17,-2.94327940408231E-17,-1.));
#159=DIRECTION('center_axis',(-0.990388655102666,-0.138312370538332,-6.12323399573677E-17));
#160=DIRECTION('ref_axis',(6.59370027476243E-17,-2.94327940408231E-17,-1.));
#161=DIRECTION('center_axis',(-0.990388655102666,-0.138312370538332,-6.12323399573677E-17));
#162=DIRECTION('ref_axis',(6.59370027476243E-17,-2.94327940408231E-17,-1.));
#163=DIRECTION('center_axis',(-0.272463455983821,0.962166131784607,0.));
#164=DIRECTION('ref_axis',(0.,0.,1.));
#165=DIRECTION('center_axis',(-0.272463455983821,0.962166131784607,0.));
#166=DIRECTION('ref_axis',(0.,0.,1.));
#167=DIRECTION('center_axis',(0.272463455983821,-0.962166131784606,0.));
#168=DIRECTION('ref_axis',(0.,0.,-1.));
#169=DIRECTION('center_axis',(0.272463455983821,-0.962166131784606,0.));
#170=DIRECTION('ref_axis',(0.962166131784606,0.272463455983821,0.));
#171=DIRECTION('center_axis',(0.272463455983821,-0.962166131784606,0.));
#172=DIRECTION('ref_axis',(0.962166131784606,0.272463455983821,0.));
#173=DIRECTION('center_axis',(0.272463455983821,-0.962166131784606,0.));
#174=DIRECTION('ref_axis',(0.962166131784606,0.272463455983821,0.));
#175=DIRECTION('',(0.338386099008061,0.941007358099875,7.12712303383757E-17));
#176=DIRECTION('center_axis',(0.272463455983821,-0.962166131784606,0.));
#177=DIRECTION('ref_axis',(0.962166131784606,0.272463455983821,0.));
#178=DIRECTION('',(-0.272463455983821,0.962166131784606,0.));
#179=CARTESIAN_POINT('',(0.,0.,0.));
#180=CARTESIAN_POINT('Origin',(40.0836680642194,0.,2.45441678964656E-15));
#181=CARTESIAN_POINT('',(37.0836680642194,-1.83697019872103E-16,-1.5));
#182=CARTESIAN_POINT('Origin',(37.0836680642194,0.,2.17686103349027E-15));
#183=CARTESIAN_POINT('',(40.0836680642194,-1.83697019872103E-16,-1.5));
#184=CARTESIAN_POINT('',(40.0836680642194,-1.83697019872103E-16,-1.5));
#185=CARTESIAN_POINT('Origin',(40.0836680642194,0.,2.45441678964656E-15));
#186=CARTESIAN_POINT('Origin',(37.0836680642194,0.,2.17686103349027E-15));
#187=CARTESIAN_POINT('Origin',(40.0836680642194,1.0547118733939E-13,5.09334979732486E-15));
#188=CARTESIAN_POINT('',(40.0836680642194,4.11161202026689E-14,4.99999999999994));
#189=CARTESIAN_POINT('Ctrl Pts',(40.0836680642194,4.06619182768964E-14,
4.99999999999994));
#190=CARTESIAN_POINT('Ctrl Pts',(40.0836680642194,0.536498480725241,4.99999999999993));
#191=CARTESIAN_POINT('Ctrl Pts',(40.0836680642194,1.06981295100268,4.91112059594193));
#192=CARTESIAN_POINT('Ctrl Pts',(40.0836680642194,1.57850533792901,4.73585710927241));
#193=CARTESIAN_POINT('Ctrl Pts',(40.0836680642194,2.01083174647986,4.58690454837452));
#194=CARTESIAN_POINT('Ctrl Pts',(40.0836680642194,2.41960045891857,4.37755447014705));
#195=CARTESIAN_POINT('Ctrl Pts',(40.0836680642194,3.18009126325415,3.84154806489902));
#196=CARTESIAN_POINT('Ctrl Pts',(40.0836680642194,3.52481990910496,3.51430179118623));
#197=CARTESIAN_POINT('Ctrl Pts',(40.0836680642194,4.23211494817648,2.61848693538232));
#198=CARTESIAN_POINT('Ctrl Pts',(40.0836680642208,4.53598359687642,2.01556333379837));
#199=CARTESIAN_POINT('Ctrl Pts',(40.0836680642208,4.81548449146753,1.00919863654875));
#200=CARTESIAN_POINT('Ctrl Pts',(40.08366806422,4.87578020145016,0.636577505827334));
#201=CARTESIAN_POINT('Ctrl Pts',(40.08366806422,4.91157714764277,-0.0674414199739085));
#202=CARTESIAN_POINT('Ctrl Pts',(40.0836680642202,4.89671916312179,-0.396871006279633));
#203=CARTESIAN_POINT('Ctrl Pts',(40.0836680642202,4.7837072169205,-1.19224614059806));
#204=CARTESIAN_POINT('Ctrl Pts',(40.0836680642194,4.65200507120371,-1.65089753931559));
#205=CARTESIAN_POINT('Ctrl Pts',(40.0836680642194,4.19122201977207,-2.68190593607467));
#206=CARTESIAN_POINT('Ctrl Pts',(40.0836680642194,3.8103579940025,-3.22188236015792));
#207=CARTESIAN_POINT('Ctrl Pts',(40.0836680642194,2.87611303080696,-4.10462358761061));
#208=CARTESIAN_POINT('Ctrl Pts',(40.0836680642194,2.33904537669322,-4.44482249660897));
#209=CARTESIAN_POINT('Ctrl Pts',(40.0836680642194,1.1882179704557,-4.89086809158335));
#210=CARTESIAN_POINT('Ctrl Pts',(40.0836680642194,0.589929522565686,-5.00168724029882));
#211=CARTESIAN_POINT('Ctrl Pts',(40.0836680642194,-0.613304608668651,-4.99828550524653));
#212=CARTESIAN_POINT('Ctrl Pts',(40.0836680642194,-1.20721839969209,-4.88563502315313));
#213=CARTESIAN_POINT('Ctrl Pts',(40.0836680642194,-2.33332284905249,-4.44881294914327));
#214=CARTESIAN_POINT('Ctrl Pts',(40.0836680642194,-2.85465560347317,-4.12550186842443));
#215=CARTESIAN_POINT('Ctrl Pts',(40.0836680642194,-3.76698299914007,-3.2958157345238));
#216=CARTESIAN_POINT('Ctrl Pts',(40.0836680642219,-4.1460797920118,-2.79199283389206));
#217=CARTESIAN_POINT('Ctrl Pts',(40.0836680642219,-4.70934490854429,-1.65221556052925));
#218=CARTESIAN_POINT('Ctrl Pts',(40.083668064218,-4.88129238502857,-1.02264320362259));
#219=CARTESIAN_POINT('Ctrl Pts',(40.083668064218,-4.97985819325805,0.288974667226081));
#220=CARTESIAN_POINT('Ctrl Pts',(40.0836680642322,-4.89683331884634,0.959566069097645));
#221=CARTESIAN_POINT('Ctrl Pts',(40.0836680642322,-4.47547736994324,2.2236102211322));
#222=CARTESIAN_POINT('Ctrl Pts',(40.0836680642194,-4.14313458336439,2.80565828220248));
#223=CARTESIAN_POINT('Ctrl Pts',(40.0836680642194,-3.27605443150967,3.79944250424729));
#224=CARTESIAN_POINT('Ctrl Pts',(40.0836680642194,-2.75207377365637,4.20368965921419));
#225=CARTESIAN_POINT('Ctrl Pts',(40.0836680642194,-1.58477768728183,4.77977383702381));
#226=CARTESIAN_POINT('Ctrl Pts',(40.0836680642297,-0.954537254216429,4.94899226548699));
#227=CARTESIAN_POINT('Ctrl Pts',(40.0836680642297,-0.206310858089324,4.99671823006859));
#228=CARTESIAN_POINT('Ctrl Pts',(40.0836680642194,-0.103096639984331,4.99999999999994));
#229=CARTESIAN_POINT('Ctrl Pts',(40.0836680642194,4.06619182768964E-14,
4.99999999999994));
#230=CARTESIAN_POINT('Ctrl Pts',(39.73943747024,5.49181236852665E-14,4.99999999999994));
#231=CARTESIAN_POINT('Ctrl Pts',(40.1536054006407,3.83119668887734E-14,
4.99999999999993));
#232=CARTESIAN_POINT('Ctrl Pts',(40.5677733310414,2.17058100922803E-14,
4.99999999999993));
#233=CARTESIAN_POINT('Ctrl Pts',(40.9819412614421,5.09965329578716E-15,
4.99999999999993));
#234=CARTESIAN_POINT('Ctrl Pts',(39.7905623729056,-0.739621680476024,4.99999999999994));
#235=CARTESIAN_POINT('Ctrl Pts',(40.2217252194338,-0.736837144885776,4.99999999999993));
#236=CARTESIAN_POINT('Ctrl Pts',(40.6529030511962,-0.734050154036686,4.99999999999993));
#237=CARTESIAN_POINT('Ctrl Pts',(41.0840658977244,-0.731265618446438,4.99999999999993));
#238=CARTESIAN_POINT('Ctrl Pts',(39.8927779983626,-2.21837056271836,4.65876994515428));
#239=CARTESIAN_POINT('Ctrl Pts',(40.3579418357366,-2.21001512766593,4.65876994515428));
#240=CARTESIAN_POINT('Ctrl Pts',(40.8230830568494,-2.20166339817957,4.65876994515427));
#241=CARTESIAN_POINT('Ctrl Pts',(41.2882468942235,-2.19330796312714,4.65876994515427));
#242=CARTESIAN_POINT('Ctrl Pts',(40.0157691235932,-3.9976776710735,3.22361196709053));
#243=CARTESIAN_POINT('Ctrl Pts',(40.5218119178803,-3.98262441476894,3.22361196709052));
#244=CARTESIAN_POINT('Ctrl Pts',(41.0278852313472,-3.96756615804296,3.22361196709052));
#245=CARTESIAN_POINT('Ctrl Pts',(41.5339280256343,-3.9525129017384,3.22361196709052));
#246=CARTESIAN_POINT('Ctrl Pts',(40.0839951934907,-4.9847011731028,1.15065663250583));
#247=CARTESIAN_POINT('Ctrl Pts',(40.6127487251432,-4.96592687128082,1.15065663250583));
#248=CARTESIAN_POINT('Ctrl Pts',(41.1414595959571,-4.94715955923286,1.15065663250583));
#249=CARTESIAN_POINT('Ctrl Pts',(41.6702131276097,-4.92838525741088,1.15065663250583));
#250=CARTESIAN_POINT('Ctrl Pts',(40.0839696232311,-4.98433124930072,-1.15214338060966));
#251=CARTESIAN_POINT('Ctrl Pts',(40.6126963017948,-4.9655613472287,-1.15214338060966));
#252=CARTESIAN_POINT('Ctrl Pts',(41.1414353711304,-4.94678941498805,-1.15214338060966));
#253=CARTESIAN_POINT('Ctrl Pts',(41.6701620496941,-4.92801951291603,-1.15214338060966));
#254=CARTESIAN_POINT('Ctrl Pts',(40.0157602165229,-3.99754881288541,-3.22186709179566));
#255=CARTESIAN_POINT('Ctrl Pts',(40.5218402143285,-3.98248946096256,-3.22186709179566));
#256=CARTESIAN_POINT('Ctrl Pts',(41.0278302354952,-3.96744485128096,-3.22186709179566));
#257=CARTESIAN_POINT('Ctrl Pts',(41.5339102333008,-3.95238549935811,-3.22186709179566));
#258=CARTESIAN_POINT('Ctrl Pts',(39.8789669252857,-2.01856638616805,-4.82362504531023));
#259=CARTESIAN_POINT('Ctrl Pts',(40.3395167513351,-2.01096693476691,-4.82362504531022));
#260=CARTESIAN_POINT('Ctrl Pts',(40.8001087356569,-2.00336057593481,-4.82362504531022));
#261=CARTESIAN_POINT('Ctrl Pts',(41.2606585617063,-1.99576112453366,-4.82362504531022));
#262=CARTESIAN_POINT('Ctrl Pts',(39.7208789445219,0.268485361598612,-5.16757837880112));
#263=CARTESIAN_POINT('Ctrl Pts',(40.1289384153196,0.267484519756342,-5.16757837880112));
#264=CARTESIAN_POINT('Ctrl Pts',(40.5368101760282,0.266452922515207,-5.16757837880111));
#265=CARTESIAN_POINT('Ctrl Pts',(40.9448696468259,0.265452080672937,-5.16757837880111));
#266=CARTESIAN_POINT('Ctrl Pts',(39.5222703947283,3.14174636937439,-4.28339684198748));
#267=CARTESIAN_POINT('Ctrl Pts',(39.8642023413592,3.12991084949327,-4.28339684198748));
#268=CARTESIAN_POINT('Ctrl Pts',(40.2062068537244,3.11808721916009,-4.28339684198748));
#269=CARTESIAN_POINT('Ctrl Pts',(40.5481388003553,3.10625169927898,-4.28339684198748));
#270=CARTESIAN_POINT('Ctrl Pts',(39.394153001304,4.99521497043218,-1.92678613727138));
#271=CARTESIAN_POINT('Ctrl Pts',(39.69341931731,4.97638889137062,-1.92678613727138));
#272=CARTESIAN_POINT('Ctrl Pts',(39.9929513671885,4.95760635153103,-1.92678613727138));
#273=CARTESIAN_POINT('Ctrl Pts',(40.2922176831946,4.93878027246948,-1.92678613727138));
#274=CARTESIAN_POINT('Ctrl Pts',(39.3952171821092,4.97981951431502,1.15478456312046));
#275=CARTESIAN_POINT('Ctrl Pts',(39.6949431451691,4.96106874622122,1.15478456312045));
#276=CARTESIAN_POINT('Ctrl Pts',(39.9946174763123,4.94230951848522,1.15478456312045));
#277=CARTESIAN_POINT('Ctrl Pts',(40.2943434393721,4.92355875039142,1.15478456312045));
#278=CARTESIAN_POINT('Ctrl Pts',(39.4629535548285,3.99988043946257,3.22242172546607));
#279=CARTESIAN_POINT('Ctrl Pts',(39.7851358575044,3.98480903503369,3.22242172546607));
#280=CARTESIAN_POINT('Ctrl Pts',(40.1074680432403,3.96976218822614,3.22242172546607));
#281=CARTESIAN_POINT('Ctrl Pts',(40.4296503459162,3.95469078379726,3.22242172546607));
#282=CARTESIAN_POINT('Ctrl Pts',(39.5861818435687,2.21714229722106,4.65890704328543));
#283=CARTESIAN_POINT('Ctrl Pts',(39.9494328945284,2.20879981045119,4.65890704328543));
#284=CARTESIAN_POINT('Ctrl Pts',(40.3125541727392,2.20043606103811,4.65890704328542));
#285=CARTESIAN_POINT('Ctrl Pts',(40.675805223699,2.19209357426824,4.65890704328542));
#286=CARTESIAN_POINT('Ctrl Pts',(39.6883125675745,0.739621680476135,4.99999999999994));
#287=CARTESIAN_POINT('Ctrl Pts',(40.0854375108532,0.736829268683698,4.99999999999993));
#288=CARTESIAN_POINT('Ctrl Pts',(40.4826916818811,0.734058030238886,4.99999999999993));
#289=CARTESIAN_POINT('Ctrl Pts',(40.8798166251598,0.731265618446449,4.99999999999993));
#290=CARTESIAN_POINT('Ctrl Pts',(39.73943747024,5.61290560939186E-14,4.99999999999994));
#291=CARTESIAN_POINT('Ctrl Pts',(40.1536054006407,3.95183390262366E-14,
4.99999999999993));
#292=CARTESIAN_POINT('Ctrl Pts',(40.5677733310414,2.29076219585546E-14,
4.99999999999993));
#293=CARTESIAN_POINT('Ctrl Pts',(40.9819412614421,6.29690489087263E-15,
4.99999999999993));
#294=CARTESIAN_POINT('',(40.9819412614421,9.6275739647481E-15,4.99999999999993));
#295=CARTESIAN_POINT('',(38.4938841921767,1.04858863939816E-13,4.99999999999995));
#296=CARTESIAN_POINT('',(40.8181519968866,1.17281649365146,4.85395031776496));
#297=CARTESIAN_POINT('Origin',(40.9819412614421,8.88178419700125E-15,6.16297582203915E-31));
#298=CARTESIAN_POINT('',(40.8181519968866,1.17281649365144,-4.85395031776496));
#299=CARTESIAN_POINT('Origin',(40.9819412614421,8.88178419700125E-15,6.16297582203915E-31));
#300=CARTESIAN_POINT('Origin',(40.9819412614421,8.88178419700125E-15,6.16297582203915E-31));
#301=CARTESIAN_POINT('Ctrl Pts',(49.7062356065877,-14.4820494657447,6.77966101694765));
#302=CARTESIAN_POINT('Ctrl Pts',(49.3991348865886,-13.3975667384633,6.77966101694765));
#303=CARTESIAN_POINT('Ctrl Pts',(45.3167365249609,-4.42334179993901,6.18644067796508));
#304=CARTESIAN_POINT('Ctrl Pts',(40.9819412614421,9.6275739647481E-15,4.99999999999993));
#305=CARTESIAN_POINT('Ctrl Pts',(50.5601152820529,-14.2402502590525,6.77966101694766));
#306=CARTESIAN_POINT('Ctrl Pts',(50.2530145620538,-13.1557675317711,6.77966101694766));
#307=CARTESIAN_POINT('Ctrl Pts',(45.7049482072978,-3.86996788597724,6.18644067796508));
#308=CARTESIAN_POINT('Ctrl Pts',(40.892582204695,0.639857416140647,4.99999999999993));
#309=CARTESIAN_POINT('Ctrl Pts',(52.2628896750276,-13.7580634718184,6.42471326373172));
#310=CARTESIAN_POINT('Ctrl Pts',(51.9557889550285,-12.6735807445371,6.42471326373172));
#311=CARTESIAN_POINT('Ctrl Pts',(46.5493014679553,-2.73787406166063,5.83990531974082));
#312=CARTESIAN_POINT('Ctrl Pts',(40.7143857702544,1.91583675452422,4.73822603200312));
#313=CARTESIAN_POINT('Ctrl Pts',(55.1711849567899,-12.9345007238545,4.41945001162048));
#314=CARTESIAN_POINT('Ctrl Pts',(54.8640842367907,-11.8500179965731,4.41945001162048));
#315=CARTESIAN_POINT('Ctrl Pts',(48.1860769523415,-0.744900156181773,3.95843441588045));
#316=CARTESIAN_POINT('Ctrl Pts',(40.4100308001252,4.09517695646616,3.25934438357077));
#317=CARTESIAN_POINT('Ctrl Pts',(56.2360909189198,-12.6329436962739,1.7780320734689));
#318=CARTESIAN_POINT('Ctrl Pts',(55.9289901989207,-11.5484609689925,1.7780320734689));
#319=CARTESIAN_POINT('Ctrl Pts',(48.993214618505,0.010609688134316,1.56547343225632));
#320=CARTESIAN_POINT('Ctrl Pts',(40.2985877068716,4.89316758317829,1.31129865418358));
#321=CARTESIAN_POINT('Ctrl Pts',(56.2363278219008,-12.6328766107646,-1.77552997711696));
#322=CARTESIAN_POINT('Ctrl Pts',(55.9292271019016,-11.5483938834833,-1.77552997711696));
#323=CARTESIAN_POINT('Ctrl Pts',(48.9931898264558,0.010787212126947,-1.56362813619677));
#324=CARTESIAN_POINT('Ctrl Pts',(40.2985629148224,4.89334510717094,-1.30945335812404));
#325=CARTESIAN_POINT('Ctrl Pts',(54.8146523415537,-13.0354626111099,-5.30874772386715));
#326=CARTESIAN_POINT('Ctrl Pts',(54.5075516215545,-11.9509798838285,-5.30874772386715));
#327=CARTESIAN_POINT('Ctrl Pts',(47.9171947331642,-0.997908730184788,-4.76259656340814));
#328=CARTESIAN_POINT('Ctrl Pts',(40.4473421674203,3.82800812166442,-3.91520144635284));
#329=CARTESIAN_POINT('Ctrl Pts',(51.4143459607279,-13.9983516562743,-6.78671594659856));
#330=CARTESIAN_POINT('Ctrl Pts',(51.1072452407288,-12.9138689289929,-6.78671594659856));
#331=CARTESIAN_POINT('Ctrl Pts',(46.0931231569232,-3.31633094665795,-6.19164368858262));
#332=CARTESIAN_POINT('Ctrl Pts',(40.8031864152365,1.27997785763878,-5.00520301061747));
#333=CARTESIAN_POINT('Ctrl Pts',(47.9981252524475,-14.965747275215,-6.78671594659857));
#334=CARTESIAN_POINT('Ctrl Pts',(47.6910245324484,-13.8812645479337,-6.78671594659857));
#335=CARTESIAN_POINT('Ctrl Pts',(44.5403498929988,-5.53035265322004,-6.19164368858263));
#336=CARTESIAN_POINT('Ctrl Pts',(41.1606961076476,-1.27997785763877,-5.00520301061747));
#337=CARTESIAN_POINT('Ctrl Pts',(44.5978188716218,-15.9286363203795,-5.30874772386717));
#338=CARTESIAN_POINT('Ctrl Pts',(44.2907181516227,-14.8441535930981,-5.30874772386717));
#339=CARTESIAN_POINT('Ctrl Pts',(42.7162783167578,-7.84877486969321,-4.76259656340816));
#340=CARTESIAN_POINT('Ctrl Pts',(41.5165403554639,-3.8280081216644,-3.91520144635283));
#341=CARTESIAN_POINT('Ctrl Pts',(43.1761433912747,-16.3312223207247,-1.775529977117));
#342=CARTESIAN_POINT('Ctrl Pts',(42.8690426712756,-15.2467395934433,-1.775529977117));
#343=CARTESIAN_POINT('Ctrl Pts',(41.6402832234661,-8.85747081200495,-1.56362813619679));
#344=CARTESIAN_POINT('Ctrl Pts',(41.6653196080618,-4.89334510717093,-1.30945335812404));
#345=CARTESIAN_POINT('Ctrl Pts',(43.1763802942556,-16.3311552352155,1.77803207346886));
#346=CARTESIAN_POINT('Ctrl Pts',(42.8692795742565,-15.2466725079341,1.77803207346886));
#347=CARTESIAN_POINT('Ctrl Pts',(41.6402584314169,-8.85729328801232,1.5654734322563));
#348=CARTESIAN_POINT('Ctrl Pts',(41.6652948160126,-4.89316758317828,1.31129865418358));
#349=CARTESIAN_POINT('Ctrl Pts',(44.2412862563855,-16.0295982076349,4.41945001162045));
#350=CARTESIAN_POINT('Ctrl Pts',(43.9341855363864,-14.9451154803535,4.41945001162045));
#351=CARTESIAN_POINT('Ctrl Pts',(42.4473960975804,-8.10178344369624,3.95843441588043));
#352=CARTESIAN_POINT('Ctrl Pts',(41.553851722759,-4.09517695646614,3.25934438357077));
#353=CARTESIAN_POINT('Ctrl Pts',(47.1495815381478,-15.2060354596709,6.42471326373171));
#354=CARTESIAN_POINT('Ctrl Pts',(46.8424808181486,-14.1215527323895,6.42471326373171));
#355=CARTESIAN_POINT('Ctrl Pts',(44.0841715819665,-6.10880953821738,5.83990531974081));
#356=CARTESIAN_POINT('Ctrl Pts',(41.2494967526298,-1.9158367545242,4.73822603200312));
#357=CARTESIAN_POINT('Ctrl Pts',(48.8523559311225,-14.7238486724368,6.77966101694765));
#358=CARTESIAN_POINT('Ctrl Pts',(48.5452552111234,-13.6393659451555,6.77966101694765));
#359=CARTESIAN_POINT('Ctrl Pts',(44.9285248426241,-4.97671571390078,6.18644067796508));
#360=CARTESIAN_POINT('Ctrl Pts',(41.0713003181891,-0.639857416140629,4.99999999999993));
#361=CARTESIAN_POINT('Ctrl Pts',(49.7062356065877,-14.4820494657447,6.77966101694765));
#362=CARTESIAN_POINT('Ctrl Pts',(49.3991348865885,-13.3975667384633,6.77966101694765));
#363=CARTESIAN_POINT('Ctrl Pts',(45.3167365249609,-4.42334179993901,6.18644067796508));
#364=CARTESIAN_POINT('Ctrl Pts',(40.9819412614421,8.43032236966263E-15,
4.99999999999993));
#365=CARTESIAN_POINT('',(49.7062356065877,-14.4820494657447,6.77966101694765));
#366=CARTESIAN_POINT('',(43.1830753910989,-16.3292593368214,-8.30269016371086E-16));
#367=CARTESIAN_POINT('Origin',(49.7062356065877,-14.4820494657447,0.));
#368=CARTESIAN_POINT('Origin',(49.7062356065877,-14.4820494657447,0.));
#369=CARTESIAN_POINT('Ctrl Pts',(49.7062356065877,-14.4820494657447,6.77966101694765));
#370=CARTESIAN_POINT('Ctrl Pts',(49.3991348865885,-13.3975667384633,6.77966101694765));
#371=CARTESIAN_POINT('Ctrl Pts',(45.3167365249609,-4.42334179993901,6.18644067796508));
#372=CARTESIAN_POINT('Ctrl Pts',(40.9819412614421,8.43032236966263E-15,
4.99999999999993));
#373=CARTESIAN_POINT('Origin',(57.199087815676,-20.4634299896703,0.));
#374=CARTESIAN_POINT('',(45.3073667428399,-23.8308935846432,-8.30269016371086E-16));
#375=CARTESIAN_POINT('Origin',(51.8305269583287,-21.9836837135665,0.));
#376=CARTESIAN_POINT('',(46.4619661009814,-23.5039374374626,-6.83311400473405E-16));
#377=CARTESIAN_POINT('Origin',(51.8305269583287,-21.9836837135665,0.));
#378=CARTESIAN_POINT('Origin',(50.7683812824589,-18.2328665896579,0.));
#379=CARTESIAN_POINT('',(49.706235606589,-14.4820494657493,0.));
#380=CARTESIAN_POINT('',(48.0841008537852,-18.992993451606,-3.41655700236703E-16));
#381=CARTESIAN_POINT('Origin',(51.2994541203941,-20.1082751516134,0.));
#382=CARTESIAN_POINT('',(44.7762939049053,-21.9554850226902,-8.30269016371086E-16));
#383=UNCERTAINTY_MEASURE_WITH_UNIT(LENGTH_MEASURE(0.01),#387,
'DISTANCE_ACCURACY_VALUE',
'Maximum model space distance between geometric entities at asserted c
onnectivities');
#384=UNCERTAINTY_MEASURE_WITH_UNIT(LENGTH_MEASURE(0.01),#387,
'DISTANCE_ACCURACY_VALUE',
'Maximum model space distance between geometric entities at asserted c
onnectivities');
#385=(
GEOMETRIC_REPRESENTATION_CONTEXT(3)
GLOBAL_UNCERTAINTY_ASSIGNED_CONTEXT((#383))
GLOBAL_UNIT_ASSIGNED_CONTEXT((#387,#388,#389))
REPRESENTATION_CONTEXT('','3D')
);
#386=(
GEOMETRIC_REPRESENTATION_CONTEXT(3)
GLOBAL_UNCERTAINTY_ASSIGNED_CONTEXT((#384))
GLOBAL_UNIT_ASSIGNED_CONTEXT((#387,#388,#389))
REPRESENTATION_CONTEXT('','3D')
);
#387=(
LENGTH_UNIT()
NAMED_UNIT(*)
SI_UNIT(.MILLI.,.METRE.)
);
#388=(
NAMED_UNIT(*)
PLANE_ANGLE_UNIT()
SI_UNIT($,.RADIAN.)
);
#389=(
NAMED_UNIT(*)
SI_UNIT($,.STERADIAN.)
SOLID_ANGLE_UNIT()
);
#390=SHAPE_DEFINITION_REPRESENTATION(#391,#392);
#391=PRODUCT_DEFINITION_SHAPE('',$,#394);
#392=SHAPE_REPRESENTATION('',(#127),#385);
#393=PRODUCT_DEFINITION_CONTEXT('part definition',#398,'design');
#394=PRODUCT_DEFINITION('2025-09-09-21-39-12-415','Torso',#395,#393);
#395=PRODUCT_DEFINITION_FORMATION('',$,#400);
#396=PRODUCT_RELATED_PRODUCT_CATEGORY('Torso','Torso',(#400));
#397=APPLICATION_PROTOCOL_DEFINITION('international standard',
'automotive_design',2009,#398);
#398=APPLICATION_CONTEXT(
'Core Data for Automotive Mechanical Design Process');
#399=PRODUCT_CONTEXT('part definition',#398,'mechanical');
#400=PRODUCT('2025-09-09-21-39-12-415','Torso',$,(#399));
#401=PRESENTATION_STYLE_ASSIGNMENT((#403));
#402=PRESENTATION_STYLE_ASSIGNMENT((#404));
#403=SURFACE_STYLE_USAGE(.BOTH.,#405);
#404=SURFACE_STYLE_USAGE(.BOTH.,#406);
#405=SURFACE_SIDE_STYLE('',(#407));
#406=SURFACE_SIDE_STYLE('',(#408));
#407=SURFACE_STYLE_FILL_AREA(#409);
#408=SURFACE_STYLE_FILL_AREA(#410);
#409=FILL_AREA_STYLE('Aluminum - Satin',(#411));
#410=FILL_AREA_STYLE('Polymide (Kapton)',(#412));
#411=FILL_AREA_STYLE_COLOUR('Aluminum - Satin',#413);
#412=FILL_AREA_STYLE_COLOUR('Polymide (Kapton)',#414);
#413=COLOUR_RGB('Aluminum - Satin',0.96078431372549,0.96078431372549,0.964705882352941);
#414=COLOUR_RGB('Polymide (Kapton)',0.784313725490196,0.556862745098039,
0.0274509803921569);
ENDSEC;
END-ISO-10303-21;
