  0
SECTION
  2
HEADER
  9
$ACADVER
  1
AC1021
  9
$ACADMAINTVER
 70
    25
  9
$DWGCODEPAGE
  3
ANSI_1252
  9
$INSBASE
 10
0.0
 20
0.0
 30
0.0
  9
$EXTMIN
 10
-95.9364
 20
-71.3047
 30
0.0
  9
$EXTMAX
 10
96.1739
 20
31.8287
 30
0.0
  9
$LIMMIN
 10
0.0
 20
0.0
  9
$LIMMAX
 10
12.0
 20
9.0
  9
$ORTHOMODE
 70
     0
  9
$REGENMODE
 70
     1
  9
$FILLMODE
 70
     1
  9
$QTEXTMODE
 70
     0
  9
$MIRRTEXT
 70
     1
  9
$LTSCALE
 40
1.0
  9
$ATTMODE
 70
     1
  9
$TEXTSIZE
 40
0.2
  9
$TRACEWID
 40
0.05
  9
$TEXTSTYLE
  7
Standard
  9
$CLAYER
  8
0
  9
$CELTYPE
  6
ByLayer
  9
$CECOLOR
 62
   256
  9
$CELTSCALE
 40
1.0
  9
$DISPSILH
 70
     0
  9
$DIMSCALE
 40
1.0
  9
$DIMASZ
 40
0.18
  9
$DIMEXO
 40
0.0625
  9
$DIMDLI
 40
0.38
  9
$DIMRND
 40
0.0
  9
$DIMDLE
 40
0.0
  9
$DIMEXE
 40
0.18
  9
$DIMTP
 40
0.0
  9
$DIMTM
 40
0.0
  9
$DIMTXT
 40
0.18
  9
$DIMCEN
 40
0.09
  9
$DIMTSZ
 40
0.0
  9
$DIMTOL
 70
     0
  9
$DIMLIM
 70
     0
  9
$DIMTIH
 70
     1
  9
$DIMTOH
 70
     1
  9
$DIMSE1
 70
     0
  9
$DIMSE2
 70
     0
  9
$DIMTAD
 70
     0
  9
$DIMZIN
 70
     0
  9
$DIMBLK
  1

  9
$DIMASO
 70
     1
  9
$DIMSHO
 70
     1
  9
$DIMPOST
  1

  9
$DIMAPOST
  1

  9
$DIMALT
 70
     0
  9
$DIMALTD
 70
     2
  9
$DIMALTF
 40
25.4
  9
$DIMLFAC
 40
1.0
  9
$DIMTOFL
 70
     0
  9
$DIMTVP
 40
0.0
  9
$DIMTIX
 70
     0
  9
$DIMSOXD
 70
     0
  9
$DIMSAH
 70
     0
  9
$DIMBLK1
  1

  9
$DIMBLK2
  1

  9
$DIMSTYLE
  2
Standard
  9
$DIMCLRD
 70
     0
  9
$DIMCLRE
 70
     0
  9
$DIMCLRT
 70
     0
  9
$DIMTFAC
 40
1.0
  9
$DIMGAP
 40
0.09
  9
$DIMJUST
 70
     0
  9
$DIMSD1
 70
     0
  9
$DIMSD2
 70
     0
  9
$DIMTOLJ
 70
     1
  9
$DIMTZIN
 70
     0
  9
$DIMALTZ
 70
     0
  9
$DIMALTTZ
 70
     0
  9
$DIMUPT
 70
     0
  9
$DIMDEC
 70
     4
  9
$DIMTDEC
 70
     4
  9
$DIMALTU
 70
     2
  9
$DIMALTTD
 70
     2
  9
$DIMTXSTY
  7
Standard
  9
$DIMAUNIT
 70
     0
  9
$DIMADEC
 70
     0
  9
$DIMALTRND
 40
0.0
  9
$DIMAZIN
 70
     0
  9
$DIMDSEP
 70
    46
  9
$DIMATFIT
 70
     3
  9
$DIMFRAC
 70
     0
  9
$DIMLDRBLK
  1

  9
$DIMLUNIT
 70
     2
  9
$DIMLWD
 70
    -2
  9
$DIMLWE
 70
    -2
  9
$DIMTMOVE
 70
     0
  9
$DIMFXL
 40
1.0
  9
$DIMFXLON
 70
     0
  9
$DIMJOGANG
 40
0.7853981633974483
  9
$DIMTFILL
 70
     0
  9
$DIMTFILLCLR
 70
     0
  9
$DIMARCSYM
 70
     0
  9
$DIMLTYPE
  6

  9
$DIMLTEX1
  6

  9
$DIMLTEX2
  6

  9
$LUNITS
 70
     2
  9
$LUPREC
 70
     4
  9
$SKETCHINC
 40
0.1
  9
$FILLETRAD
 40
0.5
  9
$AUNITS
 70
     0
  9
$AUPREC
 70
     0
  9
$MENU
  1
.
  9
$ELEVATION
 40
0.0
  9
$PELEVATION
 40
0.0
  9
$THICKNESS
 40
0.0
  9
$LIMCHECK
 70
     0
  9
$CHAMFERA
 40
0.0
  9
$CHAMFERB
 40
0.0
  9
$CHAMFERC
 40
0.0
  9
$CHAMFERD
 40
0.0
  9
$SKPOLY
 70
     0
  9
$TDCREATE
 40
2459683.5706575
  9
$TDUCREATE
 40
2459683.737324167
  9
$TDUPDATE
 40
2459683.570658079
  9
$TDUUPDATE
 40
2459683.737324745
  9
$TDINDWG
 40
0.0000000116
  9
$TDUSRTIMER
 40
0.0000000116
  9
$USRTIMER
 70
     1
  9
$ANGBASE
 50
0.0
  9
$ANGDIR
 70
     0
  9
$PDMODE
 70
     0
  9
$PDSIZE
 40
0.0
  9
$PLINEWID
 40
0.0
  9
$SPLFRAME
 70
     0
  9
$SPLINETYPE
 70
     6
  9
$SPLINESEGS
 70
     8
  9
$HANDSEED
  5
D5
  9
$SURFTAB1
 70
     6
  9
$SURFTAB2
 70
     6
  9
$SURFTYPE
 70
     6
  9
$SURFU
 70
     6
  9
$SURFV
 70
     6
  9
$UCSBASE
  2

  9
$UCSNAME
  2

  9
$UCSORG
 10
0.0
 20
0.0
 30
0.0
  9
$UCSXDIR
 10
1.0
 20
0.0
 30
0.0
  9
$UCSYDIR
 10
0.0
 20
1.0
 30
0.0
  9
$UCSORTHOREF
  2

  9
$UCSORTHOVIEW
 70
     0
  9
$UCSORGTOP
 10
0.0
 20
0.0
 30
0.0
  9
$UCSORGBOTTOM
 10
0.0
 20
0.0
 30
0.0
  9
$UCSORGLEFT
 10
0.0
 20
0.0
 30
0.0
  9
$UCSORGRIGHT
 10
0.0
 20
0.0
 30
0.0
  9
$UCSORGFRONT
 10
0.0
 20
0.0
 30
0.0
  9
$UCSORGBACK
 10
0.0
 20
0.0
 30
0.0
  9
$PUCSBASE
  2

  9
$PUCSNAME
  2

  9
$PUCSORG
 10
0.0
 20
0.0
 30
0.0
  9
$PUCSXDIR
 10
1.0
 20
0.0
 30
0.0
  9
$PUCSYDIR
 10
0.0
 20
1.0
 30
0.0
  9
$PUCSORTHOREF
  2

  9
$PUCSORTHOVIEW
 70
     0
  9
$PUCSORGTOP
 10
0.0
 20
0.0
 30
0.0
  9
$PUCSORGBOTTOM
 10
0.0
 20
0.0
 30
0.0
  9
$PUCSORGLEFT
 10
0.0
 20
0.0
 30
0.0
  9
$PUCSORGRIGHT
 10
0.0
 20
0.0
 30
0.0
  9
$PUCSORGFRONT
 10
0.0
 20
0.0
 30
0.0
  9
$PUCSORGBACK
 10
0.0
 20
0.0
 30
0.0
  9
$USERI1
 70
     0
  9
$USERI2
 70
     0
  9
$USERI3
 70
     0
  9
$USERI4
 70
     0
  9
$USERI5
 70
     0
  9
$USERR1
 40
0.0
  9
$USERR2
 40
0.0
  9
$USERR3
 40
0.0
  9
$USERR4
 40
0.0
  9
$USERR5
 40
0.0
  9
$WORLDVIEW
 70
     1
  9
$SHADEDGE
 70
     3
  9
$SHADEDIF
 70
    70
  9
$TILEMODE
 70
     1
  9
$MAXACTVP
 70
    64
  9
$PINSBASE
 10
0.0
 20
0.0
 30
0.0
  9
$PLIMCHECK
 70
     0
  9
$PEXTMIN
 10
1.000000000000000E+20
 20
1.000000000000000E+20
 30
1.000000000000000E+20
  9
$PEXTMAX
 10
-1.000000000000000E+20
 20
-1.000000000000000E+20
 30
-1.000000000000000E+20
  9
$PLIMMIN
 10
0.0
 20
0.0
  9
$PLIMMAX
 10
12.0
 20
9.0
  9
$UNITMODE
 70
     0
  9
$VISRETAIN
 70
     1
  9
$PLINEGEN
 70
     0
  9
$PSLTSCALE
 70
     1
  9
$TREEDEPTH
 70
  3020
  9
$CMLSTYLE
  2
Standard
  9
$CMLJUST
 70
     0
  9
$CMLSCALE
 40
1.0
  9
$PROXYGRAPHICS
 70
     1
  9
$MEASUREMENT
 70
     0
  9
$CELWEIGHT
370
    -1
  9
$ENDCAPS
280
     0
  9
$JOINSTYLE
280
     0
  9
$LWDISPLAY
290
     0
  9
$INSUNITS
 70
     4
  9
$HYPERLINKBASE
  1

  9
$STYLESHEET
  1

  9
$XEDIT
290
     1
  9
$CEPSNTYPE
380
     0
  9
$PSTYLEMODE
290
     1
  9
$FINGERPRINTGUID
  2
{4b7e7d82-127f-4003-a0ab-d634ed86ed02}
  9
$VERSIONGUID
  2
{FAEB1C32-E019-11D5-929B-00C0DF256EC4}
  9
$EXTNAMES
290
     1
  9
$PSVPSCALE
 40
0.0
  9
$OLESTARTUP
290
     0
  9
$SORTENTS
280
   127
  9
$INDEXCTL
280
     0
  9
$HIDETEXT
280
     1
  9
$XCLIPFRAME
290
     0
  9
$HALOGAP
280
     0
  9
$OBSCOLOR
 70
   257
  9
$OBSLTYPE
280
     0
  9
$INTERSECTIONDISPLAY
280
     0
  9
$INTERSECTIONCOLOR
 70
   257
  9
$DIMASSOC
280
     2
  9
$PROJECTNAME
  1

  9
$CAMERADISPLAY
290
     0
  9
$LENSLENGTH
 40
50.0
  9
$CAMERAHEIGHT
 40
0.0
  9
$STEPSPERSEC
 40
2.0
  9
$STEPSIZE
 40
6.0
  9
$3DDWFPREC
 40
2.0
  9
$PSOLWIDTH
 40
0.25
  9
$PSOLHEIGHT
 40
4.0
  9
$LOFTANG1
 40
1.570796326794897
  9
$LOFTANG2
 40
1.570796326794897
  9
$LOFTMAG1
 40
0.0
  9
$LOFTMAG2
 40
0.0
  9
$LOFTPARAM
 70
     7
  9
$LOFTNORMALS
280
     1
  9
$LATITUDE
 40
37.795
  9
$LONGITUDE
 40
-122.394
  9
$NORTHDIRECTION
 40
0.0
  9
$TIMEZONE
 70
 -8000
  9
$LIGHTGLYPHDISPLAY
280
     1
  9
$TILEMODELIGHTSYNCH
280
     1
  9
$CMATERIAL
347
44
  9
$SOLIDHIST
280
     0
  9
$SHOWHIST
280
     1
  9
$DWFFRAME
280
     2
  9
$DGNFRAME
280
     2
  9
$REALWORLDSCALE
290
     1
  9
$INTERFERECOLOR
 62
   256
  9
$CSHADOW
280
     0
  9
$SHADOWPLANELOCATION
 40
0.0
  0
ENDSEC
  0
SECTION
  2
CLASSES
  0
CLASS
  1
ACDBDICTIONARYWDFLT
  2
AcDbDictionaryWithDefault
  3
ObjectDBX Classes
 90
        0
 91
        3
280
     0
281
     0
  0
CLASS
  1
VISUALSTYLE
  2
AcDbVisualStyle
  3
ObjectDBX Classes
 90
     4095
 91
        3
280
     0
281
     0
  0
CLASS
  1
MATERIAL
  2
AcDbMaterial
  3
ObjectDBX Classes
 90
     1153
 91
        3
280
     0
281
     0
  0
CLASS
  1
SCALE
  2
AcDbScale
  3
ObjectDBX Classes
 90
     1153
 91
        3
280
     0
281
     0
  0
CLASS
  1
TABLESTYLE
  2
AcDbTableStyle
  3
ObjectDBX Classes
 90
     4095
 91
        3
280
     0
281
     0
  0
CLASS
  1
MLEADERSTYLE
  2
AcDbMLeaderStyle
  3
ACDB_MLEADERSTYLE_CLASS
 90
     4095
 91
        3
280
     0
281
     0
  0
CLASS
  1
SUN
  2
AcDbSun
  3
SCENEOE
 90
     1153
 91
        3
280
     0
281
     0
  0
CLASS
  1
IMAGEDEF
  2
AcDbRasterImageDef
  3
ISM
 90
        0
 91
        3
280
     0
281
     0
  0
CLASS
  1
IMAGE
  2
AcDbRasterImage
  3
ISM
 90
      127
 91
        4
280
     0
281
     1
  0
CLASS
  1
IMAGEDEF_REACTOR
  2
AcDbRasterImageDefReactor
  3
ISM
 90
        1
 91
        3
280
     0
281
     0
  0
CLASS
  1
DICTIONARYVAR
  2
AcDbDictionaryVar
  3
ObjectDBX Classes
 90
        0
 91
        3
280
     0
281
     0
  0
CLASS
  1
CELLSTYLEMAP
  2
AcDbCellStyleMap
  3
ObjectDBX Classes
 90
     1152
 91
        3
280
     0
281
     0
  0
ENDSEC
  0
SECTION
  2
TABLES
  0
TABLE
  2
VPORT
  5
8
330
0
100
AcDbSymbolTable
 70
     1
  0
VPORT
  5
29
330
8
100
AcDbSymbolTableRecord
100
AcDbViewportTableRecord
  2
*Active
 70
     0
 10
0.0
 20
0.0
 11
1.0
 21
1.0
 12
10.42990654205607
 22
4.5
 13
0.0
 23
0.0
 14
0.5
 24
0.5
 15
0.5
 25
0.5
 16
0.0
 26
0.0
 36
1.0
 17
0.0
 27
0.0
 37
0.0
 40
9.0
 41
1.972972972850329
 42
50.0
 43
0.0
 44
0.0
 50
0.0
 51
0.0
 71
     0
 72
   100
 73
     1
 74
     3
 75
     0
 76
     0
 77
     0
 78
     0
281
     0
 65
     1
110
0.0
120
0.0
130
0.0
111
1.0
121
0.0
131
0.0
112
0.0
122
1.0
132
0.0
 79
     0
146
0.0
348
2F
 60
     3
 61
     5
292
     1
282
     1
141
0.0
142
0.0
 63
   250
361
6D
  0
ENDTAB
  0
TABLE
  2
LTYPE
  5
5
330
0
100
AcDbSymbolTable
 70
     1
  0
LTYPE
  5
14
330
5
100
AcDbSymbolTableRecord
100
AcDbLinetypeTableRecord
  2
ByBlock
 70
     0
  3

 72
    65
 73
     0
 40
0.0
  0
LTYPE
  5
15
330
5
100
AcDbSymbolTableRecord
100
AcDbLinetypeTableRecord
  2
ByLayer
 70
     0
  3

 72
    65
 73
     0
 40
0.0
  0
LTYPE
  5
16
330
5
100
AcDbSymbolTableRecord
100
AcDbLinetypeTableRecord
  2
Continuous
 70
     0
  3
Solid line
 72
    65
 73
     0
 40
0.0
  0
ENDTAB
  0
TABLE
  2
LAYER
  5
2
330
0
100
AcDbSymbolTable
 70
     2
  0
LAYER
  5
10
330
2
100
AcDbSymbolTableRecord
100
AcDbLayerTableRecord
  2
0
 70
     0
 62
     7
  6
Continuous
370
    -3
390
F
347
46
  0
LAYER
  5
6F
330
2
100
AcDbSymbolTableRecord
100
AcDbLayerTableRecord
  2
Layer 1
 70
     0
 62
     7
  6
Continuous
370
    -3
390
F
347
46
  0
ENDTAB
  0
TABLE
  2
STYLE
  5
3
330
0
100
AcDbSymbolTable
 70
     1
  0
STYLE
  5
11
330
3
100
AcDbSymbolTableRecord
100
AcDbTextStyleTableRecord
  2
Standard
 70
     0
 40
0.0
 41
1.0
 50
0.0
 71
     0
 42
0.2
  3
txt
  4

  0
ENDTAB
  0
TABLE
  2
VIEW
  5
6
330
0
100
AcDbSymbolTable
 70
     0
  0
ENDTAB
  0
TABLE
  2
UCS
  5
7
330
0
100
AcDbSymbolTable
 70
     0
  0
ENDTAB
  0
TABLE
  2
APPID
  5
9
330
0
100
AcDbSymbolTable
 70
     3
  0
APPID
  5
12
330
9
100
AcDbSymbolTableRecord
100
AcDbRegAppTableRecord
  2
ACAD
 70
     0
  0
APPID
  5
6E
330
9
100
AcDbSymbolTableRecord
100
AcDbRegAppTableRecord
  2
ODA
 70
     0
  0
APPID
  5
CD
330
9
100
AcDbSymbolTableRecord
100
AcDbRegAppTableRecord
  2
ACAD_MLEADERVER
 70
     0
  0
ENDTAB
  0
TABLE
  2
DIMSTYLE
  5
A
330
0
100
AcDbSymbolTable
 70
     1
100
AcDbDimStyleTable
  0
DIMSTYLE
105
27
330
A
100
AcDbSymbolTableRecord
100
AcDbDimStyleTableRecord
  2
Standard
 70
     0
178
     0
340
11
  0
ENDTAB
  0
TABLE
  2
BLOCK_RECORD
  5
1
330
0
100
AcDbSymbolTable
 70
     1
  0
BLOCK_RECORD
  5
1F
330
1
100
AcDbSymbolTableRecord
100
AcDbBlockTableRecord
  2
*Model_Space
340
22
 70
     0
280
     1
281
     0
  0
BLOCK_RECORD
  5
1B
330
1
100
AcDbSymbolTableRecord
100
AcDbBlockTableRecord
  2
*Paper_Space
340
1E
 70
     0
280
     1
281
     0
  0
BLOCK_RECORD
  5
23
330
1
100
AcDbSymbolTableRecord
100
AcDbBlockTableRecord
  2
*Paper_Space0
340
26
 70
     0
280
     1
281
     0
  0
ENDTAB
  0
ENDSEC
  0
SECTION
  2
BLOCKS
  0
BLOCK
  5
20
330
1F
100
AcDbEntity
  8
0
100
AcDbBlockBegin
  2
*Model_Space
 70
     0
 10
0.0
 20
0.0
 30
0.0
  3
*Model_Space
  1

  0
ENDBLK
  5
21
330
1F
100
AcDbEntity
  8
0
100
AcDbBlockEnd
  0
BLOCK
  5
1C
330
1B
100
AcDbEntity
 67
     1
  8
0
100
AcDbBlockBegin
  2
*Paper_Space
 70
     0
 10
0.0
 20
0.0
 30
0.0
  3
*Paper_Space
  1

  0
ENDBLK
  5
1D
330
1B
100
AcDbEntity
 67
     1
  8
0
100
AcDbBlockEnd
  0
BLOCK
  5
24
330
23
100
AcDbEntity
  8
0
100
AcDbBlockBegin
  2
*Paper_Space0
 70
     0
 10
0.0
 20
0.0
 30
0.0
  3
*Paper_Space0
  1

  0
ENDBLK
  5
25
330
23
100
AcDbEntity
  8
0
100
AcDbBlockEnd
  0
ENDSEC
  0
SECTION
  2
ENTITIES
  0
IMAGE
  5
72
330
1F
100
AcDbEntity
  8
Layer 1
 62
     0
 92
      140
310
8C000000010000008400000006000000050000003B751D87C45058C09E46DA78F567404000000000000000003B751D87C45058C0BA0832FC30613F400000000000000000698DC5D4FDA557C0BA0832FC30613F400000000000000000698DC5D4FDA557C09E46DA78F567404000000000000000003B751D87C45058C09E46DA
310
78F56740400000000000000000
100
AcDbRasterImage
 90
        0
 10
-95.9364
 20
-71.3047
 30
0.0
 11
0.01388982719976863
 21
0.0
 31
0.0
 12
0.0
 22
0.0138900202020202
 32
0.0
 13
13831.0
 23
7425.0
340
71
 70
     7
280
     1
281
    50
282
    50
283
     0
360
73
 71
     1
 91
        2
 14
-95.9364
 24
-71.3047
 14
96.17379999999999
 24
31.8287
  0
SPLINE
  5
74
330
1F
100
AcDbEntity
  8
Layer 1
100
AcDbSpline
210
0.0
220
0.0
230
1.0
 70
    11
 71
     3
 72
    96
 73
    92
 74
     0
 42
0.000000001
 43
0.0000000001
 40
0.0
 40
0.0
 40
0.0
 40
0.0
 40
0.0416666666666667
 40
0.0416666666666667
 40
0.0416666666666667
 40
0.0416666666666667
 40
0.0833333333333333
 40
0.0833333333333333
 40
0.0833333333333333
 40
0.0833333333333333
 40
0.125
 40
0.125
 40
0.125
 40
0.125
 40
0.1666666666666667
 40
0.1666666666666667
 40
0.1666666666666667
 40
0.1666666666666667
 40
0.2083333333333333
 40
0.2083333333333333
 40
0.2083333333333333
 40
0.2083333333333333
 40
0.25
 40
0.25
 40
0.25
 40
0.25
 40
0.2916666666666667
 40
0.2916666666666667
 40
0.2916666666666667
 40
0.2916666666666667
 40
0.3333333333333333
 40
0.3333333333333333
 40
0.3333333333333333
 40
0.3333333333333333
 40
0.375
 40
0.375
 40
0.375
 40
0.375
 40
0.4166666666666667
 40
0.4166666666666667
 40
0.4166666666666667
 40
0.4166666666666667
 40
0.4583333333333333
 40
0.4583333333333333
 40
0.4583333333333333
 40
0.4583333333333333
 40
0.5
 40
0.5
 40
0.5
 40
0.5
 40
0.5416666666666666
 40
0.5416666666666666
 40
0.5416666666666666
 40
0.5416666666666666
 40
0.5833333333333334
 40
0.5833333333333334
 40
0.5833333333333334
 40
0.5833333333333334
 40
0.625
 40
0.625
 40
0.625
 40
0.625
 40
0.6666666666666666
 40
0.6666666666666666
 40
0.6666666666666666
 40
0.6666666666666666
 40
0.7083333333333334
 40
0.7083333333333334
 40
0.7083333333333334
 40
0.7083333333333334
 40
0.75
 40
0.75
 40
0.75
 40
0.75
 40
0.7916666666666666
 40
0.7916666666666666
 40
0.7916666666666666
 40
0.7916666666666666
 40
0.8333333333333334
 40
0.8333333333333334
 40
0.8333333333333334
 40
0.8333333333333334
 40
0.875
 40
0.875
 40
0.875
 40
0.875
 40
0.9166666666666666
 40
0.9166666666666666
 40
0.9166666666666666
 40
0.9166666666666666
 40
1.0
 40
1.0
 40
1.0
 40
1.0
 10
-4.6651
 20
-59.7824
 30
0.0
 10
-4.6651
 20
-61.7699
 30
0.0
 10
-4.3222
 20
-63.0686
 30
0.0
 10
-3.73
 20
-64.5137
 30
0.0
 10
-3.73
 20
-64.5137
 30
0.0
 10
-3.5771
 20
-64.8868
 30
0.0
 10
-3.4484
 20
-65.0944
 30
0.0
 10
-3.2609
 20
-65.4297
 30
0.0
 10
-3.2609
 20
-65.4297
 30
0.0
 10
-2.6397
 20
-66.541
 30
0.0
 10
-2.5337
 20
-66.5721
 30
0.0
 10
-1.8233
 20
-67.4547
 30
0.0
 10
-1.8233
 20
-67.4547
 30
0.0
 10
-1.6893
 20
-67.6212
 30
0.0
 10
-1.6627
 20
-67.6683
 30
0.0
 10
-1.5026
 20
-67.8265
 30
0.0
 10
-1.5026
 20
-67.8265
 30
0.0
 10
-0.7674
 20
-68.5536
 30
0.0
 10
0.2598
 20
-69.4806
 30
0.0
 10
1.2099
 20
-69.9613
 30
0.0
 10
1.2099
 20
-69.9613
 30
0.0
 10
1.9708
 20
-70.3461
 30
0.0
 10
1.6574
 20
-70.2287
 30
0.0
 10
2.6274
 20
-70.6212
 30
0.0
 10
2.6274
 20
-70.6212
 30
0.0
 10
3.6491
 20
-71.0347
 30
0.0
 10
4.7977
 20
-71.254
 30
0.0
 10
5.9588
 20
-71.3047
 30
0.0
 10
5.9588
 20
-71.3047
 30
0.0
 10
5.9588
 20
-71.3047
 30
0.0
 10
7.0215
 20
-71.3047
 30
0.0
 10
7.0215
 20
-71.3047
 30
0.0
 10
7.0215
 20
-71.3047
 30
0.0
 10
7.8424
 20
-71.2693
 30
0.0
 10
8.6522
 20
-71.1532
 30
0.0
 10
9.4099
 20
-70.9651
 30
0.0
 10
9.4099
 20
-70.9651
 30
0.0
 10
9.7675
 20
-70.8763
 30
0.0
 10
10.0929
 20
-70.7794
 30
0.0
 10
10.4159
 20
-70.6491
 30
0.0
 10
10.4159
 20
-70.6491
 30
0.0
 10
10.9932
 20
-70.4161
 30
0.0
 10
11.7169
 20
-70.0802
 30
0.0
 10
12.2171
 20
-69.7434
 30
0.0
 10
12.2171
 20
-69.7434
 30
0.0
 10
13.2604
 20
-69.0409
 30
0.0
 10
14.3042
 20
-68.1975
 30
0.0
 10
15.0647
 20
-67.177
 30
0.0
 10
15.0647
 20
-67.177
 30
0.0
 10
16.141
 20
-65.7326
 30
0.0
 10
16.8711
 20
-64.4475
 30
0.0
 10
17.2871
 20
-62.6629
 30
0.0
 10
17.2871
 20
-62.6629
 30
0.0
 10
18.1172
 20
-59.1008
 30
0.0
 10
17.4812
 20
-54.928
 30
0.0
 10
15.0521
 20
-52.2116
 30
0.0
 10
15.0521
 20
-52.2116
 30
0.0
 10
15.0521
 20
-52.2116
 30
0.0
 10
14.1956
 20
-51.3054
 30
0.0
 10
14.1956
 20
-51.3054
 30
0.0
 10
14.1956
 20
-51.3054
 30
0.0
 10
14.1857
 20
-51.2969
 30
0.0
 10
14.1715
 20
-51.2849
 30
0.0
 10
14.1615
 20
-51.2765
 30
0.0
 10
14.1615
 20
-51.2765
 30
0.0
 10
14.1615
 20
-51.2765
 30
0.0
 10
12.9691
 20
-50.2656
 30
0.0
 10
12.9691
 20
-50.2656
 30
0.0
 10
12.9691
 20
-50.2656
 30
0.0
 10
11.4796
 20
-49.0949
 30
0.0
 10
8.9401
 20
-48.1343
 30
0.0
 10
7.0428
 20
-48.1343
 30
0.0
 10
7.0428
 20
-48.1343
 30
0.0
 10
4.7559
 20
-48.1343
 30
0.0
 10
3.609
 20
-48.282
 30
0.0
 10
1.503
 20
-49.3301
 30
0.0
 10
1.503
 20
-49.3301
 30
0.0
 10
0.173
 20
-49.992
 30
0.0
 10
-0.0319
 20
-50.3263
 30
0.0
 10
-0.9514
 20
-51.0306
 30
0.0
 10
-0.9514
 20
-51.0306
 30
0.0
 10
-1.6149
 20
-51.5388
 30
0.0
 10
-2.3656
 20
-52.5866
 30
0.0
 10
-2.8405
 20
-53.2965
 30
0.0
 10
-2.8405
 20
-53.2965
 30
0.0
 10
-2.8405
 20
-53.2965
 30
0.0
 10
-3.7763
 20
-55.1308
 30
0.0
 10
-3.7763
 20
-55.1308
 30
0.0
 10
-3.7763
 20
-55.1308
 30
0.0
 10
-4.3431
 20
-56.5168
 30
0.0
 10
-4.6651
 20
-58.2608
 30
0.0
 10
-4.6651
 20
-59.7824
 30
0.0
  0
SPLINE
  5
75
330
1F
100
AcDbEntity
  8
Layer 1
100
AcDbSpline
210
0.0
220
0.0
230
1.0
 70
    11
 71
     3
 72
    60
 73
    56
 74
     0
 42
0.000000001
 43
0.0000000001
 40
0.0
 40
0.0
 40
0.0
 40
0.0
 40
0.0666666666666667
 40
0.0666666666666667
 40
0.0666666666666667
 40
0.0666666666666667
 40
0.1333333333333333
 40
0.1333333333333333
 40
0.1333333333333333
 40
0.1333333333333333
 40
0.2
 40
0.2
 40
0.2
 40
0.2
 40
0.2666666666666667
 40
0.2666666666666667
 40
0.2666666666666667
 40
0.2666666666666667
 40
0.3333333333333333
 40
0.3333333333333333
 40
0.3333333333333333
 40
0.3333333333333333
 40
0.4
 40
0.4
 40
0.4
 40
0.4
 40
0.4666666666666667
 40
0.4666666666666667
 40
0.4666666666666667
 40
0.4666666666666667
 40
0.5333333333333333
 40
0.5333333333333333
 40
0.5333333333333333
 40
0.5333333333333333
 40
0.6
 40
0.6
 40
0.6
 40
0.6
 40
0.6666666666666666
 40
0.6666666666666666
 40
0.6666666666666666
 40
0.6666666666666666
 40
0.7333333333333333
 40
0.7333333333333333
 40
0.7333333333333333
 40
0.7333333333333333
 40
0.8
 40
0.8
 40
0.8
 40
0.8
 40
0.8666666666666667
 40
0.8666666666666667
 40
0.8666666666666667
 40
0.8666666666666667
 40
1.0
 40
1.0
 40
1.0
 40
1.0
 10
-50.6155
 20
-59.3417
 30
0.0
 10
-50.6155
 20
-61.5225
 30
0.0
 10
-50.4805
 20
-62.8425
 30
0.0
 10
-49.6164
 20
-64.7016
 30
0.0
 10
-49.6164
 20
-64.7016
 30
0.0
 10
-47.9497
 20
-68.2875
 30
0.0
 10
-44.0904
 20
-71.3047
 30
0.0
 10
-39.9777
 20
-71.3047
 30
0.0
 10
-39.9777
 20
-71.3047
 30
0.0
 10
-39.9777
 20
-71.3047
 30
0.0
 10
-39.9096
 20
-71.3047
 30
0.0
 10
-39.9096
 20
-71.3047
 30
0.0
 10
-39.9096
 20
-71.3047
 30
0.0
 10
-39.9096
 20
-71.3047
 30
0.0
 10
-38.9254
 20
-71.3047
 30
0.0
 10
-38.9254
 20
-71.3047
 30
0.0
 10
-38.9254
 20
-71.3047
 30
0.0
 10
-38.5196
 20
-71.2976
 30
0.0
 10
-38.116
 20
-71.2743
 30
0.0
 10
-37.7463
 20
-71.207
 30
0.0
 10
-37.7463
 20
-71.207
 30
0.0
 10
-36.4812
 20
-70.9764
 30
0.0
 10
-35.7848
 20
-70.8132
 30
0.0
 10
-34.5853
 20
-70.2133
 30
0.0
 10
-34.5853
 20
-70.2133
 30
0.0
 10
-33.3514
 20
-69.5962
 30
0.0
 10
-33.0674
 20
-69.2714
 30
0.0
 10
-32.1531
 20
-68.4906
 30
0.0
 10
-32.1531
 20
-68.4906
 30
0.0
 10
-32.1531
 20
-68.4906
 30
0.0
 10
-31.8824
 20
-68.2578
 30
0.0
 10
-31.8824
 20
-68.2578
 30
0.0
 10
-31.8824
 20
-68.2578
 30
0.0
 10
-27.3868
 20
-63.8588
 30
0.0
 10
-26.9913
 20
-56.1185
 30
0.0
 10
-31.5272
 20
-51.5815
 30
0.0
 10
-31.5272
 20
-51.5815
 30
0.0
 10
-32.03
 20
-51.0786
 30
0.0
 10
-32.3824
 20
-50.7492
 30
0.0
 10
-32.9637
 20
-50.3109
 30
0.0
 10
-32.9637
 20
-50.3109
 30
0.0
 10
-34.5547
 20
-49.1115
 30
0.0
 10
-36.8395
 20
-48.1343
 30
0.0
 10
-39.0335
 20
-48.1343
 30
0.0
 10
-39.0335
 20
-48.1343
 30
0.0
 10
-41.1823
 20
-48.1343
 30
0.0
 10
-42.4419
 20
-48.3134
 30
0.0
 10
-44.4147
 20
-49.2998
 30
0.0
 10
-44.4147
 20
-49.2998
 30
0.0
 10
-45.6845
 20
-49.9347
 30
0.0
 10
-46.5351
 20
-50.641
 30
0.0
 10
-47.5155
 20
-51.6128
 30
0.0
 10
-47.5155
 20
-51.6128
 30
0.0
 10
-49.3252
 20
-53.4067
 30
0.0
 10
-50.6155
 20
-56.7195
 30
0.0
 10
-50.6155
 20
-59.3417
 30
0.0
  0
SPLINE
  5
76
330
1F
100
AcDbEntity
  8
Layer 1
100
AcDbSpline
210
0.0
220
0.0
230
1.0
 70
    11
 71
     3
 72
    88
 73
    84
 74
     0
 42
0.000000001
 43
0.0000000001
 40
0.0
 40
0.0
 40
0.0
 40
0.0
 40
0.0454545454545455
 40
0.0454545454545455
 40
0.0454545454545455
 40
0.0454545454545455
 40
0.0909090909090909
 40
0.0909090909090909
 40
0.0909090909090909
 40
0.0909090909090909
 40
0.1363636363636364
 40
0.1363636363636364
 40
0.1363636363636364
 40
0.1363636363636364
 40
0.1818181818181818
 40
0.1818181818181818
 40
0.1818181818181818
 40
0.1818181818181818
 40
0.2272727272727273
 40
0.2272727272727273
 40
0.2272727272727273
 40
0.2272727272727273
 40
0.2727272727272727
 40
0.2727272727272727
 40
0.2727272727272727
 40
0.2727272727272727
 40
0.3181818181818182
 40
0.3181818181818182
 40
0.3181818181818182
 40
0.3181818181818182
 40
0.3636363636363636
 40
0.3636363636363636
 40
0.3636363636363636
 40
0.3636363636363636
 40
0.4090909090909091
 40
0.4090909090909091
 40
0.4090909090909091
 40
0.4090909090909091
 40
0.4545454545454545
 40
0.4545454545454545
 40
0.4545454545454545
 40
0.4545454545454545
 40
0.5
 40
0.5
 40
0.5
 40
0.5
 40
0.5454545454545454
 40
0.5454545454545454
 40
0.5454545454545454
 40
0.5454545454545454
 40
0.5909090909090909
 40
0.5909090909090909
 40
0.5909090909090909
 40
0.5909090909090909
 40
0.6363636363636364
 40
0.6363636363636364
 40
0.6363636363636364
 40
0.6363636363636364
 40
0.6818181818181818
 40
0.6818181818181818
 40
0.6818181818181818
 40
0.6818181818181818
 40
0.7272727272727273
 40
0.7272727272727273
 40
0.7272727272727273
 40
0.7272727272727273
 40
0.7727272727272727
 40
0.7727272727272727
 40
0.7727272727272727
 40
0.7727272727272727
 40
0.8181818181818182
 40
0.8181818181818182
 40
0.8181818181818182
 40
0.8181818181818182
 40
0.8636363636363636
 40
0.8636363636363636
 40
0.8636363636363636
 40
0.8636363636363636
 40
0.9090909090909091
 40
0.9090909090909091
 40
0.9090909090909091
 40
0.9090909090909091
 40
1.0
 40
1.0
 40
1.0
 40
1.0
 10
21.6461
 20
-51.2195
 30
0.0
 10
21.6461
 20
-51.2195
 30
0.0
 10
21.6461
 20
-67.9676
 30
0.0
 10
21.6461
 20
-67.9676
 30
0.0
 10
21.6461
 20
-67.9676
 30
0.0
 10
21.6461
 20
-70.1965
 30
0.0
 10
22.073
 20
-70.9269
 30
0.0
 10
24.5417
 20
-70.9269
 30
0.0
 10
24.5417
 20
-70.9269
 30
0.0
 10
25.4394
 20
-70.9269
 30
0.0
 10
26.543
 20
-70.7431
 30
0.0
 10
26.8908
 20
-69.9395
 30
0.0
 10
26.8908
 20
-69.9395
 30
0.0
 10
27.0103
 20
-69.6633
 30
0.0
 10
27.1224
 20
-69.402
 30
0.0
 10
27.1224
 20
-69.038
 30
0.0
 10
27.1224
 20
-69.038
 30
0.0
 10
27.1224
 20
-69.038
 30
0.0
 10
27.1224
 20
-64.7565
 30
0.0
 10
27.1224
 20
-64.7565
 30
0.0
 10
27.1224
 20
-64.7565
 30
0.0
 10
27.1224
 20
-64.7565
 30
0.0
 10
30.7733
 20
-64.7565
 30
0.0
 10
30.7733
 20
-64.7565
 30
0.0
 10
30.7733
 20
-64.7565
 30
0.0
 10
31.2673
 20
-64.7565
 30
0.0
 10
31.489
 20
-64.6935
 30
0.0
 10
31.9693
 20
-64.6935
 30
0.0
 10
31.9693
 20
-64.6935
 30
0.0
 10
31.9884
 20
-64.9232
 30
0.0
 10
33.3147
 20
-67.9848
 30
0.0
 10
33.4345
 20
-68.265
 30
0.0
 10
33.4345
 20
-68.265
 30
0.0
 10
33.9245
 20
-69.4123
 30
0.0
 10
34.4337
 20
-71.1157
 30
0.0
 10
35.6831
 20
-71.1157
 30
0.0
 10
35.6831
 20
-71.1157
 30
0.0
 10
36.5997
 20
-71.1157
 30
0.0
 10
37.3282
 20
-70.8416
 30
0.0
 10
38.1586
 20
-70.3809
 30
0.0
 10
38.1586
 20
-70.3809
 30
0.0
 10
40.3781
 20
-69.1493
 30
0.0
 10
39.0937
 20
-67.5287
 30
0.0
 10
38.1827
 20
-65.4044
 30
0.0
 10
38.1827
 20
-65.4044
 30
0.0
 10
38.1827
 20
-65.4044
 30
0.0
 10
36.879
 20
-62.3009
 30
0.0
 10
36.879
 20
-62.3009
 30
0.0
 10
36.879
 20
-62.3009
 30
0.0
 10
37.2356
 20
-61.7683
 30
0.0
 10
37.5491
 20
-61.8577
 30
0.0
 10
38.4537
 20
-60.0354
 30
0.0
 10
38.4537
 20
-60.0354
 30
0.0
 10
39.3772
 20
-58.1751
 30
0.0
 10
39.3948
 20
-55.0419
 30
0.0
 10
38.4325
 20
-53.1285
 30
0.0
 10
38.4325
 20
-53.1285
 30
0.0
 10
38.1876
 20
-52.6417
 30
0.0
 10
38.0019
 20
-52.2702
 30
0.0
 10
37.711
 20
-51.8354
 30
0.0
 10
37.711
 20
-51.8354
 30
0.0
 10
37.4296
 20
-51.4149
 30
0.0
 10
37.1197
 20
-51.1158
 30
0.0
 10
36.7689
 20
-50.7629
 30
0.0
 10
36.7689
 20
-50.7629
 30
0.0
 10
36.4252
 20
-50.4171
 30
0.0
 10
36.0686
 20
-50.1461
 30
0.0
 10
35.6462
 20
-49.8711
 30
0.0
 10
35.6462
 20
-49.8711
 30
0.0
 10
35.4265
 20
-49.7282
 30
0.0
 10
35.2484
 20
-49.6227
 30
0.0
 10
35.0177
 20
-49.4924
 30
0.0
 10
35.0177
 20
-49.4924
 30
0.0
 10
33.8373
 20
-48.8257
 30
0.0
 10
32.6083
 20
-48.3861
 30
0.0
 10
31.0251
 20
-48.3861
 30
0.0
 10
31.0251
 20
-48.3861
 30
0.0
 10
31.0251
 20
-48.3861
 30
0.0
 10
24.4787
 20
-48.3861
 30
0.0
 10
24.4787
 20
-48.3861
 30
0.0
 10
24.4787
 20
-48.3861
 30
0.0
 10
22.1834
 20
-48.3861
 30
0.0
 10
21.6461
 20
-49.0425
 30
0.0
 10
21.6461
 20
-51.2195
 30
0.0
  0
SPLINE
  5
77
330
1F
100
AcDbEntity
  8
Layer 1
100
AcDbSpline
210
0.0
220
0.0
230
1.0
 70
    11
 71
     3
 72
   112
 73
   108
 74
     0
 42
0.000000001
 43
0.0000000001
 40
0.0
 40
0.0
 40
0.0
 40
0.0
 40
0.0357142857142857
 40
0.0357142857142857
 40
0.0357142857142857
 40
0.0357142857142857
 40
0.0714285714285714
 40
0.0714285714285714
 40
0.0714285714285714
 40
0.0714285714285714
 40
0.1071428571428571
 40
0.1071428571428571
 40
0.1071428571428571
 40
0.1071428571428571
 40
0.1428571428571428
 40
0.1428571428571428
 40
0.1428571428571428
 40
0.1428571428571428
 40
0.1785714285714286
 40
0.1785714285714286
 40
0.1785714285714286
 40
0.1785714285714286
 40
0.2142857142857143
 40
0.2142857142857143
 40
0.2142857142857143
 40
0.2142857142857143
 40
0.25
 40
0.25
 40
0.25
 40
0.25
 40
0.2857142857142857
 40
0.2857142857142857
 40
0.2857142857142857
 40
0.2857142857142857
 40
0.3214285714285715
 40
0.3214285714285715
 40
0.3214285714285715
 40
0.3214285714285715
 40
0.3571428571428572
 40
0.3571428571428572
 40
0.3571428571428572
 40
0.3571428571428572
 40
0.3928571428571428
 40
0.3928571428571428
 40
0.3928571428571428
 40
0.3928571428571428
 40
0.4285714285714285
 40
0.4285714285714285
 40
0.4285714285714285
 40
0.4285714285714285
 40
0.4642857142857143
 40
0.4642857142857143
 40
0.4642857142857143
 40
0.4642857142857143
 40
0.5
 40
0.5
 40
0.5
 40
0.5
 40
0.5357142857142857
 40
0.5357142857142857
 40
0.5357142857142857
 40
0.5357142857142857
 40
0.5714285714285714
 40
0.5714285714285714
 40
0.5714285714285714
 40
0.5714285714285714
 40
0.6071428571428571
 40
0.6071428571428571
 40
0.6071428571428571
 40
0.6071428571428571
 40
0.6428571428571429
 40
0.6428571428571429
 40
0.6428571428571429
 40
0.6428571428571429
 40
0.6785714285714286
 40
0.6785714285714286
 40
0.6785714285714286
 40
0.6785714285714286
 40
0.7142857142857143
 40
0.7142857142857143
 40
0.7142857142857143
 40
0.7142857142857143
 40
0.75
 40
0.75
 40
0.75
 40
0.75
 40
0.7857142857142857
 40
0.7857142857142857
 40
0.7857142857142857
 40
0.7857142857142857
 40
0.8214285714285714
 40
0.8214285714285714
 40
0.8214285714285714
 40
0.8214285714285714
 40
0.8571428571428571
 40
0.8571428571428571
 40
0.8571428571428571
 40
0.8571428571428571
 40
0.8928571428571429
 40
0.8928571428571429
 40
0.8928571428571429
 40
0.8928571428571429
 40
0.9285714285714286
 40
0.9285714285714286
 40
0.9285714285714286
 40
0.9285714285714286
 40
1.0
 40
1.0
 40
1.0
 40
1.0
 10
80.8152
 20
-66.3306
 30
0.0
 10
82.2985
 20
-66.3306
 30
0.0
 10
84.7038
 20
-65.4825
 30
0.0
 10
86.2008
 20
-65.1066
 30
0.0
 10
86.2008
 20
-65.1066
 30
0.0
 10
86.2008
 20
-65.1066
 30
0.0
 10
93.242
 20
-63.209
 30
0.0
 10
93.242
 20
-63.209
 30
0.0
 10
93.242
 20
-63.209
 30
0.0
 10
94.7593
 20
-62.7794
 30
0.0
 10
96.1739
 20
-62.6707
 30
0.0
 10
96.1739
 20
-60.9158
 30
0.0
 10
96.1739
 20
-60.9158
 30
0.0
 10
96.1739
 20
-60.1497
 30
0.0
 10
95.867
 20
-59.1642
 30
0.0
 10
95.6077
 20
-58.6488
 30
0.0
 10
95.6077
 20
-58.6488
 30
0.0
 10
94.8686
 20
-57.1798
 30
0.0
 10
94.0768
 20
-57.3094
 30
0.0
 10
92.5857
 20
-57.7044
 30
0.0
 10
92.5857
 20
-57.7044
 30
0.0
 10
92.5857
 20
-57.7044
 30
0.0
 10
83.5848
 20
-60.0972
 30
0.0
 10
83.5848
 20
-60.0972
 30
0.0
 10
83.5848
 20
-60.0972
 30
0.0
 10
83.4347
 20
-60.0972
 30
0.0
 10
82.7691
 20
-57.3184
 30
0.0
 10
82.7664
 20
-57.201
 30
0.0
 10
82.7664
 20
-57.201
 30
0.0
 10
82.9991
 20
-57.0893
 30
0.0
 10
83.5684
 20
-56.9721
 30
0.0
 10
83.8434
 20
-56.893
 30
0.0
 10
83.8434
 20
-56.893
 30
0.0
 10
84.235
 20
-56.7804
 30
0.0
 10
84.5893
 20
-56.711
 30
0.0
 10
84.9918
 20
-56.5936
 30
0.0
 10
84.9918
 20
-56.5936
 30
0.0
 10
85.7725
 20
-56.3659
 30
0.0
 10
86.4824
 20
-56.2016
 30
0.0
 10
87.2719
 20
-55.9781
 30
0.0
 10
87.2719
 20
-55.9781
 30
0.0
 10
88.0483
 20
-55.7583
 30
0.0
 10
88.7475
 20
-55.6129
 30
0.0
 10
89.4571
 20
-55.3304
 30
0.0
 10
89.4571
 20
-55.3304
 30
0.0
 10
91.2512
 20
-54.6162
 30
0.0
 10
90.7906
 20
-52.8364
 30
0.0
 10
90.1589
 20
-51.3175
 30
0.0
 10
90.1589
 20
-51.3175
 30
0.0
 10
89.4361
 20
-49.5797
 30
0.0
 10
88.0875
 20
-50.0607
 30
0.0
 10
86.614
 20
-50.4718
 30
0.0
 10
86.614
 20
-50.4718
 30
0.0
 10
86.0361
 20
-50.633
 30
0.0
 10
85.477
 20
-50.7595
 30
0.0
 10
84.8702
 20
-50.9313
 30
0.0
 10
84.8702
 20
-50.9313
 30
0.0
 10
84.4773
 20
-51.0425
 30
0.0
 10
81.6385
 20
-51.842
 30
0.0
 10
81.3187
 20
-51.8491
 30
0.0
 10
81.3187
 20
-51.8491
 30
0.0
 10
81.2502
 20
-51.7062
 30
0.0
 10
80.5633
 20
-49.2107
 30
0.0
 10
80.5633
 20
-49.0787
 30
0.0
 10
80.5633
 20
-49.0787
 30
0.0
 10
80.5633
 20
-48.8446
 30
0.0
 10
80.7677
 20
-48.8935
 30
0.0
 10
81.1996
 20
-48.7707
 30
0.0
 10
81.1996
 20
-48.7707
 30
0.0
 10
83.4552
 20
-48.1293
 30
0.0
 10
85.9822
 20
-47.5435
 30
0.0
 10
88.2016
 20
-46.8969
 30
0.0
 10
88.2016
 20
-46.8969
 30
0.0
 10
89.3826
 20
-46.5528
 30
0.0
 10
91.168
 20
-46.3357
 30
0.0
 10
91.6006
 20
-45.3228
 30
0.0
 10
91.6006
 20
-45.3228
 30
0.0
 10
92.0963
 20
-44.1623
 30
0.0
 10
91.25
 20
-41.8257
 30
0.0
 10
90.6472
 20
-41.3218
 30
0.0
 10
90.6472
 20
-41.3218
 30
0.0
 10
89.7225
 20
-40.5489
 30
0.0
 10
88.1937
 20
-41.2409
 30
0.0
 10
87.1892
 20
-41.4767
 30
0.0
 10
87.1892
 20
-41.4767
 30
0.0
 10
85.8712
 20
-41.7861
 30
0.0
 10
83.9404
 20
-42.3728
 30
0.0
 10
82.5278
 20
-42.7327
 30
0.0
 10
82.5278
 20
-42.7327
 30
0.0
 10
81.513
 20
-42.9912
 30
0.0
 10
76.4508
 20
-44.315
 30
0.0
 10
75.5805
 20
-44.6612
 30
0.0
 10
75.5805
 20
-44.6612
 30
0.0
 10
74.8507
 20
-44.9515
 30
0.0
 10
74.3459
 20
-45.3918
 30
0.0
 10
74.2744
 20
-46.3181
 30
0.0
 10
74.2744
 20
-46.3181
 30
0.0
 10
74.2119
 20
-47.1274
 30
0.0
 10
76.3243
 20
-54.5157
 30
0.0
 10
76.6477
 20
-55.7028
 30
0.0
 10
76.6477
 20
-55.7028
 30
0.0
 10
76.6477
 20
-55.7028
 30
0.0
 10
79.1697
 20
-65.0172
 30
0.0
 10
79.1697
 20
-65.0172
 30
0.0
 10
79.1697
 20
-65.0172
 30
0.0
 10
79.4217
 20
-65.7174
 30
0.0
 10
79.8789
 20
-66.3306
 30
0.0
 10
80.8152
 20
-66.3306
 30
0.0
  0
SPLINE
  5
78
330
1F
100
AcDbEntity
  8
Layer 1
100
AcDbSpline
210
0.0
220
0.0
230
1.0
 70
    11
 71
     3
 72
   120
 73
   116
 74
     0
 42
0.000000001
 43
0.0000000001
 40
0.0
 40
0.0
 40
0.0
 40
0.0
 40
0.0333333333333333
 40
0.0333333333333333
 40
0.0333333333333333
 40
0.0333333333333333
 40
0.0666666666666667
 40
0.0666666666666667
 40
0.0666666666666667
 40
0.0666666666666667
 40
0.1
 40
0.1
 40
0.1
 40
0.1
 40
0.1333333333333333
 40
0.1333333333333333
 40
0.1333333333333333
 40
0.1333333333333333
 40
0.1666666666666667
 40
0.1666666666666667
 40
0.1666666666666667
 40
0.1666666666666667
 40
0.2
 40
0.2
 40
0.2
 40
0.2
 40
0.2333333333333333
 40
0.2333333333333333
 40
0.2333333333333333
 40
0.2333333333333333
 40
0.2666666666666667
 40
0.2666666666666667
 40
0.2666666666666667
 40
0.2666666666666667
 40
0.3
 40
0.3
 40
0.3
 40
0.3
 40
0.3333333333333333
 40
0.3333333333333333
 40
0.3333333333333333
 40
0.3333333333333333
 40
0.3666666666666666
 40
0.3666666666666666
 40
0.3666666666666666
 40
0.3666666666666666
 40
0.4
 40
0.4
 40
0.4
 40
0.4
 40
0.4333333333333333
 40
0.4333333333333333
 40
0.4333333333333333
 40
0.4333333333333333
 40
0.4666666666666667
 40
0.4666666666666667
 40
0.4666666666666667
 40
0.4666666666666667
 40
0.5
 40
0.5
 40
0.5
 40
0.5
 40
0.5333333333333333
 40
0.5333333333333333
 40
0.5333333333333333
 40
0.5333333333333333
 40
0.5666666666666667
 40
0.5666666666666667
 40
0.5666666666666667
 40
0.5666666666666667
 40
0.6
 40
0.6
 40
0.6
 40
0.6
 40
0.6333333333333333
 40
0.6333333333333333
 40
0.6333333333333333
 40
0.6333333333333333
 40
0.6666666666666666
 40
0.6666666666666666
 40
0.6666666666666666
 40
0.6666666666666666
 40
0.7
 40
0.7
 40
0.7
 40
0.7
 40
0.7333333333333333
 40
0.7333333333333333
 40
0.7333333333333333
 40
0.7333333333333333
 40
0.7666666666666667
 40
0.7666666666666667
 40
0.7666666666666667
 40
0.7666666666666667
 40
0.8
 40
0.8
 40
0.8
 40
0.8
 40
0.8333333333333334
 40
0.8333333333333334
 40
0.8333333333333334
 40
0.8333333333333334
 40
0.8666666666666667
 40
0.8666666666666667
 40
0.8666666666666667
 40
0.8666666666666667
 40
0.9
 40
0.9
 40
0.9
 40
0.9
 40
0.9333333333333333
 40
0.9333333333333333
 40
0.9333333333333333
 40
0.9333333333333333
 40
1.0
 40
1.0
 40
1.0
 40
1.0
 10
55.8257
 20
-53.2343
 30
0.0
 10
56.6124
 20
-53.2343
 30
0.0
 10
61.7497
 20
-52.5255
 30
0.0
 10
62.9421
 20
-52.3563
 30
0.0
 10
62.9421
 20
-52.3563
 30
0.0
 10
63.2297
 20
-52.3156
 30
0.0
 10
63.6713
 20
-52.233
 30
0.0
 10
63.9457
 20
-52.2269
 30
0.0
 10
63.9457
 20
-52.2269
 30
0.0
 10
63.9457
 20
-52.2269
 30
0.0
 10
61.7644
 20
-56.2783
 30
0.0
 10
61.7644
 20
-56.2783
 30
0.0
 10
61.7644
 20
-56.2783
 30
0.0
 10
60.955
 20
-57.8863
 30
0.0
 10
59.7737
 20
-59.8822
 30
0.0
 10
58.9092
 20
-61.5446
 30
0.0
 10
58.9092
 20
-61.5446
 30
0.0
 10
58.9092
 20
-61.5446
 30
0.0
 10
57.6503
 20
-63.8742
 30
0.0
 10
57.6503
 20
-63.8742
 30
0.0
 10
57.6503
 20
-63.8742
 30
0.0
 10
57.4481
 20
-64.2646
 30
0.0
 10
57.2639
 20
-64.6288
 30
0.0
 10
57.0417
 20
-65.0284
 30
0.0
 10
57.0417
 20
-65.0284
 30
0.0
 10
56.6375
 20
-65.7553
 30
0.0
 10
55.9388
 20
-66.812
 30
0.0
 10
56.0283
 20
-67.571
 30
0.0
 10
56.0283
 20
-67.571
 30
0.0
 10
56.1486
 20
-68.5901
 30
0.0
 10
56.4656
 20
-69.3786
 30
0.0
 10
57.3709
 20
-69.8849
 30
0.0
 10
57.3709
 20
-69.8849
 30
0.0
 10
58.5123
 20
-70.5234
 30
0.0
 10
59.4276
 20
-70.2349
 30
0.0
 10
60.8418
 20
-70.0259
 30
0.0
 10
60.8418
 20
-70.0259
 30
0.0
 10
60.8418
 20
-70.0259
 30
0.0
 10
67.1731
 20
-69.1811
 30
0.0
 10
67.1731
 20
-69.1811
 30
0.0
 10
67.1731
 20
-69.1811
 30
0.0
 10
68.3664
 20
-69.0303
 30
0.0
 10
72.4273
 20
-68.6295
 30
0.0
 10
73.3139
 20
-68.2088
 30
0.0
 10
73.3139
 20
-68.2088
 30
0.0
 10
74.3151
 20
-67.7338
 30
0.0
 10
74.2059
 20
-66.8285
 30
0.0
 10
74.2059
 20
-65.8269
 30
0.0
 10
74.2059
 20
-65.8269
 30
0.0
 10
74.2059
 20
-65.2935
 30
0.0
 10
73.9543
 20
-64.2992
 30
0.0
 10
73.7307
 20
-63.9725
 30
0.0
 10
73.7307
 20
-63.9725
 30
0.0
 10
73.091
 20
-63.0379
 30
0.0
 10
72.0047
 20
-63.1167
 30
0.0
 10
70.9585
 20
-63.2713
 30
0.0
 10
70.9585
 20
-63.2713
 30
0.0
 10
70.9585
 20
-63.2713
 30
0.0
 10
63.631
 20
-64.2528
 30
0.0
 10
63.631
 20
-64.2528
 30
0.0
 10
63.631
 20
-64.2528
 30
0.0
 10
63.631
 20
-64.2528
 30
0.0
 10
68.686
 20
-54.8907
 30
0.0
 10
68.686
 20
-54.8907
 30
0.0
 10
68.686
 20
-54.8907
 30
0.0
 10
68.8719
 20
-54.5476
 30
0.0
 10
69.0061
 20
-54.2961
 30
0.0
 10
69.1915
 20
-53.9482
 30
0.0
 10
69.1915
 20
-53.9482
 30
0.0
 10
69.1915
 20
-53.9482
 30
0.0
 10
70.7231
 20
-51.1358
 30
0.0
 10
70.7231
 20
-51.1358
 30
0.0
 10
70.7231
 20
-51.1358
 30
0.0
 10
70.8181
 20
-50.9594
 30
0.0
 10
70.8584
 20
-50.8499
 30
0.0
 10
70.9533
 20
-50.6735
 30
0.0
 10
70.9533
 20
-50.6735
 30
0.0
 10
71.0584
 20
-50.4782
 30
0.0
 10
71.122
 20
-50.4008
 30
0.0
 10
71.2273
 20
-50.1919
 30
0.0
 10
71.2273
 20
-50.1919
 30
0.0
 10
71.7934
 20
-49.069
 30
0.0
 10
71.5681
 20
-47.8736
 30
0.0
 10
70.8856
 20
-47.111
 30
0.0
 10
70.8856
 20
-47.111
 30
0.0
 10
69.5467
 20
-45.6148
 30
0.0
 10
67.89
 20
-46.3287
 30
0.0
 10
65.9654
 20
-46.5027
 30
0.0
 10
65.9654
 20
-46.5027
 30
0.0
 10
65.7593
 20
-46.5213
 30
0.0
 10
65.4846
 20
-46.5843
 30
0.0
 10
65.3133
 20
-46.606
 30
0.0
 10
65.3133
 20
-46.606
 30
0.0
 10
65.0422
 20
-46.6402
 30
0.0
 10
64.8628
 20
-46.6501
 30
0.0
 10
64.6344
 20
-46.6825
 30
0.0
 10
64.6344
 20
-46.6825
 30
0.0
 10
64.6344
 20
-46.6825
 30
0.0
 10
60.6833
 20
-47.2007
 30
0.0
 10
60.6833
 20
-47.2007
 30
0.0
 10
60.6833
 20
-47.2007
 30
0.0
 10
59.8299
 20
-47.3221
 30
0.0
 10
58.8713
 20
-47.4353
 30
0.0
 10
58.0179
 20
-47.5568
 30
0.0
 10
58.0179
 20
-47.5568
 30
0.0
 10
56.8442
 20
-47.7238
 30
0.0
 10
55.1487
 20
-47.756
 30
0.0
 10
54.3668
 20
-48.3749
 30
0.0
 10
54.3668
 20
-48.3749
 30
0.0
 10
53.3355
 20
-49.1912
 30
0.0
 10
53.7201
 20
-52.023
 30
0.0
 10
54.6757
 20
-52.8735
 30
0.0
 10
54.6757
 20
-52.8735
 30
0.0
 10
54.8999
 20
-53.0732
 30
0.0
 10
55.4222
 20
-53.2343
 30
0.0
 10
55.8257
 20
-53.2343
 30
0.0
  0
SPLINE
  5
79
330
1F
100
AcDbEntity
  8
Layer 1
100
AcDbSpline
210
0.0
220
0.0
230
1.0
 70
    11
 71
     3
 72
    84
 73
    80
 74
     0
 42
0.000000001
 43
0.0000000001
 40
0.0
 40
0.0
 40
0.0
 40
0.0
 40
0.0476190476190476
 40
0.0476190476190476
 40
0.0476190476190476
 40
0.0476190476190476
 40
0.0952380952380952
 40
0.0952380952380952
 40
0.0952380952380952
 40
0.0952380952380952
 40
0.1428571428571428
 40
0.1428571428571428
 40
0.1428571428571428
 40
0.1428571428571428
 40
0.1904761904761905
 40
0.1904761904761905
 40
0.1904761904761905
 40
0.1904761904761905
 40
0.2380952380952381
 40
0.2380952380952381
 40
0.2380952380952381
 40
0.2380952380952381
 40
0.2857142857142857
 40
0.2857142857142857
 40
0.2857142857142857
 40
0.2857142857142857
 40
0.3333333333333333
 40
0.3333333333333333
 40
0.3333333333333333
 40
0.3333333333333333
 40
0.3809523809523809
 40
0.3809523809523809
 40
0.3809523809523809
 40
0.3809523809523809
 40
0.4285714285714285
 40
0.4285714285714285
 40
0.4285714285714285
 40
0.4285714285714285
 40
0.4761904761904762
 40
0.4761904761904762
 40
0.4761904761904762
 40
0.4761904761904762
 40
0.5238095238095238
 40
0.5238095238095238
 40
0.5238095238095238
 40
0.5238095238095238
 40
0.5714285714285714
 40
0.5714285714285714
 40
0.5714285714285714
 40
0.5714285714285714
 40
0.6190476190476191
 40
0.6190476190476191
 40
0.6190476190476191
 40
0.6190476190476191
 40
0.6666666666666666
 40
0.6666666666666666
 40
0.6666666666666666
 40
0.6666666666666666
 40
0.7142857142857143
 40
0.7142857142857143
 40
0.7142857142857143
 40
0.7142857142857143
 40
0.7619047619047619
 40
0.7619047619047619
 40
0.7619047619047619
 40
0.7619047619047619
 40
0.8095238095238095
 40
0.8095238095238095
 40
0.8095238095238095
 40
0.8095238095238095
 40
0.8571428571428571
 40
0.8571428571428571
 40
0.8571428571428571
 40
0.8571428571428571
 40
0.9047619047619048
 40
0.9047619047619048
 40
0.9047619047619048
 40
0.9047619047619048
 40
1.0
 40
1.0
 40
1.0
 40
1.0
 10
-6.9941
 20
13.6954
 30
0.0
 10
-5.2449
 20
13.6954
 30
0.0
 10
-4.3086
 20
13.8023
 30
0.0
 10
-2.6923
 20
14.5553
 30
0.0
 10
-2.6923
 20
14.5553
 30
0.0
 10
-0.6904
 20
15.4881
 30
0.0
 10
0.6666
 20
16.9433
 30
0.0
 10
1.6505
 20
18.9002
 30
0.0
 10
1.6505
 20
18.9002
 30
0.0
 10
2.9115
 20
21.4085
 30
0.0
 10
2.706
 20
24.0721
 30
0.0
 10
1.6842
 20
26.5945
 30
0.0
 10
1.6842
 20
26.5945
 30
0.0
 10
1.5828
 20
26.8447
 30
0.0
 10
1.4397
 20
27.0527
 30
0.0
 10
1.3152
 20
27.2958
 30
0.0
 10
1.3152
 20
27.2958
 30
0.0
 10
1.1932
 20
27.5341
 30
0.0
 10
1.0551
 20
27.7147
 30
0.0
 10
0.8994
 20
27.9504
 30
0.0
 10
0.8994
 20
27.9504
 30
0.0
 10
0.8994
 20
27.9504
 30
0.0
 10
-0.0539
 20
29.1375
 30
0.0
 10
-0.0539
 20
29.1375
 30
0.0
 10
-0.0539
 20
29.1375
 30
0.0
 10
-0.3555
 20
29.4818
 30
0.0
 10
-1.4093
 20
30.2873
 30
0.0
 10
-1.8522
 20
30.5499
 30
0.0
 10
-1.8522
 20
30.5499
 30
0.0
 10
-2.11
 20
30.7028
 30
0.0
 10
-2.269
 20
30.787
 30
0.0
 10
-2.5458
 20
30.9263
 30
0.0
 10
-2.5458
 20
30.9263
 30
0.0
 10
-3.5994
 20
31.4567
 30
0.0
 10
-4.7972
 20
31.758
 30
0.0
 10
-6.0171
 20
31.8287
 30
0.0
 10
-6.0171
 20
31.8287
 30
0.0
 10
-6.0171
 20
31.8287
 30
0.0
 10
-7.1442
 20
31.8287
 30
0.0
 10
-7.1442
 20
31.8287
 30
0.0
 10
-7.1442
 20
31.8287
 30
0.0
 10
-8.3917
 20
31.7561
 30
0.0
 10
-9.6233
 20
31.4425
 30
0.0
 10
-10.7097
 20
30.886
 30
0.0
 10
-10.7097
 20
30.886
 30
0.0
 10
-10.9377
 20
30.7692
 30
0.0
 10
-11.1439
 20
30.6272
 30
0.0
 10
-11.3807
 20
30.4868
 30
0.0
 10
-11.3807
 20
30.4868
 30
0.0
 10
-11.6458
 20
30.3297
 30
0.0
 10
-11.8151
 20
30.2137
 30
0.0
 10
-12.0577
 20
30.0307
 30
0.0
 10
-12.0577
 20
30.0307
 30
0.0
 10
-13.5772
 20
28.8842
 30
0.0
 10
-14.599
 20
27.364
 30
0.0
 10
-15.2406
 20
25.533
 30
0.0
 10
-15.2406
 20
25.533
 30
0.0
 10
-15.2885
 20
25.3963
 30
0.0
 10
-15.3211
 20
25.2175
 30
0.0
 10
-15.3583
 20
25.0841
 30
0.0
 10
-15.3583
 20
25.0841
 30
0.0
 10
-15.7185
 20
23.791
 30
0.0
 10
-15.5393
 20
23.8474
 30
0.0
 10
-15.6349
 20
23.1569
 30
0.0
 10
-15.6349
 20
23.1569
 30
0.0
 10
-15.8015
 20
21.9546
 30
0.0
 10
-15.3602
 20
20.1498
 30
0.0
 10
-14.8648
 20
19.0448
 30
0.0
 10
-14.8648
 20
19.0448
 30
0.0
 10
-14.6335
 20
18.5288
 30
0.0
 10
-14.3877
 20
18.0926
 30
0.0
 10
-14.0792
 20
17.6269
 30
0.0
 10
-14.0792
 20
17.6269
 30
0.0
 10
-13.951
 20
17.4333
 30
0.0
 10
-13.7645
 20
17.1855
 30
0.0
 10
-13.6176
 20
17.0183
 30
0.0
 10
-13.6176
 20
17.0183
 30
0.0
 10
-11.9836
 20
15.1593
 30
0.0
 10
-9.6449
 20
13.6954
 30
0.0
 10
-6.9941
 20
13.6954
 30
0.0
  0
SPLINE
  5
7A
330
1F
100
AcDbEntity
  8
Layer 1
100
AcDbSpline
210
0.0
220
0.0
230
1.0
 70
    11
 71
     3
 72
   112
 73
   108
 74
     0
 42
0.000000001
 43
0.0000000001
 40
0.0
 40
0.0
 40
0.0
 40
0.0
 40
0.0357142857142857
 40
0.0357142857142857
 40
0.0357142857142857
 40
0.0357142857142857
 40
0.0714285714285714
 40
0.0714285714285714
 40
0.0714285714285714
 40
0.0714285714285714
 40
0.1071428571428571
 40
0.1071428571428571
 40
0.1071428571428571
 40
0.1071428571428571
 40
0.1428571428571428
 40
0.1428571428571428
 40
0.1428571428571428
 40
0.1428571428571428
 40
0.1785714285714286
 40
0.1785714285714286
 40
0.1785714285714286
 40
0.1785714285714286
 40
0.2142857142857143
 40
0.2142857142857143
 40
0.2142857142857143
 40
0.2142857142857143
 40
0.25
 40
0.25
 40
0.25
 40
0.25
 40
0.2857142857142857
 40
0.2857142857142857
 40
0.2857142857142857
 40
0.2857142857142857
 40
0.3214285714285715
 40
0.3214285714285715
 40
0.3214285714285715
 40
0.3214285714285715
 40
0.3571428571428572
 40
0.3571428571428572
 40
0.3571428571428572
 40
0.3571428571428572
 40
0.3928571428571428
 40
0.3928571428571428
 40
0.3928571428571428
 40
0.3928571428571428
 40
0.4285714285714285
 40
0.4285714285714285
 40
0.4285714285714285
 40
0.4285714285714285
 40
0.4642857142857143
 40
0.4642857142857143
 40
0.4642857142857143
 40
0.4642857142857143
 40
0.5
 40
0.5
 40
0.5
 40
0.5
 40
0.5357142857142857
 40
0.5357142857142857
 40
0.5357142857142857
 40
0.5357142857142857
 40
0.5714285714285714
 40
0.5714285714285714
 40
0.5714285714285714
 40
0.5714285714285714
 40
0.6071428571428571
 40
0.6071428571428571
 40
0.6071428571428571
 40
0.6071428571428571
 40
0.6428571428571429
 40
0.6428571428571429
 40
0.6428571428571429
 40
0.6428571428571429
 40
0.6785714285714286
 40
0.6785714285714286
 40
0.6785714285714286
 40
0.6785714285714286
 40
0.7142857142857143
 40
0.7142857142857143
 40
0.7142857142857143
 40
0.7142857142857143
 40
0.75
 40
0.75
 40
0.75
 40
0.75
 40
0.7857142857142857
 40
0.7857142857142857
 40
0.7857142857142857
 40
0.7857142857142857
 40
0.8214285714285714
 40
0.8214285714285714
 40
0.8214285714285714
 40
0.8214285714285714
 40
0.8571428571428571
 40
0.8571428571428571
 40
0.8571428571428571
 40
0.8571428571428571
 40
0.8928571428571429
 40
0.8928571428571429
 40
0.8928571428571429
 40
0.8928571428571429
 40
0.9285714285714286
 40
0.9285714285714286
 40
0.9285714285714286
 40
0.9285714285714286
 40
1.0
 40
1.0
 40
1.0
 40
1.0
 10
-62.2604
 20
-71.2417
 30
0.0
 10
-60.9175
 20
-71.2417
 30
0.0
 10
-60.8932
 20
-71.2641
 30
0.0
 10
-59.5063
 20
-70.9744
 30
0.0
 10
-59.5063
 20
-70.9744
 30
0.0
 10
-58.5785
 20
-70.7806
 30
0.0
 10
-57.2415
 20
-70.2884
 30
0.0
 10
-56.41
 20
-69.79
 30
0.0
 10
-56.41
 20
-69.79
 30
0.0
 10
-56.41
 20
-69.79
 30
0.0
 10
-55.1032
 20
-68.9565
 30
0.0
 10
-55.1032
 20
-68.9565
 30
0.0
 10
-55.1032
 20
-68.9565
 30
0.0
 10
-54.6674
 20
-68.5877
 30
0.0
 10
-54.372
 20
-68.3566
 30
0.0
 10
-54.2446
 20
-67.6694
 30
0.0
 10
-54.2446
 20
-67.6694
 30
0.0
 10
-54.0749
 20
-66.7544
 30
0.0
 10
-55.6086
 20
-64.0009
 30
0.0
 10
-57.036
 20
-64.0009
 30
0.0
 10
-57.036
 20
-64.0009
 30
0.0
 10
-57.5078
 20
-64.0009
 30
0.0
 10
-58.3022
 20
-64.4892
 30
0.0
 10
-58.6105
 20
-64.6927
 30
0.0
 10
-58.6105
 20
-64.6927
 30
0.0
 10
-59.32
 20
-65.1608
 30
0.0
 10
-59.2849
 20
-65.1969
 30
0.0
 10
-60.1597
 20
-65.4726
 30
0.0
 10
-60.1597
 20
-65.4726
 30
0.0
 10
-63.6567
 20
-66.5749
 30
0.0
 10
-68.0515
 20
-64.1983
 30
0.0
 10
-68.0515
 20
-59.9713
 30
0.0
 10
-68.0515
 20
-59.9713
 30
0.0
 10
-68.0515
 20
-58.8191
 30
0.0
 10
-67.9941
 20
-58.0079
 30
0.0
 10
-67.5025
 20
-56.9944
 30
0.0
 10
-67.5025
 20
-56.9944
 30
0.0
 10
-67.4273
 20
-56.8394
 30
0.0
 10
-67.3452
 20
-56.7176
 30
0.0
 10
-67.2531
 20
-56.5514
 30
0.0
 10
-67.2531
 20
-56.5514
 30
0.0
 10
-66.6529
 20
-55.4697
 30
0.0
 10
-65.6212
 20
-54.6863
 30
0.0
 10
-64.4906
 20
-54.2146
 30
0.0
 10
-64.4906
 20
-54.2146
 30
0.0
 10
-62.8469
 20
-53.5289
 30
0.0
 10
-60.848
 20
-53.427
 30
0.0
 10
-59.2705
 20
-54.2731
 30
0.0
 10
-59.2705
 20
-54.2731
 30
0.0
 10
-57.8684
 20
-55.0251
 30
0.0
 10
-56.9392
 20
-56.3991
 30
0.0
 10
-55.183
 20
-54.1433
 30
0.0
 10
-55.183
 20
-54.1433
 30
0.0
 10
-54.9584
 20
-53.8547
 30
0.0
 10
-54.7601
 20
-53.5997
 30
0.0
 10
-54.5831
 20
-53.2952
 30
0.0
 10
-54.5831
 20
-53.2952
 30
0.0
 10
-53.5279
 20
-51.4806
 30
0.0
 10
-54.7664
 20
-50.5741
 30
0.0
 10
-56.1742
 20
-49.7908
 30
0.0
 10
-56.1742
 20
-49.7908
 30
0.0
 10
-56.4963
 20
-49.6116
 30
0.0
 10
-56.7086
 20
-49.4489
 30
0.0
 10
-57.0564
 20
-49.2881
 30
0.0
 10
-57.0564
 20
-49.2881
 30
0.0
 10
-60.1497
 20
-47.8583
 30
0.0
 10
-63.6863
 20
-47.8087
 30
0.0
 10
-66.7719
 20
-49.2882
 30
0.0
 10
-66.7719
 20
-49.2882
 30
0.0
 10
-68.8594
 20
-50.2892
 30
0.0
 10
-70.1801
 20
-51.1573
 30
0.0
 10
-71.5948
 20
-53.027
 30
0.0
 10
-71.5948
 20
-53.027
 30
0.0
 10
-72.7332
 20
-54.5315
 30
0.0
 10
-73.2667
 20
-56.4321
 30
0.0
 10
-73.5107
 20
-58.2884
 30
0.0
 10
-73.5107
 20
-58.2884
 30
0.0
 10
-73.5414
 20
-58.5215
 30
0.0
 10
-73.5128
 20
-58.732
 30
0.0
 10
-73.5311
 20
-58.9605
 30
0.0
 10
-73.5311
 20
-58.9605
 30
0.0
 10
-73.5512
 20
-59.2108
 30
0.0
 10
-73.6056
 20
-59.3223
 30
0.0
 10
-73.5942
 20
-59.6571
 30
0.0
 10
-73.5942
 20
-59.6571
 30
0.0
 10
-73.5849
 20
-59.9299
 30
0.0
 10
-73.5327
 20
-60.0118
 30
0.0
 10
-73.5261
 20
-60.2845
 30
0.0
 10
-73.5261
 20
-60.2845
 30
0.0
 10
-73.4791
 20
-62.2065
 30
0.0
 10
-72.7373
 20
-64.7027
 30
0.0
 10
-71.5942
 20
-66.2224
 30
0.0
 10
-71.5942
 20
-66.2224
 30
0.0
 10
-71.2636
 20
-66.6619
 30
0.0
 10
-70.7856
 20
-67.3279
 30
0.0
 10
-70.3575
 20
-67.6928
 30
0.0
 10
-70.3575
 20
-67.6928
 30
0.0
 10
-70.3575
 20
-67.6928
 30
0.0
 10
-70.1857
 20
-67.8358
 30
0.0
 10
-70.1857
 20
-67.8358
 30
0.0
 10
-70.1857
 20
-67.8358
 30
0.0
 10
-70.1414
 20
-67.8732
 30
0.0
 10
-70.1388
 20
-67.8734
 30
0.0
 10
-70.0839
 20
-67.9228
 30
0.0
 10
-70.0839
 20
-67.9228
 30
0.0
 10
-68.0197
 20
-69.7805
 30
0.0
 10
-65.0462
 20
-71.2417
 30
0.0
 10
-62.2604
 20
-71.2417
 30
0.0
  0
SPLINE
  5
7B
330
1F
100
AcDbEntity
  8
Layer 1
100
AcDbSpline
210
0.0
220
0.0
230
1.0
 70
    11
 71
     3
 72
    56
 73
    52
 74
     0
 42
0.000000001
 43
0.0000000001
 40
0.0
 40
0.0
 40
0.0
 40
0.0
 40
0.0714285714285714
 40
0.0714285714285714
 40
0.0714285714285714
 40
0.0714285714285714
 40
0.1428571428571428
 40
0.1428571428571428
 40
0.1428571428571428
 40
0.1428571428571428
 40
0.2142857142857143
 40
0.2142857142857143
 40
0.2142857142857143
 40
0.2142857142857143
 40
0.2857142857142857
 40
0.2857142857142857
 40
0.2857142857142857
 40
0.2857142857142857
 40
0.3571428571428572
 40
0.3571428571428572
 40
0.3571428571428572
 40
0.3571428571428572
 40
0.4285714285714285
 40
0.4285714285714285
 40
0.4285714285714285
 40
0.4285714285714285
 40
0.5
 40
0.5
 40
0.5
 40
0.5
 40
0.5714285714285714
 40
0.5714285714285714
 40
0.5714285714285714
 40
0.5714285714285714
 40
0.6428571428571429
 40
0.6428571428571429
 40
0.6428571428571429
 40
0.6428571428571429
 40
0.7142857142857143
 40
0.7142857142857143
 40
0.7142857142857143
 40
0.7142857142857143
 40
0.7857142857142857
 40
0.7857142857142857
 40
0.7857142857142857
 40
0.7857142857142857
 40
0.8571428571428571
 40
0.8571428571428571
 40
0.8571428571428571
 40
0.8571428571428571
 40
1.0
 40
1.0
 40
1.0
 40
1.0
 10
33.7317
 20
18.9213
 30
0.0
 10
33.5668
 20
19.233
 30
0.0
 10
33.4128
 20
19.6076
 30
0.0
 10
33.2641
 20
19.9646
 30
0.0
 10
33.2641
 20
19.9646
 30
0.0
 10
33.2641
 20
19.9646
 30
0.0
 10
30.5041
 20
26.3335
 30
0.0
 10
30.5041
 20
26.3335
 30
0.0
 10
30.5041
 20
26.3335
 30
0.0
 10
30.3456
 20
26.7045
 30
0.0
 10
30.1927
 20
27.0909
 30
0.0
 10
30.0179
 20
27.4213
 30
0.0
 10
30.0179
 20
27.4213
 30
0.0
 10
29.5597
 20
27.4213
 30
0.0
 10
29.2292
 20
27.4835
 30
0.0
 10
28.8667
 20
27.529
 30
0.0
 10
28.8667
 20
27.529
 30
0.0
 10
28.8667
 20
27.529
 30
0.0
 10
20.7649
 20
28.4287
 30
0.0
 10
20.7649
 20
28.4287
 30
0.0
 10
20.7649
 20
28.4287
 30
0.0
 10
20.5672
 20
28.0549
 30
0.0
 10
16.8304
 20
23.0925
 30
0.0
 10
16.3217
 20
22.3583
 30
0.0
 10
16.3217
 20
22.3583
 30
0.0
 10
15.0597
 20
20.5368
 30
0.0
 10
15.0768
 20
21.73
 30
0.0
 10
16.4304
 20
18.4263
 30
0.0
 10
16.4304
 20
18.4263
 30
0.0
 10
16.4304
 20
18.4263
 30
0.0
 10
18.9152
 20
12.6636
 30
0.0
 10
18.9152
 20
12.6636
 30
0.0
 10
18.9152
 20
12.6636
 30
0.0
 10
19.0452
 20
12.4257
 30
0.0
 10
19.1288
 20
12.5082
 30
0.0
 10
19.4697
 20
12.4627
 30
0.0
 10
19.4697
 20
12.4627
 30
0.0
 10
19.4697
 20
12.4627
 30
0.0
 10
26.9224
 20
11.6063
 30
0.0
 10
26.9224
 20
11.6063
 30
0.0
 10
26.9224
 20
11.6063
 30
0.0
 10
27.1436
 20
11.5735
 30
0.0
 10
27.3421
 20
11.5746
 30
0.0
 10
27.6162
 20
11.5444
 30
0.0
 10
27.6162
 20
11.5444
 30
0.0
 10
28.331
 20
11.4655
 30
0.0
 10
28.2489
 20
11.4292
 30
0.0
 10
28.608
 20
11.9576
 30
0.0
 10
28.608
 20
11.9576
 30
0.0
 10
28.608
 20
11.9576
 30
0.0
 10
33.7317
 20
18.9213
 30
0.0
 10
33.7317
 20
18.9213
 30
0.0
  0
SPLINE
  5
7C
330
1F
100
AcDbEntity
  8
Layer 1
100
AcDbSpline
210
0.0
220
0.0
230
1.0
 70
    11
 71
     3
 72
    88
 73
    84
 74
     0
 42
0.000000001
 43
0.0000000001
 40
0.0
 40
0.0
 40
0.0
 40
0.0
 40
0.0454545454545455
 40
0.0454545454545455
 40
0.0454545454545455
 40
0.0454545454545455
 40
0.0909090909090909
 40
0.0909090909090909
 40
0.0909090909090909
 40
0.0909090909090909
 40
0.1363636363636364
 40
0.1363636363636364
 40
0.1363636363636364
 40
0.1363636363636364
 40
0.1818181818181818
 40
0.1818181818181818
 40
0.1818181818181818
 40
0.1818181818181818
 40
0.2272727272727273
 40
0.2272727272727273
 40
0.2272727272727273
 40
0.2272727272727273
 40
0.2727272727272727
 40
0.2727272727272727
 40
0.2727272727272727
 40
0.2727272727272727
 40
0.3181818181818182
 40
0.3181818181818182
 40
0.3181818181818182
 40
0.3181818181818182
 40
0.3636363636363636
 40
0.3636363636363636
 40
0.3636363636363636
 40
0.3636363636363636
 40
0.4090909090909091
 40
0.4090909090909091
 40
0.4090909090909091
 40
0.4090909090909091
 40
0.4545454545454545
 40
0.4545454545454545
 40
0.4545454545454545
 40
0.4545454545454545
 40
0.5
 40
0.5
 40
0.5
 40
0.5
 40
0.5454545454545454
 40
0.5454545454545454
 40
0.5454545454545454
 40
0.5454545454545454
 40
0.5909090909090909
 40
0.5909090909090909
 40
0.5909090909090909
 40
0.5909090909090909
 40
0.6363636363636364
 40
0.6363636363636364
 40
0.6363636363636364
 40
0.6363636363636364
 40
0.6818181818181818
 40
0.6818181818181818
 40
0.6818181818181818
 40
0.6818181818181818
 40
0.7272727272727273
 40
0.7272727272727273
 40
0.7272727272727273
 40
0.7272727272727273
 40
0.7727272727272727
 40
0.7727272727272727
 40
0.7727272727272727
 40
0.7727272727272727
 40
0.8181818181818182
 40
0.8181818181818182
 40
0.8181818181818182
 40
0.8181818181818182
 40
0.8636363636363636
 40
0.8636363636363636
 40
0.8636363636363636
 40
0.8636363636363636
 40
0.9090909090909091
 40
0.9090909090909091
 40
0.9090909090909091
 40
0.9090909090909091
 40
1.0
 40
1.0
 40
1.0
 40
1.0
 10
-39.7888
 20
10.6102
 30
0.0
 10
-39.7888
 20
10.6102
 30
0.0
 10
-35.3065
 20
9.427
 30
0.0
 10
-35.3065
 20
9.427
 30
0.0
 10
-35.3065
 20
9.427
 30
0.0
 10
-35.0544
 20
9.3624
 30
0.0
 10
-31.0555
 20
8.2865
 30
0.0
 10
-30.7876
 20
8.2806
 30
0.0
 10
-30.7876
 20
8.2806
 30
0.0
 10
-30.7307
 20
8.3656
 30
0.0
 10
-30.7046
 20
8.4039
 30
0.0
 10
-30.6238
 20
8.4945
 30
0.0
 10
-30.6238
 20
8.4945
 30
0.0
 10
-30.5362
 20
8.5927
 30
0.0
 10
-30.592
 20
8.5309
 30
0.0
 10
-30.53
 20
8.5896
 30
0.0
 10
-30.53
 20
8.5896
 30
0.0
 10
-30.5286
 20
8.5908
 30
0.0
 10
-30.4487
 20
8.6604
 30
0.0
 10
-30.4293
 20
8.6777
 30
0.0
 10
-30.4293
 20
8.6777
 30
0.0
 10
-30.2706
 20
8.8204
 30
0.0
 10
-30.1653
 20
8.9322
 30
0.0
 10
-30.0159
 20
9.0827
 30
0.0
 10
-30.0159
 20
9.0827
 30
0.0
 10
-30.0159
 20
9.0827
 30
0.0
 10
-28.61
 20
10.5098
 30
0.0
 10
-28.61
 20
10.5098
 30
0.0
 10
-28.61
 20
10.5098
 30
0.0
 10
-28.5292
 20
10.5907
 30
0.0
 10
-28.4656
 20
10.6376
 30
0.0
 10
-28.3796
 20
10.72
 30
0.0
 10
-28.3796
 20
10.72
 30
0.0
 10
-28.3796
 20
10.72
 30
0.0
 10
-26.365
 20
12.7346
 30
0.0
 10
-26.365
 20
12.7346
 30
0.0
 10
-26.365
 20
12.7346
 30
0.0
 10
-25.8754
 20
13.2211
 30
0.0
 10
-24.6667
 20
14.5229
 30
0.0
 10
-24.3042
 20
14.7657
 30
0.0
 10
-24.3042
 20
14.7657
 30
0.0
 10
-24.4745
 20
15.497
 30
0.0
 10
-24.7171
 20
16.2307
 30
0.0
 10
-24.9082
 20
16.9949
 30
0.0
 10
-24.9082
 20
16.9949
 30
0.0
 10
-24.9082
 20
16.9949
 30
0.0
 10
-26.7551
 20
23.7105
 30
0.0
 10
-26.7551
 20
23.7105
 30
0.0
 10
-26.7551
 20
23.7105
 30
0.0
 10
-26.8765
 20
23.8308
 30
0.0
 10
-32.4313
 20
25.2536
 30
0.0
 10
-33.4245
 20
25.5392
 30
0.0
 10
-33.4245
 20
25.5392
 30
0.0
 10
-33.4245
 20
25.5392
 30
0.0
 10
-35.6974
 20
26.1621
 30
0.0
 10
-35.6974
 20
26.1621
 30
0.0
 10
-35.6974
 20
26.1621
 30
0.0
 10
-35.8813
 20
25.8874
 30
0.0
 10
-36.1896
 20
25.6368
 30
0.0
 10
-36.4371
 20
25.3908
 30
0.0
 10
-36.4371
 20
25.3908
 30
0.0
 10
-36.4371
 20
25.3908
 30
0.0
 10
-36.8298
 20
24.9652
 30
0.0
 10
-36.8298
 20
24.9652
 30
0.0
 10
-36.8298
 20
24.9652
 30
0.0
 10
-36.8383
 20
24.9553
 30
0.0
 10
-36.8501
 20
24.9409
 30
0.0
 10
-36.8588
 20
24.9312
 30
0.0
 10
-36.8588
 20
24.9312
 30
0.0
 10
-36.8588
 20
24.9312
 30
0.0
 10
-38.703
 20
23.0611
 30
0.0
 10
-38.703
 20
23.0611
 30
0.0
 10
-38.703
 20
23.0611
 30
0.0
 10
-39.736
 20
22.0278
 30
0.0
 10
-40.7215
 20
21.0392
 30
0.0
 10
-41.7559
 20
20.0074
 30
0.0
 10
-41.7559
 20
20.0074
 30
0.0
 10
-42.3761
 20
19.3888
 30
0.0
 10
-42.2039
 20
19.6882
 30
0.0
 10
-41.9124
 20
18.4342
 30
0.0
 10
-41.9124
 20
18.4342
 30
0.0
 10
-41.9124
 20
18.4342
 30
0.0
 10
-39.7888
 20
10.6102
 30
0.0
 10
-39.7888
 20
10.6102
 30
0.0
  0
SPLINE
  5
7D
330
1F
100
AcDbEntity
  8
Layer 1
100
AcDbSpline
210
0.0
220
0.0
230
1.0
 70
    11
 71
     3
 72
    56
 73
    52
 74
     0
 42
0.000000001
 43
0.0000000001
 40
0.0
 40
0.0
 40
0.0
 40
0.0
 40
0.0714285714285714
 40
0.0714285714285714
 40
0.0714285714285714
 40
0.0714285714285714
 40
0.1428571428571428
 40
0.1428571428571428
 40
0.1428571428571428
 40
0.1428571428571428
 40
0.2142857142857143
 40
0.2142857142857143
 40
0.2142857142857143
 40
0.2142857142857143
 40
0.2857142857142857
 40
0.2857142857142857
 40
0.2857142857142857
 40
0.2857142857142857
 40
0.3571428571428572
 40
0.3571428571428572
 40
0.3571428571428572
 40
0.3571428571428572
 40
0.4285714285714285
 40
0.4285714285714285
 40
0.4285714285714285
 40
0.4285714285714285
 40
0.5
 40
0.5
 40
0.5
 40
0.5
 40
0.5714285714285714
 40
0.5714285714285714
 40
0.5714285714285714
 40
0.5714285714285714
 40
0.6428571428571429
 40
0.6428571428571429
 40
0.6428571428571429
 40
0.6428571428571429
 40
0.7142857142857143
 40
0.7142857142857143
 40
0.7142857142857143
 40
0.7142857142857143
 40
0.7857142857142857
 40
0.7857142857142857
 40
0.7857142857142857
 40
0.7857142857142857
 40
0.8571428571428571
 40
0.8571428571428571
 40
0.8571428571428571
 40
0.8571428571428571
 40
1.0
 40
1.0
 40
1.0
 40
1.0
 10
58.0288
 20
-24.3972
 30
0.0
 10
58.0288
 20
-25.4829
 30
0.0
 10
58.3649
 20
-26.7185
 30
0.0
 10
58.7028
 20
-27.5009
 30
0.0
 10
58.7028
 20
-27.5009
 30
0.0
 10
59.1293
 20
-28.4886
 30
0.0
 10
59.534
 20
-29.037
 30
0.0
 10
60.2386
 20
-29.8054
 30
0.0
 10
60.2386
 20
-29.8054
 30
0.0
 10
60.2386
 20
-29.8054
 30
0.0
 10
60.7209
 20
-30.2674
 30
0.0
 10
60.7209
 20
-30.2674
 30
0.0
 10
60.7209
 20
-30.2674
 30
0.0
 10
63.0853
 20
-32.3165
 30
0.0
 10
66.1818
 20
-32.6864
 30
0.0
 10
69.0461
 20
-31.3879
 30
0.0
 10
69.0461
 20
-31.3879
 30
0.0
 10
69.0461
 20
-31.3879
 30
0.0
 10
69.6749
 20
-31.0725
 30
0.0
 10
69.6749
 20
-31.0725
 30
0.0
 10
69.6749
 20
-31.0725
 30
0.0
 10
70.9125
 20
-30.4323
 30
0.0
 10
72.2197
 20
-28.9025
 30
0.0
 10
72.8044
 20
-27.5918
 30
0.0
 10
72.8044
 20
-27.5918
 30
0.0
 10
73.7138
 20
-25.553
 30
0.0
 10
73.7474
 20
-23.3806
 30
0.0
 10
72.8426
 20
-21.3535
 30
0.0
 10
72.8426
 20
-21.3535
 30
0.0
 10
72.5492
 20
-20.6963
 30
0.0
 10
72.2243
 20
-20.1288
 30
0.0
 10
71.788
 20
-19.575
 30
0.0
 10
71.788
 20
-19.575
 30
0.0
 10
71.6907
 20
-19.4515
 30
0.0
 10
71.6432
 20
-19.4175
 30
0.0
 10
71.5533
 20
-19.306
 30
0.0
 10
71.5533
 20
-19.306
 30
0.0
 10
70.3293
 20
-17.7894
 30
0.0
 10
68.0255
 20
-16.7157
 30
0.0
 10
66.0229
 20
-16.7157
 30
0.0
 10
66.0229
 20
-16.7157
 30
0.0
 10
63.6805
 20
-16.7157
 30
0.0
 10
61.8564
 20
-17.4519
 30
0.0
 10
60.2791
 20
-19.0296
 30
0.0
 10
60.2791
 20
-19.0296
 30
0.0
 10
59.4882
 20
-19.8208
 30
0.0
 10
59.1911
 20
-20.3273
 30
0.0
 10
58.7418
 20
-21.2697
 30
0.0
 10
58.7418
 20
-21.2697
 30
0.0
 10
58.3702
 20
-22.0491
 30
0.0
 10
58.0288
 20
-23.2789
 30
0.0
 10
58.0288
 20
-24.3972
 30
0.0
  0
SPLINE
  5
7E
330
1F
100
AcDbEntity
  8
Layer 1
100
AcDbSpline
210
0.0
220
0.0
230
1.0
 70
    11
 71
     3
 72
    40
 73
    36
 74
     0
 42
0.000000001
 43
0.0000000001
 40
0.0
 40
0.0
 40
0.0
 40
0.0
 40
0.1
 40
0.1
 40
0.1
 40
0.1
 40
0.2
 40
0.2
 40
0.2
 40
0.2
 40
0.3
 40
0.3
 40
0.3
 40
0.3
 40
0.4
 40
0.4
 40
0.4
 40
0.4
 40
0.5
 40
0.5
 40
0.5
 40
0.5
 40
0.6
 40
0.6
 40
0.6
 40
0.6
 40
0.7
 40
0.7
 40
0.7
 40
0.7
 40
0.8
 40
0.8
 40
0.8
 40
0.8
 40
1.0
 40
1.0
 40
1.0
 40
1.0
 10
-90.1454
 20
-15.2676
 30
0.0
 10
-90.1454
 20
-17.3189
 30
0.0
 10
-89.4404
 20
-19.0916
 30
0.0
 10
-88.0839
 20
-20.4463
 30
0.0
 10
-88.0839
 20
-20.4463
 30
0.0
 10
-86.902
 20
-21.6267
 30
0.0
 10
-85.1384
 20
-22.6972
 30
0.0
 10
-83.2843
 20
-22.6972
 30
0.0
 10
-83.2843
 20
-22.6972
 30
0.0
 10
-81.7197
 20
-22.6972
 30
0.0
 10
-80.9513
 20
-22.6591
 30
0.0
 10
-79.4655
 20
-21.9208
 30
0.0
 10
-79.4655
 20
-21.9208
 30
0.0
 10
-75.655
 20
-20.0274
 30
0.0
 10
-74.1266
 20
-15.1099
 30
0.0
 10
-76.7125
 20
-11.2126
 30
0.0
 10
-76.7125
 20
-11.2126
 30
0.0
 10
-77.7362
 20
-9.6698
 30
0.0
 10
-79.3083
 20
-8.6375
 30
0.0
 10
-81.1088
 20
-8.1803
 30
0.0
 10
-81.1088
 20
-8.1803
 30
0.0
 10
-83.3564
 20
-7.6096
 30
0.0
 10
-85.7319
 20
-8.2528
 30
0.0
 10
-87.4481
 20
-9.6545
 30
0.0
 10
-87.4481
 20
-9.6545
 30
0.0
 10
-87.4481
 20
-9.6545
 30
0.0
 10
-88.7881
 20
-11.0846
 30
0.0
 10
-88.7881
 20
-11.0846
 30
0.0
 10
-88.7881
 20
-11.0846
 30
0.0
 10
-89.0654
 20
-11.4513
 30
0.0
 10
-89.2622
 20
-11.8208
 30
0.0
 10
-89.455
 20
-12.2434
 30
0.0
 10
-89.455
 20
-12.2434
 30
0.0
 10
-89.8506
 20
-13.1106
 30
0.0
 10
-90.1454
 20
-13.9982
 30
0.0
 10
-90.1454
 20
-15.2676
 30
0.0
  0
SPLINE
  5
7F
330
1F
100
AcDbEntity
  8
Layer 1
100
AcDbSpline
210
0.0
220
0.0
230
1.0
 70
    11
 71
     3
 72
    48
 73
    44
 74
     0
 42
0.000000001
 43
0.0000000001
 40
0.0
 40
0.0
 40
0.0
 40
0.0
 40
0.0833333333333333
 40
0.0833333333333333
 40
0.0833333333333333
 40
0.0833333333333333
 40
0.1666666666666667
 40
0.1666666666666667
 40
0.1666666666666667
 40
0.1666666666666667
 40
0.25
 40
0.25
 40
0.25
 40
0.25
 40
0.3333333333333333
 40
0.3333333333333333
 40
0.3333333333333333
 40
0.3333333333333333
 40
0.4166666666666667
 40
0.4166666666666667
 40
0.4166666666666667
 40
0.4166666666666667
 40
0.5
 40
0.5
 40
0.5
 40
0.5
 40
0.5833333333333334
 40
0.5833333333333334
 40
0.5833333333333334
 40
0.5833333333333334
 40
0.6666666666666666
 40
0.6666666666666666
 40
0.6666666666666666
 40
0.6666666666666666
 40
0.75
 40
0.75
 40
0.75
 40
0.75
 40
0.8333333333333334
 40
0.8333333333333334
 40
0.8333333333333334
 40
0.8333333333333334
 40
1.0
 40
1.0
 40
1.0
 40
1.0
 10
-23.5489
 20
-50.4009
 30
0.0
 10
-23.5489
 20
-50.4009
 30
0.0
 10
-23.5489
 20
-68.6602
 30
0.0
 10
-23.5489
 20
-68.6602
 30
0.0
 10
-23.5489
 20
-68.6602
 30
0.0
 10
-23.5489
 20
-69.3379
 30
0.0
 10
-23.3751
 20
-69.9928
 30
0.0
 10
-23.0254
 20
-70.3403
 30
0.0
 10
-23.0254
 20
-70.3403
 30
0.0
 10
-22.7339
 20
-70.6299
 30
0.0
 10
-21.9708
 20
-70.9269
 30
0.0
 10
-21.4087
 20
-70.9269
 30
0.0
 10
-21.4087
 20
-70.9269
 30
0.0
 10
-21.4087
 20
-70.9269
 30
0.0
 10
-9.386
 20
-70.9269
 30
0.0
 10
-9.386
 20
-70.9269
 30
0.0
 10
-9.386
 20
-70.9269
 30
0.0
 10
-8.8232
 20
-70.9269
 30
0.0
 10
-8.2498
 20
-70.752
 30
0.0
 10
-7.9505
 20
-70.4739
 30
0.0
 10
-7.9505
 20
-70.4739
 30
0.0
 10
-7.4314
 20
-69.9916
 30
0.0
 10
-7.4977
 20
-69.032
 30
0.0
 10
-7.4977
 20
-68.2824
 30
0.0
 10
-7.4977
 20
-68.2824
 30
0.0
 10
-7.4977
 20
-66.6667
 30
0.0
 10
-8.2313
 20
-66.3306
 30
0.0
 10
-9.8267
 20
-66.3306
 30
0.0
 10
-9.8267
 20
-66.3306
 30
0.0
 10
-9.8267
 20
-66.3306
 30
0.0
 10
-18.0726
 20
-66.3306
 30
0.0
 10
-18.0726
 20
-66.3306
 30
0.0
 10
-18.0726
 20
-66.3306
 30
0.0
 10
-18.0726
 20
-66.3306
 30
0.0
 10
-18.0726
 20
-50.8417
 30
0.0
 10
-18.0726
 20
-50.8417
 30
0.0
 10
-18.0726
 20
-50.8417
 30
0.0
 10
-18.0726
 20
-49.0149
 30
0.0
 10
-18.7179
 20
-48.3861
 30
0.0
 10
-20.7792
 20
-48.3861
 30
0.0
 10
-20.7792
 20
-48.3861
 30
0.0
 10
-22.2769
 20
-48.3861
 30
0.0
 10
-23.5489
 20
-48.7614
 30
0.0
 10
-23.5489
 20
-50.4009
 30
0.0
  0
SPLINE
  5
80
330
1F
100
AcDbEntity
  8
Layer 1
100
AcDbSpline
210
0.0
220
0.0
230
1.0
 70
    11
 71
     3
 72
    64
 73
    60
 74
     0
 42
0.000000001
 43
0.0000000001
 40
0.0
 40
0.0
 40
0.0
 40
0.0
 40
0.0625
 40
0.0625
 40
0.0625
 40
0.0625
 40
0.125
 40
0.125
 40
0.125
 40
0.125
 40
0.1875
 40
0.1875
 40
0.1875
 40
0.1875
 40
0.25
 40
0.25
 40
0.25
 40
0.25
 40
0.3125
 40
0.3125
 40
0.3125
 40
0.3125
 40
0.375
 40
0.375
 40
0.375
 40
0.375
 40
0.4375
 40
0.4375
 40
0.4375
 40
0.4375
 40
0.5
 40
0.5
 40
0.5
 40
0.5
 40
0.5625
 40
0.5625
 40
0.5625
 40
0.5625
 40
0.625
 40
0.625
 40
0.625
 40
0.625
 40
0.6875
 40
0.6875
 40
0.6875
 40
0.6875
 40
0.75
 40
0.75
 40
0.75
 40
0.75
 40
0.8125
 40
0.8125
 40
0.8125
 40
0.8125
 40
0.875
 40
0.875
 40
0.875
 40
0.875
 40
1.0
 40
1.0
 40
1.0
 40
1.0
 10
-45.8316
 20
-12.4972
 30
0.0
 10
-45.8316
 20
-12.6956
 30
0.0
 10
-45.0389
 20
-14.2829
 30
0.0
 10
-44.8999
 20
-14.5875
 30
0.0
 10
-44.8999
 20
-14.5875
 30
0.0
 10
-44.8999
 20
-14.5875
 30
0.0
 10
-42.6
 20
-19.4647
 30
0.0
 10
-42.6
 20
-19.4647
 30
0.0
 10
-42.6
 20
-19.4647
 30
0.0
 10
-42.4733
 20
-19.7159
 30
0.0
 10
-42.4117
 20
-19.9075
 30
0.0
 10
-42.286
 20
-20.1581
 30
0.0
 10
-42.286
 20
-20.1581
 30
0.0
 10
-42.1557
 20
-20.4177
 30
0.0
 10
-42.0669
 20
-20.6217
 30
0.0
 10
-41.9468
 20
-20.8892
 30
0.0
 10
-41.9468
 20
-20.8892
 30
0.0
 10
-41.8342
 20
-21.14
 30
0.0
 10
-41.726
 20
-21.3342
 30
0.0
 10
-41.6133
 20
-21.563
 30
0.0
 10
-41.6133
 20
-21.563
 30
0.0
 10
-41.6133
 20
-21.563
 30
0.0
 10
-40.6071
 20
-23.7046
 30
0.0
 10
-40.6071
 20
-23.7046
 30
0.0
 10
-40.6071
 20
-23.7046
 30
0.0
 10
-40.6071
 20
-23.7046
 30
0.0
 10
-30.8978
 20
-14.024
 30
0.0
 10
-30.8978
 20
-14.024
 30
0.0
 10
-30.8978
 20
-14.024
 30
0.0
 10
-31.0337
 20
-13.7811
 30
0.0
 10
-31.1144
 20
-13.544
 30
0.0
 10
-31.2273
 20
-13.3148
 30
0.0
 10
-31.2273
 20
-13.3148
 30
0.0
 10
-31.2273
 20
-13.3148
 30
0.0
 10
-34.1746
 20
-7.0703
 30
0.0
 10
-34.1746
 20
-7.0703
 30
0.0
 10
-34.1746
 20
-7.0703
 30
0.0
 10
-34.4094
 20
-6.5808
 30
0.0
 10
-34.5924
 20
-6.1421
 30
0.0
 10
-34.8376
 20
-5.6557
 30
0.0
 10
-34.8376
 20
-5.6557
 30
0.0
 10
-34.9642
 20
-5.4044
 30
0.0
 10
-35.0257
 20
-5.2125
 30
0.0
 10
-35.1511
 20
-4.9619
 30
0.0
 10
-35.1511
 20
-4.9619
 30
0.0
 10
-35.2754
 20
-4.7133
 30
0.0
 10
-35.366
 20
-4.5463
 30
0.0
 10
-35.4824
 20
-4.2859
 30
0.0
 10
-35.4824
 20
-4.2859
 30
0.0
 10
-35.4824
 20
-4.2859
 30
0.0
 10
-36.138
 20
-2.8639
 30
0.0
 10
-36.138
 20
-2.8639
 30
0.0
 10
-36.138
 20
-2.8639
 30
0.0
 10
-36.4278
 20
-2.9413
 30
0.0
 10
-38.3243
 20
-4.9564
 30
0.0
 10
-38.5771
 20
-5.2093
 30
0.0
 10
-38.5771
 20
-5.2093
 30
0.0
 10
-38.5771
 20
-5.2093
 30
0.0
 10
-45.8316
 20
-12.4972
 30
0.0
 10
-45.8316
 20
-12.4972
 30
0.0
  0
SPLINE
  5
81
330
1F
100
AcDbEntity
  8
Layer 1
100
AcDbSpline
210
0.0
220
0.0
230
1.0
 70
    11
 71
     3
 72
    44
 73
    40
 74
     0
 42
0.000000001
 43
0.0000000001
 40
0.0
 40
0.0
 40
0.0
 40
0.0
 40
0.0909090909090909
 40
0.0909090909090909
 40
0.0909090909090909
 40
0.0909090909090909
 40
0.1818181818181818
 40
0.1818181818181818
 40
0.1818181818181818
 40
0.1818181818181818
 40
0.2727272727272727
 40
0.2727272727272727
 40
0.2727272727272727
 40
0.2727272727272727
 40
0.3636363636363636
 40
0.3636363636363636
 40
0.3636363636363636
 40
0.3636363636363636
 40
0.4545454545454545
 40
0.4545454545454545
 40
0.4545454545454545
 40
0.4545454545454545
 40
0.5454545454545454
 40
0.5454545454545454
 40
0.5454545454545454
 40
0.5454545454545454
 40
0.6363636363636364
 40
0.6363636363636364
 40
0.6363636363636364
 40
0.6363636363636364
 40
0.7272727272727273
 40
0.7272727272727273
 40
0.7272727272727273
 40
0.7272727272727273
 40
0.8181818181818182
 40
0.8181818181818182
 40
0.8181818181818182
 40
0.8181818181818182
 40
1.0
 40
1.0
 40
1.0
 40
1.0
 10
-18.2614
 20
-45.8676
 30
0.0
 10
-18.2614
 20
-45.8676
 30
0.0
 10
-3.5321
 20
-45.8676
 30
0.0
 10
-3.5321
 20
-45.8676
 30
0.0
 10
-3.5321
 20
-45.8676
 30
0.0
 10
-3.5248
 20
-45.5392
 30
0.0
 10
-3.3968
 20
-45.2645
 30
0.0
 10
-3.3174
 20
-44.9491
 30
0.0
 10
-3.3174
 20
-44.9491
 30
0.0
 10
-3.2294
 20
-44.5996
 30
0.0
 10
-3.1886
 20
-44.394
 30
0.0
 10
-3.118
 20
-44.0152
 30
0.0
 10
-3.118
 20
-44.0152
 30
0.0
 10
-2.6697
 20
-41.6131
 30
0.0
 10
-2.8425
 20
-38.5846
 30
0.0
 10
-4.26
 20
-36.7105
 30
0.0
 10
-4.26
 20
-36.7105
 30
0.0
 10
-4.5142
 20
-36.3744
 30
0.0
 10
-4.639
 20
-36.2232
 30
0.0
 10
-4.9314
 20
-35.9339
 30
0.0
 10
-4.9314
 20
-35.9339
 30
0.0
 10
-5.6473
 20
-35.2258
 30
0.0
 10
-6.9618
 20
-34.5972
 30
0.0
 10
-8.1272
 20
-34.5972
 30
0.0
 10
-8.1272
 20
-34.5972
 30
0.0
 10
-9.9493
 20
-34.5972
 30
0.0
 10
-11.161
 20
-35.1121
 30
0.0
 10
-12.4707
 20
-35.9822
 30
0.0
 10
-12.4707
 20
-35.9822
 30
0.0
 10
-12.4707
 20
-35.9822
 30
0.0
 10
-13.903
 20
-37.1309
 30
0.0
 10
-13.903
 20
-37.1309
 30
0.0
 10
-13.903
 20
-37.1309
 30
0.0
 10
-15.3961
 20
-38.6416
 30
0.0
 10
-16.0823
 20
-39.5349
 30
0.0
 10
-17.1502
 20
-41.7532
 30
0.0
 10
-17.1502
 20
-41.7532
 30
0.0
 10
-17.5641
 20
-42.6129
 30
0.0
 10
-18.2614
 20
-44.6627
 30
0.0
 10
-18.2614
 20
-45.8676
 30
0.0
  0
SPLINE
  5
82
330
1F
100
AcDbEntity
  8
Layer 1
100
AcDbSpline
210
0.0
220
0.0
230
1.0
 70
    11
 71
     3
 72
    64
 73
    60
 74
     0
 42
0.000000001
 43
0.0000000001
 40
0.0
 40
0.0
 40
0.0
 40
0.0
 40
0.0625
 40
0.0625
 40
0.0625
 40
0.0625
 40
0.125
 40
0.125
 40
0.125
 40
0.125
 40
0.1875
 40
0.1875
 40
0.1875
 40
0.1875
 40
0.25
 40
0.25
 40
0.25
 40
0.25
 40
0.3125
 40
0.3125
 40
0.3125
 40
0.3125
 40
0.375
 40
0.375
 40
0.375
 40
0.375
 40
0.4375
 40
0.4375
 40
0.4375
 40
0.4375
 40
0.5
 40
0.5
 40
0.5
 40
0.5
 40
0.5625
 40
0.5625
 40
0.5625
 40
0.5625
 40
0.625
 40
0.625
 40
0.625
 40
0.625
 40
0.6875
 40
0.6875
 40
0.6875
 40
0.6875
 40
0.75
 40
0.75
 40
0.75
 40
0.75
 40
0.8125
 40
0.8125
 40
0.8125
 40
0.8125
 40
0.875
 40
0.875
 40
0.875
 40
0.875
 40
1.0
 40
1.0
 40
1.0
 40
1.0
 10
-29.3398
 20
-30.1268
 30
0.0
 10
-29.0993
 20
-30.0114
 30
0.0
 10
-28.3255
 20
-29.8294
 30
0.0
 10
-28.0183
 20
-29.7488
 30
0.0
 10
-28.0183
 20
-29.7488
 30
0.0
 10
-27.557
 20
-29.6276
 30
0.0
 10
-27.0823
 20
-29.4798
 30
0.0
 10
-26.6278
 20
-29.3767
 30
0.0
 10
-26.6278
 20
-29.3767
 30
0.0
 10
-26.6278
 20
-29.3767
 30
0.0
 10
-23.8504
 20
-28.6289
 30
0.0
 10
-23.8504
 20
-28.6289
 30
0.0
 10
-23.8504
 20
-28.6289
 30
0.0
 10
-22.8934
 20
-28.3658
 30
0.0
 10
-22.0464
 20
-28.14
 30
0.0
 10
-21.0721
 20
-27.882
 30
0.0
 10
-21.0721
 20
-27.882
 30
0.0
 10
-21.0721
 20
-27.882
 30
0.0
 10
-7.8919
 20
-24.3177
 30
0.0
 10
-7.8919
 20
-24.3177
 30
0.0
 10
-7.8919
 20
-24.3177
 30
0.0
 10
-7.6778
 20
-24.2677
 30
0.0
 10
-7.4527
 20
-24.1679
 30
0.0
 10
-7.1829
 20
-24.1454
 30
0.0
 10
-7.1829
 20
-24.1454
 30
0.0
 10
-7.1829
 20
-24.1454
 30
0.0
 10
-13.3396
 20
-20.4814
 30
0.0
 10
-13.3396
 20
-20.4814
 30
0.0
 10
-13.3396
 20
-20.4814
 30
0.0
 10
-15.3177
 20
-19.2919
 30
0.0
 10
-17.5044
 20
-18.1102
 30
0.0
 10
-19.4772
 20
-16.9245
 30
0.0
 10
-19.4772
 20
-16.9245
 30
0.0
 10
-20.082
 20
-16.561
 30
0.0
 10
-20.6699
 20
-16.2216
 30
0.0
 10
-21.2828
 20
-15.8972
 30
0.0
 10
-21.2828
 20
-15.8972
 30
0.0
 10
-21.3661
 20
-16.0548
 30
0.0
 10
-21.4244
 20
-16.1892
 30
0.0
 10
-21.522
 20
-16.3506
 30
0.0
 10
-21.522
 20
-16.3506
 30
0.0
 10
-21.6122
 20
-16.5
 30
0.0
 10
-21.7062
 20
-16.6464
 30
0.0
 10
-21.7836
 20
-16.7815
 30
0.0
 10
-21.7836
 20
-16.7815
 30
0.0
 10
-21.7836
 20
-16.7815
 30
0.0
 10
-26.8421
 20
-25.6364
 30
0.0
 10
-26.8421
 20
-25.6364
 30
0.0
 10
-26.8421
 20
-25.6364
 30
0.0
 10
-26.9399
 20
-25.8136
 30
0.0
 10
-26.984
 20
-25.9194
 30
0.0
 10
-27.0852
 20
-26.0858
 30
0.0
 10
-27.0852
 20
-26.0858
 30
0.0
 10
-27.0852
 20
-26.0858
 30
0.0
 10
-28.8557
 20
-29.163
 30
0.0
 10
-28.8557
 20
-29.163
 30
0.0
 10
-28.8557
 20
-29.163
 30
0.0
 10
-28.9858
 20
-29.3958
 30
0.0
 10
-29.3209
 20
-29.8995
 30
0.0
 10
-29.3398
 20
-30.1268
 30
0.0
  0
SPLINE
  5
83
330
1F
100
AcDbEntity
  8
Layer 1
100
AcDbSpline
210
0.0
220
0.0
230
1.0
 70
    11
 71
     3
 72
    36
 73
    32
 74
     0
 42
0.000000001
 43
0.0000000001
 40
0.0
 40
0.0
 40
0.0
 40
0.0
 40
0.1111111111111111
 40
0.1111111111111111
 40
0.1111111111111111
 40
0.1111111111111111
 40
0.2222222222222222
 40
0.2222222222222222
 40
0.2222222222222222
 40
0.2222222222222222
 40
0.3333333333333333
 40
0.3333333333333333
 40
0.3333333333333333
 40
0.3333333333333333
 40
0.4444444444444444
 40
0.4444444444444444
 40
0.4444444444444444
 40
0.4444444444444444
 40
0.5555555555555556
 40
0.5555555555555556
 40
0.5555555555555556
 40
0.5555555555555556
 40
0.6666666666666666
 40
0.6666666666666666
 40
0.6666666666666666
 40
0.6666666666666666
 40
0.7777777777777778
 40
0.7777777777777778
 40
0.7777777777777778
 40
0.7777777777777778
 40
1.0
 40
1.0
 40
1.0
 40
1.0
 10
43.866
 20
-50.5269
 30
0.0
 10
43.866
 20
-50.5269
 30
0.0
 10
43.866
 20
-68.5973
 30
0.0
 10
43.866
 20
-68.5973
 30
0.0
 10
43.866
 20
-68.5973
 30
0.0
 10
43.866
 20
-70.9576
 30
0.0
 10
45.4069
 20
-70.9269
 30
0.0
 10
47.1392
 20
-70.9269
 30
0.0
 10
47.1392
 20
-70.9269
 30
0.0
 10
47.919
 20
-70.9269
 30
0.0
 10
48.8397
 20
-70.632
 30
0.0
 10
49.129
 20
-69.895
 30
0.0
 10
49.129
 20
-69.895
 30
0.0
 10
49.2109
 20
-69.6864
 30
0.0
 10
49.3423
 20
-69.3375
 30
0.0
 10
49.3423
 20
-69.101
 30
0.0
 10
49.3423
 20
-69.101
 30
0.0
 10
49.3423
 20
-69.101
 30
0.0
 10
49.3423
 20
-50.5269
 30
0.0
 10
49.3423
 20
-50.5269
 30
0.0
 10
49.3423
 20
-50.5269
 30
0.0
 10
49.3423
 20
-49.7037
 30
0.0
 10
49.1531
 20
-49.1704
 30
0.0
 10
48.6397
 20
-48.8371
 30
0.0
 10
48.6397
 20
-48.8371
 30
0.0
 10
47.7134
 20
-48.2358
 30
0.0
 10
45.551
 20
-48.2278
 30
0.0
 10
44.6067
 20
-48.8122
 30
0.0
 10
44.6067
 20
-48.8122
 30
0.0
 10
44.1472
 20
-49.0965
 30
0.0
 10
43.866
 20
-49.8019
 30
0.0
 10
43.866
 20
-50.5269
 30
0.0
  0
SPLINE
  5
84
330
1F
100
AcDbEntity
  8
Layer 1
100
AcDbSpline
210
0.0
220
0.0
230
1.0
 70
    11
 71
     3
 72
    84
 73
    80
 74
     0
 42
0.000000001
 43
0.0000000001
 40
0.0
 40
0.0
 40
0.0
 40
0.0
 40
0.0476190476190476
 40
0.0476190476190476
 40
0.0476190476190476
 40
0.0476190476190476
 40
0.0952380952380952
 40
0.0952380952380952
 40
0.0952380952380952
 40
0.0952380952380952
 40
0.1428571428571428
 40
0.1428571428571428
 40
0.1428571428571428
 40
0.1428571428571428
 40
0.1904761904761905
 40
0.1904761904761905
 40
0.1904761904761905
 40
0.1904761904761905
 40
0.2380952380952381
 40
0.2380952380952381
 40
0.2380952380952381
 40
0.2380952380952381
 40
0.2857142857142857
 40
0.2857142857142857
 40
0.2857142857142857
 40
0.2857142857142857
 40
0.3333333333333333
 40
0.3333333333333333
 40
0.3333333333333333
 40
0.3333333333333333
 40
0.3809523809523809
 40
0.3809523809523809
 40
0.3809523809523809
 40
0.3809523809523809
 40
0.4285714285714285
 40
0.4285714285714285
 40
0.4285714285714285
 40
0.4285714285714285
 40
0.4761904761904762
 40
0.4761904761904762
 40
0.4761904761904762
 40
0.4761904761904762
 40
0.5238095238095238
 40
0.5238095238095238
 40
0.5238095238095238
 40
0.5238095238095238
 40
0.5714285714285714
 40
0.5714285714285714
 40
0.5714285714285714
 40
0.5714285714285714
 40
0.6190476190476191
 40
0.6190476190476191
 40
0.6190476190476191
 40
0.6190476190476191
 40
0.6666666666666666
 40
0.6666666666666666
 40
0.6666666666666666
 40
0.6666666666666666
 40
0.7142857142857143
 40
0.7142857142857143
 40
0.7142857142857143
 40
0.7142857142857143
 40
0.7619047619047619
 40
0.7619047619047619
 40
0.7619047619047619
 40
0.7619047619047619
 40
0.8095238095238095
 40
0.8095238095238095
 40
0.8095238095238095
 40
0.8095238095238095
 40
0.8571428571428571
 40
0.8571428571428571
 40
0.8571428571428571
 40
0.8571428571428571
 40
0.9047619047619048
 40
0.9047619047619048
 40
0.9047619047619048
 40
0.9047619047619048
 40
1.0
 40
1.0
 40
1.0
 40
1.0
 10
3.329
 20
-39.9491
 30
0.0
 10
3.329
 20
-39.9491
 30
0.0
 10
4.5595
 20
-41.2367
 30
0.0
 10
4.5595
 20
-41.2367
 30
0.0
 10
4.5595
 20
-41.2367
 30
0.0
 10
4.5949
 20
-41.279
 30
0.0
 10
4.5809
 20
-41.2636
 30
0.0
 10
4.6163
 20
-41.3059
 30
0.0
 10
4.6163
 20
-41.3059
 30
0.0
 10
4.6163
 20
-41.3059
 30
0.0
 10
7.4987
 20
-44.3413
 30
0.0
 10
7.4987
 20
-44.3413
 30
0.0
 10
7.4987
 20
-44.3413
 30
0.0
 10
7.6345
 20
-44.4956
 30
0.0
 10
7.6583
 20
-44.5638
 30
0.0
 10
7.8126
 20
-44.7198
 30
0.0
 10
7.8126
 20
-44.7198
 30
0.0
 10
7.9518
 20
-44.8605
 30
0.0
 10
8.0508
 20
-44.9555
 30
0.0
 10
8.1915
 20
-45.0963
 30
0.0
 10
8.1915
 20
-45.0963
 30
0.0
 10
8.3213
 20
-45.2261
 30
0.0
 10
8.4118
 20
-45.3109
 30
0.0
 10
8.5387
 20
-45.4416
 30
0.0
 10
8.5387
 20
-45.4416
 30
0.0
 10
8.8154
 20
-45.7263
 30
0.0
 10
8.7312
 20
-45.8046
 30
0.0
 10
8.9311
 20
-45.8046
 30
0.0
 10
8.9311
 20
-45.8046
 30
0.0
 10
8.9311
 20
-45.8046
 30
0.0
 10
18.9395
 20
-45.8046
 30
0.0
 10
18.9395
 20
-45.8046
 30
0.0
 10
18.9395
 20
-45.8046
 30
0.0
 10
19.3612
 20
-45.8046
 30
0.0
 10
19.5248
 20
-45.6867
 30
0.0
 10
19.8837
 20
-45.6787
 30
0.0
 10
19.8837
 20
-45.6787
 30
0.0
 10
19.8213
 20
-45.4452
 30
0.0
 10
19.6499
 20
-45.3495
 30
0.0
 10
19.4903
 20
-45.1907
 30
0.0
 10
19.4903
 20
-45.1907
 30
0.0
 10
19.4903
 20
-45.1907
 30
0.0
 10
16.4501
 20
-41.9355
 30
0.0
 10
16.4501
 20
-41.9355
 30
0.0
 10
16.4501
 20
-41.9355
 30
0.0
 10
16.4417
 20
-41.9255
 30
0.0
 10
16.43
 20
-41.911
 30
0.0
 10
16.4217
 20
-41.901
 30
0.0
 10
16.4217
 20
-41.901
 30
0.0
 10
16.4217
 20
-41.901
 30
0.0
 10
16.3358
 20
-41.798
 30
0.0
 10
16.3358
 20
-41.798
 30
0.0
 10
16.3358
 20
-41.798
 30
0.0
 10
15.7451
 20
-41.1069
 30
0.0
 10
14.4452
 20
-39.8531
 30
0.0
 10
13.8125
 20
-39.096
 30
0.0
 10
13.8125
 20
-39.096
 30
0.0
 10
13.8125
 20
-39.096
 30
0.0
 10
12.2327
 20
-37.4022
 30
0.0
 10
12.2327
 20
-37.4022
 30
0.0
 10
12.2327
 20
-37.4022
 30
0.0
 10
11.6775
 20
-36.7378
 30
0.0
 10
10.2202
 20
-35.3118
 30
0.0
 10
9.6519
 20
-34.6318
 30
0.0
 10
9.6519
 20
-34.6318
 30
0.0
 10
9.3671
 20
-34.291
 30
0.0
 10
9.0615
 20
-34.0516
 30
0.0
 10
8.8053
 20
-33.7157
 30
0.0
 10
8.8053
 20
-33.7157
 30
0.0
 10
8.8053
 20
-33.7157
 30
0.0
 10
6.6808
 20
-31.4333
 30
0.0
 10
6.6808
 20
-31.4333
 30
0.0
 10
6.6808
 20
-31.4333
 30
0.0
 10
6.5144
 20
-31.2667
 30
0.0
 10
6.405
 20
-31.0734
 30
0.0
 10
6.1615
 20
-31.0083
 30
0.0
 10
6.1615
 20
-31.0083
 30
0.0
 10
6.1615
 20
-31.0083
 30
0.0
 10
3.329
 20
-39.9491
 30
0.0
 10
3.329
 20
-39.9491
 30
0.0
  0
SPLINE
  5
85
330
1F
100
AcDbEntity
  8
Layer 1
100
AcDbSpline
210
0.0
220
0.0
230
1.0
 70
    11
 71
     3
 72
    24
 73
    20
 74
     0
 42
0.000000001
 43
0.0000000001
 40
0.0
 40
0.0
 40
0.0
 40
0.0
 40
0.1666666666666667
 40
0.1666666666666667
 40
0.1666666666666667
 40
0.1666666666666667
 40
0.3333333333333333
 40
0.3333333333333333
 40
0.3333333333333333
 40
0.3333333333333333
 40
0.5
 40
0.5
 40
0.5
 40
0.5
 40
0.6666666666666666
 40
0.6666666666666666
 40
0.6666666666666666
 40
0.6666666666666666
 40
1.0
 40
1.0
 40
1.0
 40
1.0
 10
1.6295
 20
3.3694
 30
0.0
 10
1.6295
 20
0.813
 30
0.0
 10
3.1449
 20
-1.0456
 30
0.0
 10
5.1325
 20
-2.0042
 30
0.0
 10
5.1325
 20
-2.0042
 30
0.0
 10
7.3336
 20
-3.0659
 30
0.0
 10
10.1073
 20
-2.5091
 30
0.0
 10
11.7325
 20
-0.8808
 30
0.0
 10
11.7325
 20
-0.8808
 30
0.0
 10
13.963
 20
1.3539
 30
0.0
 10
14.1826
 20
4.8123
 30
0.0
 10
12.0979
 20
7.2926
 30
0.0
 10
12.0979
 20
7.2926
 30
0.0
 10
9.7007
 20
10.1448
 30
0.0
 10
5.0532
 20
10.0893
 30
0.0
 10
2.6997
 20
6.7693
 30
0.0
 10
2.6997
 20
6.7693
 30
0.0
 10
2.0585
 20
5.8648
 30
0.0
 10
1.6295
 20
4.5979
 30
0.0
 10
1.6295
 20
3.3694
 30
0.0
  0
SPLINE
  5
86
330
1F
100
AcDbEntity
  8
Layer 1
100
AcDbSpline
210
0.0
220
0.0
230
1.0
 70
    11
 71
     3
 72
    84
 73
    80
 74
     0
 42
0.000000001
 43
0.0000000001
 40
0.0
 40
0.0
 40
0.0
 40
0.0
 40
0.0476190476190476
 40
0.0476190476190476
 40
0.0476190476190476
 40
0.0476190476190476
 40
0.0952380952380952
 40
0.0952380952380952
 40
0.0952380952380952
 40
0.0952380952380952
 40
0.1428571428571428
 40
0.1428571428571428
 40
0.1428571428571428
 40
0.1428571428571428
 40
0.1904761904761905
 40
0.1904761904761905
 40
0.1904761904761905
 40
0.1904761904761905
 40
0.2380952380952381
 40
0.2380952380952381
 40
0.2380952380952381
 40
0.2380952380952381
 40
0.2857142857142857
 40
0.2857142857142857
 40
0.2857142857142857
 40
0.2857142857142857
 40
0.3333333333333333
 40
0.3333333333333333
 40
0.3333333333333333
 40
0.3333333333333333
 40
0.3809523809523809
 40
0.3809523809523809
 40
0.3809523809523809
 40
0.3809523809523809
 40
0.4285714285714285
 40
0.4285714285714285
 40
0.4285714285714285
 40
0.4285714285714285
 40
0.4761904761904762
 40
0.4761904761904762
 40
0.4761904761904762
 40
0.4761904761904762
 40
0.5238095238095238
 40
0.5238095238095238
 40
0.5238095238095238
 40
0.5238095238095238
 40
0.5714285714285714
 40
0.5714285714285714
 40
0.5714285714285714
 40
0.5714285714285714
 40
0.6190476190476191
 40
0.6190476190476191
 40
0.6190476190476191
 40
0.6190476190476191
 40
0.6666666666666666
 40
0.6666666666666666
 40
0.6666666666666666
 40
0.6666666666666666
 40
0.7142857142857143
 40
0.7142857142857143
 40
0.7142857142857143
 40
0.7142857142857143
 40
0.7619047619047619
 40
0.7619047619047619
 40
0.7619047619047619
 40
0.7619047619047619
 40
0.8095238095238095
 40
0.8095238095238095
 40
0.8095238095238095
 40
0.8095238095238095
 40
0.8571428571428571
 40
0.8571428571428571
 40
0.8571428571428571
 40
0.8571428571428571
 40
0.9047619047619048
 40
0.9047619047619048
 40
0.9047619047619048
 40
0.9047619047619048
 40
1.0
 40
1.0
 40
1.0
 40
1.0
 10
31.8434
 20
-25.3417
 30
0.0
 10
31.8434
 20
-25.3417
 30
0.0
 10
26.3042
 20
-23.7676
 30
0.0
 10
26.3042
 20
-23.7676
 30
0.0
 10
26.3042
 20
-23.7676
 30
0.0
 10
26.3042
 20
-23.7676
 30
0.0
 10
28.4443
 20
-29.1195
 30
0.0
 10
28.4443
 20
-29.1195
 30
0.0
 10
28.4443
 20
-29.1195
 30
0.0
 10
28.4443
 20
-29.1195
 30
0.0
 10
26.8454
 20
-31.4868
 30
0.0
 10
26.8454
 20
-31.4868
 30
0.0
 10
26.8454
 20
-31.4868
 30
0.0
 10
26.5946
 20
-31.8633
 30
0.0
 10
25.3593
 20
-33.6371
 30
0.0
 10
25.297
 20
-33.9046
 30
0.0
 10
25.297
 20
-33.9046
 30
0.0
 10
25.297
 20
-33.9046
 30
0.0
 10
30.9621
 20
-33.5269
 30
0.0
 10
30.9621
 20
-33.5269
 30
0.0
 10
30.9621
 20
-33.5269
 30
0.0
 10
31.0774
 20
-33.6991
 30
0.0
 10
31.2548
 20
-33.9332
 30
0.0
 10
31.3934
 20
-34.1029
 30
0.0
 10
31.3934
 20
-34.1029
 30
0.0
 10
31.4843
 20
-34.2142
 30
0.0
 10
31.5314
 20
-34.2475
 30
0.0
 10
31.6286
 20
-34.3713
 30
0.0
 10
31.6286
 20
-34.3713
 30
0.0
 10
31.6286
 20
-34.3713
 30
0.0
 10
33.6256
 20
-36.907
 30
0.0
 10
33.6256
 20
-36.907
 30
0.0
 10
33.6256
 20
-36.907
 30
0.0
 10
33.7781
 20
-37.0949
 30
0.0
 10
34.4311
 20
-37.8503
 30
0.0
 10
34.4871
 20
-38.0602
 30
0.0
 10
34.4871
 20
-38.0602
 30
0.0
 10
34.6871
 20
-37.9136
 30
0.0
 10
34.8349
 20
-37.0165
 30
0.0
 10
34.9029
 20
-36.7132
 30
0.0
 10
34.9029
 20
-36.7132
 30
0.0
 10
35.0152
 20
-36.2125
 30
0.0
 10
35.1326
 20
-35.7928
 30
0.0
 10
35.2551
 20
-35.3025
 30
0.0
 10
35.2551
 20
-35.3025
 30
0.0
 10
35.2551
 20
-35.3025
 30
0.0
 10
35.9348
 20
-32.4565
 30
0.0
 10
35.9348
 20
-32.4565
 30
0.0
 10
35.9348
 20
-32.4565
 30
0.0
 10
35.9348
 20
-32.4565
 30
0.0
 10
41.2852
 20
-30.5047
 30
0.0
 10
41.2852
 20
-30.5047
 30
0.0
 10
41.2852
 20
-30.5047
 30
0.0
 10
41.215
 20
-30.2418
 30
0.0
 10
40.3901
 20
-29.815
 30
0.0
 10
40.1645
 20
-29.6738
 30
0.0
 10
40.1645
 20
-29.6738
 30
0.0
 10
40.1645
 20
-29.6738
 30
0.0
 10
36.4384
 20
-27.3565
 30
0.0
 10
36.4384
 20
-27.3565
 30
0.0
 10
36.4384
 20
-27.3565
 30
0.0
 10
36.4384
 20
-26.3339
 30
0.0
 10
36.3706
 20
-25.5394
 30
0.0
 10
36.3759
 20
-24.5227
 30
0.0
 10
36.3759
 20
-24.5227
 30
0.0
 10
36.3786
 20
-23.9907
 30
0.0
 10
36.3112
 20
-23.6947
 30
0.0
 10
36.3124
 20
-23.1381
 30
0.0
 10
36.3124
 20
-23.1381
 30
0.0
 10
36.3136
 20
-22.6334
 30
0.0
 10
36.3451
 20
-22.0999
 30
0.0
 10
36.2496
 20
-21.6898
 30
0.0
 10
36.2496
 20
-21.6898
 30
0.0
 10
36.0278
 20
-21.7491
 30
0.0
 10
36.1099
 20
-21.7498
 30
0.0
 10
35.9415
 20
-21.8854
 30
0.0
 10
35.9415
 20
-21.8854
 30
0.0
 10
35.9415
 20
-21.8854
 30
0.0
 10
31.8434
 20
-25.3417
 30
0.0
 10
31.8434
 20
-25.3417
 30
0.0
  0
SPLINE
  5
87
330
1F
100
AcDbEntity
  8
Layer 1
100
AcDbSpline
210
0.0
220
0.0
230
1.0
 70
    11
 71
     3
 72
    52
 73
    48
 74
     0
 42
0.000000001
 43
0.0000000001
 40
0.0
 40
0.0
 40
0.0
 40
0.0
 40
0.0769230769230769
 40
0.0769230769230769
 40
0.0769230769230769
 40
0.0769230769230769
 40
0.1538461538461539
 40
0.1538461538461539
 40
0.1538461538461539
 40
0.1538461538461539
 40
0.2307692307692308
 40
0.2307692307692308
 40
0.2307692307692308
 40
0.2307692307692308
 40
0.3076923076923077
 40
0.3076923076923077
 40
0.3076923076923077
 40
0.3076923076923077
 40
0.3846153846153846
 40
0.3846153846153846
 40
0.3846153846153846
 40
0.3846153846153846
 40
0.4615384615384616
 40
0.4615384615384616
 40
0.4615384615384616
 40
0.4615384615384616
 40
0.5384615384615384
 40
0.5384615384615384
 40
0.5384615384615384
 40
0.5384615384615384
 40
0.6153846153846154
 40
0.6153846153846154
 40
0.6153846153846154
 40
0.6153846153846154
 40
0.6923076923076923
 40
0.6923076923076923
 40
0.6923076923076923
 40
0.6923076923076923
 40
0.7692307692307693
 40
0.7692307692307693
 40
0.7692307692307693
 40
0.7692307692307693
 40
0.8461538461538461
 40
0.8461538461538461
 40
0.8461538461538461
 40
0.8461538461538461
 40
1.0
 40
1.0
 40
1.0
 40
1.0
 10
-95.9364
 20
-47.6306
 30
0.0
 10
-95.6556
 20
-47.5651
 30
0.0
 10
-95.3284
 20
-47.5394
 30
0.0
 10
-95.0106
 20
-47.4862
 30
0.0
 10
-95.0106
 20
-47.4862
 30
0.0
 10
-92.9407
 20
-47.1401
 30
0.0
 10
-90.3796
 20
-46.8627
 30
0.0
 10
-88.2924
 20
-46.5248
 30
0.0
 10
-88.2924
 20
-46.5248
 30
0.0
 10
-86.1577
 20
-46.1794
 30
0.0
 10
-83.7002
 20
-45.9182
 30
0.0
 10
-81.6384
 20
-45.5622
 30
0.0
 10
-81.6384
 20
-45.5622
 30
0.0
 10
-81.3651
 20
-45.5149
 30
0.0
 10
-80.9063
 20
-45.4328
 30
0.0
 10
-80.6406
 20
-45.4269
 30
0.0
 10
-80.6406
 20
-45.4269
 30
0.0
 10
-80.6935
 20
-45.2288
 30
0.0
 10
-81.0376
 20
-44.8246
 30
0.0
 10
-81.1799
 20
-44.6441
 30
0.0
 10
-81.1799
 20
-44.6441
 30
0.0
 10
-81.1799
 20
-44.6441
 30
0.0
 10
-89.8383
 20
-33.5975
 30
0.0
 10
-89.8383
 20
-33.5975
 30
0.0
 10
-89.8383
 20
-33.5975
 30
0.0
 10
-89.975
 20
-33.4198
 30
0.0
 10
-89.9619
 20
-33.3408
 30
0.0
 10
-90.2083
 20
-33.275
 30
0.0
 10
-90.2083
 20
-33.275
 30
0.0
 10
-90.2816
 20
-33.5895
 30
0.0
 10
-90.4158
 20
-33.8494
 30
0.0
 10
-90.5408
 20
-34.1388
 30
0.0
 10
-90.5408
 20
-34.1388
 30
0.0
 10
-90.5408
 20
-34.1388
 30
0.0
 10
-93.0623
 20
-40.4313
 30
0.0
 10
-93.0623
 20
-40.4313
 30
0.0
 10
-93.0623
 20
-40.4313
 30
0.0
 10
-93.2042
 20
-40.7476
 30
0.0
 10
-93.2953
 20
-41.0261
 30
0.0
 10
-93.4179
 20
-41.3349
 30
0.0
 10
-93.4179
 20
-41.3349
 30
0.0
 10
-93.5375
 20
-41.636
 30
0.0
 10
-93.6723
 20
-41.943
 30
0.0
 10
-93.788
 20
-42.224
 30
0.0
 10
-93.788
 20
-42.224
 30
0.0
 10
-93.788
 20
-42.224
 30
0.0
 10
-95.9364
 20
-47.6306
 30
0.0
 10
-95.9364
 20
-47.6306
 30
0.0
  0
SPLINE
  5
88
330
1F
100
AcDbEntity
  8
Layer 1
100
AcDbSpline
210
0.0
220
0.0
230
1.0
 70
    11
 71
     3
 72
    60
 73
    56
 74
     0
 42
0.000000001
 43
0.0000000001
 40
0.0
 40
0.0
 40
0.0
 40
0.0
 40
0.0666666666666667
 40
0.0666666666666667
 40
0.0666666666666667
 40
0.0666666666666667
 40
0.1333333333333333
 40
0.1333333333333333
 40
0.1333333333333333
 40
0.1333333333333333
 40
0.2
 40
0.2
 40
0.2
 40
0.2
 40
0.2666666666666667
 40
0.2666666666666667
 40
0.2666666666666667
 40
0.2666666666666667
 40
0.3333333333333333
 40
0.3333333333333333
 40
0.3333333333333333
 40
0.3333333333333333
 40
0.4
 40
0.4
 40
0.4
 40
0.4
 40
0.4666666666666667
 40
0.4666666666666667
 40
0.4666666666666667
 40
0.4666666666666667
 40
0.5333333333333333
 40
0.5333333333333333
 40
0.5333333333333333
 40
0.5333333333333333
 40
0.6
 40
0.6
 40
0.6
 40
0.6
 40
0.6666666666666666
 40
0.6666666666666666
 40
0.6666666666666666
 40
0.6666666666666666
 40
0.7333333333333333
 40
0.7333333333333333
 40
0.7333333333333333
 40
0.7333333333333333
 40
0.8
 40
0.8
 40
0.8
 40
0.8
 40
0.8666666666666667
 40
0.8666666666666667
 40
0.8666666666666667
 40
0.8666666666666667
 40
1.0
 40
1.0
 40
1.0
 40
1.0
 10
36.3755
 20
7.3361
 30
0.0
 10
36.9697
 20
6.2127
 30
0.0
 10
38.9512
 20
3.2891
 30
0.0
 10
39.7715
 20
1.9183
 30
0.0
 10
39.7715
 20
1.9183
 30
0.0
 10
39.907
 20
1.6919
 30
0.0
 10
40.0243
 20
1.5283
 30
0.0
 10
40.1645
 20
1.304
 30
0.0
 10
40.1645
 20
1.304
 30
0.0
 10
40.3959
 20
0.934
 30
0.0
 10
42.3619
 20
-2.1183
 30
0.0
 10
42.4182
 20
-2.3602
 30
0.0
 10
42.4182
 20
-2.3602
 30
0.0
 10
42.7043
 20
-2.3364
 30
0.0
 10
44.008
 20
-1.4298
 30
0.0
 10
44.28
 20
-1.2632
 30
0.0
 10
44.28
 20
-1.2632
 30
0.0
 10
44.28
 20
-1.2632
 30
0.0
 10
47.983
 20
1.0772
 30
0.0
 10
47.983
 20
1.0772
 30
0.0
 10
47.983
 20
1.0772
 30
0.0
 10
48.3091
 20
1.2912
 30
0.0
 10
48.5937
 20
1.4664
 30
0.0
 10
48.9016
 20
1.6694
 30
0.0
 10
48.9016
 20
1.6694
 30
0.0
 10
49.2056
 20
1.8699
 30
0.0
 10
49.5164
 20
2.0617
 30
0.0
 10
49.8458
 20
2.2361
 30
0.0
 10
49.8458
 20
2.2361
 30
0.0
 10
49.8245
 20
2.4931
 30
0.0
 10
49.3046
 20
3.2236
 30
0.0
 10
49.1412
 20
3.4832
 30
0.0
 10
49.1412
 20
3.4832
 30
0.0
 10
48.8784
 20
3.9008
 30
0.0
 10
48.6533
 20
4.2649
 30
0.0
 10
48.3858
 20
4.6793
 30
0.0
 10
48.3858
 20
4.6793
 30
0.0
 10
48.122
 20
5.088
 30
0.0
 10
47.8896
 20
5.464
 30
0.0
 10
47.6306
 20
5.8757
 30
0.0
 10
47.6306
 20
5.8757
 30
0.0
 10
47.6306
 20
5.8757
 30
0.0
 10
43.8031
 20
11.9953
 30
0.0
 10
43.8031
 20
11.9953
 30
0.0
 10
43.8031
 20
11.9953
 30
0.0
 10
43.6002
 20
11.9412
 30
0.0
 10
43.5028
 20
11.8328
 30
0.0
 10
43.3195
 20
11.7235
 30
0.0
 10
43.3195
 20
11.7235
 30
0.0
 10
43.3195
 20
11.7235
 30
0.0
 10
36.8421
 20
7.6249
 30
0.0
 10
36.8421
 20
7.6249
 30
0.0
 10
36.8421
 20
7.6249
 30
0.0
 10
36.6654
 20
7.5092
 30
0.0
 10
36.5346
 20
7.4427
 30
0.0
 10
36.3755
 20
7.3361
 30
0.0
  0
SPLINE
  5
89
330
1F
100
AcDbEntity
  8
Layer 1
100
AcDbSpline
210
0.0
220
0.0
230
1.0
 70
    11
 71
     3
 72
    72
 73
    68
 74
     0
 42
0.000000001
 43
0.0000000001
 40
0.0
 40
0.0
 40
0.0
 40
0.0
 40
0.0555555555555556
 40
0.0555555555555556
 40
0.0555555555555556
 40
0.0555555555555556
 40
0.1111111111111111
 40
0.1111111111111111
 40
0.1111111111111111
 40
0.1111111111111111
 40
0.1666666666666667
 40
0.1666666666666667
 40
0.1666666666666667
 40
0.1666666666666667
 40
0.2222222222222222
 40
0.2222222222222222
 40
0.2222222222222222
 40
0.2222222222222222
 40
0.2777777777777778
 40
0.2777777777777778
 40
0.2777777777777778
 40
0.2777777777777778
 40
0.3333333333333333
 40
0.3333333333333333
 40
0.3333333333333333
 40
0.3333333333333333
 40
0.3888888888888889
 40
0.3888888888888889
 40
0.3888888888888889
 40
0.3888888888888889
 40
0.4444444444444444
 40
0.4444444444444444
 40
0.4444444444444444
 40
0.4444444444444444
 40
0.5
 40
0.5
 40
0.5
 40
0.5
 40
0.5555555555555556
 40
0.5555555555555556
 40
0.5555555555555556
 40
0.5555555555555556
 40
0.6111111111111112
 40
0.6111111111111112
 40
0.6111111111111112
 40
0.6111111111111112
 40
0.6666666666666666
 40
0.6666666666666666
 40
0.6666666666666666
 40
0.6666666666666666
 40
0.7222222222222222
 40
0.7222222222222222
 40
0.7222222222222222
 40
0.7222222222222222
 40
0.7777777777777778
 40
0.7777777777777778
 40
0.7777777777777778
 40
0.7777777777777778
 40
0.8333333333333334
 40
0.8333333333333334
 40
0.8333333333333334
 40
0.8333333333333334
 40
0.8888888888888888
 40
0.8888888888888888
 40
0.8888888888888888
 40
0.8888888888888888
 40
1.0
 40
1.0
 40
1.0
 40
1.0
 10
4.3991
 20
-18.2898
 30
0.0
 10
4.4564
 20
-18.5362
 30
0.0
 10
4.5549
 20
-18.6296
 30
0.0
 10
4.671
 20
-18.8364
 30
0.0
 10
4.671
 20
-18.8364
 30
0.0
 10
4.671
 20
-18.8364
 30
0.0
 10
9.057
 20
-26.7898
 30
0.0
 10
9.057
 20
-26.7898
 30
0.0
 10
9.057
 20
-26.7898
 30
0.0
 10
9.329
 20
-26.6076
 30
0.0
 10
10.8268
 20
-24.766
 30
0.0
 10
11.2753
 20
-24.2866
 30
0.0
 10
11.2753
 20
-24.2866
 30
0.0
 10
11.2753
 20
-24.2866
 30
0.0
 10
15.3072
 20
-19.6936
 30
0.0
 10
15.3072
 20
-19.6936
 30
0.0
 10
15.3072
 20
-19.6936
 30
0.0
 10
15.476
 20
-19.492
 30
0.0
 10
15.5784
 20
-19.4274
 30
0.0
 10
15.7559
 20
-19.1979
 30
0.0
 10
15.7559
 20
-19.1979
 30
0.0
 10
15.9165
 20
-18.99
 30
0.0
 10
16.074
 20
-18.8504
 30
0.0
 10
16.2328
 20
-18.6676
 30
0.0
 10
16.2328
 20
-18.6676
 30
0.0
 10
16.0419
 20
-18.3067
 30
0.0
 10
15.8673
 20
-17.9528
 30
0.0
 10
15.6635
 20
-17.6001
 30
0.0
 10
15.6635
 20
-17.6001
 30
0.0
 10
15.6635
 20
-17.6001
 30
0.0
 10
15.2366
 20
-16.8308
 30
0.0
 10
15.2366
 20
-16.8308
 30
0.0
 10
15.2366
 20
-16.8308
 30
0.0
 10
15.1658
 20
-16.6975
 30
0.0
 10
15.1591
 20
-16.6796
 30
0.0
 10
15.0806
 20
-16.546
 30
0.0
 10
15.0806
 20
-16.546
 30
0.0
 10
14.1403
 20
-14.945
 30
0.0
 10
13.1149
 20
-12.9149
 30
0.0
 10
12.1442
 20
-11.2351
 30
0.0
 10
12.1442
 20
-11.2351
 30
0.0
 10
12.0119
 20
-11.0062
 30
0.0
 10
11.6768
 20
-10.2885
 30
0.0
 10
11.5119
 20
-10.1676
 30
0.0
 10
11.5119
 20
-10.1676
 30
0.0
 10
11.3355
 20
-10.2858
 30
0.0
 10
11.4254
 20
-10.2258
 30
0.0
 10
11.2953
 20
-10.3917
 30
0.0
 10
11.2953
 20
-10.3917
 30
0.0
 10
11.2953
 20
-10.3917
 30
0.0
 10
10.4134
 20
-11.3985
 30
0.0
 10
10.4134
 20
-11.3985
 30
0.0
 10
10.4134
 20
-11.3985
 30
0.0
 10
10.306
 20
-11.5268
 30
0.0
 10
10.2829
 20
-11.5478
 30
0.0
 10
10.1738
 20
-11.6625
 30
0.0
 10
10.1738
 20
-11.6625
 30
0.0
 10
9.9977
 20
-11.848
 30
0.0
 10
9.9212
 20
-11.9726
 30
0.0
 10
9.733
 20
-12.166
 30
0.0
 10
9.733
 20
-12.166
 30
0.0
 10
9.733
 20
-12.166
 30
0.0
 10
4.8548
 20
-17.7383
 30
0.0
 10
4.8548
 20
-17.7383
 30
0.0
 10
4.8548
 20
-17.7383
 30
0.0
 10
4.6417
 20
-17.9781
 30
0.0
 10
4.5841
 20
-18.0134
 30
0.0
 10
4.3991
 20
-18.2898
 30
0.0
  0
SPLINE
  5
8A
330
1F
100
AcDbEntity
  8
Layer 1
100
AcDbSpline
210
0.0
220
0.0
230
1.0
 70
    11
 71
     3
 72
    60
 73
    56
 74
     0
 42
0.000000001
 43
0.0000000001
 40
0.0
 40
0.0
 40
0.0
 40
0.0
 40
0.0666666666666667
 40
0.0666666666666667
 40
0.0666666666666667
 40
0.0666666666666667
 40
0.1333333333333333
 40
0.1333333333333333
 40
0.1333333333333333
 40
0.1333333333333333
 40
0.2
 40
0.2
 40
0.2
 40
0.2
 40
0.2666666666666667
 40
0.2666666666666667
 40
0.2666666666666667
 40
0.2666666666666667
 40
0.3333333333333333
 40
0.3333333333333333
 40
0.3333333333333333
 40
0.3333333333333333
 40
0.4
 40
0.4
 40
0.4
 40
0.4
 40
0.4666666666666667
 40
0.4666666666666667
 40
0.4666666666666667
 40
0.4666666666666667
 40
0.5333333333333333
 40
0.5333333333333333
 40
0.5333333333333333
 40
0.5333333333333333
 40
0.6
 40
0.6
 40
0.6
 40
0.6
 40
0.6666666666666666
 40
0.6666666666666666
 40
0.6666666666666666
 40
0.6666666666666666
 40
0.7333333333333333
 40
0.7333333333333333
 40
0.7333333333333333
 40
0.7333333333333333
 40
0.8
 40
0.8
 40
0.8
 40
0.8
 40
0.8666666666666667
 40
0.8666666666666667
 40
0.8666666666666667
 40
0.8666666666666667
 40
1.0
 40
1.0
 40
1.0
 40
1.0
 10
-73.2759
 20
2.7398
 30
0.0
 10
-73.2069
 20
2.4434
 30
0.0
 10
-72.1456
 20
0.7535
 30
0.0
 10
-71.9128
 20
0.3256
 30
0.0
 10
-71.9128
 20
0.3256
 30
0.0
 10
-71.7503
 20
0.0272
 30
0.0
 10
-71.5981
 20
-0.1923
 30
0.0
 10
-71.4505
 20
-0.4713
 30
0.0
 10
-71.4505
 20
-0.4713
 30
0.0
 10
-71.0337
 20
-0.2507
 30
0.0
 10
-70.639
 20
-0.0054
 30
0.0
 10
-70.2191
 20
0.2488
 30
0.0
 10
-70.2191
 20
0.2488
 30
0.0
 10
-69.7761
 20
0.5169
 30
0.0
 10
-69.3812
 20
0.7265
 30
0.0
 10
-68.9448
 20
0.989
 30
0.0
 10
-68.9448
 20
0.989
 30
0.0
 10
-68.9448
 20
0.989
 30
0.0
 10
-63.9402
 20
3.9163
 30
0.0
 10
-63.9402
 20
3.9163
 30
0.0
 10
-63.9402
 20
3.9163
 30
0.0
 10
-63.4972
 20
4.1818
 30
0.0
 10
-63.1102
 20
4.3882
 30
0.0
 10
-62.6654
 20
4.656
 30
0.0
 10
-62.6654
 20
4.656
 30
0.0
 10
-62.6654
 20
4.656
 30
0.0
 10
-51.3079
 20
11.3028
 30
0.0
 10
-51.3079
 20
11.3028
 30
0.0
 10
-51.3079
 20
11.3028
 30
0.0
 10
-51.3876
 20
11.6451
 30
0.0
 10
-52.9918
 20
14.1136
 30
0.0
 10
-53.0704
 20
14.4509
 30
0.0
 10
-53.0704
 20
14.4509
 30
0.0
 10
-53.3239
 20
14.3918
 30
0.0
 10
-53.5131
 20
14.2548
 30
0.0
 10
-53.7034
 20
14.1397
 30
0.0
 10
-53.7034
 20
14.1397
 30
0.0
 10
-56.1497
 20
12.6605
 30
0.0
 10
-58.7844
 20
11.2032
 30
0.0
 10
-61.2498
 20
9.7252
 30
0.0
 10
-61.2498
 20
9.7252
 30
0.0
 10
-63.5117
 20
8.3693
 30
0.0
 10
-65.9641
 20
7.0208
 30
0.0
 10
-68.2048
 20
5.6636
 30
0.0
 10
-68.2048
 20
5.6636
 30
0.0
 10
-69.0549
 20
5.1487
 30
0.0
 10
-69.8617
 20
4.7079
 30
0.0
 10
-70.7077
 20
4.2005
 30
0.0
 10
-70.7077
 20
4.2005
 30
0.0
 10
-70.9316
 20
4.0662
 30
0.0
 10
-71.1135
 20
3.9569
 30
0.0
 10
-71.336
 20
3.8216
 30
0.0
 10
-71.336
 20
3.8216
 30
0.0
 10
-71.336
 20
3.8216
 30
0.0
 10
-73.2759
 20
2.7398
 30
0.0
 10
-73.2759
 20
2.7398
 30
0.0
  0
SPLINE
  5
8B
330
1F
100
AcDbEntity
  8
Layer 1
100
AcDbSpline
210
0.0
220
0.0
230
1.0
 70
    11
 71
     3
 72
    60
 73
    56
 74
     0
 42
0.000000001
 43
0.0000000001
 40
0.0
 40
0.0
 40
0.0
 40
0.0
 40
0.0666666666666667
 40
0.0666666666666667
 40
0.0666666666666667
 40
0.0666666666666667
 40
0.1333333333333333
 40
0.1333333333333333
 40
0.1333333333333333
 40
0.1333333333333333
 40
0.2
 40
0.2
 40
0.2
 40
0.2
 40
0.2666666666666667
 40
0.2666666666666667
 40
0.2666666666666667
 40
0.2666666666666667
 40
0.3333333333333333
 40
0.3333333333333333
 40
0.3333333333333333
 40
0.3333333333333333
 40
0.4
 40
0.4
 40
0.4
 40
0.4
 40
0.4666666666666667
 40
0.4666666666666667
 40
0.4666666666666667
 40
0.4666666666666667
 40
0.5333333333333333
 40
0.5333333333333333
 40
0.5333333333333333
 40
0.5333333333333333
 40
0.6
 40
0.6
 40
0.6
 40
0.6
 40
0.6666666666666666
 40
0.6666666666666666
 40
0.6666666666666666
 40
0.6666666666666666
 40
0.7333333333333333
 40
0.7333333333333333
 40
0.7333333333333333
 40
0.7333333333333333
 40
0.8
 40
0.8
 40
0.8
 40
0.8
 40
0.8666666666666667
 40
0.8666666666666667
 40
0.8666666666666667
 40
0.8666666666666667
 40
1.0
 40
1.0
 40
1.0
 40
1.0
 10
26.1153
 20
-10.1046
 30
0.0
 10
26.1153
 20
-11.1246
 30
0.0
 10
26.3407
 20
-11.9096
 30
0.0
 10
26.959
 20
-12.7236
 30
0.0
 10
26.959
 20
-12.7236
 30
0.0
 10
27.0536
 20
-12.8481
 30
0.0
 10
27.1036
 20
-12.8798
 30
0.0
 10
27.1942
 20
-12.9921
 30
0.0
 10
27.1942
 20
-12.9921
 30
0.0
 10
27.8819
 20
-13.8445
 30
0.0
 10
29.0767
 20
-14.5121
 30
0.0
 10
30.2068
 20
-14.5121
 30
0.0
 10
30.2068
 20
-14.5121
 30
0.0
 10
31.365
 20
-14.5121
 30
0.0
 10
32.1658
 20
-14.3976
 30
0.0
 10
33.0856
 20
-13.7398
 30
0.0
 10
33.0856
 20
-13.7398
 30
0.0
 10
34.4284
 20
-12.7795
 30
0.0
 10
35.1269
 20
-11.2936
 30
0.0
 10
34.9176
 20
-9.5481
 30
0.0
 10
34.9176
 20
-9.5481
 30
0.0
 10
34.822
 20
-8.751
 30
0.0
 10
34.3255
 20
-7.9348
 30
0.0
 10
33.981
 20
-7.3368
 30
0.0
 10
33.981
 20
-7.3368
 30
0.0
 10
33.981
 20
-7.3368
 30
0.0
 10
32.0952
 20
-4.5639
 30
0.0
 10
32.0952
 20
-4.5639
 30
0.0
 10
32.0952
 20
-4.5639
 30
0.0
 10
31.984
 20
-4.4159
 30
0.0
 10
31.8919
 20
-4.2908
 30
0.0
 10
31.7655
 20
-4.1381
 30
0.0
 10
31.7655
 20
-4.1381
 30
0.0
 10
31.7655
 20
-4.1381
 30
0.0
 10
30.7553
 20
-2.819
 30
0.0
 10
30.7553
 20
-2.819
 30
0.0
 10
30.7553
 20
-2.819
 30
0.0
 10
30.5209
 20
-2.5029
 30
0.0
 10
30.3094
 20
-2.2462
 30
0.0
 10
30.0611
 20
-1.9392
 30
0.0
 10
30.0611
 20
-1.9392
 30
0.0
 10
30.0611
 20
-1.9392
 30
0.0
 10
29.011
 20
-0.66
 30
0.0
 10
29.011
 20
-0.66
 30
0.0
 10
29.011
 20
-0.66
 30
0.0
 10
28.8889
 20
-0.4997
 30
0.0
 10
28.7954
 20
-0.3426
 30
0.0
 10
28.5702
 20
-0.2824
 30
0.0
 10
28.5702
 20
-0.2824
 30
0.0
 10
28.5644
 20
-0.5418
 30
0.0
 10
28.3111
 20
-1.1566
 30
0.0
 10
28.2162
 20
-1.4394
 30
0.0
 10
28.2162
 20
-1.4394
 30
0.0
 10
27.521
 20
-3.5089
 30
0.0
 10
26.1153
 20
-8.1069
 30
0.0
 10
26.1153
 20
-10.1046
 30
0.0
  0
SPLINE
  5
8C
330
1F
100
AcDbEntity
  8
Layer 1
100
AcDbSpline
210
0.0
220
0.0
230
1.0
 70
    11
 71
     3
 72
    32
 73
    28
 74
     0
 42
0.000000001
 43
0.0000000001
 40
0.0
 40
0.0
 40
0.0
 40
0.0
 40
0.125
 40
0.125
 40
0.125
 40
0.125
 40
0.25
 40
0.25
 40
0.25
 40
0.25
 40
0.375
 40
0.375
 40
0.375
 40
0.375
 40
0.5
 40
0.5
 40
0.5
 40
0.5
 40
0.625
 40
0.625
 40
0.625
 40
0.625
 40
0.75
 40
0.75
 40
0.75
 40
0.75
 40
1.0
 40
1.0
 40
1.0
 40
1.0
 10
44.6213
 20
-13.3787
 30
0.0
 10
44.6213
 20
-14.3159
 30
0.0
 10
44.6805
 20
-14.923
 30
0.0
 10
45.4235
 20
-15.6615
 30
0.0
 10
45.4235
 20
-15.6615
 30
0.0
 10
46.9305
 20
-17.159
 30
0.0
 10
49.4447
 20
-17.0945
 30
0.0
 10
51.3021
 20
-16.4724
 30
0.0
 10
51.3021
 20
-16.4724
 30
0.0
 10
53.018
 20
-15.8976
 30
0.0
 10
54.6956
 20
-14.7921
 30
0.0
 10
55.65
 20
-13.2659
 30
0.0
 10
55.65
 20
-13.2659
 30
0.0
 10
56.9545
 20
-11.1798
 30
0.0
 10
56.3796
 20
-8.8885
 30
0.0
 10
54.0414
 20
-8.1117
 30
0.0
 10
54.0414
 20
-8.1117
 30
0.0
 10
52.4974
 20
-7.5987
 30
0.0
 10
50.5946
 20
-7.8316
 30
0.0
 10
49.1526
 20
-8.4038
 30
0.0
 10
49.1526
 20
-8.4038
 30
0.0
 10
47.7426
 20
-8.9634
 30
0.0
 10
46.4375
 20
-9.8707
 30
0.0
 10
45.5287
 20
-11.0751
 30
0.0
 10
45.5287
 20
-11.0751
 30
0.0
 10
45.1539
 20
-11.5719
 30
0.0
 10
44.6213
 20
-12.5485
 30
0.0
 10
44.6213
 20
-13.3787
 30
0.0
  0
SPLINE
  5
8D
330
1F
100
AcDbEntity
  8
Layer 1
100
AcDbSpline
210
0.0
220
0.0
230
1.0
 70
    11
 71
     3
 72
    64
 73
    60
 74
     0
 42
0.000000001
 43
0.0000000001
 40
0.0
 40
0.0
 40
0.0
 40
0.0
 40
0.0625
 40
0.0625
 40
0.0625
 40
0.0625
 40
0.125
 40
0.125
 40
0.125
 40
0.125
 40
0.1875
 40
0.1875
 40
0.1875
 40
0.1875
 40
0.25
 40
0.25
 40
0.25
 40
0.25
 40
0.3125
 40
0.3125
 40
0.3125
 40
0.3125
 40
0.375
 40
0.375
 40
0.375
 40
0.375
 40
0.4375
 40
0.4375
 40
0.4375
 40
0.4375
 40
0.5
 40
0.5
 40
0.5
 40
0.5
 40
0.5625
 40
0.5625
 40
0.5625
 40
0.5625
 40
0.625
 40
0.625
 40
0.625
 40
0.625
 40
0.6875
 40
0.6875
 40
0.6875
 40
0.6875
 40
0.75
 40
0.75
 40
0.75
 40
0.75
 40
0.8125
 40
0.8125
 40
0.8125
 40
0.8125
 40
0.875
 40
0.875
 40
0.875
 40
0.875
 40
1.0
 40
1.0
 40
1.0
 40
1.0
 10
46.1321
 20
-36.738
 30
0.0
 10
46.5752
 20
-36.8412
 30
0.0
 10
47.1399
 20
-36.8656
 30
0.0
 10
47.6315
 20
-36.9381
 30
0.0
 10
47.6315
 20
-36.9381
 30
0.0
 10
47.6315
 20
-36.9381
 30
0.0
 10
50.6694
 20
-37.2994
 30
0.0
 10
50.6694
 20
-37.2994
 30
0.0
 10
50.6694
 20
-37.2994
 30
0.0
 10
50.961
 20
-37.3328
 30
0.0
 10
51.1514
 20
-37.3465
 30
0.0
 10
51.4646
 20
-37.3854
 30
0.0
 10
51.4646
 20
-37.3854
 30
0.0
 10
52.6102
 20
-37.528
 30
0.0
 10
57.7873
 20
-38.1861
 30
0.0
 10
58.4694
 20
-38.1861
 30
0.0
 10
58.4694
 20
-38.1861
 30
0.0
 10
58.4694
 20
-38.1861
 30
0.0
 10
57.1486
 20
-36.485
 30
0.0
 10
57.1486
 20
-36.485
 30
0.0
 10
57.1486
 20
-36.485
 30
0.0
 10
57.0235
 20
-36.3208
 30
0.0
 10
56.9432
 20
-36.258
 30
0.0
 10
56.805
 20
-36.0732
 30
0.0
 10
56.805
 20
-36.0732
 30
0.0
 10
56.6777
 20
-35.9028
 30
0.0
 10
56.6055
 20
-35.8088
 30
0.0
 10
56.4749
 20
-35.6478
 30
0.0
 10
56.4749
 20
-35.6478
 30
0.0
 10
56.4749
 20
-35.6478
 30
0.0
 10
53.0567
 20
-31.3225
 30
0.0
 10
53.0567
 20
-31.3225
 30
0.0
 10
53.0567
 20
-31.3225
 30
0.0
 10
52.8406
 20
-31.0394
 30
0.0
 10
52.6197
 20
-30.7755
 30
0.0
 10
52.3832
 20
-30.4851
 30
0.0
 10
52.3832
 20
-30.4851
 30
0.0
 10
52.3832
 20
-30.4851
 30
0.0
 10
47.9933
 20
-24.928
 30
0.0
 10
47.9933
 20
-24.928
 30
0.0
 10
47.9933
 20
-24.928
 30
0.0
 10
47.8271
 20
-24.714
 30
0.0
 10
47.7619
 20
-24.5718
 30
0.0
 10
47.5798
 20
-24.5232
 30
0.0
 10
47.5798
 20
-24.5232
 30
0.0
 10
47.5798
 20
-24.5232
 30
0.0
 10
47.4022
 20
-26.0455
 30
0.0
 10
47.4022
 20
-26.0455
 30
0.0
 10
47.4022
 20
-26.0455
 30
0.0
 10
47.3287
 20
-26.5455
 30
0.0
 10
47.2906
 20
-27.1053
 30
0.0
 10
47.2218
 20
-27.565
 30
0.0
 10
47.2218
 20
-27.565
 30
0.0
 10
46.8987
 20
-29.7208
 30
0.0
 10
46.7171
 20
-32.3184
 30
0.0
 10
46.4123
 20
-34.3739
 30
0.0
 10
46.4123
 20
-34.3739
 30
0.0
 10
46.4123
 20
-34.3739
 30
0.0
 10
46.1321
 20
-36.738
 30
0.0
 10
46.1321
 20
-36.738
 30
0.0
  0
SPLINE
  5
8E
330
1F
100
AcDbEntity
  8
Layer 1
100
AcDbSpline
210
0.0
220
0.0
230
1.0
 70
    11
 71
     3
 72
    84
 73
    80
 74
     0
 42
0.000000001
 43
0.0000000001
 40
0.0
 40
0.0
 40
0.0
 40
0.0
 40
0.0476190476190476
 40
0.0476190476190476
 40
0.0476190476190476
 40
0.0476190476190476
 40
0.0952380952380952
 40
0.0952380952380952
 40
0.0952380952380952
 40
0.0952380952380952
 40
0.1428571428571428
 40
0.1428571428571428
 40
0.1428571428571428
 40
0.1428571428571428
 40
0.1904761904761905
 40
0.1904761904761905
 40
0.1904761904761905
 40
0.1904761904761905
 40
0.2380952380952381
 40
0.2380952380952381
 40
0.2380952380952381
 40
0.2380952380952381
 40
0.2857142857142857
 40
0.2857142857142857
 40
0.2857142857142857
 40
0.2857142857142857
 40
0.3333333333333333
 40
0.3333333333333333
 40
0.3333333333333333
 40
0.3333333333333333
 40
0.3809523809523809
 40
0.3809523809523809
 40
0.3809523809523809
 40
0.3809523809523809
 40
0.4285714285714285
 40
0.4285714285714285
 40
0.4285714285714285
 40
0.4285714285714285
 40
0.4761904761904762
 40
0.4761904761904762
 40
0.4761904761904762
 40
0.4761904761904762
 40
0.5238095238095238
 40
0.5238095238095238
 40
0.5238095238095238
 40
0.5238095238095238
 40
0.5714285714285714
 40
0.5714285714285714
 40
0.5714285714285714
 40
0.5714285714285714
 40
0.6190476190476191
 40
0.6190476190476191
 40
0.6190476190476191
 40
0.6190476190476191
 40
0.6666666666666666
 40
0.6666666666666666
 40
0.6666666666666666
 40
0.6666666666666666
 40
0.7142857142857143
 40
0.7142857142857143
 40
0.7142857142857143
 40
0.7142857142857143
 40
0.7619047619047619
 40
0.7619047619047619
 40
0.7619047619047619
 40
0.7619047619047619
 40
0.8095238095238095
 40
0.8095238095238095
 40
0.8095238095238095
 40
0.8095238095238095
 40
0.8571428571428571
 40
0.8571428571428571
 40
0.8571428571428571
 40
0.8571428571428571
 40
0.9047619047619048
 40
0.9047619047619048
 40
0.9047619047619048
 40
0.9047619047619048
 40
1.0
 40
1.0
 40
1.0
 40
1.0
 10
-29.5287
 20
-44.2306
 30
0.0
 10
-29.6992
 20
-44.1163
 30
0.0
 10
-29.7644
 20
-44.0835
 30
0.0
 10
-29.9222
 20
-43.9317
 30
0.0
 10
-29.9222
 20
-43.9317
 30
0.0
 10
-30.5609
 20
-43.3176
 30
0.0
 10
-31.9076
 20
-42.276
 30
0.0
 10
-32.6282
 20
-41.6013
 30
0.0
 10
-32.6282
 20
-41.6013
 30
0.0
 10
-32.7787
 20
-41.4605
 30
0.0
 10
-32.8507
 20
-41.4355
 30
0.0
 10
-33.0065
 20
-41.2871
 30
0.0
 10
-33.0065
 20
-41.2871
 30
0.0
 10
-33.1687
 20
-41.1325
 30
0.0
 10
-33.2524
 20
-41.0852
 30
0.0
 10
-33.4151
 20
-40.9403
 30
0.0
 10
-33.4151
 20
-40.9403
 30
0.0
 10
-33.4151
 20
-40.9403
 30
0.0
 10
-35.7603
 20
-38.9417
 30
0.0
 10
-35.7603
 20
-38.9417
 30
0.0
 10
-35.7603
 20
-38.9417
 30
0.0
 10
-35.9358
 20
-39.0593
 30
0.0
 10
-36.3317
 20
-39.6344
 30
0.0
 10
-36.4788
 20
-39.86
 30
0.0
 10
-36.4788
 20
-39.86
 30
0.0
 10
-37.1176
 20
-40.8391
 30
0.0
 10
-37.7116
 20
-42.3976
 30
0.0
 10
-37.7116
 20
-43.601
 30
0.0
 10
-37.7116
 20
-43.601
 30
0.0
 10
-37.7116
 20
-44.4081
 30
0.0
 10
-37.7649
 20
-44.9724
 30
0.0
 10
-37.5857
 20
-45.7417
 30
0.0
 10
-37.5857
 20
-45.7417
 30
0.0
 10
-37.5857
 20
-45.7417
 30
0.0
 10
-21.4087
 20
-45.7417
 30
0.0
 10
-21.4087
 20
-45.7417
 30
0.0
 10
-21.4087
 20
-45.7417
 30
0.0
 10
-21.4087
 20
-45.4692
 30
0.0
 10
-21.3533
 20
-44.8109
 30
0.0
 10
-21.3079
 20
-44.5174
 30
0.0
 10
-21.3079
 20
-44.5174
 30
0.0
 10
-21.1756
 20
-43.6615
 30
0.0
 10
-21.6105
 20
-41.9637
 30
0.0
 10
-21.9297
 20
-41.1628
 30
0.0
 10
-21.9297
 20
-41.1628
 30
0.0
 10
-22.3459
 20
-40.118
 30
0.0
 10
-22.8371
 20
-39.5068
 30
0.0
 10
-23.5045
 20
-38.7084
 30
0.0
 10
-23.5045
 20
-38.7084
 30
0.0
 10
-23.7318
 20
-38.4364
 30
0.0
 10
-23.9567
 20
-38.2508
 30
0.0
 10
-24.2412
 20
-38.0602
 30
0.0
 10
-24.2412
 20
-38.0602
 30
0.0
 10
-24.2412
 20
-38.0602
 30
0.0
 10
-25.2298
 20
-39.1492
 30
0.0
 10
-25.2298
 20
-39.1492
 30
0.0
 10
-25.2298
 20
-39.1492
 30
0.0
 10
-25.3572
 20
-39.3
 30
0.0
 10
-25.4446
 20
-39.4206
 30
0.0
 10
-25.5685
 20
-39.566
 30
0.0
 10
-25.5685
 20
-39.566
 30
0.0
 10
-25.5685
 20
-39.566
 30
0.0
 10
-26.9038
 20
-41.1265
 30
0.0
 10
-26.9038
 20
-41.1265
 30
0.0
 10
-26.9038
 20
-41.1265
 30
0.0
 10
-27.13
 20
-41.394
 30
0.0
 10
-27.3192
 20
-41.5904
 30
0.0
 10
-27.541
 20
-41.8744
 30
0.0
 10
-27.541
 20
-41.8744
 30
0.0
 10
-27.541
 20
-41.8744
 30
0.0
 10
-28.5356
 20
-43.0203
 30
0.0
 10
-28.5356
 20
-43.0203
 30
0.0
 10
-28.5356
 20
-43.0203
 30
0.0
 10
-28.675
 20
-43.1803
 30
0.0
 10
-28.732
 20
-43.2651
 30
0.0
 10
-28.8833
 20
-43.4279
 30
0.0
 10
-28.8833
 20
-43.4279
 30
0.0
 10
-28.8833
 20
-43.4279
 30
0.0
 10
-29.5287
 20
-44.2306
 30
0.0
 10
-29.5287
 20
-44.2306
 30
0.0
  0
SPLINE
  5
8F
330
1F
100
AcDbEntity
  8
Layer 1
100
AcDbSpline
210
0.0
220
0.0
230
1.0
 70
    11
 71
     3
 72
    32
 73
    28
 74
     0
 42
0.000000001
 43
0.0000000001
 40
0.0
 40
0.0
 40
0.0
 40
0.0
 40
0.125
 40
0.125
 40
0.125
 40
0.125
 40
0.25
 40
0.25
 40
0.25
 40
0.25
 40
0.375
 40
0.375
 40
0.375
 40
0.375
 40
0.5
 40
0.5
 40
0.5
 40
0.5
 40
0.625
 40
0.625
 40
0.625
 40
0.625
 40
0.75
 40
0.75
 40
0.75
 40
0.75
 40
1.0
 40
1.0
 40
1.0
 40
1.0
 10
-73.7166
 20
-30.001
 30
0.0
 10
-73.7166
 20
-32.281
 30
0.0
 10
-72.1637
 20
-34.44
 30
0.0
 10
-69.9137
 20
-34.8859
 30
0.0
 10
-69.9137
 20
-34.8859
 30
0.0
 10
-68.7942
 20
-35.1077
 30
0.0
 10
-67.8554
 20
-35.0755
 30
0.0
 10
-66.7932
 20
-34.5966
 30
0.0
 10
-66.7932
 20
-34.5966
 30
0.0
 10
-66.2403
 20
-34.3473
 30
0.0
 10
-65.7402
 20
-34.02
 30
0.0
 10
-65.3287
 20
-33.6059
 30
0.0
 10
-65.3287
 20
-33.6059
 30
0.0
 10
-64.4057
 20
-32.6771
 30
0.0
 10
-63.93
 20
-31.586
 30
0.0
 10
-63.8348
 20
-30.1841
 30
0.0
 10
-63.8348
 20
-30.1841
 30
0.0
 10
-63.7987
 20
-29.6522
 30
0.0
 10
-64.024
 20
-28.6459
 30
0.0
 10
-64.2376
 20
-28.1379
 30
0.0
 10
-64.2376
 20
-28.1379
 30
0.0
 10
-65.0178
 20
-26.2827
 30
0.0
 10
-66.8102
 20
-25.1528
 30
0.0
 10
-68.8697
 20
-25.1528
 30
0.0
 10
-68.8697
 20
-25.1528
 30
0.0
 10
-71.5202
 20
-25.1528
 30
0.0
 10
-73.7166
 20
-27.3525
 30
0.0
 10
-73.7166
 20
-30.001
 30
0.0
  0
SPLINE
  5
90
330
1F
100
AcDbEntity
  8
Layer 1
100
AcDbSpline
210
0.0
220
0.0
230
1.0
 70
    11
 71
     3
 72
    36
 73
    32
 74
     0
 42
0.000000001
 43
0.0000000001
 40
0.0
 40
0.0
 40
0.0
 40
0.0
 40
0.1111111111111111
 40
0.1111111111111111
 40
0.1111111111111111
 40
0.1111111111111111
 40
0.2222222222222222
 40
0.2222222222222222
 40
0.2222222222222222
 40
0.2222222222222222
 40
0.3333333333333333
 40
0.3333333333333333
 40
0.3333333333333333
 40
0.3333333333333333
 40
0.4444444444444444
 40
0.4444444444444444
 40
0.4444444444444444
 40
0.4444444444444444
 40
0.5555555555555556
 40
0.5555555555555556
 40
0.5555555555555556
 40
0.5555555555555556
 40
0.6666666666666666
 40
0.6666666666666666
 40
0.6666666666666666
 40
0.6666666666666666
 40
0.7777777777777778
 40
0.7777777777777778
 40
0.7777777777777778
 40
0.7777777777777778
 40
1.0
 40
1.0
 40
1.0
 40
1.0
 10
-52.1891
 20
-45.8046
 30
0.0
 10
-52.1891
 20
-45.8046
 30
0.0
 10
-47.1535
 20
-45.8046
 30
0.0
 10
-47.1535
 20
-45.8046
 30
0.0
 10
-47.1535
 20
-45.8046
 30
0.0
 10
-47.0791
 20
-45.6496
 30
0.0
 10
-46.9648
 20
-45.1495
 30
0.0
 10
-46.9155
 20
-44.9724
 30
0.0
 10
-46.9155
 20
-44.9724
 30
0.0
 10
-46.9155
 20
-44.9724
 30
0.0
 10
-43.4393
 20
-32.5828
 30
0.0
 10
-43.4393
 20
-32.5828
 30
0.0
 10
-43.4393
 20
-32.5828
 30
0.0
 10
-43.3665
 20
-32.3222
 30
0.0
 10
-43.2923
 20
-31.9186
 30
0.0
 10
-43.1879
 20
-31.701
 30
0.0
 10
-43.1879
 20
-31.701
 30
0.0
 10
-44.5999
 20
-31.3719
 30
0.0
 10
-46.6208
 20
-31.1343
 30
0.0
 10
-47.9718
 20
-30.8194
 30
0.0
 10
-47.9718
 20
-30.8194
 30
0.0
 10
-48.0866
 20
-31.0589
 30
0.0
 10
-48.1577
 20
-31.4393
 30
0.0
 10
-48.2454
 20
-31.7421
 30
0.0
 10
-48.2454
 20
-31.7421
 30
0.0
 10
-48.2454
 20
-31.7421
 30
0.0
 10
-50.0865
 20
-38.2746
 30
0.0
 10
-50.0865
 20
-38.2746
 30
0.0
 10
-50.0865
 20
-38.2746
 30
0.0
 10
-50.3086
 20
-39.1632
 30
0.0
 10
-52.1621
 20
-45.48
 30
0.0
 10
-52.1891
 20
-45.8046
 30
0.0
  0
SPLINE
  5
91
330
1F
100
AcDbEntity
  8
Layer 1
100
AcDbSpline
210
0.0
220
0.0
230
1.0
 70
    11
 71
     3
 72
    48
 73
    44
 74
     0
 42
0.000000001
 43
0.0000000001
 40
0.0
 40
0.0
 40
0.0
 40
0.0
 40
0.0833333333333333
 40
0.0833333333333333
 40
0.0833333333333333
 40
0.0833333333333333
 40
0.1666666666666667
 40
0.1666666666666667
 40
0.1666666666666667
 40
0.1666666666666667
 40
0.25
 40
0.25
 40
0.25
 40
0.25
 40
0.3333333333333333
 40
0.3333333333333333
 40
0.3333333333333333
 40
0.3333333333333333
 40
0.4166666666666667
 40
0.4166666666666667
 40
0.4166666666666667
 40
0.4166666666666667
 40
0.5
 40
0.5
 40
0.5
 40
0.5
 40
0.5833333333333334
 40
0.5833333333333334
 40
0.5833333333333334
 40
0.5833333333333334
 40
0.6666666666666666
 40
0.6666666666666666
 40
0.6666666666666666
 40
0.6666666666666666
 40
0.75
 40
0.75
 40
0.75
 40
0.75
 40
0.8333333333333334
 40
0.8333333333333334
 40
0.8333333333333334
 40
0.8333333333333334
 40
1.0
 40
1.0
 40
1.0
 40
1.0
 10
-91.8449
 20
-66.0158
 30
0.0
 10
-91.5792
 20
-66.1938
 30
0.0
 10
-91.0887
 20
-66.804
 30
0.0
 10
-90.7591
 20
-67.1333
 30
0.0
 10
-90.7591
 20
-67.1333
 30
0.0
 10
-90.7591
 20
-67.1333
 30
0.0
 10
-88.5881
 20
-69.4322
 30
0.0
 10
-88.5881
 20
-69.4322
 30
0.0
 10
-88.5881
 20
-69.4322
 30
0.0
 10
-88.1897
 20
-69.8435
 30
0.0
 10
-87.8189
 20
-70.1383
 30
0.0
 10
-87.5017
 20
-70.6121
 30
0.0
 10
-87.5017
 20
-70.6121
 30
0.0
 10
-87.5017
 20
-70.6121
 30
0.0
 10
-83.1794
 20
-68.5762
 30
0.0
 10
-83.1794
 20
-68.5762
 30
0.0
 10
-83.1794
 20
-68.5762
 30
0.0
 10
-82.9124
 20
-68.4419
 30
0.0
 10
-82.7146
 20
-68.3711
 30
0.0
 10
-82.4442
 20
-68.2413
 30
0.0
 10
-82.4442
 20
-68.2413
 30
0.0
 10
-82.1957
 20
-68.1219
 30
0.0
 10
-81.9723
 20
-67.9657
 30
0.0
 10
-81.7107
 20
-67.9047
 30
0.0
 10
-81.7107
 20
-67.9047
 30
0.0
 10
-81.7107
 20
-67.9047
 30
0.0
 10
-82.4978
 20
-62.0179
 30
0.0
 10
-82.4978
 20
-62.0179
 30
0.0
 10
-82.4978
 20
-62.0179
 30
0.0
 10
-82.5281
 20
-61.7884
 30
0.0
 10
-82.4855
 20
-61.7434
 30
0.0
 10
-82.6229
 20
-61.6394
 30
0.0
 10
-82.6229
 20
-61.6394
 30
0.0
 10
-82.6357
 20
-61.6297
 30
0.0
 10
-88.3856
 20
-60.475
 30
0.0
 10
-88.6976
 20
-60.475
 30
0.0
 10
-88.6976
 20
-60.475
 30
0.0
 10
-88.9353
 20
-60.475
 30
0.0
 10
-89.4159
 20
-61.5332
 30
0.0
 10
-89.5364
 20
-61.7768
 30
0.0
 10
-89.5364
 20
-61.7768
 30
0.0
 10
-89.5364
 20
-61.7768
 30
0.0
 10
-91.8449
 20
-66.0158
 30
0.0
 10
-91.8449
 20
-66.0158
 30
0.0
  0
SPLINE
  5
92
330
1F
100
AcDbEntity
  8
Layer 1
100
AcDbSpline
210
0.0
220
0.0
230
1.0
 70
    11
 71
     3
 72
    68
 73
    64
 74
     0
 42
0.000000001
 43
0.0000000001
 40
0.0
 40
0.0
 40
0.0
 40
0.0
 40
0.0588235294117647
 40
0.0588235294117647
 40
0.0588235294117647
 40
0.0588235294117647
 40
0.1176470588235294
 40
0.1176470588235294
 40
0.1176470588235294
 40
0.1176470588235294
 40
0.1764705882352941
 40
0.1764705882352941
 40
0.1764705882352941
 40
0.1764705882352941
 40
0.2352941176470588
 40
0.2352941176470588
 40
0.2352941176470588
 40
0.2352941176470588
 40
0.2941176470588235
 40
0.2941176470588235
 40
0.2941176470588235
 40
0.2941176470588235
 40
0.3529411764705883
 40
0.3529411764705883
 40
0.3529411764705883
 40
0.3529411764705883
 40
0.4117647058823529
 40
0.4117647058823529
 40
0.4117647058823529
 40
0.4117647058823529
 40
0.4705882352941176
 40
0.4705882352941176
 40
0.4705882352941176
 40
0.4705882352941176
 40
0.5294117647058824
 40
0.5294117647058824
 40
0.5294117647058824
 40
0.5294117647058824
 40
0.5882352941176471
 40
0.5882352941176471
 40
0.5882352941176471
 40
0.5882352941176471
 40
0.6470588235294118
 40
0.6470588235294118
 40
0.6470588235294118
 40
0.6470588235294118
 40
0.7058823529411765
 40
0.7058823529411765
 40
0.7058823529411765
 40
0.7058823529411765
 40
0.7647058823529411
 40
0.7647058823529411
 40
0.7647058823529411
 40
0.7647058823529411
 40
0.8235294117647058
 40
0.8235294117647058
 40
0.8235294117647058
 40
0.8235294117647058
 40
0.8823529411764706
 40
0.8823529411764706
 40
0.8823529411764706
 40
0.8823529411764706
 40
1.0
 40
1.0
 40
1.0
 40
1.0
 10
-62.8269
 20
-8.0269
 30
0.0
 10
-62.8269
 20
-8.0269
 30
0.0
 10
-61.7569
 20
-11.4269
 30
0.0
 10
-61.7569
 20
-11.4269
 30
0.0
 10
-61.7569
 20
-11.4269
 30
0.0
 10
-61.7569
 20
-11.4269
 30
0.0
 10
-65.0901
 20
-12.5059
 30
0.0
 10
-65.0901
 20
-12.5059
 30
0.0
 10
-65.0901
 20
-12.5059
 30
0.0
 10
-65.0617
 20
-12.8735
 30
0.0
 10
-64.1167
 20
-15.4006
 30
0.0
 10
-64.0859
 20
-15.7713
 30
0.0
 10
-64.0859
 20
-15.7713
 30
0.0
 10
-63.5456
 20
-15.7263
 30
0.0
 10
-61.2327
 20
-14.7464
 30
0.0
 10
-60.6868
 20
-14.7009
 30
0.0
 10
-60.6868
 20
-14.7009
 30
0.0
 10
-60.5742
 20
-14.9357
 30
0.0
 10
-60.4996
 20
-15.2078
 30
0.0
 10
-60.3987
 20
-15.4831
 30
0.0
 10
-60.3987
 20
-15.4831
 30
0.0
 10
-60.3987
 20
-15.4831
 30
0.0
 10
-59.5538
 20
-18.038
 30
0.0
 10
-59.5538
 20
-18.038
 30
0.0
 10
-59.5538
 20
-18.038
 30
0.0
 10
-59.0499
 20
-17.9206
 30
0.0
 10
-58.4602
 20
-17.6846
 30
0.0
 10
-57.941
 20
-17.5104
 30
0.0
 10
-57.941
 20
-17.5104
 30
0.0
 10
-57.6532
 20
-17.4139
 30
0.0
 10
-57.4207
 20
-17.3435
 30
0.0
 10
-57.1316
 20
-17.2498
 30
0.0
 10
-57.1316
 20
-17.2498
 30
0.0
 10
-57.1316
 20
-17.2498
 30
0.0
 10
-56.2806
 20
-16.9676
 30
0.0
 10
-56.2806
 20
-16.9676
 30
0.0
 10
-56.2806
 20
-16.9676
 30
0.0
 10
-56.2806
 20
-16.9676
 30
0.0
 10
-57.4136
 20
-13.6306
 30
0.0
 10
-57.4136
 20
-13.6306
 30
0.0
 10
-57.4136
 20
-13.6306
 30
0.0
 10
-57.4136
 20
-13.6306
 30
0.0
 10
-54.0775
 20
-12.4972
 30
0.0
 10
-54.0775
 20
-12.4972
 30
0.0
 10
-54.0775
 20
-12.4972
 30
0.0
 10
-54.0873
 20
-12.0601
 30
0.0
 10
-54.9208
 20
-9.9267
 30
0.0
 10
-55.0846
 20
-9.2232
 30
0.0
 10
-55.0846
 20
-9.2232
 30
0.0
 10
-55.0846
 20
-9.2232
 30
0.0
 10
-56.7612
 20
-9.7498
 30
0.0
 10
-56.7612
 20
-9.7498
 30
0.0
 10
-56.7612
 20
-9.7498
 30
0.0
 10
-57.1354
 20
-9.8793
 30
0.0
 10
-58.1444
 20
-10.2653
 30
0.0
 10
-58.4837
 20
-10.2935
 30
0.0
 10
-58.4837
 20
-10.2935
 30
0.0
 10
-58.6031
 20
-10.0446
 30
0.0
 10
-59.4385
 20
-7.2934
 30
0.0
 10
-59.6167
 20
-6.9565
 30
0.0
 10
-59.6167
 20
-6.9565
 30
0.0
 10
-60.1033
 20
-7.19
 30
0.0
 10
-62.3074
 20
-7.7775
 30
0.0
 10
-62.8269
 20
-8.0269
 30
0.0
  0
SPLINE
  5
93
330
1F
100
AcDbEntity
  8
Layer 1
100
AcDbSpline
210
0.0
220
0.0
230
1.0
 70
    11
 71
     3
 72
    60
 73
    56
 74
     0
 42
0.000000001
 43
0.0000000001
 40
0.0
 40
0.0
 40
0.0
 40
0.0
 40
0.0666666666666667
 40
0.0666666666666667
 40
0.0666666666666667
 40
0.0666666666666667
 40
0.1333333333333333
 40
0.1333333333333333
 40
0.1333333333333333
 40
0.1333333333333333
 40
0.2
 40
0.2
 40
0.2
 40
0.2
 40
0.2666666666666667
 40
0.2666666666666667
 40
0.2666666666666667
 40
0.2666666666666667
 40
0.3333333333333333
 40
0.3333333333333333
 40
0.3333333333333333
 40
0.3333333333333333
 40
0.4
 40
0.4
 40
0.4
 40
0.4
 40
0.4666666666666667
 40
0.4666666666666667
 40
0.4666666666666667
 40
0.4666666666666667
 40
0.5333333333333333
 40
0.5333333333333333
 40
0.5333333333333333
 40
0.5333333333333333
 40
0.6
 40
0.6
 40
0.6
 40
0.6
 40
0.6666666666666666
 40
0.6666666666666666
 40
0.6666666666666666
 40
0.6666666666666666
 40
0.7333333333333333
 40
0.7333333333333333
 40
0.7333333333333333
 40
0.7333333333333333
 40
0.8
 40
0.8
 40
0.8
 40
0.8
 40
0.8666666666666667
 40
0.8666666666666667
 40
0.8666666666666667
 40
0.8666666666666667
 40
1.0
 40
1.0
 40
1.0
 40
1.0
 10
-17.2543
 20
-6.012
 30
0.0
 10
-16.9432
 20
-6.012
 30
0.0
 10
-13.6166
 20
-6.8226
 30
0.0
 10
-13.1974
 20
-6.9282
 30
0.0
 10
-13.1974
 20
-6.9282
 30
0.0
 10
-13.1974
 20
-6.9282
 30
0.0
 10
-6.3647
 20
-8.5306
 30
0.0
 10
-6.3647
 20
-8.5306
 30
0.0
 10
-6.3647
 20
-8.5306
 30
0.0
 10
-6.3647
 20
-8.1564
 30
0.0
 10
-6.6083
 20
-7.5434
 30
0.0
 10
-6.715
 20
-7.1811
 30
0.0
 10
-6.715
 20
-7.1811
 30
0.0
 10
-6.715
 20
-7.1811
 30
0.0
 10
-9.6379
 20
2.2361
 30
0.0
 10
-9.6379
 20
2.2361
 30
0.0
 10
-9.6379
 20
2.2361
 30
0.0
 10
-9.8243
 20
2.1112
 30
0.0
 10
-9.9662
 20
1.9615
 30
0.0
 10
-10.1148
 20
1.7688
 30
0.0
 10
-10.1148
 20
1.7688
 30
0.0
 10
-10.4031
 20
1.3952
 30
0.0
 10
-10.6724
 20
1.2048
 30
0.0
 10
-10.9656
 20
0.8568
 30
0.0
 10
-10.9656
 20
0.8568
 30
0.0
 10
-10.9656
 20
0.8568
 30
0.0
 10
-14.4384
 20
-2.8473
 30
0.0
 10
-14.4384
 20
-2.8473
 30
0.0
 10
-14.4384
 20
-2.8473
 30
0.0
 10
-14.6387
 20
-3.0466
 30
0.0
 10
-14.7083
 20
-3.1849
 30
0.0
 10
-14.9086
 20
-3.3843
 30
0.0
 10
-14.9086
 20
-3.3843
 30
0.0
 10
-14.9086
 20
-3.3843
 30
0.0
 10
-15.5831
 20
-4.0948
 30
0.0
 10
-15.5831
 20
-4.0948
 30
0.0
 10
-15.5831
 20
-4.0948
 30
0.0
 10
-15.5915
 20
-4.1048
 30
0.0
 10
-15.6034
 20
-4.1191
 30
0.0
 10
-15.6118
 20
-4.129
 30
0.0
 10
-15.6118
 20
-4.129
 30
0.0
 10
-15.6118
 20
-4.129
 30
0.0
 10
-16.3549
 20
-4.8968
 30
0.0
 10
-16.3549
 20
-4.8968
 30
0.0
 10
-16.3549
 20
-4.8968
 30
0.0
 10
-16.4215
 20
-4.9714
 30
0.0
 10
-16.4058
 20
-4.9556
 30
0.0
 10
-16.4705
 20
-5.0331
 30
0.0
 10
-16.4705
 20
-5.0331
 30
0.0
 10
-16.5059
 20
-5.0753
 30
0.0
 10
-16.492
 20
-5.0599
 30
0.0
 10
-16.5273
 20
-5.1022
 30
0.0
 10
-16.5273
 20
-5.1022
 30
0.0
 10
-16.8841
 20
-5.5292
 30
0.0
 10
-17.2267
 20
-5.6813
 30
0.0
 10
-17.2543
 20
-6.012
 30
0.0
  0
SPLINE
  5
94
330
1F
100
AcDbEntity
  8
Layer 1
100
AcDbSpline
210
0.0
220
0.0
230
1.0
 70
    11
 71
     3
 72
    52
 73
    48
 74
     0
 42
0.000000001
 43
0.0000000001
 40
0.0
 40
0.0
 40
0.0
 40
0.0
 40
0.0769230769230769
 40
0.0769230769230769
 40
0.0769230769230769
 40
0.0769230769230769
 40
0.1538461538461539
 40
0.1538461538461539
 40
0.1538461538461539
 40
0.1538461538461539
 40
0.2307692307692308
 40
0.2307692307692308
 40
0.2307692307692308
 40
0.2307692307692308
 40
0.3076923076923077
 40
0.3076923076923077
 40
0.3076923076923077
 40
0.3076923076923077
 40
0.3846153846153846
 40
0.3846153846153846
 40
0.3846153846153846
 40
0.3846153846153846
 40
0.4615384615384616
 40
0.4615384615384616
 40
0.4615384615384616
 40
0.4615384615384616
 40
0.5384615384615384
 40
0.5384615384615384
 40
0.5384615384615384
 40
0.5384615384615384
 40
0.6153846153846154
 40
0.6153846153846154
 40
0.6153846153846154
 40
0.6153846153846154
 40
0.6923076923076923
 40
0.6923076923076923
 40
0.6923076923076923
 40
0.6923076923076923
 40
0.7692307692307693
 40
0.7692307692307693
 40
0.7692307692307693
 40
0.7692307692307693
 40
0.8461538461538461
 40
0.8461538461538461
 40
0.8461538461538461
 40
0.8461538461538461
 40
1.0
 40
1.0
 40
1.0
 40
1.0
 10
72.6951
 20
-39.6343
 30
0.0
 10
72.8462
 20
-39.9198
 30
0.0
 10
73.0417
 20
-40.1981
 30
0.0
 10
73.2359
 20
-40.4785
 30
0.0
 10
73.2359
 20
-40.4785
 30
0.0
 10
73.2359
 20
-40.4785
 30
0.0
 10
74.9612
 20
-42.9713
 30
0.0
 10
74.9612
 20
-42.9713
 30
0.0
 10
74.9612
 20
-42.9713
 30
0.0
 10
75.2715
 20
-42.9644
 30
0.0
 10
75.597
 20
-42.8365
 30
0.0
 10
75.8836
 20
-42.7606
 30
0.0
 10
75.8836
 20
-42.7606
 30
0.0
 10
75.8836
 20
-42.7606
 30
0.0
 10
82.3888
 20
-41.0195
 30
0.0
 10
82.3888
 20
-41.0195
 30
0.0
 10
82.3888
 20
-41.0195
 30
0.0
 10
82.3888
 20
-39.7457
 30
0.0
 10
82.5147
 20
-38.0583
 30
0.0
 10
82.5147
 20
-36.738
 30
0.0
 10
82.5147
 20
-36.738
 30
0.0
 10
82.5147
 20
-36.738
 30
0.0
 10
78.7935
 20
-35.4231
 30
0.0
 10
78.7935
 20
-35.4231
 30
0.0
 10
78.7935
 20
-35.4231
 30
0.0
 10
78.5319
 20
-35.3278
 30
0.0
 10
78.33
 20
-35.2488
 30
0.0
 10
78.0529
 20
-35.1566
 30
0.0
 10
78.0529
 20
-35.1566
 30
0.0
 10
77.8081
 20
-35.075
 30
0.0
 10
77.5924
 20
-34.9872
 30
0.0
 10
77.3176
 20
-34.8845
 30
0.0
 10
77.3176
 20
-34.8845
 30
0.0
 10
77.0384
 20
-34.7803
 30
0.0
 10
76.7744
 20
-34.7122
 30
0.0
 10
76.5348
 20
-34.5972
 30
0.0
 10
76.5348
 20
-34.5972
 30
0.0
 10
76.4068
 20
-34.8392
 30
0.0
 10
76.2521
 20
-34.9941
 30
0.0
 10
76.0851
 20
-35.2178
 30
0.0
 10
76.0851
 20
-35.2178
 30
0.0
 10
75.9137
 20
-35.4473
 30
0.0
 10
75.7553
 20
-35.6395
 30
0.0
 10
75.5899
 20
-35.8558
 30
0.0
 10
75.5899
 20
-35.8558
 30
0.0
 10
75.5899
 20
-35.8558
 30
0.0
 10
72.6951
 20
-39.6343
 30
0.0
 10
72.6951
 20
-39.6343
 30
0.0
  0
SPLINE
  5
95
330
1F
100
AcDbEntity
  8
Layer 1
100
AcDbSpline
210
0.0
220
0.0
230
1.0
 70
    11
 71
     3
 72
    36
 73
    32
 74
     0
 42
0.000000001
 43
0.0000000001
 40
0.0
 40
0.0
 40
0.0
 40
0.0
 40
0.1111111111111111
 40
0.1111111111111111
 40
0.1111111111111111
 40
0.1111111111111111
 40
0.2222222222222222
 40
0.2222222222222222
 40
0.2222222222222222
 40
0.2222222222222222
 40
0.3333333333333333
 40
0.3333333333333333
 40
0.3333333333333333
 40
0.3333333333333333
 40
0.4444444444444444
 40
0.4444444444444444
 40
0.4444444444444444
 40
0.4444444444444444
 40
0.5555555555555556
 40
0.5555555555555556
 40
0.5555555555555556
 40
0.5555555555555556
 40
0.6666666666666666
 40
0.6666666666666666
 40
0.6666666666666666
 40
0.6666666666666666
 40
0.7777777777777778
 40
0.7777777777777778
 40
0.7777777777777778
 40
0.7777777777777778
 40
1.0
 40
1.0
 40
1.0
 40
1.0
 10
-67.7997
 20
-45.5528
 30
0.0
 10
-67.7997
 20
-45.5528
 30
0.0
 10
-59.4908
 20
-45.5528
 30
0.0
 10
-59.4908
 20
-45.5528
 30
0.0
 10
-59.4908
 20
-45.5528
 30
0.0
 10
-59.3878
 20
-45.5528
 30
0.0
 10
-59.302
 20
-45.5151
 30
0.0
 10
-59.302
 20
-45.4269
 30
0.0
 10
-59.302
 20
-45.4269
 30
0.0
 10
-59.302
 20
-43.5803
 30
0.0
 10
-59.751
 20
-41.6748
 30
0.0
 10
-61.6515
 20
-41.04
 30
0.0
 10
-61.6515
 20
-41.04
 30
0.0
 10
-63.162
 20
-40.5355
 30
0.0
 10
-64.8759
 20
-41.4838
 30
0.0
 10
-65.8964
 20
-42.4825
 30
0.0
 10
-65.8964
 20
-42.4825
 30
0.0
 10
-65.8964
 20
-42.4825
 30
0.0
 10
-66.1002
 20
-42.7194
 30
0.0
 10
-66.1002
 20
-42.7194
 30
0.0
 10
-66.1002
 20
-42.7194
 30
0.0
 10
-66.1085
 20
-42.7295
 30
0.0
 10
-66.1202
 20
-42.744
 30
0.0
 10
-66.1285
 20
-42.754
 30
0.0
 10
-66.1285
 20
-42.754
 30
0.0
 10
-66.1369
 20
-42.764
 30
0.0
 10
-66.1488
 20
-42.7783
 30
0.0
 10
-66.1572
 20
-42.7883
 30
0.0
 10
-66.1572
 20
-42.7883
 30
0.0
 10
-66.6797
 20
-43.4073
 30
0.0
 10
-67.7829
 20
-44.7984
 30
0.0
 10
-67.7997
 20
-45.5528
 30
0.0
  0
SPLINE
  5
96
330
1F
100
AcDbEntity
  8
Layer 1
100
AcDbSpline
210
0.0
220
0.0
230
1.0
 70
    11
 71
     3
 72
    28
 73
    24
 74
     0
 42
0.000000001
 43
0.0000000001
 40
0.0
 40
0.0
 40
0.0
 40
0.0
 40
0.1428571428571428
 40
0.1428571428571428
 40
0.1428571428571428
 40
0.1428571428571428
 40
0.2857142857142857
 40
0.2857142857142857
 40
0.2857142857142857
 40
0.2857142857142857
 40
0.4285714285714285
 40
0.4285714285714285
 40
0.4285714285714285
 40
0.4285714285714285
 40
0.5714285714285714
 40
0.5714285714285714
 40
0.5714285714285714
 40
0.5714285714285714
 40
0.7142857142857143
 40
0.7142857142857143
 40
0.7142857142857143
 40
0.7142857142857143
 40
1.0
 40
1.0
 40
1.0
 40
1.0
 10
50.6012
 20
-45.238
 30
0.0
 10
50.8437
 20
-45.238
 30
0.0
 10
51.1831
 20
-45.1757
 30
0.0
 10
51.4467
 20
-45.1393
 30
0.0
 10
51.4467
 20
-45.1393
 30
0.0
 10
51.4467
 20
-45.1393
 30
0.0
 10
57.3993
 20
-44.3565
 30
0.0
 10
57.3993
 20
-44.3565
 30
0.0
 10
57.3993
 20
-44.3565
 30
0.0
 10
58.5244
 20
-44.2328
 30
0.0
 10
63.7029
 20
-43.475
 30
0.0
 10
64.2604
 20
-43.475
 30
0.0
 10
64.2604
 20
-43.475
 30
0.0
 10
63.9432
 20
-43.0011
 30
0.0
 10
62.8599
 20
-42.5325
 30
0.0
 10
62.2079
 20
-42.317
 30
0.0
 10
62.2079
 20
-42.317
 30
0.0
 10
59.0206
 20
-41.2635
 30
0.0
 10
55.0712
 20
-42.3307
 30
0.0
 10
52.3909
 20
-43.943
 30
0.0
 10
52.3909
 20
-43.943
 30
0.0
 10
51.8999
 20
-44.2384
 30
0.0
 10
50.8751
 20
-44.8289
 30
0.0
 10
50.6012
 20
-45.238
 30
0.0
  0
SPLINE
  5
97
330
1F
100
AcDbEntity
  8
Layer 1
100
AcDbSpline
210
0.0
220
0.0
230
1.0
 70
    11
 71
     3
 72
    24
 73
    20
 74
     0
 42
0.000000001
 43
0.0000000001
 40
0.0
 40
0.0
 40
0.0
 40
0.0
 40
0.1666666666666667
 40
0.1666666666666667
 40
0.1666666666666667
 40
0.1666666666666667
 40
0.3333333333333333
 40
0.3333333333333333
 40
0.3333333333333333
 40
0.3333333333333333
 40
0.5
 40
0.5
 40
0.5
 40
0.5
 40
0.6666666666666666
 40
0.6666666666666666
 40
0.6666666666666666
 40
0.6666666666666666
 40
1.0
 40
1.0
 40
1.0
 40
1.0
 10
28.2554
 20
-45.8046
 30
0.0
 10
28.2554
 20
-45.8046
 30
0.0
 10
38.075
 20
-45.8046
 30
0.0
 10
38.075
 20
-45.8046
 30
0.0
 10
38.075
 20
-45.8046
 30
0.0
 10
38.0953
 20
-45.56
 30
0.0
 10
38.1318
 20
-45.6406
 30
0.0
 10
38.1379
 20
-45.3639
 30
0.0
 10
38.1379
 20
-45.3639
 30
0.0
 10
38.1379
 20
-45.3639
 30
0.0
 10
29.0108
 20
-43.2231
 30
0.0
 10
29.0108
 20
-43.2231
 30
0.0
 10
29.0108
 20
-43.2231
 30
0.0
 10
28.7747
 20
-43.2231
 30
0.0
 10
28.6853
 20
-43.9716
 30
0.0
 10
28.5865
 20
-44.4357
 30
0.0
 10
28.5865
 20
-44.4357
 30
0.0
 10
28.4849
 20
-44.9131
 30
0.0
 10
28.3614
 20
-45.3499
 30
0.0
 10
28.2554
 20
-45.8046
 30
0.0
  0
ENDSEC
  0
SECTION
  2
OBJECTS
  0
DICTIONARY
  5
C
330
0
100
AcDbDictionary
281
     1
  3
ACAD_DETAILVIEWSTYLE
350
D3
  3
ACAD_GROUP
350
D
  3
ACAD_IMAGE_DICT
350
70
  3
ACAD_LAYOUT
350
1A
  3
ACAD_MATERIAL
350
43
  3
ACAD_MLEADERSTYLE
350
6B
  3
ACAD_MLINESTYLE
350
17
  3
ACAD_PLOTSETTINGS
350
19
  3
ACAD_PLOTSTYLENAME
350
E
  3
ACAD_SCALELIST
350
47
  3
ACAD_SECTIONVIEWSTYLE
350
D4
  3
ACAD_TABLESTYLE
350
69
  3
ACAD_VISUALSTYLE
350
2A
  3
ACDB_RECOMPOSE_DATA
350
D0
  3
AcDbVariableDictionary
350
98
  0
SUN
  5
6D
330
29
100
AcDbSun
 90
        1
290
     0
 63
     7
421
 16777215
 40
1.0
291
     1
 91
  2455826
 92
 54000000
292
     0
 70
     2
 71
   256
280
     1
  0
IMAGEDEF_REACTOR
  5
73
330
72
100
AcDbRasterImageDefReactor
 90
        2
330
72
  0
DICTIONARY
  5
D3
102
{ACAD_REACTORS
330
C
102
}
330
C
100
AcDbDictionary
281
     1
  0
DICTIONARY
  5
D
102
{ACAD_REACTORS
330
C
102
}
330
C
100
AcDbDictionary
281
     1
  0
DICTIONARY
  5
70
102
{ACAD_REACTORS
330
C
102
}
330
C
100
AcDbDictionary
281
     1
  3
Image #1
350
71
  0
DICTIONARY
  5
1A
102
{ACAD_REACTORS
330
C
102
}
330
C
100
AcDbDictionary
281
     1
  3
Layout1
350
1E
  3
Layout2
350
26
  3
Model
350
22
  0
DICTIONARY
  5
43
102
{ACAD_REACTORS
330
C
102
}
330
C
100
AcDbDictionary
281
     1
  3
ByBlock
350
45
  3
ByLayer
350
44
  3
Global
350
46
  0
DICTIONARY
  5
6B
102
{ACAD_REACTORS
330
C
102
}
330
C
100
AcDbDictionary
281
     1
  3
Standard
350
6C
  0
DICTIONARY
  5
17
102
{ACAD_REACTORS
330
C
102
}
330
C
100
AcDbDictionary
281
     1
  3
Standard
350
18
  0
DICTIONARY
  5
19
102
{ACAD_REACTORS
330
C
102
}
330
C
100
AcDbDictionary
281
     1
  0
ACDBDICTIONARYWDFLT
  5
E
102
{ACAD_REACTORS
330
C
102
}
330
C
100
AcDbDictionary
281
     1
  3
Normal
350
F
100
AcDbDictionaryWithDefault
340
F
  0
DICTIONARY
  5
47
102
{ACAD_REACTORS
330
C
102
}
330
C
100
AcDbDictionary
281
     1
  3
A0
350
48
  3
A1
350
49
  3
A2
350
4A
  3
A3
350
4B
  3
A4
350
4C
  3
A5
350
4D
  3
A6
350
4E
  3
A7
350
4F
  3
A8
350
50
  3
A9
350
51
  3
B0
350
52
  3
B1
350
53
  3
B2
350
54
  3
B3
350
55
  3
B4
350
56
  3
B5
350
57
  3
B6
350
58
  3
B7
350
59
  3
B8
350
5A
  3
B9
350
5B
  3
C0
350
5C
  3
C1
350
5D
  3
C2
350
5E
  3
C3
350
5F
  3
C4
350
60
  3
C5
350
61
  3
C6
350
62
  3
C7
350
63
  3
C8
350
64
  3
C9
350
65
  3
D0
350
66
  3
D1
350
67
  3
D2
350
68
  0
DICTIONARY
  5
D4
102
{ACAD_REACTORS
330
C
102
}
330
C
100
AcDbDictionary
281
     1
  0
DICTIONARY
  5
69
102
{ACAD_REACTORS
330
C
102
}
330
C
100
AcDbDictionary
281
     1
  3
Standard
350
6A
  0
DICTIONARY
  5
2A
102
{ACAD_REACTORS
330
C
102
}
330
C
100
AcDbDictionary
281
     1
  3
2dWireframe
350
2F
  3
Basic
350
32
  3
Brighten
350
36
  3
ColorChange
350
3A
  3
Conceptual
350
34
  3
Dim
350
35
  3
EdgeColorOff
350
3D
  3
Facepattern
350
39
  3
Flat
350
2B
  3
FlatWithEdges
350
2C
  3
Gouraud
350
2D
  3
GouraudWithEdges
350
2E
  3
Hidden
350
31
  3
JitterOff
350
3B
  3
Linepattern
350
38
  3
OverhangOff
350
3C
  3
Realistic
350
33
  3
Shaded
350
42
  3
Shaded with edges
350
41
  3
Shades of Gray
350
3E
  3
Sketchy
350
3F
  3
Thicken
350
37
  3
Wireframe
350
30
  3
X-Ray
350
40
  0
XRECORD
  5
D0
102
{ACAD_REACTORS
330
C
102
}
330
C
100
AcDbXrecord
280
     1
 90
        1
330
6A
  0
DICTIONARY
  5
98
102
{ACAD_REACTORS
330
C
102
}
330
C
100
AcDbDictionary
281
     1
  3
CANNOSCALE
350
99
  3
CMLEADERSTYLE
350
D2
  3
CTABLESTYLE
350
D1
  3
XCLIPFRAME
350
9A
  0
IMAGEDEF
  5
71
102
{ACAD_REACTORS
330
70
330
73
102
}
330
70
100
AcDbRasterImageDef
 90
        0
  1
W:\Documents\Colorize\ColorWheel\colorize logo_ACD_0.jpg
 10
13831.0
 20
7425.0
 11
7.230135203528306E-5
 21
7.230135203528306E-5
280
     1
281
     5
  0
LAYOUT
  5
1E
102
{ACAD_REACTORS
330
1A
102
}
330
1A
100
AcDbPlotSettings
  1

  2
none_device
  4

  6

 40
0.0
 41
0.0
 42
0.0
 43
0.0
 44
0.0
 45
0.0
 46
0.0
 47
0.0
 48
0.0
 49
0.0
140
0.0
141
0.0
142
1.0
143
1.0
 70
   688
 72
     0
 73
     0
 74
     5
  7

 75
    16
 76
     0
 77
     2
 78
   300
147
1.0
148
0.0
149
0.0
100
AcDbLayout
  1
Layout1
 70
     1
 71
     1
 10
0.0
 20
0.0
 11
12.0
 21
9.0
 12
0.0
 22
0.0
 32
0.0
 14
1.000000000000000E+20
 24
1.000000000000000E+20
 34
1.000000000000000E+20
 15
-1.000000000000000E+20
 25
-1.000000000000000E+20
 35
-1.000000000000000E+20
146
0.0
 13
0.0
 23
0.0
 33
0.0
 16
1.0
 26
0.0
 36
0.0
 17
0.0
 27
1.0
 37
0.0
 76
     0
330
1B
  0
LAYOUT
  5
26
102
{ACAD_REACTORS
330
1A
102
}
330
1A
100
AcDbPlotSettings
  1

  2
none_device
  4

  6

 40
0.0
 41
0.0
 42
0.0
 43
0.0
 44
0.0
 45
0.0
 46
0.0
 47
0.0
 48
0.0
 49
0.0
140
0.0
141
0.0
142
1.0
143
1.0
 70
   688
 72
     0
 73
     0
 74
     5
  7

 75
    16
 76
     0
 77
     2
 78
   300
147
1.0
148
0.0
149
0.0
100
AcDbLayout
  1
Layout2
 70
     1
 71
     2
 10
0.0
 20
0.0
 11
0.0
 21
0.0
 12
0.0
 22
0.0
 32
0.0
 14
0.0
 24
0.0
 34
0.0
 15
0.0
 25
0.0
 35
0.0
146
0.0
 13
0.0
 23
0.0
 33
0.0
 16
1.0
 26
0.0
 36
0.0
 17
0.0
 27
1.0
 37
0.0
 76
     0
330
23
  0
LAYOUT
  5
22
102
{ACAD_REACTORS
330
1A
102
}
330
1A
100
AcDbPlotSettings
  1

  2
none_device
  4
Letter_(8.50_x_11.00_Inches)
  6

 40
6.35
 41
6.35
 42
6.35000508
 43
6.35000508
 44
215.9
 45
279.4
 46
0.0
 47
0.0
 48
0.0
 49
0.0
140
0.0
141
0.0
142
1.0
143
1.0
 70
  1712
 72
     0
 73
     0
 74
     0
  7

 75
     0
 76
     0
 77
     2
 78
   300
147
1.0
148
0.0
149
0.0
100
AcDbLayout
  1
Model
 70
     1
 71
     0
 10
0.0
 20
0.0
 11
12.0
 21
9.0
 12
0.0
 22
0.0
 32
0.0
 14
-95.9364
 24
-71.3047
 34
0.0
 15
96.1739
 25
31.8287
 35
0.0
146
0.0
 13
0.0
 23
0.0
 33
0.0
 16
1.0
 26
0.0
 36
0.0
 17
0.0
 27
1.0
 37
0.0
 76
     0
330
1F
331
29
  0
MATERIAL
  5
45
102
{ACAD_REACTORS
330
43
102
}
330
43
100
AcDbMaterial
  1
ByBlock
 72
     1
 94
      127
  0
MATERIAL
  5
44
102
{ACAD_REACTORS
330
43
102
}
330
43
100
AcDbMaterial
  1
ByLayer
 72
     1
 94
      127
  0
MATERIAL
  5
46
102
{ACAD_REACTORS
330
43
102
}
330
43
100
AcDbMaterial
  1
Global
 72
     1
 94
      127
  0
MLEADERSTYLE
  5
6C
102
{ACAD_REACTORS
330
6B
102
}
102
{ACAD_XDICTIONARY
360
CE
102
}
330
6B
100
AcDbMLeaderStyle
170
     2
171
     1
172
     0
 90
        2
 40
0.0
 41
0.0
173
     1
 91
-1056964608
340
14
 92
       -2
290
     1
 42
0.09
291
     1
 43
0.36
  3
Standard
341
0
 44
0.18
300

342
11
174
     1
178
     6
175
     1
176
     0
 93
-1056964608
 45
0.18
292
     0
297
     0
 46
0.18
343
0
 94
-1056964608
 47
1.0
 49
1.0
140
1.0
293
     1
141
0.0
294
     1
177
     0
142
1.0
295
     0
296
     0
143
0.125
1001
ACAD_MLEADERVER
1070
     2
  0
MLINESTYLE
  5
18
102
{ACAD_REACTORS
330
17
102
}
330
17
100
AcDbMlineStyle
  2
Standard
 70
     0
  3

 62
   256
 51
90.0
 52
90.0
 71
     2
 49
0.5
 62
   256
  6
BYLAYER
 49
-0.5
 62
   256
  6
BYLAYER
  0
ACDBPLACEHOLDER
  5
F
102
{ACAD_REACTORS
330
E
102
}
330
E
  0
SCALE
  5
48
102
{ACAD_REACTORS
330
47
102
}
330
47
100
AcDbScale
 70
     0
300
1:1
140
1.0
141
1.0
290
     1
  0
SCALE
  5
49
102
{ACAD_REACTORS
330
47
102
}
330
47
100
AcDbScale
 70
     0
300
1:2
140
1.0
141
2.0
290
     0
  0
SCALE
  5
4A
102
{ACAD_REACTORS
330
47
102
}
330
47
100
AcDbScale
 70
     0
300
1:4
140
1.0
141
4.0
290
     0
  0
SCALE
  5
4B
102
{ACAD_REACTORS
330
47
102
}
330
47
100
AcDbScale
 70
     0
300
1:5
140
1.0
141
5.0
290
     0
  0
SCALE
  5
4C
102
{ACAD_REACTORS
330
47
102
}
330
47
100
AcDbScale
 70
     0
300
1:8
140
1.0
141
8.0
290
     0
  0
SCALE
  5
4D
102
{ACAD_REACTORS
330
47
102
}
330
47
100
AcDbScale
 70
     0
300
1:10
140
1.0
141
10.0
290
     0
  0
SCALE
  5
4E
102
{ACAD_REACTORS
330
47
102
}
330
47
100
AcDbScale
 70
     0
300
1:16
140
1.0
141
16.0
290
     0
  0
SCALE
  5
4F
102
{ACAD_REACTORS
330
47
102
}
330
47
100
AcDbScale
 70
     0
300
1:20
140
1.0
141
20.0
290
     0
  0
SCALE
  5
50
102
{ACAD_REACTORS
330
47
102
}
330
47
100
AcDbScale
 70
     0
300
1:30
140
1.0
141
30.0
290
     0
  0
SCALE
  5
51
102
{ACAD_REACTORS
330
47
102
}
330
47
100
AcDbScale
 70
     0
300
1:40
140
1.0
141
40.0
290
     0
  0
SCALE
  5
52
102
{ACAD_REACTORS
330
47
102
}
330
47
100
AcDbScale
 70
     0
300
1:50
140
1.0
141
50.0
290
     0
  0
SCALE
  5
53
102
{ACAD_REACTORS
330
47
102
}
330
47
100
AcDbScale
 70
     0
300
1:100
140
1.0
141
100.0
290
     0
  0
SCALE
  5
54
102
{ACAD_REACTORS
330
47
102
}
330
47
100
AcDbScale
 70
     0
300
2:1
140
2.0
141
1.0
290
     0
  0
SCALE
  5
55
102
{ACAD_REACTORS
330
47
102
}
330
47
100
AcDbScale
 70
     0
300
4:1
140
4.0
141
1.0
290
     0
  0
SCALE
  5
56
102
{ACAD_REACTORS
330
47
102
}
330
47
100
AcDbScale
 70
     0
300
8:1
140
8.0
141
1.0
290
     0
  0
SCALE
  5
57
102
{ACAD_REACTORS
330
47
102
}
330
47
100
AcDbScale
 70
     0
300
10:1
140
10.0
141
1.0
290
     0
  0
SCALE
  5
58
102
{ACAD_REACTORS
330
47
102
}
330
47
100
AcDbScale
 70
     0
300
100:1
140
100.0
141
1.0
290
     0
  0
SCALE
  5
59
102
{ACAD_REACTORS
330
47
102
}
330
47
100
AcDbScale
 70
     0
300
1/128" = 1'-0"
140
0.0078125
141
12.0
290
     0
  0
SCALE
  5
5A
102
{ACAD_REACTORS
330
47
102
}
330
47
100
AcDbScale
 70
     0
300
1/64" = 1'-0"
140
0.015625
141
12.0
290
     0
  0
SCALE
  5
5B
102
{ACAD_REACTORS
330
47
102
}
330
47
100
AcDbScale
 70
     0
300
1/32" = 1'-0"
140
0.03125
141
12.0
290
     0
  0
SCALE
  5
5C
102
{ACAD_REACTORS
330
47
102
}
330
47
100
AcDbScale
 70
     0
300
1/16" = 1'-0"
140
0.0625
141
12.0
290
     0
  0
SCALE
  5
5D
102
{ACAD_REACTORS
330
47
102
}
330
47
100
AcDbScale
 70
     0
300
3/32" = 1'-0"
140
0.09375
141
12.0
290
     0
  0
SCALE
  5
5E
102
{ACAD_REACTORS
330
47
102
}
330
47
100
AcDbScale
 70
     0
300
1/8" = 1'-0"
140
0.125
141
12.0
290
     0
  0
SCALE
  5
5F
102
{ACAD_REACTORS
330
47
102
}
330
47
100
AcDbScale
 70
     0
300
3/16" = 1'-0"
140
0.1875
141
12.0
290
     0
  0
SCALE
  5
60
102
{ACAD_REACTORS
330
47
102
}
330
47
100
AcDbScale
 70
     0
300
1/4" = 1'-0"
140
0.25
141
12.0
290
     0
  0
SCALE
  5
61
102
{ACAD_REACTORS
330
47
102
}
330
47
100
AcDbScale
 70
     0
300
3/8" = 1'-0"
140
0.375
141
12.0
290
     0
  0
SCALE
  5
62
102
{ACAD_REACTORS
330
47
102
}
330
47
100
AcDbScale
 70
     0
300
1/2" = 1'-0"
140
0.5
141
12.0
290
     0
  0
SCALE
  5
63
102
{ACAD_REACTORS
330
47
102
}
330
47
100
AcDbScale
 70
     0
300
3/4" = 1'-0"
140
0.75
141
12.0
290
     0
  0
SCALE
  5
64
102
{ACAD_REACTORS
330
47
102
}
330
47
100
AcDbScale
 70
     0
300
1" = 1'-0"
140
1.0
141
12.0
290
     0
  0
SCALE
  5
65
102
{ACAD_REACTORS
330
47
102
}
330
47
100
AcDbScale
 70
     0
300
1-1/2" = 1'-0"
140
1.5
141
12.0
290
     0
  0
SCALE
  5
66
102
{ACAD_REACTORS
330
47
102
}
330
47
100
AcDbScale
 70
     0
300
3" = 1'-0"
140
3.0
141
12.0
290
     0
  0
SCALE
  5
67
102
{ACAD_REACTORS
330
47
102
}
330
47
100
AcDbScale
 70
     0
300
6" = 1'-0"
140
6.0
141
12.0
290
     0
  0
SCALE
  5
68
102
{ACAD_REACTORS
330
47
102
}
330
47
100
AcDbScale
 70
     0
300
1'-0" = 1'-0"
140
12.0
141
12.0
290
     0
  0
TABLESTYLE
  5
6A
102
{ACAD_REACTORS
330
69
102
}
102
{ACAD_XDICTIONARY
360
CB
102
}
330
69
100
AcDbTableStyle
  3
Standard
 70
     0
 71
     0
 40
0.06
 41
0.06
280
     0
281
     0
  7
Standard
140
0.18
170
     2
 62
     0
 63
   257
283
     0
 90
        4
 91
        0
  1

274
    -2
284
     1
 64
     0
275
    -2
285
     1
 65
     0
276
    -2
286
     1
 66
     0
277
    -2
287
     1
 67
     0
278
    -2
288
     1
 68
     0
279
    -2
289
     1
 69
     0
  7
Standard
140
0.25
170
     5
 62
     0
 63
   257
283
     0
 90
        4
 91
        0
  1

274
    -2
284
     1
 64
     0
275
    -2
285
     1
 65
     0
276
    -2
286
     1
 66
     0
277
    -2
287
     1
 67
     0
278
    -2
288
     1
 68
     0
279
    -2
289
     1
 69
     0
  7
Standard
140
0.18
170
     5
 62
     0
 63
   257
283
     0
 90
        4
 91
        0
  1

274
    -2
284
     1
 64
     0
275
    -2
285
     1
 65
     0
276
    -2
286
     1
 66
     0
277
    -2
287
     1
 67
     0
278
    -2
288
     1
 68
     0
279
    -2
289
     1
 69
     0
  0
VISUALSTYLE
  5
2F
102
{ACAD_REACTORS
330
2A
102
}
102
{ACAD_XDICTIONARY
360
A3
102
}
330
2A
100
AcDbVisualStyle
  2
2dWireframe
 70
     4
 71
     0
 72
     2
 73
     0
 90
        0
 40
0.6
 41
30.0
 62
     5
 63
     7
421
 16777215
 74
     1
 91
        4
 64
     7
 65
   257
 75
     1
175
     1
 42
1.0
 92
        0
 66
   257
 43
1.0
 76
     1
 77
     6
 78
     2
 67
     7
 79
     5
170
     0
171
     0
290
     0
174
     0
 93
        1
 44
0.0
173
     0
291
     0
 45
0.0
  0
VISUALSTYLE
  5
32
102
{ACAD_REACTORS
330
2A
102
}
102
{ACAD_XDICTIONARY
360
A9
102
}
330
2A
100
AcDbVisualStyle
  2
Basic
 70
     7
 71
     1
 72
     0
 73
     1
 90
        0
 40
0.6
 41
30.0
 62
     5
 63
     7
421
 16777215
 74
     0
 91
        4
 64
     7
 65
   257
 75
     1
175
     1
 42
1.0
 92
        8
 66
     7
 43
1.0
 76
     1
 77
     6
 78
     2
 67
     7
 79
     5
170
     0
171
     0
290
     0
174
     0
 93
        1
 44
0.0
173
     0
291
     1
 45
0.0
  0
VISUALSTYLE
  5
36
102
{ACAD_REACTORS
330
2A
102
}
102
{ACAD_XDICTIONARY
360
B1
102
}
330
2A
100
AcDbVisualStyle
  2
Brighten
 70
    12
 71
     2
 72
     2
 73
     0
 90
        0
 40
0.6
 41
30.0
 62
     5
 63
     7
421
 16777215
 74
     1
 91
        4
 64
     7
 65
   257
 75
     1
175
     1
 42
1.0
 92
        8
 66
     7
 43
1.0
 76
     1
 77
     6
 78
     2
 67
     7
 79
     5
170
     0
171
     0
290
     0
174
     0
 93
        1
 44
50.0
173
     0
291
     1
 45
0.0
  0
VISUALSTYLE
  5
3A
102
{ACAD_REACTORS
330
2A
102
}
102
{ACAD_XDICTIONARY
360
B9
102
}
330
2A
100
AcDbVisualStyle
  2
ColorChange
 70
    16
 71
     2
 72
     2
 73
     3
 90
        0
 40
0.6
 41
30.0
 62
     5
 63
     8
421
  8421504
 74
     1
 91
        4
 64
     7
 65
   257
 75
     1
175
     1
 42
1.0
 92
        8
 66
     8
424
  8421504
 43
1.0
 76
     1
 77
     6
 78
     2
 67
     7
 79
     5
170
     0
171
     0
290
     0
174
     0
 93
        1
 44
0.0
173
     0
291
     1
 45
0.0
  0
VISUALSTYLE
  5
34
102
{ACAD_REACTORS
330
2A
102
}
102
{ACAD_XDICTIONARY
360
AD
102
}
330
2A
100
AcDbVisualStyle
  2
Conceptual
 70
     9
 71
     3
 72
     2
 73
     0
 90
        0
 40
0.6
 41
30.0
 62
     5
 63
     7
421
 16777215
 74
     2
 91
        2
 64
     7
 65
   257
 75
     1
175
     1
 42
179.0
 92
        8
 66
     7
 43
1.0
 76
     1
 77
     6
 78
     2
 67
     7
 79
     3
170
     0
171
     0
290
     0
174
     0
 93
        1
 44
0.0
173
     0
291
     0
 45
0.0
  0
VISUALSTYLE
  5
35
102
{ACAD_REACTORS
330
2A
102
}
102
{ACAD_XDICTIONARY
360
AF
102
}
330
2A
100
AcDbVisualStyle
  2
Dim
 70
    11
 71
     2
 72
     2
 73
     0
 90
        0
 40
0.6
 41
30.0
 62
     5
 63
     7
421
 16777215
 74
     1
 91
        4
 64
     7
 65
   257
 75
     1
175
     1
 42
1.0
 92
        8
 66
     7
 43
1.0
 76
     1
 77
     6
 78
     2
 67
     7
 79
     5
170
     0
171
     0
290
     0
174
     0
 93
        1
 44
-50.0
173
     0
291
     1
 45
0.0
  0
VISUALSTYLE
  5
3D
102
{ACAD_REACTORS
330
2A
102
}
102
{ACAD_XDICTIONARY
360
BF
102
}
330
2A
100
AcDbVisualStyle
  2
EdgeColorOff
 70
    22
 71
     2
 72
     2
 73
     0
 90
        0
 40
0.6
 41
30.0
 62
     5
 63
     7
421
 16777215
 74
     1
 91
        4
 64
     7
 65
   257
 75
     1
175
     1
 42
1.0
 92
        8
 66
     7
 43
1.0
 76
     1
 77
     6
 78
     2
 67
     7
 79
     5
170
     0
171
     0
290
     0
174
     0
 93
        1
 44
0.0
173
     0
291
     1
 45
0.0
  0
VISUALSTYLE
  5
39
102
{ACAD_REACTORS
330
2A
102
}
102
{ACAD_XDICTIONARY
360
B7
102
}
330
2A
100
AcDbVisualStyle
  2
Facepattern
 70
    15
 71
     2
 72
     2
 73
     0
 90
        0
 40
0.6
 41
30.0
 62
     5
 63
     7
421
 16777215
 74
     1
 91
        4
 64
     7
 65
   257
 75
     1
175
     1
 42
1.0
 92
        8
 66
     7
 43
1.0
 76
     1
 77
     6
 78
     2
 67
     7
 79
     5
170
     0
171
     0
290
     0
174
     0
 93
        1
 44
0.0
173
     0
291
     1
 45
0.0
  0
VISUALSTYLE
  5
2B
102
{ACAD_REACTORS
330
2A
102
}
102
{ACAD_XDICTIONARY
360
9B
102
}
330
2A
100
AcDbVisualStyle
  2
Flat
 70
     0
 71
     2
 72
     1
 73
     1
 90
        2
 40
0.6
 41
30.0
 62
     5
 63
     7
421
 16777215
 74
     0
 91
        0
 64
     7
 65
   257
 75
     1
175
     1
 42
1.0
 92
        8
 66
     7
 43
1.0
 76
     1
 77
     6
 78
     2
 67
     7
 79
     5
170
     0
171
     0
290
     0
174
     0
 93
       13
 44
0.0
173
     0
291
     1
 45
0.0
  0
VISUALSTYLE
  5
2C
102
{ACAD_REACTORS
330
2A
102
}
102
{ACAD_XDICTIONARY
360
9D
102
}
330
2A
100
AcDbVisualStyle
  2
FlatWithEdges
 70
     1
 71
     2
 72
     1
 73
     1
 90
        2
 40
0.6
 41
30.0
 62
     5
 63
     7
421
 16777215
 74
     1
 91
        0
 64
     7
 65
   257
 75
     1
175
     1
 42
1.0
 92
        0
 66
   257
 43
1.0
 76
     1
 77
     6
 78
     2
 67
     7
 79
     5
170
     0
171
     0
290
     0
174
     0
 93
       13
 44
0.0
173
     0
291
     1
 45
0.0
  0
VISUALSTYLE
  5
2D
102
{ACAD_REACTORS
330
2A
102
}
102
{ACAD_XDICTIONARY
360
9F
102
}
330
2A
100
AcDbVisualStyle
  2
Gouraud
 70
     2
 71
     2
 72
     2
 73
     1
 90
        2
 40
0.6
 41
30.0
 62
     5
 63
     7
421
 16777215
 74
     0
 91
        0
 64
     7
 65
   257
 75
     1
175
     1
 42
1.0
 92
        0
 66
     7
 43
1.0
 76
     1
 77
     6
 78
     2
 67
     7
 79
     5
170
     0
171
     0
290
     0
174
     0
 93
       13
 44
0.0
173
     0
291
     1
 45
0.0
  0
VISUALSTYLE
  5
2E
102
{ACAD_REACTORS
330
2A
102
}
102
{ACAD_XDICTIONARY
360
A1
102
}
330
2A
100
AcDbVisualStyle
  2
GouraudWithEdges
 70
     3
 71
     2
 72
     2
 73
     1
 90
        2
 40
0.6
 41
30.0
 62
     5
 63
     7
421
 16777215
 74
     1
 91
        0
 64
     7
 65
   257
 75
     1
175
     1
 42
1.0
 92
        0
 66
   257
 43
1.0
 76
     1
 77
     6
 78
     2
 67
     7
 79
     5
170
     0
171
     0
290
     0
174
     0
 93
       13
 44
0.0
173
     0
291
     1
 45
0.0
  0
VISUALSTYLE
  5
31
102
{ACAD_REACTORS
330
2A
102
}
102
{ACAD_XDICTIONARY
360
A7
102
}
330
2A
100
AcDbVisualStyle
  2
Hidden
 70
     6
 71
     1
 72
     2
 73
     2
 90
        0
 40
0.6
 41
30.0
 62
     5
 63
     7
421
 16777215
 74
     2
 91
        2
 64
     7
 65
   257
 75
     2
175
     1
 42
40.0
 92
        0
 66
   257
 43
1.0
 76
     1
 77
     6
 78
     2
 67
     7
 79
     3
170
     0
171
     0
290
     0
174
     0
 93
        1
 44
0.0
173
     0
291
     0
 45
0.0
  0
VISUALSTYLE
  5
3B
102
{ACAD_REACTORS
330
2A
102
}
102
{ACAD_XDICTIONARY
360
BB
102
}
330
2A
100
AcDbVisualStyle
  2
JitterOff
 70
    20
 71
     2
 72
     2
 73
     0
 90
        0
 40
0.6
 41
30.0
 62
     5
 63
     7
421
 16777215
 74
     1
 91
        4
 64
     7
 65
   257
 75
     1
175
     1
 42
1.0
 92
       10
 66
     7
 43
1.0
 76
     1
 77
     6
 78
     2
 67
     7
 79
     5
170
     0
171
     0
290
     0
174
     0
 93
        1
 44
0.0
173
     0
291
     1
 45
0.0
  0
VISUALSTYLE
  5
38
102
{ACAD_REACTORS
330
2A
102
}
102
{ACAD_XDICTIONARY
360
B5
102
}
330
2A
100
AcDbVisualStyle
  2
Linepattern
 70
    14
 71
     2
 72
     2
 73
     0
 90
        0
 40
0.6
 41
30.0
 62
     5
 63
     7
421
 16777215
 74
     1
 91
        4
 64
     7
 65
   257
 75
     7
175
     7
 42
1.0
 92
        8
 66
     7
 43
1.0
 76
     1
 77
     6
 78
     2
 67
     7
 79
     5
170
     0
171
     0
290
     0
174
     0
 93
        1
 44
0.0
173
     0
291
     1
 45
0.0
  0
VISUALSTYLE
  5
3C
102
{ACAD_REACTORS
330
2A
102
}
102
{ACAD_XDICTIONARY
360
BD
102
}
330
2A
100
AcDbVisualStyle
  2
OverhangOff
 70
    21
 71
     2
 72
     2
 73
     0
 90
        0
 40
0.6
 41
30.0
 62
     5
 63
     7
421
 16777215
 74
     1
 91
        4
 64
     7
 65
   257
 75
     1
175
     1
 42
1.0
 92
        9
 66
     7
 43
1.0
 76
     1
 77
     6
 78
     2
 67
     7
 79
     5
170
     0
171
     0
290
     0
174
     0
 93
        1
 44
0.0
173
     0
291
     1
 45
0.0
  0
VISUALSTYLE
  5
33
102
{ACAD_REACTORS
330
2A
102
}
102
{ACAD_XDICTIONARY
360
AB
102
}
330
2A
100
AcDbVisualStyle
  2
Realistic
 70
     8
 71
     2
 72
     3
 73
     0
 90
        2
 40
0.6
 41
30.0
 62
     5
 63
     7
421
 16777215
 74
     0
 91
        0
 64
     7
 65
   257
 75
     1
175
     1
 42
1.0
 92
        8
 66
   257
 43
1.0
 76
     1
 77
     6
 78
     2
 67
     7
 79
     3
170
     0
171
     0
290
     0
174
     0
 93
       13
 44
0.0
173
     0
291
     0
 45
0.0
  0
VISUALSTYLE
  5
42
102
{ACAD_REACTORS
330
2A
102
}
102
{ACAD_XDICTIONARY
360
C9
102
}
330
2A
100
AcDbVisualStyle
  2
Shaded
 70
    27
 71
     2
 72
     2
 73
     1
 90
        2
 40
0.6
 41
30.0
 62
     5
 63
     7
421
 16777215
 74
     0
 91
        4
 64
     7
 65
   257
 75
     1
175
     1
 42
1.0
 92
        8
 66
   257
 43
1.0
 76
     1
 77
     6
 78
     2
 67
     8
425
  7895160
 79
     3
170
     0
171
     0
290
     0
174
     0
 93
        5
 44
0.0
173
     0
291
     0
 45
0.0
  0
VISUALSTYLE
  5
41
102
{ACAD_REACTORS
330
2A
102
}
102
{ACAD_XDICTIONARY
360
C7
102
}
330
2A
100
AcDbVisualStyle
  2
Shaded with edges
 70
    26
 71
     2
 72
     2
 73
     1
 90
        2
 40
0.6
 41
30.0
 62
     5
 63
     7
421
 16777215
 74
     1
 91
       10
 64
     7
 65
   257
 75
     2
175
     1
 42
1.0
 92
        8
 66
   257
 43
1.0
 76
     1
 77
     6
 78
     2
 67
     7
 79
     3
170
     0
171
     0
290
     0
174
     0
 93
        5
 44
0.0
173
     0
291
     0
 45
0.0
  0
VISUALSTYLE
  5
3E
102
{ACAD_REACTORS
330
2A
102
}
102
{ACAD_XDICTIONARY
360
C1
102
}
330
2A
100
AcDbVisualStyle
  2
Shades of Gray
 70
    23
 71
     2
 72
     2
 73
     3
 90
        0
 40
0.6
 41
30.0
 62
     5
 63
     7
421
 16777215
 74
     2
 91
        2
 64
     7
 65
     7
 75
     1
175
     1
 42
40.0
 92
        8
 66
     7
 43
1.0
 76
     1
 77
     6
 78
     2
 67
     7
 79
     3
170
     0
171
     0
290
     0
174
     0
 93
        1
 44
0.0
173
     0
291
     0
 45
0.0
  0
VISUALSTYLE
  5
3F
102
{ACAD_REACTORS
330
2A
102
}
102
{ACAD_XDICTIONARY
360
C3
102
}
330
2A
100
AcDbVisualStyle
  2
Sketchy
 70
    24
 71
     1
 72
     2
 73
     2
 90
        0
 40
0.6
 41
30.0
 62
     5
 63
     7
421
 16777215
 74
     2
 91
        2
 64
     7
 65
     7
 75
     1
175
     1
 42
40.0
 92
       11
 66
     7
 43
1.0
 76
     1
 77
     6
 78
     2
 67
     7
 79
     6
170
     0
171
     0
290
     0
174
     0
 93
        1
 44
0.0
173
     0
291
     0
 45
0.0
  0
VISUALSTYLE
  5
37
102
{ACAD_REACTORS
330
2A
102
}
102
{ACAD_XDICTIONARY
360
B3
102
}
330
2A
100
AcDbVisualStyle
  2
Thicken
 70
    13
 71
     2
 72
     2
 73
     0
 90
        0
 40
0.6
 41
30.0
 62
     5
 63
     7
421
 16777215
 74
     1
 91
        4
 64
     7
 65
   257
 75
     1
175
     1
 42
1.0
 92
       12
 66
     7
 43
1.0
 76
     1
 77
     6
 78
     2
 67
     7
 79
     5
170
     0
171
     0
290
     0
174
     0
 93
        1
 44
0.0
173
     0
291
     1
 45
0.0
  0
VISUALSTYLE
  5
30
102
{ACAD_REACTORS
330
2A
102
}
102
{ACAD_XDICTIONARY
360
A5
102
}
330
2A
100
AcDbVisualStyle
  2
Wireframe
 70
     5
 71
     0
 72
     2
 73
     0
 90
        0
 40
0.6
 41
30.0
 62
     5
 63
     7
421
 16777215
 74
     1
 91
        4
 64
     7
 65
   257
 75
     1
175
     1
 42
1.0
 92
        0
 66
   257
 43
1.0
 76
     1
 77
     6
 78
     2
 67
     7
 79
     3
170
     0
171
     0
290
     0
174
     0
 93
        1
 44
0.0
173
     0
291
     0
 45
0.0
  0
VISUALSTYLE
  5
40
102
{ACAD_REACTORS
330
2A
102
}
102
{ACAD_XDICTIONARY
360
C5
102
}
330
2A
100
AcDbVisualStyle
  2
X-Ray
 70
    25
 71
     2
 72
     2
 73
     1
 90
        1
 40
0.5
 41
30.0
 62
     5
 63
     7
421
 16777215
 74
     1
 91
        0
 64
     7
 65
   257
 75
     1
175
     1
 42
1.0
 92
        8
 66
     7
 43
1.0
 76
     1
 77
     6
 78
     2
 67
     7
 79
     3
170
     0
171
     0
290
     0
174
     0
 93
       13
 44
0.0
173
     0
291
     0
 45
0.0
  0
DICTIONARYVAR
  5
99
102
{ACAD_REACTORS
330
98
102
}
330
98
100
DictionaryVariables
280
     0
  1
1:1
  0
DICTIONARYVAR
  5
D2
102
{ACAD_REACTORS
330
98
102
}
330
98
100
DictionaryVariables
280
     0
  1
Standard
  0
DICTIONARYVAR
  5
D1
102
{ACAD_REACTORS
330
98
102
}
330
98
100
DictionaryVariables
280
     0
  1
Standard
  0
DICTIONARYVAR
  5
9A
102
{ACAD_REACTORS
330
98
102
}
330
98
100
DictionaryVariables
280
     0
  1
2
  0
DICTIONARY
  5
CE
330
6C
100
AcDbDictionary
280
     1
281
     1
  3
ACAD_XREC_ROUNDTRIP
360
CF
  0
DICTIONARY
  5
CB
330
6A
100
AcDbDictionary
280
     1
281
     1
  3
ACAD_ROUNDTRIP_2008_TABLESTYLE_CELLSTYLEMAP
360
CC
  0
DICTIONARY
  5
A3
330
2F
100
AcDbDictionary
280
     1
281
     1
  3
ACAD_XREC_ROUNDTRIP
360
A4
  0
DICTIONARY
  5
A9
330
32
100
AcDbDictionary
280
     1
281
     1
  3
ACAD_XREC_ROUNDTRIP
360
AA
  0
DICTIONARY
  5
B1
330
36
100
AcDbDictionary
280
     1
281
     1
  3
ACAD_XREC_ROUNDTRIP
360
B2
  0
DICTIONARY
  5
B9
330
3A
100
AcDbDictionary
280
     1
281
     1
  3
ACAD_XREC_ROUNDTRIP
360
BA
  0
DICTIONARY
  5
AD
330
34
100
AcDbDictionary
280
     1
281
     1
  3
ACAD_XREC_ROUNDTRIP
360
AE
  0
DICTIONARY
  5
AF
330
35
100
AcDbDictionary
280
     1
281
     1
  3
ACAD_XREC_ROUNDTRIP
360
B0
  0
DICTIONARY
  5
BF
330
3D
100
AcDbDictionary
280
     1
281
     1
  3
ACAD_XREC_ROUNDTRIP
360
C0
  0
DICTIONARY
  5
B7
330
39
100
AcDbDictionary
280
     1
281
     1
  3
ACAD_XREC_ROUNDTRIP
360
B8
  0
DICTIONARY
  5
9B
330
2B
100
AcDbDictionary
280
     1
281
     1
  3
ACAD_XREC_ROUNDTRIP
360
9C
  0
DICTIONARY
  5
9D
330
2C
100
AcDbDictionary
280
     1
281
     1
  3
ACAD_XREC_ROUNDTRIP
360
9E
  0
DICTIONARY
  5
9F
330
2D
100
AcDbDictionary
280
     1
281
     1
  3
ACAD_XREC_ROUNDTRIP
360
A0
  0
DICTIONARY
  5
A1
330
2E
100
AcDbDictionary
280
     1
281
     1
  3
ACAD_XREC_ROUNDTRIP
360
A2
  0
DICTIONARY
  5
A7
330
31
100
AcDbDictionary
280
     1
281
     1
  3
ACAD_XREC_ROUNDTRIP
360
A8
  0
DICTIONARY
  5
BB
330
3B
100
AcDbDictionary
280
     1
281
     1
  3
ACAD_XREC_ROUNDTRIP
360
BC
  0
DICTIONARY
  5
B5
330
38
100
AcDbDictionary
280
     1
281
     1
  3
ACAD_XREC_ROUNDTRIP
360
B6
  0
DICTIONARY
  5
BD
330
3C
100
AcDbDictionary
280
     1
281
     1
  3
ACAD_XREC_ROUNDTRIP
360
BE
  0
DICTIONARY
  5
AB
330
33
100
AcDbDictionary
280
     1
281
     1
  3
ACAD_XREC_ROUNDTRIP
360
AC
  0
DICTIONARY
  5
C9
330
42
100
AcDbDictionary
280
     1
281
     1
  3
ACAD_XREC_ROUNDTRIP
360
CA
  0
DICTIONARY
  5
C7
330
41
100
AcDbDictionary
280
     1
281
     1
  3
ACAD_XREC_ROUNDTRIP
360
C8
  0
DICTIONARY
  5
C1
330
3E
100
AcDbDictionary
280
     1
281
     1
  3
ACAD_XREC_ROUNDTRIP
360
C2
  0
DICTIONARY
  5
C3
330
3F
100
AcDbDictionary
280
     1
281
     1
  3
ACAD_XREC_ROUNDTRIP
360
C4
  0
DICTIONARY
  5
B3
330
37
100
AcDbDictionary
280
     1
281
     1
  3
ACAD_XREC_ROUNDTRIP
360
B4
  0
DICTIONARY
  5
A5
330
30
100
AcDbDictionary
280
     1
281
     1
  3
ACAD_XREC_ROUNDTRIP
360
A6
  0
DICTIONARY
  5
C5
330
40
100
AcDbDictionary
280
     1
281
     1
  3
ACAD_XREC_ROUNDTRIP
360
C6
  0
XRECORD
  5
CF
102
{ACAD_REACTORS
330
CE
102
}
330
CE
100
AcDbXrecord
280
     1
102
ACAD_ROUNDTRIP_2010_MLEADER_STYLE
  0
CELLSTYLEMAP
  5
CC
102
{ACAD_REACTORS
330
CB
102
}
330
CB
100
AcDbCellStyleMap
 90
        3
300
CELLSTYLE
  1
TABLEFORMAT_BEGIN
 90
        5
170
     1
 91
        0
 92
    32768
 62
   257
 93
        1
300
CONTENTFORMAT
  1
CONTENTFORMAT_BEGIN
 90
        0
 91
        0
 92
        4
 93
        0
300

 40
0.0
140
1.0
 94
        5
 62
     0
340
11
144
0.25
309
CONTENTFORMAT_END
171
     1
301
MARGIN
  1
CELLMARGIN_BEGIN
 40
0.06
 40
0.06
 40
0.06
 40
0.06
 40
0.06
 40
0.06
309
CELLMARGIN_END
 94
        6
 95
        1
302
GRIDFORMAT
  1
GRIDFORMAT_BEGIN
 90
        0
 91
        1
 62
     0
 92
       -2
340
14
 93
        0
 40
0.045
309
GRIDFORMAT_END
 95
        2
302
GRIDFORMAT
  1
GRIDFORMAT_BEGIN
 90
        0
 91
        1
 62
     0
 92
       -2
340
14
 93
        0
 40
0.045
309
GRIDFORMAT_END
 95
        4
302
GRIDFORMAT
  1
GRIDFORMAT_BEGIN
 90
        0
 91
        1
 62
     0
 92
       -2
340
14
 93
        0
 40
0.045
309
GRIDFORMAT_END
 95
        8
302
GRIDFORMAT
  1
GRIDFORMAT_BEGIN
 90
        0
 91
        1
 62
     0
 92
       -2
340
14
 93
        0
 40
0.045
309
GRIDFORMAT_END
 95
       16
302
GRIDFORMAT
  1
GRIDFORMAT_BEGIN
 90
        0
 91
        1
 62
     0
 92
       -2
340
14
 93
        0
 40
0.045
309
GRIDFORMAT_END
 95
       32
302
GRIDFORMAT
  1
GRIDFORMAT_BEGIN
 90
        0
 91
        1
 62
     0
 92
       -2
340
14
 93
        0
 40
0.045
309
GRIDFORMAT_END
309
TABLEFORMAT_END
  1
CELLSTYLE_BEGIN
 90
        1
 91
        1
300
_TITLE
309
CELLSTYLE_END
300
CELLSTYLE
  1
TABLEFORMAT_BEGIN
 90
        5
170
     1
 91
        0
 92
        0
 62
   257
 93
        1
300
CONTENTFORMAT
  1
CONTENTFORMAT_BEGIN
 90
        0
 91
        0
 92
        4
 93
        0
300

 40
0.0
140
1.0
 94
        5
 62
     0
340
11
144
0.18
309
CONTENTFORMAT_END
171
     1
301
MARGIN
  1
CELLMARGIN_BEGIN
 40
0.06
 40
0.06
 40
0.06
 40
0.06
 40
0.06
 40
0.06
309
CELLMARGIN_END
 94
        6
 95
        1
302
GRIDFORMAT
  1
GRIDFORMAT_BEGIN
 90
        0
 91
        1
 62
     0
 92
       -2
340
14
 93
        0
 40
0.045
309
GRIDFORMAT_END
 95
        2
302
GRIDFORMAT
  1
GRIDFORMAT_BEGIN
 90
        0
 91
        1
 62
     0
 92
       -2
340
14
 93
        0
 40
0.045
309
GRIDFORMAT_END
 95
        4
302
GRIDFORMAT
  1
GRIDFORMAT_BEGIN
 90
        0
 91
        1
 62
     0
 92
       -2
340
14
 93
        0
 40
0.045
309
GRIDFORMAT_END
 95
        8
302
GRIDFORMAT
  1
GRIDFORMAT_BEGIN
 90
        0
 91
        1
 62
     0
 92
       -2
340
14
 93
        0
 40
0.045
309
GRIDFORMAT_END
 95
       16
302
GRIDFORMAT
  1
GRIDFORMAT_BEGIN
 90
        0
 91
        1
 62
     0
 92
       -2
340
14
 93
        0
 40
0.045
309
GRIDFORMAT_END
 95
       32
302
GRIDFORMAT
  1
GRIDFORMAT_BEGIN
 90
        0
 91
        1
 62
     0
 92
       -2
340
14
 93
        0
 40
0.045
309
GRIDFORMAT_END
309
TABLEFORMAT_END
  1
CELLSTYLE_BEGIN
 90
        2
 91
        1
300
_HEADER
309
CELLSTYLE_END
300
CELLSTYLE
  1
TABLEFORMAT_BEGIN
 90
        5
170
     1
 91
        0
 92
        0
 62
   257
 93
        1
300
CONTENTFORMAT
  1
CONTENTFORMAT_BEGIN
 90
        0
 91
        0
 92
        4
 93
        0
300

 40
0.0
140
1.0
 94
        2
 62
     0
340
11
144
0.18
309
CONTENTFORMAT_END
171
     1
301
MARGIN
  1
CELLMARGIN_BEGIN
 40
0.06
 40
0.06
 40
0.06
 40
0.06
 40
0.06
 40
0.06
309
CELLMARGIN_END
 94
        6
 95
        1
302
GRIDFORMAT
  1
GRIDFORMAT_BEGIN
 90
        0
 91
        1
 62
     0
 92
       -2
340
14
 93
        0
 40
0.045
309
GRIDFORMAT_END
 95
        2
302
GRIDFORMAT
  1
GRIDFORMAT_BEGIN
 90
        0
 91
        1
 62
     0
 92
       -2
340
14
 93
        0
 40
0.045
309
GRIDFORMAT_END
 95
        4
302
GRIDFORMAT
  1
GRIDFORMAT_BEGIN
 90
        0
 91
        1
 62
     0
 92
       -2
340
14
 93
        0
 40
0.045
309
GRIDFORMAT_END
 95
        8
302
GRIDFORMAT
  1
GRIDFORMAT_BEGIN
 90
        0
 91
        1
 62
     0
 92
       -2
340
14
 93
        0
 40
0.045
309
GRIDFORMAT_END
 95
       16
302
GRIDFORMAT
  1
GRIDFORMAT_BEGIN
 90
        0
 91
        1
 62
     0
 92
       -2
340
14
 93
        0
 40
0.045
309
GRIDFORMAT_END
 95
       32
302
GRIDFORMAT
  1
GRIDFORMAT_BEGIN
 90
        0
 91
        1
 62
     0
 92
       -2
340
14
 93
        0
 40
0.045
309
GRIDFORMAT_END
309
TABLEFORMAT_END
  1
CELLSTYLE_BEGIN
 90
        3
 91
        2
300
_DATA
309
CELLSTYLE_END
  0
XRECORD
  5
A4
102
{ACAD_REACTORS
330
A3
102
}
330
A3
100
AcDbXrecord
280
     1
102
RTVSPropertyOp0
 70
     1
102
RTVSPropertyOp1
 70
     1
102
RTVSPropertyOp2
 70
     1
102
RTVSPropertyOp3
 70
     1
102
RTVSPropertyOp4
 70
     1
102
RTVSPropertyOp5
 70
     1
102
RTVSPropertyOp6
 70
     1
102
RTVSPropertyOp7
 70
     1
102
RTVSPropertyOp8
 70
     1
102
RTVSPropertyOp9
 70
     1
102
RTVSPropertyOp10
 70
     1
102
RTVSPropertyOp11
 70
     1
102
RTVSPropertyOp12
 70
     1
102
RTVSPropertyOp13
 70
     1
102
RTVSPropertyOp14
 70
     1
102
RTVSPropertyOp15
 70
     1
102
RTVSPropertyOp16
 70
     1
102
RTVSPropertyOp17
 70
     1
102
RTVSPropertyOp18
 70
     1
102
RTVSPropertyOp19
 70
     1
102
RTVSPropertyOp20
 70
     1
102
RTVSPropertyOp21
 70
     1
102
RTVSPropertyOp22
 70
     1
102
RTVSPropertyOp23
 70
     1
102
RTVSPropertyOp24
 70
     1
102
RTVSPropertyOp25
 70
     1
102
RTVSPropertyOp26
 70
     1
102
RTVSPropertyOp27
 70
     1
102
RTVSPropertyOp28
 70
     1
102
RTVSPropertyOp29
 70
     1
102
RTVSPropertyOp30
 70
     1
102
RTVSPropertyOp31
 70
     1
102
RTVSPropertyOp32
 70
     1
102
RTVSPropertyOp33
 70
     1
102
RTVSPropertyOp34
 70
     1
102
RTVSPropertyOp35
 70
     1
102
RTVSPropertyOp36
 70
     1
102
RTVSPropertyOp37
 70
     1
102
RTVSPropertyOp38
 70
     1
102
RTVSPropertyOp39
 70
     1
102
RTVSPropertyOp40
 70
     1
102
RTVSPropertyOp41
 70
     1
102
RTVSPropertyOp42
 70
     1
102
RTVSPropertyOp43
 70
     1
102
RTVSPropertyOp44
 70
     1
102
RTVSPropertyOp45
 70
     1
102
RTVSPropertyOp46
 70
     1
102
RTVSPropertyOp47
 70
     1
102
RTVSPropertyOp48
 70
     1
102
RTVSPropertyOp49
 70
     1
102
RTVSPropertyOp50
 70
     1
102
RTVSPropertyOp51
 70
     0
102
RTVSPropertyOp52
 70
     0
102
RTVSPropertyOp53
 70
     1
102
RTVSPropertyOp54
 70
     1
102
RTVSPropertyOp55
 70
     1
102
RTVSPropertyOp56
 70
     1
102
RTVSPropertyOp57
 70
     1
102
RTVSPost2010Prop28
280
     1
102
RTVSPost2010PropOp28
 70
     1
102
RTVSPost2010Prop29
280
     1
102
RTVSPost2010PropOp29
 70
     1
102
RTVSPost2010Prop30
280
     0
102
RTVSPost2010PropOp30
 70
     1
102
RTVSPost2010Prop31
280
     0
102
RTVSPost2010PropOp31
 70
     1
102
RTVSPost2010Prop32
280
     0
102
RTVSPost2010PropOp32
 70
     1
102
RTVSPost2010Prop33
280
     0
102
RTVSPost2010PropOp33
 70
     1
102
RTVSPost2010Prop34
280
     0
102
RTVSPost2010PropOp34
 70
     1
102
RTVSPost2010Prop35
280
     0
102
RTVSPost2010PropOp35
 70
     1
102
RTVSPost2010Prop36
280
     0
102
RTVSPost2010PropOp36
 70
     1
102
RTVSPost2010Prop37
 90
       50
102
RTVSPost2010PropOp37
 70
     1
102
RTVSPost2010Prop38
140
0.0
102
RTVSPost2010PropOp38
 70
     1
102
RTVSPost2010Prop39
140
1.0
102
RTVSPost2010PropOp39
 70
     1
102
RTVSPost2010Prop40
 90
        0
102
RTVSPost2010PropOp40
 70
     1
102
RTVSPost2010Prop41ColorIndex
 90
       18
102
RTVSPost2010Prop41ColorRGB
 90
        0
102
RTVSPost2010PropOp41
 70
     1
102
RTVSPost2010Prop42
 90
       50
102
RTVSPost2010PropOp42
 70
     1
102
RTVSPost2010Prop43
 90
        3
102
RTVSPost2010PropOp43
 70
     1
102
RTVSPost2010Prop44ColorIndex
 90
        5
102
RTVSPost2010Prop44ColorRGB
 90
      255
102
RTVSPost2010PropOp44
 70
     1
102
RTVSPost2010Prop45
280
     0
102
RTVSPost2010PropOp45
 70
     1
102
RTVSPost2010Prop46
 90
       50
102
RTVSPost2010PropOp46
 70
     1
102
RTVSPost2010Prop47
 90
       50
102
RTVSPost2010PropOp47
 70
     1
102
RTVSPost2010Prop48
 90
       50
102
RTVSPost2010PropOp48
 70
     1
102
RTVSPost2010Prop49
280
     0
102
RTVSPost2010PropOp49
 70
     1
102
RTVSPost2010Prop50
 90
       50
102
RTVSPost2010PropOp50
 70
     1
102
RTVSPost2010Prop51ColorIndex
 90
      256
102
RTVSPost2010Prop51ColorRGB
 90
-16777216
102
RTVSPost2010PropOp51
 70
     0
102
RTVSPost2010Prop52
140
1.0
102
RTVSPost2010PropOp52
 70
     0
102
RTVSPost2010Prop53
 90
        2
102
RTVSPost2010PropOp53
 70
     1
102
RTVSPost2010Prop54
  1
strokes_ogs.tif
102
RTVSPost2010PropOp54
 70
     1
102
RTVSPost2010Prop55
280
     0
102
RTVSPost2010PropOp55
 70
     1
102
RTVSPost2010Prop56
140
1.0
102
RTVSPost2010PropOp56
 70
     1
102
RTVSPost2010Prop57
140
1.0
102
RTVSPost2010PropOp57
 70
     1
  0
XRECORD
  5
AA
102
{ACAD_REACTORS
330
A9
102
}
330
A9
100
AcDbXrecord
280
     1
102
RTVSPropertyOp0
 70
     1
102
RTVSPropertyOp1
 70
     1
102
RTVSPropertyOp2
 70
     1
102
RTVSPropertyOp3
 70
     1
102
RTVSPropertyOp4
 70
     1
102
RTVSPropertyOp5
 70
     1
102
RTVSPropertyOp6
 70
     1
102
RTVSPropertyOp7
 70
     1
102
RTVSPropertyOp8
 70
     1
102
RTVSPropertyOp9
 70
     1
102
RTVSPropertyOp10
 70
     1
102
RTVSPropertyOp11
 70
     1
102
RTVSPropertyOp12
 70
     1
102
RTVSPropertyOp13
 70
     1
102
RTVSPropertyOp14
 70
     1
102
RTVSPropertyOp15
 70
     1
102
RTVSPropertyOp16
 70
     1
102
RTVSPropertyOp17
 70
     1
102
RTVSPropertyOp18
 70
     1
102
RTVSPropertyOp19
 70
     1
102
RTVSPropertyOp20
 70
     1
102
RTVSPropertyOp21
 70
     1
102
RTVSPropertyOp22
 70
     1
102
RTVSPropertyOp23
 70
     1
102
RTVSPropertyOp24
 70
     1
102
RTVSPropertyOp25
 70
     1
102
RTVSPropertyOp26
 70
     1
102
RTVSPropertyOp27
 70
     1
102
RTVSPropertyOp28
 70
     1
102
RTVSPropertyOp29
 70
     1
102
RTVSPropertyOp30
 70
     1
102
RTVSPropertyOp31
 70
     1
102
RTVSPropertyOp32
 70
     1
102
RTVSPropertyOp33
 70
     1
102
RTVSPropertyOp34
 70
     1
102
RTVSPropertyOp35
 70
     1
102
RTVSPropertyOp36
 70
     1
102
RTVSPropertyOp37
 70
     1
102
RTVSPropertyOp38
 70
     1
102
RTVSPropertyOp39
 70
     1
102
RTVSPropertyOp40
 70
     1
102
RTVSPropertyOp41
 70
     1
102
RTVSPropertyOp42
 70
     1
102
RTVSPropertyOp43
 70
     1
102
RTVSPropertyOp44
 70
     1
102
RTVSPropertyOp45
 70
     1
102
RTVSPropertyOp46
 70
     1
102
RTVSPropertyOp47
 70
     1
102
RTVSPropertyOp48
 70
     1
102
RTVSPropertyOp49
 70
     1
102
RTVSPropertyOp50
 70
     1
102
RTVSPropertyOp51
 70
     0
102
RTVSPropertyOp52
 70
     0
102
RTVSPropertyOp53
 70
     1
102
RTVSPropertyOp54
 70
     1
102
RTVSPropertyOp55
 70
     1
102
RTVSPropertyOp56
 70
     1
102
RTVSPropertyOp57
 70
     1
102
RTVSPost2010Prop28
280
     0
102
RTVSPost2010PropOp28
 70
     1
102
RTVSPost2010Prop29
280
     1
102
RTVSPost2010PropOp29
 70
     1
102
RTVSPost2010Prop30
280
     1
102
RTVSPost2010PropOp30
 70
     1
102
RTVSPost2010Prop31
280
     0
102
RTVSPost2010PropOp31
 70
     1
102
RTVSPost2010Prop32
280
     0
102
RTVSPost2010PropOp32
 70
     1
102
RTVSPost2010Prop33
280
     0
102
RTVSPost2010PropOp33
 70
     1
102
RTVSPost2010Prop34
280
     0
102
RTVSPost2010PropOp34
 70
     1
102
RTVSPost2010Prop35
280
     0
102
RTVSPost2010PropOp35
 70
     1
102
RTVSPost2010Prop36
280
     0
102
RTVSPost2010PropOp36
 70
     1
102
RTVSPost2010Prop37
 90
       50
102
RTVSPost2010PropOp37
 70
     1
102
RTVSPost2010Prop38
140
0.0
102
RTVSPost2010PropOp38
 70
     1
102
RTVSPost2010Prop39
140
1.0
102
RTVSPost2010PropOp39
 70
     1
102
RTVSPost2010Prop40
 90
        0
102
RTVSPost2010PropOp40
 70
     1
102
RTVSPost2010Prop41ColorIndex
 90
       18
102
RTVSPost2010Prop41ColorRGB
 90
        0
102
RTVSPost2010PropOp41
 70
     1
102
RTVSPost2010Prop42
 90
       50
102
RTVSPost2010PropOp42
 70
     1
102
RTVSPost2010Prop43
 90
        3
102
RTVSPost2010PropOp43
 70
     1
102
RTVSPost2010Prop44ColorIndex
 90
        5
102
RTVSPost2010Prop44ColorRGB
 90
      255
102
RTVSPost2010PropOp44
 70
     1
102
RTVSPost2010Prop45
280
     0
102
RTVSPost2010PropOp45
 70
     1
102
RTVSPost2010Prop46
 90
       50
102
RTVSPost2010PropOp46
 70
     1
102
RTVSPost2010Prop47
 90
       50
102
RTVSPost2010PropOp47
 70
     1
102
RTVSPost2010Prop48
 90
       50
102
RTVSPost2010PropOp48
 70
     1
102
RTVSPost2010Prop49
280
     0
102
RTVSPost2010PropOp49
 70
     1
102
RTVSPost2010Prop50
 90
       50
102
RTVSPost2010PropOp50
 70
     1
102
RTVSPost2010Prop51ColorIndex
 90
      256
102
RTVSPost2010Prop51ColorRGB
 90
-16777216
102
RTVSPost2010PropOp51
 70
     0
102
RTVSPost2010Prop52
140
1.0
102
RTVSPost2010PropOp52
 70
     0
102
RTVSPost2010Prop53
 90
        2
102
RTVSPost2010PropOp53
 70
     1
102
RTVSPost2010Prop54
  1
strokes_ogs.tif
102
RTVSPost2010PropOp54
 70
     1
102
RTVSPost2010Prop55
280
     0
102
RTVSPost2010PropOp55
 70
     1
102
RTVSPost2010Prop56
140
1.0
102
RTVSPost2010PropOp56
 70
     1
102
RTVSPost2010Prop57
140
1.0
102
RTVSPost2010PropOp57
 70
     1
  0
XRECORD
  5
B2
102
{ACAD_REACTORS
330
B1
102
}
330
B1
100
AcDbXrecord
280
     1
102
RTVSPropertyOp0
 70
     1
102
RTVSPropertyOp1
 70
     1
102
RTVSPropertyOp2
 70
     1
102
RTVSPropertyOp3
 70
     1
102
RTVSPropertyOp4
 70
     1
102
RTVSPropertyOp5
 70
     1
102
RTVSPropertyOp6
 70
     1
102
RTVSPropertyOp7
 70
     1
102
RTVSPropertyOp8
 70
     1
102
RTVSPropertyOp9
 70
     1
102
RTVSPropertyOp10
 70
     1
102
RTVSPropertyOp11
 70
     1
102
RTVSPropertyOp12
 70
     1
102
RTVSPropertyOp13
 70
     1
102
RTVSPropertyOp14
 70
     1
102
RTVSPropertyOp15
 70
     1
102
RTVSPropertyOp16
 70
     1
102
RTVSPropertyOp17
 70
     1
102
RTVSPropertyOp18
 70
     1
102
RTVSPropertyOp19
 70
     1
102
RTVSPropertyOp20
 70
     1
102
RTVSPropertyOp21
 70
     1
102
RTVSPropertyOp22
 70
     1
102
RTVSPropertyOp23
 70
     1
102
RTVSPropertyOp24
 70
     1
102
RTVSPropertyOp25
 70
     1
102
RTVSPropertyOp26
 70
     1
102
RTVSPropertyOp27
 70
     1
102
RTVSPropertyOp28
 70
     1
102
RTVSPropertyOp29
 70
     1
102
RTVSPropertyOp30
 70
     1
102
RTVSPropertyOp31
 70
     1
102
RTVSPropertyOp32
 70
     1
102
RTVSPropertyOp33
 70
     1
102
RTVSPropertyOp34
 70
     1
102
RTVSPropertyOp35
 70
     1
102
RTVSPropertyOp36
 70
     1
102
RTVSPropertyOp37
 70
     1
102
RTVSPropertyOp38
 70
     1
102
RTVSPropertyOp39
 70
     1
102
RTVSPropertyOp40
 70
     1
102
RTVSPropertyOp41
 70
     1
102
RTVSPropertyOp42
 70
     1
102
RTVSPropertyOp43
 70
     1
102
RTVSPropertyOp44
 70
     1
102
RTVSPropertyOp45
 70
     1
102
RTVSPropertyOp46
 70
     1
102
RTVSPropertyOp47
 70
     1
102
RTVSPropertyOp48
 70
     1
102
RTVSPropertyOp49
 70
     1
102
RTVSPropertyOp50
 70
     1
102
RTVSPropertyOp51
 70
     0
102
RTVSPropertyOp52
 70
     0
102
RTVSPropertyOp53
 70
     1
102
RTVSPropertyOp54
 70
     1
102
RTVSPropertyOp55
 70
     1
102
RTVSPropertyOp56
 70
     1
102
RTVSPropertyOp57
 70
     1
102
RTVSPost2010Prop28
280
     0
102
RTVSPost2010PropOp28
 70
     1
102
RTVSPost2010Prop29
280
     1
102
RTVSPost2010PropOp29
 70
     1
102
RTVSPost2010Prop30
280
     1
102
RTVSPost2010PropOp30
 70
     1
102
RTVSPost2010Prop31
280
     0
102
RTVSPost2010PropOp31
 70
     1
102
RTVSPost2010Prop32
280
     0
102
RTVSPost2010PropOp32
 70
     1
102
RTVSPost2010Prop33
280
     0
102
RTVSPost2010PropOp33
 70
     1
102
RTVSPost2010Prop34
280
     0
102
RTVSPost2010PropOp34
 70
     1
102
RTVSPost2010Prop35
280
     0
102
RTVSPost2010PropOp35
 70
     1
102
RTVSPost2010Prop36
280
     0
102
RTVSPost2010PropOp36
 70
     1
102
RTVSPost2010Prop37
 90
       50
102
RTVSPost2010PropOp37
 70
     1
102
RTVSPost2010Prop38
140
0.0
102
RTVSPost2010PropOp38
 70
     1
102
RTVSPost2010Prop39
140
1.0
102
RTVSPost2010PropOp39
 70
     1
102
RTVSPost2010Prop40
 90
        0
102
RTVSPost2010PropOp40
 70
     1
102
RTVSPost2010Prop41ColorIndex
 90
       18
102
RTVSPost2010Prop41ColorRGB
 90
        0
102
RTVSPost2010PropOp41
 70
     1
102
RTVSPost2010Prop42
 90
       50
102
RTVSPost2010PropOp42
 70
     1
102
RTVSPost2010Prop43
 90
        3
102
RTVSPost2010PropOp43
 70
     1
102
RTVSPost2010Prop44ColorIndex
 90
        5
102
RTVSPost2010Prop44ColorRGB
 90
      255
102
RTVSPost2010PropOp44
 70
     1
102
RTVSPost2010Prop45
280
     0
102
RTVSPost2010PropOp45
 70
     1
102
RTVSPost2010Prop46
 90
       50
102
RTVSPost2010PropOp46
 70
     1
102
RTVSPost2010Prop47
 90
       50
102
RTVSPost2010PropOp47
 70
     1
102
RTVSPost2010Prop48
 90
       50
102
RTVSPost2010PropOp48
 70
     1
102
RTVSPost2010Prop49
280
     0
102
RTVSPost2010PropOp49
 70
     1
102
RTVSPost2010Prop50
 90
       50
102
RTVSPost2010PropOp50
 70
     1
102
RTVSPost2010Prop51ColorIndex
 90
      256
102
RTVSPost2010Prop51ColorRGB
 90
-16777216
102
RTVSPost2010PropOp51
 70
     0
102
RTVSPost2010Prop52
140
1.0
102
RTVSPost2010PropOp52
 70
     0
102
RTVSPost2010Prop53
 90
        2
102
RTVSPost2010PropOp53
 70
     1
102
RTVSPost2010Prop54
  1
strokes_ogs.tif
102
RTVSPost2010PropOp54
 70
     1
102
RTVSPost2010Prop55
280
     0
102
RTVSPost2010PropOp55
 70
     1
102
RTVSPost2010Prop56
140
1.0
102
RTVSPost2010PropOp56
 70
     1
102
RTVSPost2010Prop57
140
1.0
102
RTVSPost2010PropOp57
 70
     1
  0
XRECORD
  5
BA
102
{ACAD_REACTORS
330
B9
102
}
330
B9
100
AcDbXrecord
280
     1
102
RTVSPropertyOp0
 70
     1
102
RTVSPropertyOp1
 70
     1
102
RTVSPropertyOp2
 70
     1
102
RTVSPropertyOp3
 70
     1
102
RTVSPropertyOp4
 70
     1
102
RTVSPropertyOp5
 70
     1
102
RTVSPropertyOp6
 70
     1
102
RTVSPropertyOp7
 70
     1
102
RTVSPropertyOp8
 70
     1
102
RTVSPropertyOp9
 70
     1
102
RTVSPropertyOp10
 70
     1
102
RTVSPropertyOp11
 70
     1
102
RTVSPropertyOp12
 70
     1
102
RTVSPropertyOp13
 70
     1
102
RTVSPropertyOp14
 70
     1
102
RTVSPropertyOp15
 70
     1
102
RTVSPropertyOp16
 70
     1
102
RTVSPropertyOp17
 70
     1
102
RTVSPropertyOp18
 70
     1
102
RTVSPropertyOp19
 70
     1
102
RTVSPropertyOp20
 70
     1
102
RTVSPropertyOp21
 70
     1
102
RTVSPropertyOp22
 70
     1
102
RTVSPropertyOp23
 70
     1
102
RTVSPropertyOp24
 70
     1
102
RTVSPropertyOp25
 70
     1
102
RTVSPropertyOp26
 70
     1
102
RTVSPropertyOp27
 70
     1
102
RTVSPropertyOp28
 70
     1
102
RTVSPropertyOp29
 70
     1
102
RTVSPropertyOp30
 70
     1
102
RTVSPropertyOp31
 70
     1
102
RTVSPropertyOp32
 70
     1
102
RTVSPropertyOp33
 70
     1
102
RTVSPropertyOp34
 70
     1
102
RTVSPropertyOp35
 70
     1
102
RTVSPropertyOp36
 70
     1
102
RTVSPropertyOp37
 70
     1
102
RTVSPropertyOp38
 70
     1
102
RTVSPropertyOp39
 70
     1
102
RTVSPropertyOp40
 70
     1
102
RTVSPropertyOp41
 70
     1
102
RTVSPropertyOp42
 70
     1
102
RTVSPropertyOp43
 70
     1
102
RTVSPropertyOp44
 70
     1
102
RTVSPropertyOp45
 70
     1
102
RTVSPropertyOp46
 70
     1
102
RTVSPropertyOp47
 70
     1
102
RTVSPropertyOp48
 70
     1
102
RTVSPropertyOp49
 70
     1
102
RTVSPropertyOp50
 70
     1
102
RTVSPropertyOp51
 70
     0
102
RTVSPropertyOp52
 70
     0
102
RTVSPropertyOp53
 70
     1
102
RTVSPropertyOp54
 70
     1
102
RTVSPropertyOp55
 70
     1
102
RTVSPropertyOp56
 70
     1
102
RTVSPropertyOp57
 70
     1
102
RTVSPost2010Prop28
280
     0
102
RTVSPost2010PropOp28
 70
     1
102
RTVSPost2010Prop29
280
     1
102
RTVSPost2010PropOp29
 70
     1
102
RTVSPost2010Prop30
280
     1
102
RTVSPost2010PropOp30
 70
     1
102
RTVSPost2010Prop31
280
     0
102
RTVSPost2010PropOp31
 70
     1
102
RTVSPost2010Prop32
280
     0
102
RTVSPost2010PropOp32
 70
     1
102
RTVSPost2010Prop33
280
     0
102
RTVSPost2010PropOp33
 70
     1
102
RTVSPost2010Prop34
280
     0
102
RTVSPost2010PropOp34
 70
     1
102
RTVSPost2010Prop35
280
     0
102
RTVSPost2010PropOp35
 70
     1
102
RTVSPost2010Prop36
280
     0
102
RTVSPost2010PropOp36
 70
     1
102
RTVSPost2010Prop37
 90
       50
102
RTVSPost2010PropOp37
 70
     1
102
RTVSPost2010Prop38
140
0.0
102
RTVSPost2010PropOp38
 70
     1
102
RTVSPost2010Prop39
140
1.0
102
RTVSPost2010PropOp39
 70
     1
102
RTVSPost2010Prop40
 90
        0
102
RTVSPost2010PropOp40
 70
     1
102
RTVSPost2010Prop41ColorIndex
 90
       18
102
RTVSPost2010Prop41ColorRGB
 90
        0
102
RTVSPost2010PropOp41
 70
     1
102
RTVSPost2010Prop42
 90
       50
102
RTVSPost2010PropOp42
 70
     1
102
RTVSPost2010Prop43
 90
        3
102
RTVSPost2010PropOp43
 70
     1
102
RTVSPost2010Prop44ColorIndex
 90
        5
102
RTVSPost2010Prop44ColorRGB
 90
      255
102
RTVSPost2010PropOp44
 70
     1
102
RTVSPost2010Prop45
280
     0
102
RTVSPost2010PropOp45
 70
     1
102
RTVSPost2010Prop46
 90
       50
102
RTVSPost2010PropOp46
 70
     1
102
RTVSPost2010Prop47
 90
       50
102
RTVSPost2010PropOp47
 70
     1
102
RTVSPost2010Prop48
 90
       50
102
RTVSPost2010PropOp48
 70
     1
102
RTVSPost2010Prop49
280
     0
102
RTVSPost2010PropOp49
 70
     1
102
RTVSPost2010Prop50
 90
       50
102
RTVSPost2010PropOp50
 70
     1
102
RTVSPost2010Prop51ColorIndex
 90
      256
102
RTVSPost2010Prop51ColorRGB
 90
-16777216
102
RTVSPost2010PropOp51
 70
     0
102
RTVSPost2010Prop52
140
1.0
102
RTVSPost2010PropOp52
 70
     0
102
RTVSPost2010Prop53
 90
        2
102
RTVSPost2010PropOp53
 70
     1
102
RTVSPost2010Prop54
  1
strokes_ogs.tif
102
RTVSPost2010PropOp54
 70
     1
102
RTVSPost2010Prop55
280
     0
102
RTVSPost2010PropOp55
 70
     1
102
RTVSPost2010Prop56
140
1.0
102
RTVSPost2010PropOp56
 70
     1
102
RTVSPost2010Prop57
140
1.0
102
RTVSPost2010PropOp57
 70
     1
  0
XRECORD
  5
AE
102
{ACAD_REACTORS
330
AD
102
}
330
AD
100
AcDbXrecord
280
     1
102
RTVSPropertyOp0
 70
     1
102
RTVSPropertyOp1
 70
     1
102
RTVSPropertyOp2
 70
     1
102
RTVSPropertyOp3
 70
     1
102
RTVSPropertyOp4
 70
     1
102
RTVSPropertyOp5
 70
     1
102
RTVSPropertyOp6
 70
     1
102
RTVSPropertyOp7
 70
     1
102
RTVSPropertyOp8
 70
     1
102
RTVSPropertyOp9
 70
     1
102
RTVSPropertyOp10
 70
     1
102
RTVSPropertyOp11
 70
     1
102
RTVSPropertyOp12
 70
     1
102
RTVSPropertyOp13
 70
     1
102
RTVSPropertyOp14
 70
     1
102
RTVSPropertyOp15
 70
     1
102
RTVSPropertyOp16
 70
     1
102
RTVSPropertyOp17
 70
     1
102
RTVSPropertyOp18
 70
     1
102
RTVSPropertyOp19
 70
     1
102
RTVSPropertyOp20
 70
     1
102
RTVSPropertyOp21
 70
     1
102
RTVSPropertyOp22
 70
     1
102
RTVSPropertyOp23
 70
     1
102
RTVSPropertyOp24
 70
     1
102
RTVSPropertyOp25
 70
     1
102
RTVSPropertyOp26
 70
     1
102
RTVSPropertyOp27
 70
     1
102
RTVSPropertyOp28
 70
     1
102
RTVSPropertyOp29
 70
     1
102
RTVSPropertyOp30
 70
     1
102
RTVSPropertyOp31
 70
     1
102
RTVSPropertyOp32
 70
     1
102
RTVSPropertyOp33
 70
     1
102
RTVSPropertyOp34
 70
     1
102
RTVSPropertyOp35
 70
     1
102
RTVSPropertyOp36
 70
     1
102
RTVSPropertyOp37
 70
     1
102
RTVSPropertyOp38
 70
     1
102
RTVSPropertyOp39
 70
     1
102
RTVSPropertyOp40
 70
     1
102
RTVSPropertyOp41
 70
     1
102
RTVSPropertyOp42
 70
     1
102
RTVSPropertyOp43
 70
     1
102
RTVSPropertyOp44
 70
     1
102
RTVSPropertyOp45
 70
     1
102
RTVSPropertyOp46
 70
     1
102
RTVSPropertyOp47
 70
     1
102
RTVSPropertyOp48
 70
     1
102
RTVSPropertyOp49
 70
     1
102
RTVSPropertyOp50
 70
     1
102
RTVSPropertyOp51
 70
     0
102
RTVSPropertyOp52
 70
     0
102
RTVSPropertyOp53
 70
     1
102
RTVSPropertyOp54
 70
     1
102
RTVSPropertyOp55
 70
     1
102
RTVSPropertyOp56
 70
     1
102
RTVSPropertyOp57
 70
     1
102
RTVSPost2010Prop28
280
     0
102
RTVSPost2010PropOp28
 70
     1
102
RTVSPost2010Prop29
280
     1
102
RTVSPost2010PropOp29
 70
     1
102
RTVSPost2010Prop30
280
     1
102
RTVSPost2010PropOp30
 70
     1
102
RTVSPost2010Prop31
280
     0
102
RTVSPost2010PropOp31
 70
     1
102
RTVSPost2010Prop32
280
     0
102
RTVSPost2010PropOp32
 70
     1
102
RTVSPost2010Prop33
280
     0
102
RTVSPost2010PropOp33
 70
     1
102
RTVSPost2010Prop34
280
     0
102
RTVSPost2010PropOp34
 70
     1
102
RTVSPost2010Prop35
280
     0
102
RTVSPost2010PropOp35
 70
     1
102
RTVSPost2010Prop36
280
     0
102
RTVSPost2010PropOp36
 70
     1
102
RTVSPost2010Prop37
 90
       50
102
RTVSPost2010PropOp37
 70
     1
102
RTVSPost2010Prop38
140
0.0
102
RTVSPost2010PropOp38
 70
     1
102
RTVSPost2010Prop39
140
1.0
102
RTVSPost2010PropOp39
 70
     1
102
RTVSPost2010Prop40
 90
        0
102
RTVSPost2010PropOp40
 70
     1
102
RTVSPost2010Prop41ColorIndex
 90
       18
102
RTVSPost2010Prop41ColorRGB
 90
        0
102
RTVSPost2010PropOp41
 70
     1
102
RTVSPost2010Prop42
 90
       50
102
RTVSPost2010PropOp42
 70
     1
102
RTVSPost2010Prop43
 90
        3
102
RTVSPost2010PropOp43
 70
     1
102
RTVSPost2010Prop44ColorIndex
 90
        5
102
RTVSPost2010Prop44ColorRGB
 90
      255
102
RTVSPost2010PropOp44
 70
     1
102
RTVSPost2010Prop45
280
     0
102
RTVSPost2010PropOp45
 70
     1
102
RTVSPost2010Prop46
 90
       50
102
RTVSPost2010PropOp46
 70
     1
102
RTVSPost2010Prop47
 90
       50
102
RTVSPost2010PropOp47
 70
     1
102
RTVSPost2010Prop48
 90
       50
102
RTVSPost2010PropOp48
 70
     1
102
RTVSPost2010Prop49
280
     0
102
RTVSPost2010PropOp49
 70
     1
102
RTVSPost2010Prop50
 90
       50
102
RTVSPost2010PropOp50
 70
     1
102
RTVSPost2010Prop51ColorIndex
 90
      256
102
RTVSPost2010Prop51ColorRGB
 90
-16777216
102
RTVSPost2010PropOp51
 70
     0
102
RTVSPost2010Prop52
140
1.0
102
RTVSPost2010PropOp52
 70
     0
102
RTVSPost2010Prop53
 90
        2
102
RTVSPost2010PropOp53
 70
     1
102
RTVSPost2010Prop54
  1
strokes_ogs.tif
102
RTVSPost2010PropOp54
 70
     1
102
RTVSPost2010Prop55
280
     0
102
RTVSPost2010PropOp55
 70
     1
102
RTVSPost2010Prop56
140
1.0
102
RTVSPost2010PropOp56
 70
     1
102
RTVSPost2010Prop57
140
1.0
102
RTVSPost2010PropOp57
 70
     1
  0
XRECORD
  5
B0
102
{ACAD_REACTORS
330
AF
102
}
330
AF
100
AcDbXrecord
280
     1
102
RTVSPropertyOp0
 70
     1
102
RTVSPropertyOp1
 70
     1
102
RTVSPropertyOp2
 70
     1
102
RTVSPropertyOp3
 70
     1
102
RTVSPropertyOp4
 70
     1
102
RTVSPropertyOp5
 70
     1
102
RTVSPropertyOp6
 70
     1
102
RTVSPropertyOp7
 70
     1
102
RTVSPropertyOp8
 70
     1
102
RTVSPropertyOp9
 70
     1
102
RTVSPropertyOp10
 70
     1
102
RTVSPropertyOp11
 70
     1
102
RTVSPropertyOp12
 70
     1
102
RTVSPropertyOp13
 70
     1
102
RTVSPropertyOp14
 70
     1
102
RTVSPropertyOp15
 70
     1
102
RTVSPropertyOp16
 70
     1
102
RTVSPropertyOp17
 70
     1
102
RTVSPropertyOp18
 70
     1
102
RTVSPropertyOp19
 70
     1
102
RTVSPropertyOp20
 70
     1
102
RTVSPropertyOp21
 70
     1
102
RTVSPropertyOp22
 70
     1
102
RTVSPropertyOp23
 70
     1
102
RTVSPropertyOp24
 70
     1
102
RTVSPropertyOp25
 70
     1
102
RTVSPropertyOp26
 70
     1
102
RTVSPropertyOp27
 70
     1
102
RTVSPropertyOp28
 70
     1
102
RTVSPropertyOp29
 70
     1
102
RTVSPropertyOp30
 70
     1
102
RTVSPropertyOp31
 70
     1
102
RTVSPropertyOp32
 70
     1
102
RTVSPropertyOp33
 70
     1
102
RTVSPropertyOp34
 70
     1
102
RTVSPropertyOp35
 70
     1
102
RTVSPropertyOp36
 70
     1
102
RTVSPropertyOp37
 70
     1
102
RTVSPropertyOp38
 70
     1
102
RTVSPropertyOp39
 70
     1
102
RTVSPropertyOp40
 70
     1
102
RTVSPropertyOp41
 70
     1
102
RTVSPropertyOp42
 70
     1
102
RTVSPropertyOp43
 70
     1
102
RTVSPropertyOp44
 70
     1
102
RTVSPropertyOp45
 70
     1
102
RTVSPropertyOp46
 70
     1
102
RTVSPropertyOp47
 70
     1
102
RTVSPropertyOp48
 70
     1
102
RTVSPropertyOp49
 70
     1
102
RTVSPropertyOp50
 70
     1
102
RTVSPropertyOp51
 70
     0
102
RTVSPropertyOp52
 70
     0
102
RTVSPropertyOp53
 70
     1
102
RTVSPropertyOp54
 70
     1
102
RTVSPropertyOp55
 70
     1
102
RTVSPropertyOp56
 70
     1
102
RTVSPropertyOp57
 70
     1
102
RTVSPost2010Prop28
280
     0
102
RTVSPost2010PropOp28
 70
     1
102
RTVSPost2010Prop29
280
     1
102
RTVSPost2010PropOp29
 70
     1
102
RTVSPost2010Prop30
280
     1
102
RTVSPost2010PropOp30
 70
     1
102
RTVSPost2010Prop31
280
     0
102
RTVSPost2010PropOp31
 70
     1
102
RTVSPost2010Prop32
280
     0
102
RTVSPost2010PropOp32
 70
     1
102
RTVSPost2010Prop33
280
     0
102
RTVSPost2010PropOp33
 70
     1
102
RTVSPost2010Prop34
280
     0
102
RTVSPost2010PropOp34
 70
     1
102
RTVSPost2010Prop35
280
     0
102
RTVSPost2010PropOp35
 70
     1
102
RTVSPost2010Prop36
280
     0
102
RTVSPost2010PropOp36
 70
     1
102
RTVSPost2010Prop37
 90
       50
102
RTVSPost2010PropOp37
 70
     1
102
RTVSPost2010Prop38
140
0.0
102
RTVSPost2010PropOp38
 70
     1
102
RTVSPost2010Prop39
140
1.0
102
RTVSPost2010PropOp39
 70
     1
102
RTVSPost2010Prop40
 90
        0
102
RTVSPost2010PropOp40
 70
     1
102
RTVSPost2010Prop41ColorIndex
 90
       18
102
RTVSPost2010Prop41ColorRGB
 90
        0
102
RTVSPost2010PropOp41
 70
     1
102
RTVSPost2010Prop42
 90
       50
102
RTVSPost2010PropOp42
 70
     1
102
RTVSPost2010Prop43
 90
        3
102
RTVSPost2010PropOp43
 70
     1
102
RTVSPost2010Prop44ColorIndex
 90
        5
102
RTVSPost2010Prop44ColorRGB
 90
      255
102
RTVSPost2010PropOp44
 70
     1
102
RTVSPost2010Prop45
280
     0
102
RTVSPost2010PropOp45
 70
     1
102
RTVSPost2010Prop46
 90
       50
102
RTVSPost2010PropOp46
 70
     1
102
RTVSPost2010Prop47
 90
       50
102
RTVSPost2010PropOp47
 70
     1
102
RTVSPost2010Prop48
 90
       50
102
RTVSPost2010PropOp48
 70
     1
102
RTVSPost2010Prop49
280
     0
102
RTVSPost2010PropOp49
 70
     1
102
RTVSPost2010Prop50
 90
       50
102
RTVSPost2010PropOp50
 70
     1
102
RTVSPost2010Prop51ColorIndex
 90
      256
102
RTVSPost2010Prop51ColorRGB
 90
-16777216
102
RTVSPost2010PropOp51
 70
     0
102
RTVSPost2010Prop52
140
1.0
102
RTVSPost2010PropOp52
 70
     0
102
RTVSPost2010Prop53
 90
        2
102
RTVSPost2010PropOp53
 70
     1
102
RTVSPost2010Prop54
  1
strokes_ogs.tif
102
RTVSPost2010PropOp54
 70
     1
102
RTVSPost2010Prop55
280
     0
102
RTVSPost2010PropOp55
 70
     1
102
RTVSPost2010Prop56
140
1.0
102
RTVSPost2010PropOp56
 70
     1
102
RTVSPost2010Prop57
140
1.0
102
RTVSPost2010PropOp57
 70
     1
  0
XRECORD
  5
C0
102
{ACAD_REACTORS
330
BF
102
}
330
BF
100
AcDbXrecord
280
     1
102
RTVSPropertyOp0
 70
     0
102
RTVSPropertyOp1
 70
     0
102
RTVSPropertyOp2
 70
     0
102
RTVSPropertyOp3
 70
     0
102
RTVSPropertyOp4
 70
     0
102
RTVSPropertyOp5
 70
     0
102
RTVSPropertyOp6
 70
     0
102
RTVSPropertyOp7
 70
     0
102
RTVSPropertyOp8
 70
     0
102
RTVSPropertyOp9
 70
     0
102
RTVSPropertyOp10
 70
     0
102
RTVSPropertyOp11
 70
     0
102
RTVSPropertyOp12
 70
     0
102
RTVSPropertyOp13
 70
     0
102
RTVSPropertyOp14
 70
     2
102
RTVSPropertyOp15
 70
     0
102
RTVSPropertyOp16
 70
     0
102
RTVSPropertyOp17
 70
     0
102
RTVSPropertyOp18
 70
     0
102
RTVSPropertyOp19
 70
     0
102
RTVSPropertyOp20
 70
     0
102
RTVSPropertyOp21
 70
     0
102
RTVSPropertyOp22
 70
     0
102
RTVSPropertyOp23
 70
     0
102
RTVSPropertyOp24
 70
     0
102
RTVSPropertyOp25
 70
     0
102
RTVSPropertyOp26
 70
     0
102
RTVSPropertyOp27
 70
     0
102
RTVSPropertyOp28
 70
     0
102
RTVSPropertyOp29
 70
     0
102
RTVSPropertyOp30
 70
     0
102
RTVSPropertyOp31
 70
     0
102
RTVSPropertyOp32
 70
     0
102
RTVSPropertyOp33
 70
     0
102
RTVSPropertyOp34
 70
     0
102
RTVSPropertyOp35
 70
     0
102
RTVSPropertyOp36
 70
     0
102
RTVSPropertyOp37
 70
     0
102
RTVSPropertyOp38
 70
     0
102
RTVSPropertyOp39
 70
     0
102
RTVSPropertyOp40
 70
     0
102
RTVSPropertyOp41
 70
     0
102
RTVSPropertyOp42
 70
     0
102
RTVSPropertyOp43
 70
     0
102
RTVSPropertyOp44
 70
     0
102
RTVSPropertyOp45
 70
     0
102
RTVSPropertyOp46
 70
     0
102
RTVSPropertyOp47
 70
     0
102
RTVSPropertyOp48
 70
     0
102
RTVSPropertyOp49
 70
     0
102
RTVSPropertyOp50
 70
     0
102
RTVSPropertyOp51
 70
     0
102
RTVSPropertyOp52
 70
     0
102
RTVSPropertyOp53
 70
     0
102
RTVSPropertyOp54
 70
     0
102
RTVSPropertyOp55
 70
     0
102
RTVSPropertyOp56
 70
     0
102
RTVSPropertyOp57
 70
     0
102
RTVSPost2010Prop28
280
     0
102
RTVSPost2010PropOp28
 70
     0
102
RTVSPost2010Prop29
280
     1
102
RTVSPost2010PropOp29
 70
     0
102
RTVSPost2010Prop30
280
     1
102
RTVSPost2010PropOp30
 70
     0
102
RTVSPost2010Prop31
280
     0
102
RTVSPost2010PropOp31
 70
     0
102
RTVSPost2010Prop32
280
     0
102
RTVSPost2010PropOp32
 70
     0
102
RTVSPost2010Prop33
280
     0
102
RTVSPost2010PropOp33
 70
     0
102
RTVSPost2010Prop34
280
     0
102
RTVSPost2010PropOp34
 70
     0
102
RTVSPost2010Prop35
280
     0
102
RTVSPost2010PropOp35
 70
     0
102
RTVSPost2010Prop36
280
     0
102
RTVSPost2010PropOp36
 70
     0
102
RTVSPost2010Prop37
 90
       50
102
RTVSPost2010PropOp37
 70
     0
102
RTVSPost2010Prop38
140
0.0
102
RTVSPost2010PropOp38
 70
     0
102
RTVSPost2010Prop39
140
1.0
102
RTVSPost2010PropOp39
 70
     0
102
RTVSPost2010Prop40
 90
        0
102
RTVSPost2010PropOp40
 70
     0
102
RTVSPost2010Prop41ColorIndex
 90
       18
102
RTVSPost2010Prop41ColorRGB
 90
        0
102
RTVSPost2010PropOp41
 70
     0
102
RTVSPost2010Prop42
 90
       50
102
RTVSPost2010PropOp42
 70
     0
102
RTVSPost2010Prop43
 90
        3
102
RTVSPost2010PropOp43
 70
     0
102
RTVSPost2010Prop44ColorIndex
 90
        5
102
RTVSPost2010Prop44ColorRGB
 90
      255
102
RTVSPost2010PropOp44
 70
     0
102
RTVSPost2010Prop45
280
     0
102
RTVSPost2010PropOp45
 70
     0
102
RTVSPost2010Prop46
 90
       50
102
RTVSPost2010PropOp46
 70
     0
102
RTVSPost2010Prop47
 90
       50
102
RTVSPost2010PropOp47
 70
     0
102
RTVSPost2010Prop48
 90
       50
102
RTVSPost2010PropOp48
 70
     0
102
RTVSPost2010Prop49
280
     0
102
RTVSPost2010PropOp49
 70
     0
102
RTVSPost2010Prop50
 90
       50
102
RTVSPost2010PropOp50
 70
     0
102
RTVSPost2010Prop51ColorIndex
 90
      256
102
RTVSPost2010Prop51ColorRGB
 90
-16777216
102
RTVSPost2010PropOp51
 70
     0
102
RTVSPost2010Prop52
140
1.0
102
RTVSPost2010PropOp52
 70
     0
102
RTVSPost2010Prop53
 90
        2
102
RTVSPost2010PropOp53
 70
     0
102
RTVSPost2010Prop54
  1
strokes_ogs.tif
102
RTVSPost2010PropOp54
 70
     0
102
RTVSPost2010Prop55
280
     0
102
RTVSPost2010PropOp55
 70
     0
102
RTVSPost2010Prop56
140
1.0
102
RTVSPost2010PropOp56
 70
     0
102
RTVSPost2010Prop57
140
1.0
102
RTVSPost2010PropOp57
 70
     0
  0
XRECORD
  5
B8
102
{ACAD_REACTORS
330
B7
102
}
330
B7
100
AcDbXrecord
280
     1
102
RTVSPropertyOp0
 70
     1
102
RTVSPropertyOp1
 70
     1
102
RTVSPropertyOp2
 70
     1
102
RTVSPropertyOp3
 70
     1
102
RTVSPropertyOp4
 70
     1
102
RTVSPropertyOp5
 70
     1
102
RTVSPropertyOp6
 70
     1
102
RTVSPropertyOp7
 70
     1
102
RTVSPropertyOp8
 70
     1
102
RTVSPropertyOp9
 70
     1
102
RTVSPropertyOp10
 70
     1
102
RTVSPropertyOp11
 70
     1
102
RTVSPropertyOp12
 70
     1
102
RTVSPropertyOp13
 70
     1
102
RTVSPropertyOp14
 70
     1
102
RTVSPropertyOp15
 70
     1
102
RTVSPropertyOp16
 70
     1
102
RTVSPropertyOp17
 70
     1
102
RTVSPropertyOp18
 70
     1
102
RTVSPropertyOp19
 70
     1
102
RTVSPropertyOp20
 70
     1
102
RTVSPropertyOp21
 70
     1
102
RTVSPropertyOp22
 70
     1
102
RTVSPropertyOp23
 70
     1
102
RTVSPropertyOp24
 70
     1
102
RTVSPropertyOp25
 70
     1
102
RTVSPropertyOp26
 70
     1
102
RTVSPropertyOp27
 70
     1
102
RTVSPropertyOp28
 70
     1
102
RTVSPropertyOp29
 70
     1
102
RTVSPropertyOp30
 70
     1
102
RTVSPropertyOp31
 70
     1
102
RTVSPropertyOp32
 70
     1
102
RTVSPropertyOp33
 70
     1
102
RTVSPropertyOp34
 70
     1
102
RTVSPropertyOp35
 70
     1
102
RTVSPropertyOp36
 70
     1
102
RTVSPropertyOp37
 70
     1
102
RTVSPropertyOp38
 70
     1
102
RTVSPropertyOp39
 70
     1
102
RTVSPropertyOp40
 70
     1
102
RTVSPropertyOp41
 70
     1
102
RTVSPropertyOp42
 70
     1
102
RTVSPropertyOp43
 70
     1
102
RTVSPropertyOp44
 70
     1
102
RTVSPropertyOp45
 70
     1
102
RTVSPropertyOp46
 70
     1
102
RTVSPropertyOp47
 70
     1
102
RTVSPropertyOp48
 70
     1
102
RTVSPropertyOp49
 70
     1
102
RTVSPropertyOp50
 70
     1
102
RTVSPropertyOp51
 70
     0
102
RTVSPropertyOp52
 70
     0
102
RTVSPropertyOp53
 70
     1
102
RTVSPropertyOp54
 70
     1
102
RTVSPropertyOp55
 70
     1
102
RTVSPropertyOp56
 70
     1
102
RTVSPropertyOp57
 70
     1
102
RTVSPost2010Prop28
280
     0
102
RTVSPost2010PropOp28
 70
     1
102
RTVSPost2010Prop29
280
     1
102
RTVSPost2010PropOp29
 70
     1
102
RTVSPost2010Prop30
280
     1
102
RTVSPost2010PropOp30
 70
     1
102
RTVSPost2010Prop31
280
     0
102
RTVSPost2010PropOp31
 70
     1
102
RTVSPost2010Prop32
280
     0
102
RTVSPost2010PropOp32
 70
     1
102
RTVSPost2010Prop33
280
     0
102
RTVSPost2010PropOp33
 70
     1
102
RTVSPost2010Prop34
280
     0
102
RTVSPost2010PropOp34
 70
     1
102
RTVSPost2010Prop35
280
     0
102
RTVSPost2010PropOp35
 70
     1
102
RTVSPost2010Prop36
280
     0
102
RTVSPost2010PropOp36
 70
     1
102
RTVSPost2010Prop37
 90
       50
102
RTVSPost2010PropOp37
 70
     1
102
RTVSPost2010Prop38
140
0.0
102
RTVSPost2010PropOp38
 70
     1
102
RTVSPost2010Prop39
140
1.0
102
RTVSPost2010PropOp39
 70
     1
102
RTVSPost2010Prop40
 90
        0
102
RTVSPost2010PropOp40
 70
     1
102
RTVSPost2010Prop41ColorIndex
 90
       18
102
RTVSPost2010Prop41ColorRGB
 90
        0
102
RTVSPost2010PropOp41
 70
     1
102
RTVSPost2010Prop42
 90
       50
102
RTVSPost2010PropOp42
 70
     1
102
RTVSPost2010Prop43
 90
        3
102
RTVSPost2010PropOp43
 70
     1
102
RTVSPost2010Prop44ColorIndex
 90
        5
102
RTVSPost2010Prop44ColorRGB
 90
      255
102
RTVSPost2010PropOp44
 70
     1
102
RTVSPost2010Prop45
280
     0
102
RTVSPost2010PropOp45
 70
     1
102
RTVSPost2010Prop46
 90
       50
102
RTVSPost2010PropOp46
 70
     1
102
RTVSPost2010Prop47
 90
       50
102
RTVSPost2010PropOp47
 70
     1
102
RTVSPost2010Prop48
 90
       50
102
RTVSPost2010PropOp48
 70
     1
102
RTVSPost2010Prop49
280
     0
102
RTVSPost2010PropOp49
 70
     1
102
RTVSPost2010Prop50
 90
       50
102
RTVSPost2010PropOp50
 70
     1
102
RTVSPost2010Prop51ColorIndex
 90
      256
102
RTVSPost2010Prop51ColorRGB
 90
-16777216
102
RTVSPost2010PropOp51
 70
     0
102
RTVSPost2010Prop52
140
1.0
102
RTVSPost2010PropOp52
 70
     0
102
RTVSPost2010Prop53
 90
        2
102
RTVSPost2010PropOp53
 70
     1
102
RTVSPost2010Prop54
  1
strokes_ogs.tif
102
RTVSPost2010PropOp54
 70
     1
102
RTVSPost2010Prop55
280
     0
102
RTVSPost2010PropOp55
 70
     1
102
RTVSPost2010Prop56
140
1.0
102
RTVSPost2010PropOp56
 70
     1
102
RTVSPost2010Prop57
140
1.0
102
RTVSPost2010PropOp57
 70
     1
  0
XRECORD
  5
9C
102
{ACAD_REACTORS
330
9B
102
}
330
9B
100
AcDbXrecord
280
     1
102
RTVSPropertyOp0
 70
     1
102
RTVSPropertyOp1
 70
     1
102
RTVSPropertyOp2
 70
     1
102
RTVSPropertyOp3
 70
     1
102
RTVSPropertyOp4
 70
     1
102
RTVSPropertyOp5
 70
     1
102
RTVSPropertyOp6
 70
     1
102
RTVSPropertyOp7
 70
     1
102
RTVSPropertyOp8
 70
     1
102
RTVSPropertyOp9
 70
     1
102
RTVSPropertyOp10
 70
     1
102
RTVSPropertyOp11
 70
     1
102
RTVSPropertyOp12
 70
     1
102
RTVSPropertyOp13
 70
     1
102
RTVSPropertyOp14
 70
     1
102
RTVSPropertyOp15
 70
     1
102
RTVSPropertyOp16
 70
     1
102
RTVSPropertyOp17
 70
     1
102
RTVSPropertyOp18
 70
     1
102
RTVSPropertyOp19
 70
     1
102
RTVSPropertyOp20
 70
     1
102
RTVSPropertyOp21
 70
     1
102
RTVSPropertyOp22
 70
     1
102
RTVSPropertyOp23
 70
     1
102
RTVSPropertyOp24
 70
     1
102
RTVSPropertyOp25
 70
     1
102
RTVSPropertyOp26
 70
     1
102
RTVSPropertyOp27
 70
     1
102
RTVSPropertyOp28
 70
     1
102
RTVSPropertyOp29
 70
     1
102
RTVSPropertyOp30
 70
     1
102
RTVSPropertyOp31
 70
     1
102
RTVSPropertyOp32
 70
     1
102
RTVSPropertyOp33
 70
     1
102
RTVSPropertyOp34
 70
     1
102
RTVSPropertyOp35
 70
     1
102
RTVSPropertyOp36
 70
     1
102
RTVSPropertyOp37
 70
     1
102
RTVSPropertyOp38
 70
     1
102
RTVSPropertyOp39
 70
     1
102
RTVSPropertyOp40
 70
     1
102
RTVSPropertyOp41
 70
     1
102
RTVSPropertyOp42
 70
     1
102
RTVSPropertyOp43
 70
     1
102
RTVSPropertyOp44
 70
     1
102
RTVSPropertyOp45
 70
     1
102
RTVSPropertyOp46
 70
     1
102
RTVSPropertyOp47
 70
     1
102
RTVSPropertyOp48
 70
     1
102
RTVSPropertyOp49
 70
     1
102
RTVSPropertyOp50
 70
     1
102
RTVSPropertyOp51
 70
     0
102
RTVSPropertyOp52
 70
     0
102
RTVSPropertyOp53
 70
     1
102
RTVSPropertyOp54
 70
     1
102
RTVSPropertyOp55
 70
     1
102
RTVSPropertyOp56
 70
     1
102
RTVSPropertyOp57
 70
     1
102
RTVSPost2010Prop28
280
     0
102
RTVSPost2010PropOp28
 70
     1
102
RTVSPost2010Prop29
280
     1
102
RTVSPost2010PropOp29
 70
     1
102
RTVSPost2010Prop30
280
     1
102
RTVSPost2010PropOp30
 70
     1
102
RTVSPost2010Prop31
280
     0
102
RTVSPost2010PropOp31
 70
     1
102
RTVSPost2010Prop32
280
     0
102
RTVSPost2010PropOp32
 70
     1
102
RTVSPost2010Prop33
280
     0
102
RTVSPost2010PropOp33
 70
     1
102
RTVSPost2010Prop34
280
     0
102
RTVSPost2010PropOp34
 70
     1
102
RTVSPost2010Prop35
280
     0
102
RTVSPost2010PropOp35
 70
     1
102
RTVSPost2010Prop36
280
     0
102
RTVSPost2010PropOp36
 70
     1
102
RTVSPost2010Prop37
 90
       50
102
RTVSPost2010PropOp37
 70
     1
102
RTVSPost2010Prop38
140
0.0
102
RTVSPost2010PropOp38
 70
     1
102
RTVSPost2010Prop39
140
1.0
102
RTVSPost2010PropOp39
 70
     1
102
RTVSPost2010Prop40
 90
        0
102
RTVSPost2010PropOp40
 70
     1
102
RTVSPost2010Prop41ColorIndex
 90
       18
102
RTVSPost2010Prop41ColorRGB
 90
        0
102
RTVSPost2010PropOp41
 70
     1
102
RTVSPost2010Prop42
 90
       50
102
RTVSPost2010PropOp42
 70
     1
102
RTVSPost2010Prop43
 90
        3
102
RTVSPost2010PropOp43
 70
     1
102
RTVSPost2010Prop44ColorIndex
 90
        5
102
RTVSPost2010Prop44ColorRGB
 90
      255
102
RTVSPost2010PropOp44
 70
     1
102
RTVSPost2010Prop45
280
     0
102
RTVSPost2010PropOp45
 70
     1
102
RTVSPost2010Prop46
 90
       50
102
RTVSPost2010PropOp46
 70
     1
102
RTVSPost2010Prop47
 90
       50
102
RTVSPost2010PropOp47
 70
     1
102
RTVSPost2010Prop48
 90
       50
102
RTVSPost2010PropOp48
 70
     1
102
RTVSPost2010Prop49
280
     0
102
RTVSPost2010PropOp49
 70
     1
102
RTVSPost2010Prop50
 90
       50
102
RTVSPost2010PropOp50
 70
     1
102
RTVSPost2010Prop51ColorIndex
 90
      256
102
RTVSPost2010Prop51ColorRGB
 90
-16777216
102
RTVSPost2010PropOp51
 70
     0
102
RTVSPost2010Prop52
140
1.0
102
RTVSPost2010PropOp52
 70
     0
102
RTVSPost2010Prop53
 90
        2
102
RTVSPost2010PropOp53
 70
     1
102
RTVSPost2010Prop54
  1
strokes_ogs.tif
102
RTVSPost2010PropOp54
 70
     1
102
RTVSPost2010Prop55
280
     0
102
RTVSPost2010PropOp55
 70
     1
102
RTVSPost2010Prop56
140
1.0
102
RTVSPost2010PropOp56
 70
     1
102
RTVSPost2010Prop57
140
1.0
102
RTVSPost2010PropOp57
 70
     1
  0
XRECORD
  5
9E
102
{ACAD_REACTORS
330
9D
102
}
330
9D
100
AcDbXrecord
280
     1
102
RTVSPropertyOp0
 70
     1
102
RTVSPropertyOp1
 70
     1
102
RTVSPropertyOp2
 70
     1
102
RTVSPropertyOp3
 70
     1
102
RTVSPropertyOp4
 70
     1
102
RTVSPropertyOp5
 70
     1
102
RTVSPropertyOp6
 70
     1
102
RTVSPropertyOp7
 70
     1
102
RTVSPropertyOp8
 70
     1
102
RTVSPropertyOp9
 70
     1
102
RTVSPropertyOp10
 70
     1
102
RTVSPropertyOp11
 70
     1
102
RTVSPropertyOp12
 70
     1
102
RTVSPropertyOp13
 70
     1
102
RTVSPropertyOp14
 70
     1
102
RTVSPropertyOp15
 70
     1
102
RTVSPropertyOp16
 70
     1
102
RTVSPropertyOp17
 70
     1
102
RTVSPropertyOp18
 70
     1
102
RTVSPropertyOp19
 70
     1
102
RTVSPropertyOp20
 70
     1
102
RTVSPropertyOp21
 70
     1
102
RTVSPropertyOp22
 70
     1
102
RTVSPropertyOp23
 70
     1
102
RTVSPropertyOp24
 70
     1
102
RTVSPropertyOp25
 70
     1
102
RTVSPropertyOp26
 70
     1
102
RTVSPropertyOp27
 70
     1
102
RTVSPropertyOp28
 70
     1
102
RTVSPropertyOp29
 70
     1
102
RTVSPropertyOp30
 70
     1
102
RTVSPropertyOp31
 70
     1
102
RTVSPropertyOp32
 70
     1
102
RTVSPropertyOp33
 70
     1
102
RTVSPropertyOp34
 70
     1
102
RTVSPropertyOp35
 70
     1
102
RTVSPropertyOp36
 70
     1
102
RTVSPropertyOp37
 70
     1
102
RTVSPropertyOp38
 70
     1
102
RTVSPropertyOp39
 70
     1
102
RTVSPropertyOp40
 70
     1
102
RTVSPropertyOp41
 70
     1
102
RTVSPropertyOp42
 70
     1
102
RTVSPropertyOp43
 70
     1
102
RTVSPropertyOp44
 70
     1
102
RTVSPropertyOp45
 70
     1
102
RTVSPropertyOp46
 70
     1
102
RTVSPropertyOp47
 70
     1
102
RTVSPropertyOp48
 70
     1
102
RTVSPropertyOp49
 70
     1
102
RTVSPropertyOp50
 70
     1
102
RTVSPropertyOp51
 70
     0
102
RTVSPropertyOp52
 70
     0
102
RTVSPropertyOp53
 70
     1
102
RTVSPropertyOp54
 70
     1
102
RTVSPropertyOp55
 70
     1
102
RTVSPropertyOp56
 70
     1
102
RTVSPropertyOp57
 70
     1
102
RTVSPost2010Prop28
280
     0
102
RTVSPost2010PropOp28
 70
     1
102
RTVSPost2010Prop29
280
     1
102
RTVSPost2010PropOp29
 70
     1
102
RTVSPost2010Prop30
280
     1
102
RTVSPost2010PropOp30
 70
     1
102
RTVSPost2010Prop31
280
     0
102
RTVSPost2010PropOp31
 70
     1
102
RTVSPost2010Prop32
280
     0
102
RTVSPost2010PropOp32
 70
     1
102
RTVSPost2010Prop33
280
     0
102
RTVSPost2010PropOp33
 70
     1
102
RTVSPost2010Prop34
280
     0
102
RTVSPost2010PropOp34
 70
     1
102
RTVSPost2010Prop35
280
     0
102
RTVSPost2010PropOp35
 70
     1
102
RTVSPost2010Prop36
280
     0
102
RTVSPost2010PropOp36
 70
     1
102
RTVSPost2010Prop37
 90
       50
102
RTVSPost2010PropOp37
 70
     1
102
RTVSPost2010Prop38
140
0.0
102
RTVSPost2010PropOp38
 70
     1
102
RTVSPost2010Prop39
140
1.0
102
RTVSPost2010PropOp39
 70
     1
102
RTVSPost2010Prop40
 90
        0
102
RTVSPost2010PropOp40
 70
     1
102
RTVSPost2010Prop41ColorIndex
 90
       18
102
RTVSPost2010Prop41ColorRGB
 90
        0
102
RTVSPost2010PropOp41
 70
     1
102
RTVSPost2010Prop42
 90
       50
102
RTVSPost2010PropOp42
 70
     1
102
RTVSPost2010Prop43
 90
        3
102
RTVSPost2010PropOp43
 70
     1
102
RTVSPost2010Prop44ColorIndex
 90
        5
102
RTVSPost2010Prop44ColorRGB
 90
      255
102
RTVSPost2010PropOp44
 70
     1
102
RTVSPost2010Prop45
280
     0
102
RTVSPost2010PropOp45
 70
     1
102
RTVSPost2010Prop46
 90
       50
102
RTVSPost2010PropOp46
 70
     1
102
RTVSPost2010Prop47
 90
       50
102
RTVSPost2010PropOp47
 70
     1
102
RTVSPost2010Prop48
 90
       50
102
RTVSPost2010PropOp48
 70
     1
102
RTVSPost2010Prop49
280
     0
102
RTVSPost2010PropOp49
 70
     1
102
RTVSPost2010Prop50
 90
       50
102
RTVSPost2010PropOp50
 70
     1
102
RTVSPost2010Prop51ColorIndex
 90
      256
102
RTVSPost2010Prop51ColorRGB
 90
-16777216
102
RTVSPost2010PropOp51
 70
     0
102
RTVSPost2010Prop52
140
1.0
102
RTVSPost2010PropOp52
 70
     0
102
RTVSPost2010Prop53
 90
        2
102
RTVSPost2010PropOp53
 70
     1
102
RTVSPost2010Prop54
  1
strokes_ogs.tif
102
RTVSPost2010PropOp54
 70
     1
102
RTVSPost2010Prop55
280
     0
102
RTVSPost2010PropOp55
 70
     1
102
RTVSPost2010Prop56
140
1.0
102
RTVSPost2010PropOp56
 70
     1
102
RTVSPost2010Prop57
140
1.0
102
RTVSPost2010PropOp57
 70
     1
  0
XRECORD
  5
A0
102
{ACAD_REACTORS
330
9F
102
}
330
9F
100
AcDbXrecord
280
     1
102
RTVSPropertyOp0
 70
     1
102
RTVSPropertyOp1
 70
     1
102
RTVSPropertyOp2
 70
     1
102
RTVSPropertyOp3
 70
     1
102
RTVSPropertyOp4
 70
     1
102
RTVSPropertyOp5
 70
     1
102
RTVSPropertyOp6
 70
     1
102
RTVSPropertyOp7
 70
     1
102
RTVSPropertyOp8
 70
     1
102
RTVSPropertyOp9
 70
     1
102
RTVSPropertyOp10
 70
     1
102
RTVSPropertyOp11
 70
     1
102
RTVSPropertyOp12
 70
     1
102
RTVSPropertyOp13
 70
     1
102
RTVSPropertyOp14
 70
     1
102
RTVSPropertyOp15
 70
     1
102
RTVSPropertyOp16
 70
     1
102
RTVSPropertyOp17
 70
     1
102
RTVSPropertyOp18
 70
     1
102
RTVSPropertyOp19
 70
     1
102
RTVSPropertyOp20
 70
     1
102
RTVSPropertyOp21
 70
     1
102
RTVSPropertyOp22
 70
     1
102
RTVSPropertyOp23
 70
     1
102
RTVSPropertyOp24
 70
     1
102
RTVSPropertyOp25
 70
     1
102
RTVSPropertyOp26
 70
     1
102
RTVSPropertyOp27
 70
     1
102
RTVSPropertyOp28
 70
     1
102
RTVSPropertyOp29
 70
     1
102
RTVSPropertyOp30
 70
     1
102
RTVSPropertyOp31
 70
     1
102
RTVSPropertyOp32
 70
     1
102
RTVSPropertyOp33
 70
     1
102
RTVSPropertyOp34
 70
     1
102
RTVSPropertyOp35
 70
     1
102
RTVSPropertyOp36
 70
     1
102
RTVSPropertyOp37
 70
     1
102
RTVSPropertyOp38
 70
     1
102
RTVSPropertyOp39
 70
     1
102
RTVSPropertyOp40
 70
     1
102
RTVSPropertyOp41
 70
     1
102
RTVSPropertyOp42
 70
     1
102
RTVSPropertyOp43
 70
     1
102
RTVSPropertyOp44
 70
     1
102
RTVSPropertyOp45
 70
     1
102
RTVSPropertyOp46
 70
     1
102
RTVSPropertyOp47
 70
     1
102
RTVSPropertyOp48
 70
     1
102
RTVSPropertyOp49
 70
     1
102
RTVSPropertyOp50
 70
     1
102
RTVSPropertyOp51
 70
     0
102
RTVSPropertyOp52
 70
     0
102
RTVSPropertyOp53
 70
     1
102
RTVSPropertyOp54
 70
     1
102
RTVSPropertyOp55
 70
     1
102
RTVSPropertyOp56
 70
     1
102
RTVSPropertyOp57
 70
     1
102
RTVSPost2010Prop28
280
     0
102
RTVSPost2010PropOp28
 70
     1
102
RTVSPost2010Prop29
280
     1
102
RTVSPost2010PropOp29
 70
     1
102
RTVSPost2010Prop30
280
     1
102
RTVSPost2010PropOp30
 70
     1
102
RTVSPost2010Prop31
280
     0
102
RTVSPost2010PropOp31
 70
     1
102
RTVSPost2010Prop32
280
     0
102
RTVSPost2010PropOp32
 70
     1
102
RTVSPost2010Prop33
280
     0
102
RTVSPost2010PropOp33
 70
     1
102
RTVSPost2010Prop34
280
     0
102
RTVSPost2010PropOp34
 70
     1
102
RTVSPost2010Prop35
280
     0
102
RTVSPost2010PropOp35
 70
     1
102
RTVSPost2010Prop36
280
     0
102
RTVSPost2010PropOp36
 70
     1
102
RTVSPost2010Prop37
 90
       50
102
RTVSPost2010PropOp37
 70
     1
102
RTVSPost2010Prop38
140
0.0
102
RTVSPost2010PropOp38
 70
     1
102
RTVSPost2010Prop39
140
1.0
102
RTVSPost2010PropOp39
 70
     1
102
RTVSPost2010Prop40
 90
        0
102
RTVSPost2010PropOp40
 70
     1
102
RTVSPost2010Prop41ColorIndex
 90
       18
102
RTVSPost2010Prop41ColorRGB
 90
        0
102
RTVSPost2010PropOp41
 70
     1
102
RTVSPost2010Prop42
 90
       50
102
RTVSPost2010PropOp42
 70
     1
102
RTVSPost2010Prop43
 90
        3
102
RTVSPost2010PropOp43
 70
     1
102
RTVSPost2010Prop44ColorIndex
 90
        5
102
RTVSPost2010Prop44ColorRGB
 90
      255
102
RTVSPost2010PropOp44
 70
     1
102
RTVSPost2010Prop45
280
     0
102
RTVSPost2010PropOp45
 70
     1
102
RTVSPost2010Prop46
 90
       50
102
RTVSPost2010PropOp46
 70
     1
102
RTVSPost2010Prop47
 90
       50
102
RTVSPost2010PropOp47
 70
     1
102
RTVSPost2010Prop48
 90
       50
102
RTVSPost2010PropOp48
 70
     1
102
RTVSPost2010Prop49
280
     0
102
RTVSPost2010PropOp49
 70
     1
102
RTVSPost2010Prop50
 90
       50
102
RTVSPost2010PropOp50
 70
     1
102
RTVSPost2010Prop51ColorIndex
 90
      256
102
RTVSPost2010Prop51ColorRGB
 90
-16777216
102
RTVSPost2010PropOp51
 70
     0
102
RTVSPost2010Prop52
140
1.0
102
RTVSPost2010PropOp52
 70
     0
102
RTVSPost2010Prop53
 90
        2
102
RTVSPost2010PropOp53
 70
     1
102
RTVSPost2010Prop54
  1
strokes_ogs.tif
102
RTVSPost2010PropOp54
 70
     1
102
RTVSPost2010Prop55
280
     0
102
RTVSPost2010PropOp55
 70
     1
102
RTVSPost2010Prop56
140
1.0
102
RTVSPost2010PropOp56
 70
     1
102
RTVSPost2010Prop57
140
1.0
102
RTVSPost2010PropOp57
 70
     1
  0
XRECORD
  5
A2
102
{ACAD_REACTORS
330
A1
102
}
330
A1
100
AcDbXrecord
280
     1
102
RTVSPropertyOp0
 70
     1
102
RTVSPropertyOp1
 70
     1
102
RTVSPropertyOp2
 70
     1
102
RTVSPropertyOp3
 70
     1
102
RTVSPropertyOp4
 70
     1
102
RTVSPropertyOp5
 70
     1
102
RTVSPropertyOp6
 70
     1
102
RTVSPropertyOp7
 70
     1
102
RTVSPropertyOp8
 70
     1
102
RTVSPropertyOp9
 70
     1
102
RTVSPropertyOp10
 70
     1
102
RTVSPropertyOp11
 70
     1
102
RTVSPropertyOp12
 70
     1
102
RTVSPropertyOp13
 70
     1
102
RTVSPropertyOp14
 70
     1
102
RTVSPropertyOp15
 70
     1
102
RTVSPropertyOp16
 70
     1
102
RTVSPropertyOp17
 70
     1
102
RTVSPropertyOp18
 70
     1
102
RTVSPropertyOp19
 70
     1
102
RTVSPropertyOp20
 70
     1
102
RTVSPropertyOp21
 70
     1
102
RTVSPropertyOp22
 70
     1
102
RTVSPropertyOp23
 70
     1
102
RTVSPropertyOp24
 70
     1
102
RTVSPropertyOp25
 70
     1
102
RTVSPropertyOp26
 70
     1
102
RTVSPropertyOp27
 70
     1
102
RTVSPropertyOp28
 70
     1
102
RTVSPropertyOp29
 70
     1
102
RTVSPropertyOp30
 70
     1
102
RTVSPropertyOp31
 70
     1
102
RTVSPropertyOp32
 70
     1
102
RTVSPropertyOp33
 70
     1
102
RTVSPropertyOp34
 70
     1
102
RTVSPropertyOp35
 70
     1
102
RTVSPropertyOp36
 70
     1
102
RTVSPropertyOp37
 70
     1
102
RTVSPropertyOp38
 70
     1
102
RTVSPropertyOp39
 70
     1
102
RTVSPropertyOp40
 70
     1
102
RTVSPropertyOp41
 70
     1
102
RTVSPropertyOp42
 70
     1
102
RTVSPropertyOp43
 70
     1
102
RTVSPropertyOp44
 70
     1
102
RTVSPropertyOp45
 70
     1
102
RTVSPropertyOp46
 70
     1
102
RTVSPropertyOp47
 70
     1
102
RTVSPropertyOp48
 70
     1
102
RTVSPropertyOp49
 70
     1
102
RTVSPropertyOp50
 70
     1
102
RTVSPropertyOp51
 70
     0
102
RTVSPropertyOp52
 70
     0
102
RTVSPropertyOp53
 70
     1
102
RTVSPropertyOp54
 70
     1
102
RTVSPropertyOp55
 70
     1
102
RTVSPropertyOp56
 70
     1
102
RTVSPropertyOp57
 70
     1
102
RTVSPost2010Prop28
280
     0
102
RTVSPost2010PropOp28
 70
     1
102
RTVSPost2010Prop29
280
     1
102
RTVSPost2010PropOp29
 70
     1
102
RTVSPost2010Prop30
280
     1
102
RTVSPost2010PropOp30
 70
     1
102
RTVSPost2010Prop31
280
     0
102
RTVSPost2010PropOp31
 70
     1
102
RTVSPost2010Prop32
280
     0
102
RTVSPost2010PropOp32
 70
     1
102
RTVSPost2010Prop33
280
     0
102
RTVSPost2010PropOp33
 70
     1
102
RTVSPost2010Prop34
280
     0
102
RTVSPost2010PropOp34
 70
     1
102
RTVSPost2010Prop35
280
     0
102
RTVSPost2010PropOp35
 70
     1
102
RTVSPost2010Prop36
280
     0
102
RTVSPost2010PropOp36
 70
     1
102
RTVSPost2010Prop37
 90
       50
102
RTVSPost2010PropOp37
 70
     1
102
RTVSPost2010Prop38
140
0.0
102
RTVSPost2010PropOp38
 70
     1
102
RTVSPost2010Prop39
140
1.0
102
RTVSPost2010PropOp39
 70
     1
102
RTVSPost2010Prop40
 90
        0
102
RTVSPost2010PropOp40
 70
     1
102
RTVSPost2010Prop41ColorIndex
 90
       18
102
RTVSPost2010Prop41ColorRGB
 90
        0
102
RTVSPost2010PropOp41
 70
     1
102
RTVSPost2010Prop42
 90
       50
102
RTVSPost2010PropOp42
 70
     1
102
RTVSPost2010Prop43
 90
        3
102
RTVSPost2010PropOp43
 70
     1
102
RTVSPost2010Prop44ColorIndex
 90
        5
102
RTVSPost2010Prop44ColorRGB
 90
      255
102
RTVSPost2010PropOp44
 70
     1
102
RTVSPost2010Prop45
280
     0
102
RTVSPost2010PropOp45
 70
     1
102
RTVSPost2010Prop46
 90
       50
102
RTVSPost2010PropOp46
 70
     1
102
RTVSPost2010Prop47
 90
       50
102
RTVSPost2010PropOp47
 70
     1
102
RTVSPost2010Prop48
 90
       50
102
RTVSPost2010PropOp48
 70
     1
102
RTVSPost2010Prop49
280
     0
102
RTVSPost2010PropOp49
 70
     1
102
RTVSPost2010Prop50
 90
       50
102
RTVSPost2010PropOp50
 70
     1
102
RTVSPost2010Prop51ColorIndex
 90
      256
102
RTVSPost2010Prop51ColorRGB
 90
-16777216
102
RTVSPost2010PropOp51
 70
     0
102
RTVSPost2010Prop52
140
1.0
102
RTVSPost2010PropOp52
 70
     0
102
RTVSPost2010Prop53
 90
        2
102
RTVSPost2010PropOp53
 70
     1
102
RTVSPost2010Prop54
  1
strokes_ogs.tif
102
RTVSPost2010PropOp54
 70
     1
102
RTVSPost2010Prop55
280
     0
102
RTVSPost2010PropOp55
 70
     1
102
RTVSPost2010Prop56
140
1.0
102
RTVSPost2010PropOp56
 70
     1
102
RTVSPost2010Prop57
140
1.0
102
RTVSPost2010PropOp57
 70
     1
  0
XRECORD
  5
A8
102
{ACAD_REACTORS
330
A7
102
}
330
A7
100
AcDbXrecord
280
     1
102
RTVSPropertyOp0
 70
     1
102
RTVSPropertyOp1
 70
     1
102
RTVSPropertyOp2
 70
     1
102
RTVSPropertyOp3
 70
     1
102
RTVSPropertyOp4
 70
     1
102
RTVSPropertyOp5
 70
     1
102
RTVSPropertyOp6
 70
     1
102
RTVSPropertyOp7
 70
     1
102
RTVSPropertyOp8
 70
     1
102
RTVSPropertyOp9
 70
     1
102
RTVSPropertyOp10
 70
     1
102
RTVSPropertyOp11
 70
     1
102
RTVSPropertyOp12
 70
     1
102
RTVSPropertyOp13
 70
     1
102
RTVSPropertyOp14
 70
     1
102
RTVSPropertyOp15
 70
     1
102
RTVSPropertyOp16
 70
     1
102
RTVSPropertyOp17
 70
     1
102
RTVSPropertyOp18
 70
     1
102
RTVSPropertyOp19
 70
     1
102
RTVSPropertyOp20
 70
     1
102
RTVSPropertyOp21
 70
     1
102
RTVSPropertyOp22
 70
     1
102
RTVSPropertyOp23
 70
     1
102
RTVSPropertyOp24
 70
     1
102
RTVSPropertyOp25
 70
     1
102
RTVSPropertyOp26
 70
     1
102
RTVSPropertyOp27
 70
     1
102
RTVSPropertyOp28
 70
     1
102
RTVSPropertyOp29
 70
     1
102
RTVSPropertyOp30
 70
     1
102
RTVSPropertyOp31
 70
     1
102
RTVSPropertyOp32
 70
     1
102
RTVSPropertyOp33
 70
     1
102
RTVSPropertyOp34
 70
     1
102
RTVSPropertyOp35
 70
     1
102
RTVSPropertyOp36
 70
     1
102
RTVSPropertyOp37
 70
     1
102
RTVSPropertyOp38
 70
     1
102
RTVSPropertyOp39
 70
     1
102
RTVSPropertyOp40
 70
     1
102
RTVSPropertyOp41
 70
     1
102
RTVSPropertyOp42
 70
     1
102
RTVSPropertyOp43
 70
     1
102
RTVSPropertyOp44
 70
     1
102
RTVSPropertyOp45
 70
     1
102
RTVSPropertyOp46
 70
     1
102
RTVSPropertyOp47
 70
     1
102
RTVSPropertyOp48
 70
     1
102
RTVSPropertyOp49
 70
     1
102
RTVSPropertyOp50
 70
     1
102
RTVSPropertyOp51
 70
     0
102
RTVSPropertyOp52
 70
     0
102
RTVSPropertyOp53
 70
     1
102
RTVSPropertyOp54
 70
     1
102
RTVSPropertyOp55
 70
     1
102
RTVSPropertyOp56
 70
     1
102
RTVSPropertyOp57
 70
     1
102
RTVSPost2010Prop28
280
     0
102
RTVSPost2010PropOp28
 70
     1
102
RTVSPost2010Prop29
280
     1
102
RTVSPost2010PropOp29
 70
     1
102
RTVSPost2010Prop30
280
     1
102
RTVSPost2010PropOp30
 70
     1
102
RTVSPost2010Prop31
280
     0
102
RTVSPost2010PropOp31
 70
     1
102
RTVSPost2010Prop32
280
     0
102
RTVSPost2010PropOp32
 70
     1
102
RTVSPost2010Prop33
280
     0
102
RTVSPost2010PropOp33
 70
     1
102
RTVSPost2010Prop34
280
     0
102
RTVSPost2010PropOp34
 70
     1
102
RTVSPost2010Prop35
280
     0
102
RTVSPost2010PropOp35
 70
     1
102
RTVSPost2010Prop36
280
     0
102
RTVSPost2010PropOp36
 70
     1
102
RTVSPost2010Prop37
 90
       50
102
RTVSPost2010PropOp37
 70
     1
102
RTVSPost2010Prop38
140
0.0
102
RTVSPost2010PropOp38
 70
     1
102
RTVSPost2010Prop39
140
1.0
102
RTVSPost2010PropOp39
 70
     1
102
RTVSPost2010Prop40
 90
        0
102
RTVSPost2010PropOp40
 70
     1
102
RTVSPost2010Prop41ColorIndex
 90
       18
102
RTVSPost2010Prop41ColorRGB
 90
        0
102
RTVSPost2010PropOp41
 70
     1
102
RTVSPost2010Prop42
 90
       50
102
RTVSPost2010PropOp42
 70
     1
102
RTVSPost2010Prop43
 90
        3
102
RTVSPost2010PropOp43
 70
     1
102
RTVSPost2010Prop44ColorIndex
 90
        5
102
RTVSPost2010Prop44ColorRGB
 90
      255
102
RTVSPost2010PropOp44
 70
     1
102
RTVSPost2010Prop45
280
     0
102
RTVSPost2010PropOp45
 70
     1
102
RTVSPost2010Prop46
 90
       50
102
RTVSPost2010PropOp46
 70
     1
102
RTVSPost2010Prop47
 90
       50
102
RTVSPost2010PropOp47
 70
     1
102
RTVSPost2010Prop48
 90
       50
102
RTVSPost2010PropOp48
 70
     1
102
RTVSPost2010Prop49
280
     0
102
RTVSPost2010PropOp49
 70
     1
102
RTVSPost2010Prop50
 90
       50
102
RTVSPost2010PropOp50
 70
     1
102
RTVSPost2010Prop51ColorIndex
 90
      256
102
RTVSPost2010Prop51ColorRGB
 90
-16777216
102
RTVSPost2010PropOp51
 70
     0
102
RTVSPost2010Prop52
140
1.0
102
RTVSPost2010PropOp52
 70
     0
102
RTVSPost2010Prop53
 90
        2
102
RTVSPost2010PropOp53
 70
     1
102
RTVSPost2010Prop54
  1
strokes_ogs.tif
102
RTVSPost2010PropOp54
 70
     1
102
RTVSPost2010Prop55
280
     0
102
RTVSPost2010PropOp55
 70
     1
102
RTVSPost2010Prop56
140
1.0
102
RTVSPost2010PropOp56
 70
     1
102
RTVSPost2010Prop57
140
1.0
102
RTVSPost2010PropOp57
 70
     1
  0
XRECORD
  5
BC
102
{ACAD_REACTORS
330
BB
102
}
330
BB
100
AcDbXrecord
280
     1
102
RTVSPropertyOp0
 70
     0
102
RTVSPropertyOp1
 70
     0
102
RTVSPropertyOp2
 70
     0
102
RTVSPropertyOp3
 70
     0
102
RTVSPropertyOp4
 70
     0
102
RTVSPropertyOp5
 70
     0
102
RTVSPropertyOp6
 70
     0
102
RTVSPropertyOp7
 70
     0
102
RTVSPropertyOp8
 70
     0
102
RTVSPropertyOp9
 70
     0
102
RTVSPropertyOp10
 70
     0
102
RTVSPropertyOp11
 70
     0
102
RTVSPropertyOp12
 70
     0
102
RTVSPropertyOp13
 70
     0
102
RTVSPropertyOp14
 70
     2
102
RTVSPropertyOp15
 70
     0
102
RTVSPropertyOp16
 70
     0
102
RTVSPropertyOp17
 70
     0
102
RTVSPropertyOp18
 70
     0
102
RTVSPropertyOp19
 70
     0
102
RTVSPropertyOp20
 70
     0
102
RTVSPropertyOp21
 70
     0
102
RTVSPropertyOp22
 70
     0
102
RTVSPropertyOp23
 70
     0
102
RTVSPropertyOp24
 70
     0
102
RTVSPropertyOp25
 70
     0
102
RTVSPropertyOp26
 70
     0
102
RTVSPropertyOp27
 70
     0
102
RTVSPropertyOp28
 70
     0
102
RTVSPropertyOp29
 70
     0
102
RTVSPropertyOp30
 70
     0
102
RTVSPropertyOp31
 70
     0
102
RTVSPropertyOp32
 70
     0
102
RTVSPropertyOp33
 70
     0
102
RTVSPropertyOp34
 70
     0
102
RTVSPropertyOp35
 70
     0
102
RTVSPropertyOp36
 70
     0
102
RTVSPropertyOp37
 70
     0
102
RTVSPropertyOp38
 70
     0
102
RTVSPropertyOp39
 70
     0
102
RTVSPropertyOp40
 70
     0
102
RTVSPropertyOp41
 70
     0
102
RTVSPropertyOp42
 70
     0
102
RTVSPropertyOp43
 70
     0
102
RTVSPropertyOp44
 70
     0
102
RTVSPropertyOp45
 70
     0
102
RTVSPropertyOp46
 70
     0
102
RTVSPropertyOp47
 70
     0
102
RTVSPropertyOp48
 70
     0
102
RTVSPropertyOp49
 70
     0
102
RTVSPropertyOp50
 70
     0
102
RTVSPropertyOp51
 70
     0
102
RTVSPropertyOp52
 70
     0
102
RTVSPropertyOp53
 70
     0
102
RTVSPropertyOp54
 70
     0
102
RTVSPropertyOp55
 70
     0
102
RTVSPropertyOp56
 70
     0
102
RTVSPropertyOp57
 70
     0
102
RTVSPost2010Prop28
280
     0
102
RTVSPost2010PropOp28
 70
     0
102
RTVSPost2010Prop29
280
     1
102
RTVSPost2010PropOp29
 70
     0
102
RTVSPost2010Prop30
280
     1
102
RTVSPost2010PropOp30
 70
     0
102
RTVSPost2010Prop31
280
     0
102
RTVSPost2010PropOp31
 70
     0
102
RTVSPost2010Prop32
280
     0
102
RTVSPost2010PropOp32
 70
     0
102
RTVSPost2010Prop33
280
     0
102
RTVSPost2010PropOp33
 70
     0
102
RTVSPost2010Prop34
280
     0
102
RTVSPost2010PropOp34
 70
     0
102
RTVSPost2010Prop35
280
     0
102
RTVSPost2010PropOp35
 70
     0
102
RTVSPost2010Prop36
280
     0
102
RTVSPost2010PropOp36
 70
     0
102
RTVSPost2010Prop37
 90
       50
102
RTVSPost2010PropOp37
 70
     0
102
RTVSPost2010Prop38
140
0.0
102
RTVSPost2010PropOp38
 70
     0
102
RTVSPost2010Prop39
140
1.0
102
RTVSPost2010PropOp39
 70
     0
102
RTVSPost2010Prop40
 90
        0
102
RTVSPost2010PropOp40
 70
     0
102
RTVSPost2010Prop41ColorIndex
 90
       18
102
RTVSPost2010Prop41ColorRGB
 90
        0
102
RTVSPost2010PropOp41
 70
     0
102
RTVSPost2010Prop42
 90
       50
102
RTVSPost2010PropOp42
 70
     0
102
RTVSPost2010Prop43
 90
        3
102
RTVSPost2010PropOp43
 70
     0
102
RTVSPost2010Prop44ColorIndex
 90
        5
102
RTVSPost2010Prop44ColorRGB
 90
      255
102
RTVSPost2010PropOp44
 70
     0
102
RTVSPost2010Prop45
280
     0
102
RTVSPost2010PropOp45
 70
     0
102
RTVSPost2010Prop46
 90
       50
102
RTVSPost2010PropOp46
 70
     0
102
RTVSPost2010Prop47
 90
       50
102
RTVSPost2010PropOp47
 70
     0
102
RTVSPost2010Prop48
 90
       50
102
RTVSPost2010PropOp48
 70
     0
102
RTVSPost2010Prop49
280
     0
102
RTVSPost2010PropOp49
 70
     0
102
RTVSPost2010Prop50
 90
       50
102
RTVSPost2010PropOp50
 70
     0
102
RTVSPost2010Prop51ColorIndex
 90
      256
102
RTVSPost2010Prop51ColorRGB
 90
-16777216
102
RTVSPost2010PropOp51
 70
     0
102
RTVSPost2010Prop52
140
1.0
102
RTVSPost2010PropOp52
 70
     0
102
RTVSPost2010Prop53
 90
        2
102
RTVSPost2010PropOp53
 70
     0
102
RTVSPost2010Prop54
  1
strokes_ogs.tif
102
RTVSPost2010PropOp54
 70
     0
102
RTVSPost2010Prop55
280
     0
102
RTVSPost2010PropOp55
 70
     0
102
RTVSPost2010Prop56
140
1.0
102
RTVSPost2010PropOp56
 70
     0
102
RTVSPost2010Prop57
140
1.0
102
RTVSPost2010PropOp57
 70
     0
  0
XRECORD
  5
B6
102
{ACAD_REACTORS
330
B5
102
}
330
B5
100
AcDbXrecord
280
     1
102
RTVSPropertyOp0
 70
     1
102
RTVSPropertyOp1
 70
     1
102
RTVSPropertyOp2
 70
     1
102
RTVSPropertyOp3
 70
     1
102
RTVSPropertyOp4
 70
     1
102
RTVSPropertyOp5
 70
     1
102
RTVSPropertyOp6
 70
     1
102
RTVSPropertyOp7
 70
     1
102
RTVSPropertyOp8
 70
     1
102
RTVSPropertyOp9
 70
     1
102
RTVSPropertyOp10
 70
     1
102
RTVSPropertyOp11
 70
     1
102
RTVSPropertyOp12
 70
     1
102
RTVSPropertyOp13
 70
     1
102
RTVSPropertyOp14
 70
     1
102
RTVSPropertyOp15
 70
     1
102
RTVSPropertyOp16
 70
     1
102
RTVSPropertyOp17
 70
     1
102
RTVSPropertyOp18
 70
     1
102
RTVSPropertyOp19
 70
     1
102
RTVSPropertyOp20
 70
     1
102
RTVSPropertyOp21
 70
     1
102
RTVSPropertyOp22
 70
     1
102
RTVSPropertyOp23
 70
     1
102
RTVSPropertyOp24
 70
     1
102
RTVSPropertyOp25
 70
     1
102
RTVSPropertyOp26
 70
     1
102
RTVSPropertyOp27
 70
     1
102
RTVSPropertyOp28
 70
     1
102
RTVSPropertyOp29
 70
     1
102
RTVSPropertyOp30
 70
     1
102
RTVSPropertyOp31
 70
     1
102
RTVSPropertyOp32
 70
     1
102
RTVSPropertyOp33
 70
     1
102
RTVSPropertyOp34
 70
     1
102
RTVSPropertyOp35
 70
     1
102
RTVSPropertyOp36
 70
     1
102
RTVSPropertyOp37
 70
     1
102
RTVSPropertyOp38
 70
     1
102
RTVSPropertyOp39
 70
     1
102
RTVSPropertyOp40
 70
     1
102
RTVSPropertyOp41
 70
     1
102
RTVSPropertyOp42
 70
     1
102
RTVSPropertyOp43
 70
     1
102
RTVSPropertyOp44
 70
     1
102
RTVSPropertyOp45
 70
     1
102
RTVSPropertyOp46
 70
     1
102
RTVSPropertyOp47
 70
     1
102
RTVSPropertyOp48
 70
     1
102
RTVSPropertyOp49
 70
     1
102
RTVSPropertyOp50
 70
     1
102
RTVSPropertyOp51
 70
     0
102
RTVSPropertyOp52
 70
     0
102
RTVSPropertyOp53
 70
     1
102
RTVSPropertyOp54
 70
     1
102
RTVSPropertyOp55
 70
     1
102
RTVSPropertyOp56
 70
     1
102
RTVSPropertyOp57
 70
     1
102
RTVSPost2010Prop28
280
     0
102
RTVSPost2010PropOp28
 70
     1
102
RTVSPost2010Prop29
280
     1
102
RTVSPost2010PropOp29
 70
     1
102
RTVSPost2010Prop30
280
     1
102
RTVSPost2010PropOp30
 70
     1
102
RTVSPost2010Prop31
280
     0
102
RTVSPost2010PropOp31
 70
     1
102
RTVSPost2010Prop32
280
     0
102
RTVSPost2010PropOp32
 70
     1
102
RTVSPost2010Prop33
280
     0
102
RTVSPost2010PropOp33
 70
     1
102
RTVSPost2010Prop34
280
     0
102
RTVSPost2010PropOp34
 70
     1
102
RTVSPost2010Prop35
280
     0
102
RTVSPost2010PropOp35
 70
     1
102
RTVSPost2010Prop36
280
     0
102
RTVSPost2010PropOp36
 70
     1
102
RTVSPost2010Prop37
 90
       50
102
RTVSPost2010PropOp37
 70
     1
102
RTVSPost2010Prop38
140
0.0
102
RTVSPost2010PropOp38
 70
     1
102
RTVSPost2010Prop39
140
1.0
102
RTVSPost2010PropOp39
 70
     1
102
RTVSPost2010Prop40
 90
        0
102
RTVSPost2010PropOp40
 70
     1
102
RTVSPost2010Prop41ColorIndex
 90
       18
102
RTVSPost2010Prop41ColorRGB
 90
        0
102
RTVSPost2010PropOp41
 70
     1
102
RTVSPost2010Prop42
 90
       50
102
RTVSPost2010PropOp42
 70
     1
102
RTVSPost2010Prop43
 90
        3
102
RTVSPost2010PropOp43
 70
     1
102
RTVSPost2010Prop44ColorIndex
 90
        5
102
RTVSPost2010Prop44ColorRGB
 90
      255
102
RTVSPost2010PropOp44
 70
     1
102
RTVSPost2010Prop45
280
     0
102
RTVSPost2010PropOp45
 70
     1
102
RTVSPost2010Prop46
 90
       50
102
RTVSPost2010PropOp46
 70
     1
102
RTVSPost2010Prop47
 90
       50
102
RTVSPost2010PropOp47
 70
     1
102
RTVSPost2010Prop48
 90
       50
102
RTVSPost2010PropOp48
 70
     1
102
RTVSPost2010Prop49
280
     0
102
RTVSPost2010PropOp49
 70
     1
102
RTVSPost2010Prop50
 90
       50
102
RTVSPost2010PropOp50
 70
     1
102
RTVSPost2010Prop51ColorIndex
 90
      256
102
RTVSPost2010Prop51ColorRGB
 90
-16777216
102
RTVSPost2010PropOp51
 70
     0
102
RTVSPost2010Prop52
140
1.0
102
RTVSPost2010PropOp52
 70
     0
102
RTVSPost2010Prop53
 90
        2
102
RTVSPost2010PropOp53
 70
     1
102
RTVSPost2010Prop54
  1
strokes_ogs.tif
102
RTVSPost2010PropOp54
 70
     1
102
RTVSPost2010Prop55
280
     0
102
RTVSPost2010PropOp55
 70
     1
102
RTVSPost2010Prop56
140
1.0
102
RTVSPost2010PropOp56
 70
     1
102
RTVSPost2010Prop57
140
1.0
102
RTVSPost2010PropOp57
 70
     1
  0
XRECORD
  5
BE
102
{ACAD_REACTORS
330
BD
102
}
330
BD
100
AcDbXrecord
280
     1
102
RTVSPropertyOp0
 70
     0
102
RTVSPropertyOp1
 70
     0
102
RTVSPropertyOp2
 70
     0
102
RTVSPropertyOp3
 70
     0
102
RTVSPropertyOp4
 70
     0
102
RTVSPropertyOp5
 70
     0
102
RTVSPropertyOp6
 70
     0
102
RTVSPropertyOp7
 70
     0
102
RTVSPropertyOp8
 70
     0
102
RTVSPropertyOp9
 70
     0
102
RTVSPropertyOp10
 70
     0
102
RTVSPropertyOp11
 70
     0
102
RTVSPropertyOp12
 70
     0
102
RTVSPropertyOp13
 70
     0
102
RTVSPropertyOp14
 70
     2
102
RTVSPropertyOp15
 70
     0
102
RTVSPropertyOp16
 70
     0
102
RTVSPropertyOp17
 70
     0
102
RTVSPropertyOp18
 70
     0
102
RTVSPropertyOp19
 70
     0
102
RTVSPropertyOp20
 70
     0
102
RTVSPropertyOp21
 70
     0
102
RTVSPropertyOp22
 70
     0
102
RTVSPropertyOp23
 70
     0
102
RTVSPropertyOp24
 70
     0
102
RTVSPropertyOp25
 70
     0
102
RTVSPropertyOp26
 70
     0
102
RTVSPropertyOp27
 70
     0
102
RTVSPropertyOp28
 70
     0
102
RTVSPropertyOp29
 70
     0
102
RTVSPropertyOp30
 70
     0
102
RTVSPropertyOp31
 70
     0
102
RTVSPropertyOp32
 70
     0
102
RTVSPropertyOp33
 70
     0
102
RTVSPropertyOp34
 70
     0
102
RTVSPropertyOp35
 70
     0
102
RTVSPropertyOp36
 70
     0
102
RTVSPropertyOp37
 70
     0
102
RTVSPropertyOp38
 70
     0
102
RTVSPropertyOp39
 70
     0
102
RTVSPropertyOp40
 70
     0
102
RTVSPropertyOp41
 70
     0
102
RTVSPropertyOp42
 70
     0
102
RTVSPropertyOp43
 70
     0
102
RTVSPropertyOp44
 70
     0
102
RTVSPropertyOp45
 70
     0
102
RTVSPropertyOp46
 70
     0
102
RTVSPropertyOp47
 70
     0
102
RTVSPropertyOp48
 70
     0
102
RTVSPropertyOp49
 70
     0
102
RTVSPropertyOp50
 70
     0
102
RTVSPropertyOp51
 70
     0
102
RTVSPropertyOp52
 70
     0
102
RTVSPropertyOp53
 70
     0
102
RTVSPropertyOp54
 70
     0
102
RTVSPropertyOp55
 70
     0
102
RTVSPropertyOp56
 70
     0
102
RTVSPropertyOp57
 70
     0
102
RTVSPost2010Prop28
280
     0
102
RTVSPost2010PropOp28
 70
     0
102
RTVSPost2010Prop29
280
     1
102
RTVSPost2010PropOp29
 70
     0
102
RTVSPost2010Prop30
280
     1
102
RTVSPost2010PropOp30
 70
     0
102
RTVSPost2010Prop31
280
     0
102
RTVSPost2010PropOp31
 70
     0
102
RTVSPost2010Prop32
280
     0
102
RTVSPost2010PropOp32
 70
     0
102
RTVSPost2010Prop33
280
     0
102
RTVSPost2010PropOp33
 70
     0
102
RTVSPost2010Prop34
280
     0
102
RTVSPost2010PropOp34
 70
     0
102
RTVSPost2010Prop35
280
     0
102
RTVSPost2010PropOp35
 70
     0
102
RTVSPost2010Prop36
280
     0
102
RTVSPost2010PropOp36
 70
     0
102
RTVSPost2010Prop37
 90
       50
102
RTVSPost2010PropOp37
 70
     0
102
RTVSPost2010Prop38
140
0.0
102
RTVSPost2010PropOp38
 70
     0
102
RTVSPost2010Prop39
140
1.0
102
RTVSPost2010PropOp39
 70
     0
102
RTVSPost2010Prop40
 90
        0
102
RTVSPost2010PropOp40
 70
     0
102
RTVSPost2010Prop41ColorIndex
 90
       18
102
RTVSPost2010Prop41ColorRGB
 90
        0
102
RTVSPost2010PropOp41
 70
     0
102
RTVSPost2010Prop42
 90
       50
102
RTVSPost2010PropOp42
 70
     0
102
RTVSPost2010Prop43
 90
        3
102
RTVSPost2010PropOp43
 70
     0
102
RTVSPost2010Prop44ColorIndex
 90
        5
102
RTVSPost2010Prop44ColorRGB
 90
      255
102
RTVSPost2010PropOp44
 70
     0
102
RTVSPost2010Prop45
280
     0
102
RTVSPost2010PropOp45
 70
     0
102
RTVSPost2010Prop46
 90
       50
102
RTVSPost2010PropOp46
 70
     0
102
RTVSPost2010Prop47
 90
       50
102
RTVSPost2010PropOp47
 70
     0
102
RTVSPost2010Prop48
 90
       50
102
RTVSPost2010PropOp48
 70
     0
102
RTVSPost2010Prop49
280
     0
102
RTVSPost2010PropOp49
 70
     0
102
RTVSPost2010Prop50
 90
       50
102
RTVSPost2010PropOp50
 70
     0
102
RTVSPost2010Prop51ColorIndex
 90
      256
102
RTVSPost2010Prop51ColorRGB
 90
-16777216
102
RTVSPost2010PropOp51
 70
     0
102
RTVSPost2010Prop52
140
1.0
102
RTVSPost2010PropOp52
 70
     0
102
RTVSPost2010Prop53
 90
        2
102
RTVSPost2010PropOp53
 70
     0
102
RTVSPost2010Prop54
  1
strokes_ogs.tif
102
RTVSPost2010PropOp54
 70
     0
102
RTVSPost2010Prop55
280
     0
102
RTVSPost2010PropOp55
 70
     0
102
RTVSPost2010Prop56
140
1.0
102
RTVSPost2010PropOp56
 70
     0
102
RTVSPost2010Prop57
140
1.0
102
RTVSPost2010PropOp57
 70
     0
  0
XRECORD
  5
AC
102
{ACAD_REACTORS
330
AB
102
}
330
AB
100
AcDbXrecord
280
     1
102
RTVSPropertyOp0
 70
     1
102
RTVSPropertyOp1
 70
     1
102
RTVSPropertyOp2
 70
     1
102
RTVSPropertyOp3
 70
     1
102
RTVSPropertyOp4
 70
     1
102
RTVSPropertyOp5
 70
     1
102
RTVSPropertyOp6
 70
     1
102
RTVSPropertyOp7
 70
     1
102
RTVSPropertyOp8
 70
     1
102
RTVSPropertyOp9
 70
     1
102
RTVSPropertyOp10
 70
     1
102
RTVSPropertyOp11
 70
     1
102
RTVSPropertyOp12
 70
     1
102
RTVSPropertyOp13
 70
     1
102
RTVSPropertyOp14
 70
     1
102
RTVSPropertyOp15
 70
     1
102
RTVSPropertyOp16
 70
     1
102
RTVSPropertyOp17
 70
     1
102
RTVSPropertyOp18
 70
     1
102
RTVSPropertyOp19
 70
     1
102
RTVSPropertyOp20
 70
     1
102
RTVSPropertyOp21
 70
     1
102
RTVSPropertyOp22
 70
     1
102
RTVSPropertyOp23
 70
     1
102
RTVSPropertyOp24
 70
     1
102
RTVSPropertyOp25
 70
     1
102
RTVSPropertyOp26
 70
     1
102
RTVSPropertyOp27
 70
     1
102
RTVSPropertyOp28
 70
     1
102
RTVSPropertyOp29
 70
     1
102
RTVSPropertyOp30
 70
     1
102
RTVSPropertyOp31
 70
     1
102
RTVSPropertyOp32
 70
     1
102
RTVSPropertyOp33
 70
     1
102
RTVSPropertyOp34
 70
     1
102
RTVSPropertyOp35
 70
     1
102
RTVSPropertyOp36
 70
     1
102
RTVSPropertyOp37
 70
     1
102
RTVSPropertyOp38
 70
     1
102
RTVSPropertyOp39
 70
     1
102
RTVSPropertyOp40
 70
     1
102
RTVSPropertyOp41
 70
     1
102
RTVSPropertyOp42
 70
     1
102
RTVSPropertyOp43
 70
     1
102
RTVSPropertyOp44
 70
     1
102
RTVSPropertyOp45
 70
     1
102
RTVSPropertyOp46
 70
     1
102
RTVSPropertyOp47
 70
     1
102
RTVSPropertyOp48
 70
     1
102
RTVSPropertyOp49
 70
     1
102
RTVSPropertyOp50
 70
     1
102
RTVSPropertyOp51
 70
     0
102
RTVSPropertyOp52
 70
     0
102
RTVSPropertyOp53
 70
     1
102
RTVSPropertyOp54
 70
     1
102
RTVSPropertyOp55
 70
     1
102
RTVSPropertyOp56
 70
     1
102
RTVSPropertyOp57
 70
     1
102
RTVSPost2010Prop28
280
     0
102
RTVSPost2010PropOp28
 70
     1
102
RTVSPost2010Prop29
280
     1
102
RTVSPost2010PropOp29
 70
     1
102
RTVSPost2010Prop30
280
     1
102
RTVSPost2010PropOp30
 70
     1
102
RTVSPost2010Prop31
280
     0
102
RTVSPost2010PropOp31
 70
     1
102
RTVSPost2010Prop32
280
     0
102
RTVSPost2010PropOp32
 70
     1
102
RTVSPost2010Prop33
280
     0
102
RTVSPost2010PropOp33
 70
     1
102
RTVSPost2010Prop34
280
     0
102
RTVSPost2010PropOp34
 70
     1
102
RTVSPost2010Prop35
280
     0
102
RTVSPost2010PropOp35
 70
     1
102
RTVSPost2010Prop36
280
     0
102
RTVSPost2010PropOp36
 70
     1
102
RTVSPost2010Prop37
 90
       50
102
RTVSPost2010PropOp37
 70
     1
102
RTVSPost2010Prop38
140
0.0
102
RTVSPost2010PropOp38
 70
     1
102
RTVSPost2010Prop39
140
1.0
102
RTVSPost2010PropOp39
 70
     1
102
RTVSPost2010Prop40
 90
        0
102
RTVSPost2010PropOp40
 70
     1
102
RTVSPost2010Prop41ColorIndex
 90
       18
102
RTVSPost2010Prop41ColorRGB
 90
        0
102
RTVSPost2010PropOp41
 70
     1
102
RTVSPost2010Prop42
 90
       50
102
RTVSPost2010PropOp42
 70
     1
102
RTVSPost2010Prop43
 90
        3
102
RTVSPost2010PropOp43
 70
     1
102
RTVSPost2010Prop44ColorIndex
 90
        5
102
RTVSPost2010Prop44ColorRGB
 90
      255
102
RTVSPost2010PropOp44
 70
     1
102
RTVSPost2010Prop45
280
     0
102
RTVSPost2010PropOp45
 70
     1
102
RTVSPost2010Prop46
 90
       50
102
RTVSPost2010PropOp46
 70
     1
102
RTVSPost2010Prop47
 90
       50
102
RTVSPost2010PropOp47
 70
     1
102
RTVSPost2010Prop48
 90
       50
102
RTVSPost2010PropOp48
 70
     1
102
RTVSPost2010Prop49
280
     0
102
RTVSPost2010PropOp49
 70
     1
102
RTVSPost2010Prop50
 90
       50
102
RTVSPost2010PropOp50
 70
     1
102
RTVSPost2010Prop51ColorIndex
 90
      256
102
RTVSPost2010Prop51ColorRGB
 90
-16777216
102
RTVSPost2010PropOp51
 70
     0
102
RTVSPost2010Prop52
140
1.0
102
RTVSPost2010PropOp52
 70
     0
102
RTVSPost2010Prop53
 90
        2
102
RTVSPost2010PropOp53
 70
     1
102
RTVSPost2010Prop54
  1
strokes_ogs.tif
102
RTVSPost2010PropOp54
 70
     1
102
RTVSPost2010Prop55
280
     0
102
RTVSPost2010PropOp55
 70
     1
102
RTVSPost2010Prop56
140
1.0
102
RTVSPost2010PropOp56
 70
     1
102
RTVSPost2010Prop57
140
1.0
102
RTVSPost2010PropOp57
 70
     1
  0
XRECORD
  5
CA
102
{ACAD_REACTORS
330
C9
102
}
330
C9
100
AcDbXrecord
280
     1
102
RTVSPropertyOp0
 70
     1
102
RTVSPropertyOp1
 70
     1
102
RTVSPropertyOp2
 70
     1
102
RTVSPropertyOp3
 70
     1
102
RTVSPropertyOp4
 70
     1
102
RTVSPropertyOp5
 70
     1
102
RTVSPropertyOp6
 70
     1
102
RTVSPropertyOp7
 70
     1
102
RTVSPropertyOp8
 70
     1
102
RTVSPropertyOp9
 70
     1
102
RTVSPropertyOp10
 70
     1
102
RTVSPropertyOp11
 70
     1
102
RTVSPropertyOp12
 70
     1
102
RTVSPropertyOp13
 70
     1
102
RTVSPropertyOp14
 70
     1
102
RTVSPropertyOp15
 70
     1
102
RTVSPropertyOp16
 70
     1
102
RTVSPropertyOp17
 70
     1
102
RTVSPropertyOp18
 70
     1
102
RTVSPropertyOp19
 70
     1
102
RTVSPropertyOp20
 70
     1
102
RTVSPropertyOp21
 70
     1
102
RTVSPropertyOp22
 70
     1
102
RTVSPropertyOp23
 70
     1
102
RTVSPropertyOp24
 70
     1
102
RTVSPropertyOp25
 70
     1
102
RTVSPropertyOp26
 70
     1
102
RTVSPropertyOp27
 70
     1
102
RTVSPropertyOp28
 70
     1
102
RTVSPropertyOp29
 70
     1
102
RTVSPropertyOp30
 70
     1
102
RTVSPropertyOp31
 70
     1
102
RTVSPropertyOp32
 70
     1
102
RTVSPropertyOp33
 70
     1
102
RTVSPropertyOp34
 70
     1
102
RTVSPropertyOp35
 70
     1
102
RTVSPropertyOp36
 70
     1
102
RTVSPropertyOp37
 70
     1
102
RTVSPropertyOp38
 70
     1
102
RTVSPropertyOp39
 70
     1
102
RTVSPropertyOp40
 70
     1
102
RTVSPropertyOp41
 70
     1
102
RTVSPropertyOp42
 70
     1
102
RTVSPropertyOp43
 70
     1
102
RTVSPropertyOp44
 70
     1
102
RTVSPropertyOp45
 70
     1
102
RTVSPropertyOp46
 70
     1
102
RTVSPropertyOp47
 70
     1
102
RTVSPropertyOp48
 70
     1
102
RTVSPropertyOp49
 70
     1
102
RTVSPropertyOp50
 70
     1
102
RTVSPropertyOp51
 70
     0
102
RTVSPropertyOp52
 70
     0
102
RTVSPropertyOp53
 70
     1
102
RTVSPropertyOp54
 70
     1
102
RTVSPropertyOp55
 70
     1
102
RTVSPropertyOp56
 70
     1
102
RTVSPropertyOp57
 70
     1
102
RTVSPost2010Prop28
280
     0
102
RTVSPost2010PropOp28
 70
     1
102
RTVSPost2010Prop29
280
     1
102
RTVSPost2010PropOp29
 70
     1
102
RTVSPost2010Prop30
280
     1
102
RTVSPost2010PropOp30
 70
     1
102
RTVSPost2010Prop31
280
     0
102
RTVSPost2010PropOp31
 70
     1
102
RTVSPost2010Prop32
280
     0
102
RTVSPost2010PropOp32
 70
     1
102
RTVSPost2010Prop33
280
     0
102
RTVSPost2010PropOp33
 70
     1
102
RTVSPost2010Prop34
280
     0
102
RTVSPost2010PropOp34
 70
     1
102
RTVSPost2010Prop35
280
     0
102
RTVSPost2010PropOp35
 70
     1
102
RTVSPost2010Prop36
280
     0
102
RTVSPost2010PropOp36
 70
     1
102
RTVSPost2010Prop37
 90
       50
102
RTVSPost2010PropOp37
 70
     1
102
RTVSPost2010Prop38
140
0.0
102
RTVSPost2010PropOp38
 70
     1
102
RTVSPost2010Prop39
140
1.0
102
RTVSPost2010PropOp39
 70
     1
102
RTVSPost2010Prop40
 90
        0
102
RTVSPost2010PropOp40
 70
     1
102
RTVSPost2010Prop41ColorIndex
 90
       18
102
RTVSPost2010Prop41ColorRGB
 90
        0
102
RTVSPost2010PropOp41
 70
     1
102
RTVSPost2010Prop42
 90
       50
102
RTVSPost2010PropOp42
 70
     1
102
RTVSPost2010Prop43
 90
        3
102
RTVSPost2010PropOp43
 70
     1
102
RTVSPost2010Prop44ColorIndex
 90
        5
102
RTVSPost2010Prop44ColorRGB
 90
      255
102
RTVSPost2010PropOp44
 70
     1
102
RTVSPost2010Prop45
280
     0
102
RTVSPost2010PropOp45
 70
     1
102
RTVSPost2010Prop46
 90
       50
102
RTVSPost2010PropOp46
 70
     1
102
RTVSPost2010Prop47
 90
       50
102
RTVSPost2010PropOp47
 70
     1
102
RTVSPost2010Prop48
 90
       50
102
RTVSPost2010PropOp48
 70
     1
102
RTVSPost2010Prop49
280
     0
102
RTVSPost2010PropOp49
 70
     1
102
RTVSPost2010Prop50
 90
       50
102
RTVSPost2010PropOp50
 70
     1
102
RTVSPost2010Prop51ColorIndex
 90
      256
102
RTVSPost2010Prop51ColorRGB
 90
-16777216
102
RTVSPost2010PropOp51
 70
     0
102
RTVSPost2010Prop52
140
1.0
102
RTVSPost2010PropOp52
 70
     0
102
RTVSPost2010Prop53
 90
        2
102
RTVSPost2010PropOp53
 70
     1
102
RTVSPost2010Prop54
  1
strokes_ogs.tif
102
RTVSPost2010PropOp54
 70
     1
102
RTVSPost2010Prop55
280
     0
102
RTVSPost2010PropOp55
 70
     1
102
RTVSPost2010Prop56
140
1.0
102
RTVSPost2010PropOp56
 70
     1
102
RTVSPost2010Prop57
140
1.0
102
RTVSPost2010PropOp57
 70
     1
  0
XRECORD
  5
C8
102
{ACAD_REACTORS
330
C7
102
}
330
C7
100
AcDbXrecord
280
     1
102
RTVSPropertyOp0
 70
     1
102
RTVSPropertyOp1
 70
     1
102
RTVSPropertyOp2
 70
     1
102
RTVSPropertyOp3
 70
     1
102
RTVSPropertyOp4
 70
     1
102
RTVSPropertyOp5
 70
     1
102
RTVSPropertyOp6
 70
     1
102
RTVSPropertyOp7
 70
     1
102
RTVSPropertyOp8
 70
     1
102
RTVSPropertyOp9
 70
     1
102
RTVSPropertyOp10
 70
     1
102
RTVSPropertyOp11
 70
     1
102
RTVSPropertyOp12
 70
     1
102
RTVSPropertyOp13
 70
     1
102
RTVSPropertyOp14
 70
     1
102
RTVSPropertyOp15
 70
     1
102
RTVSPropertyOp16
 70
     1
102
RTVSPropertyOp17
 70
     1
102
RTVSPropertyOp18
 70
     1
102
RTVSPropertyOp19
 70
     1
102
RTVSPropertyOp20
 70
     1
102
RTVSPropertyOp21
 70
     1
102
RTVSPropertyOp22
 70
     1
102
RTVSPropertyOp23
 70
     1
102
RTVSPropertyOp24
 70
     1
102
RTVSPropertyOp25
 70
     1
102
RTVSPropertyOp26
 70
     1
102
RTVSPropertyOp27
 70
     1
102
RTVSPropertyOp28
 70
     1
102
RTVSPropertyOp29
 70
     1
102
RTVSPropertyOp30
 70
     1
102
RTVSPropertyOp31
 70
     1
102
RTVSPropertyOp32
 70
     1
102
RTVSPropertyOp33
 70
     1
102
RTVSPropertyOp34
 70
     1
102
RTVSPropertyOp35
 70
     1
102
RTVSPropertyOp36
 70
     1
102
RTVSPropertyOp37
 70
     1
102
RTVSPropertyOp38
 70
     1
102
RTVSPropertyOp39
 70
     1
102
RTVSPropertyOp40
 70
     1
102
RTVSPropertyOp41
 70
     1
102
RTVSPropertyOp42
 70
     1
102
RTVSPropertyOp43
 70
     1
102
RTVSPropertyOp44
 70
     1
102
RTVSPropertyOp45
 70
     1
102
RTVSPropertyOp46
 70
     1
102
RTVSPropertyOp47
 70
     1
102
RTVSPropertyOp48
 70
     1
102
RTVSPropertyOp49
 70
     1
102
RTVSPropertyOp50
 70
     1
102
RTVSPropertyOp51
 70
     0
102
RTVSPropertyOp52
 70
     0
102
RTVSPropertyOp53
 70
     1
102
RTVSPropertyOp54
 70
     1
102
RTVSPropertyOp55
 70
     1
102
RTVSPropertyOp56
 70
     1
102
RTVSPropertyOp57
 70
     1
102
RTVSPost2010Prop28
280
     0
102
RTVSPost2010PropOp28
 70
     1
102
RTVSPost2010Prop29
280
     1
102
RTVSPost2010PropOp29
 70
     1
102
RTVSPost2010Prop30
280
     1
102
RTVSPost2010PropOp30
 70
     1
102
RTVSPost2010Prop31
280
     0
102
RTVSPost2010PropOp31
 70
     1
102
RTVSPost2010Prop32
280
     0
102
RTVSPost2010PropOp32
 70
     1
102
RTVSPost2010Prop33
280
     0
102
RTVSPost2010PropOp33
 70
     1
102
RTVSPost2010Prop34
280
     0
102
RTVSPost2010PropOp34
 70
     1
102
RTVSPost2010Prop35
280
     0
102
RTVSPost2010PropOp35
 70
     1
102
RTVSPost2010Prop36
280
     0
102
RTVSPost2010PropOp36
 70
     1
102
RTVSPost2010Prop37
 90
       50
102
RTVSPost2010PropOp37
 70
     1
102
RTVSPost2010Prop38
140
0.0
102
RTVSPost2010PropOp38
 70
     1
102
RTVSPost2010Prop39
140
1.0
102
RTVSPost2010PropOp39
 70
     1
102
RTVSPost2010Prop40
 90
        0
102
RTVSPost2010PropOp40
 70
     1
102
RTVSPost2010Prop41ColorIndex
 90
       18
102
RTVSPost2010Prop41ColorRGB
 90
        0
102
RTVSPost2010PropOp41
 70
     1
102
RTVSPost2010Prop42
 90
       50
102
RTVSPost2010PropOp42
 70
     1
102
RTVSPost2010Prop43
 90
        3
102
RTVSPost2010PropOp43
 70
     1
102
RTVSPost2010Prop44ColorIndex
 90
        5
102
RTVSPost2010Prop44ColorRGB
 90
      255
102
RTVSPost2010PropOp44
 70
     1
102
RTVSPost2010Prop45
280
     0
102
RTVSPost2010PropOp45
 70
     1
102
RTVSPost2010Prop46
 90
       50
102
RTVSPost2010PropOp46
 70
     1
102
RTVSPost2010Prop47
 90
       50
102
RTVSPost2010PropOp47
 70
     1
102
RTVSPost2010Prop48
 90
       50
102
RTVSPost2010PropOp48
 70
     1
102
RTVSPost2010Prop49
280
     0
102
RTVSPost2010PropOp49
 70
     1
102
RTVSPost2010Prop50
 90
       50
102
RTVSPost2010PropOp50
 70
     1
102
RTVSPost2010Prop51ColorIndex
 90
      256
102
RTVSPost2010Prop51ColorRGB
 90
-16777216
102
RTVSPost2010PropOp51
 70
     0
102
RTVSPost2010Prop52
140
1.0
102
RTVSPost2010PropOp52
 70
     0
102
RTVSPost2010Prop53
 90
        2
102
RTVSPost2010PropOp53
 70
     1
102
RTVSPost2010Prop54
  1
strokes_ogs.tif
102
RTVSPost2010PropOp54
 70
     1
102
RTVSPost2010Prop55
280
     0
102
RTVSPost2010PropOp55
 70
     1
102
RTVSPost2010Prop56
140
1.0
102
RTVSPost2010PropOp56
 70
     1
102
RTVSPost2010Prop57
140
1.0
102
RTVSPost2010PropOp57
 70
     1
  0
XRECORD
  5
C2
102
{ACAD_REACTORS
330
C1
102
}
330
C1
100
AcDbXrecord
280
     1
102
RTVSPropertyOp0
 70
     1
102
RTVSPropertyOp1
 70
     1
102
RTVSPropertyOp2
 70
     1
102
RTVSPropertyOp3
 70
     1
102
RTVSPropertyOp4
 70
     1
102
RTVSPropertyOp5
 70
     1
102
RTVSPropertyOp6
 70
     1
102
RTVSPropertyOp7
 70
     1
102
RTVSPropertyOp8
 70
     1
102
RTVSPropertyOp9
 70
     1
102
RTVSPropertyOp10
 70
     1
102
RTVSPropertyOp11
 70
     1
102
RTVSPropertyOp12
 70
     1
102
RTVSPropertyOp13
 70
     1
102
RTVSPropertyOp14
 70
     1
102
RTVSPropertyOp15
 70
     1
102
RTVSPropertyOp16
 70
     1
102
RTVSPropertyOp17
 70
     1
102
RTVSPropertyOp18
 70
     1
102
RTVSPropertyOp19
 70
     1
102
RTVSPropertyOp20
 70
     1
102
RTVSPropertyOp21
 70
     1
102
RTVSPropertyOp22
 70
     1
102
RTVSPropertyOp23
 70
     1
102
RTVSPropertyOp24
 70
     1
102
RTVSPropertyOp25
 70
     1
102
RTVSPropertyOp26
 70
     1
102
RTVSPropertyOp27
 70
     1
102
RTVSPropertyOp28
 70
     1
102
RTVSPropertyOp29
 70
     1
102
RTVSPropertyOp30
 70
     1
102
RTVSPropertyOp31
 70
     1
102
RTVSPropertyOp32
 70
     1
102
RTVSPropertyOp33
 70
     1
102
RTVSPropertyOp34
 70
     1
102
RTVSPropertyOp35
 70
     1
102
RTVSPropertyOp36
 70
     1
102
RTVSPropertyOp37
 70
     1
102
RTVSPropertyOp38
 70
     1
102
RTVSPropertyOp39
 70
     1
102
RTVSPropertyOp40
 70
     1
102
RTVSPropertyOp41
 70
     1
102
RTVSPropertyOp42
 70
     1
102
RTVSPropertyOp43
 70
     1
102
RTVSPropertyOp44
 70
     1
102
RTVSPropertyOp45
 70
     1
102
RTVSPropertyOp46
 70
     1
102
RTVSPropertyOp47
 70
     1
102
RTVSPropertyOp48
 70
     1
102
RTVSPropertyOp49
 70
     1
102
RTVSPropertyOp50
 70
     1
102
RTVSPropertyOp51
 70
     0
102
RTVSPropertyOp52
 70
     0
102
RTVSPropertyOp53
 70
     1
102
RTVSPropertyOp54
 70
     1
102
RTVSPropertyOp55
 70
     1
102
RTVSPropertyOp56
 70
     1
102
RTVSPropertyOp57
 70
     1
102
RTVSPost2010Prop28
280
     0
102
RTVSPost2010PropOp28
 70
     1
102
RTVSPost2010Prop29
280
     1
102
RTVSPost2010PropOp29
 70
     1
102
RTVSPost2010Prop30
280
     1
102
RTVSPost2010PropOp30
 70
     1
102
RTVSPost2010Prop31
280
     0
102
RTVSPost2010PropOp31
 70
     1
102
RTVSPost2010Prop32
280
     0
102
RTVSPost2010PropOp32
 70
     1
102
RTVSPost2010Prop33
280
     0
102
RTVSPost2010PropOp33
 70
     1
102
RTVSPost2010Prop34
280
     0
102
RTVSPost2010PropOp34
 70
     1
102
RTVSPost2010Prop35
280
     0
102
RTVSPost2010PropOp35
 70
     1
102
RTVSPost2010Prop36
280
     0
102
RTVSPost2010PropOp36
 70
     1
102
RTVSPost2010Prop37
 90
       50
102
RTVSPost2010PropOp37
 70
     1
102
RTVSPost2010Prop38
140
0.0
102
RTVSPost2010PropOp38
 70
     1
102
RTVSPost2010Prop39
140
1.0
102
RTVSPost2010PropOp39
 70
     1
102
RTVSPost2010Prop40
 90
        0
102
RTVSPost2010PropOp40
 70
     1
102
RTVSPost2010Prop41ColorIndex
 90
       18
102
RTVSPost2010Prop41ColorRGB
 90
        0
102
RTVSPost2010PropOp41
 70
     1
102
RTVSPost2010Prop42
 90
       50
102
RTVSPost2010PropOp42
 70
     1
102
RTVSPost2010Prop43
 90
        3
102
RTVSPost2010PropOp43
 70
     1
102
RTVSPost2010Prop44ColorIndex
 90
        5
102
RTVSPost2010Prop44ColorRGB
 90
      255
102
RTVSPost2010PropOp44
 70
     1
102
RTVSPost2010Prop45
280
     0
102
RTVSPost2010PropOp45
 70
     1
102
RTVSPost2010Prop46
 90
       50
102
RTVSPost2010PropOp46
 70
     1
102
RTVSPost2010Prop47
 90
       50
102
RTVSPost2010PropOp47
 70
     1
102
RTVSPost2010Prop48
 90
       50
102
RTVSPost2010PropOp48
 70
     1
102
RTVSPost2010Prop49
280
     0
102
RTVSPost2010PropOp49
 70
     1
102
RTVSPost2010Prop50
 90
       50
102
RTVSPost2010PropOp50
 70
     1
102
RTVSPost2010Prop51ColorIndex
 90
      256
102
RTVSPost2010Prop51ColorRGB
 90
-16777216
102
RTVSPost2010PropOp51
 70
     0
102
RTVSPost2010Prop52
140
1.0
102
RTVSPost2010PropOp52
 70
     0
102
RTVSPost2010Prop53
 90
        2
102
RTVSPost2010PropOp53
 70
     1
102
RTVSPost2010Prop54
  1
strokes_ogs.tif
102
RTVSPost2010PropOp54
 70
     1
102
RTVSPost2010Prop55
280
     0
102
RTVSPost2010PropOp55
 70
     1
102
RTVSPost2010Prop56
140
1.0
102
RTVSPost2010PropOp56
 70
     1
102
RTVSPost2010Prop57
140
1.0
102
RTVSPost2010PropOp57
 70
     1
  0
XRECORD
  5
C4
102
{ACAD_REACTORS
330
C3
102
}
330
C3
100
AcDbXrecord
280
     1
102
RTVSPropertyOp0
 70
     1
102
RTVSPropertyOp1
 70
     1
102
RTVSPropertyOp2
 70
     1
102
RTVSPropertyOp3
 70
     1
102
RTVSPropertyOp4
 70
     1
102
RTVSPropertyOp5
 70
     1
102
RTVSPropertyOp6
 70
     1
102
RTVSPropertyOp7
 70
     1
102
RTVSPropertyOp8
 70
     1
102
RTVSPropertyOp9
 70
     1
102
RTVSPropertyOp10
 70
     1
102
RTVSPropertyOp11
 70
     1
102
RTVSPropertyOp12
 70
     1
102
RTVSPropertyOp13
 70
     1
102
RTVSPropertyOp14
 70
     1
102
RTVSPropertyOp15
 70
     1
102
RTVSPropertyOp16
 70
     1
102
RTVSPropertyOp17
 70
     1
102
RTVSPropertyOp18
 70
     1
102
RTVSPropertyOp19
 70
     1
102
RTVSPropertyOp20
 70
     1
102
RTVSPropertyOp21
 70
     1
102
RTVSPropertyOp22
 70
     1
102
RTVSPropertyOp23
 70
     1
102
RTVSPropertyOp24
 70
     1
102
RTVSPropertyOp25
 70
     1
102
RTVSPropertyOp26
 70
     1
102
RTVSPropertyOp27
 70
     1
102
RTVSPropertyOp28
 70
     1
102
RTVSPropertyOp29
 70
     1
102
RTVSPropertyOp30
 70
     1
102
RTVSPropertyOp31
 70
     1
102
RTVSPropertyOp32
 70
     1
102
RTVSPropertyOp33
 70
     1
102
RTVSPropertyOp34
 70
     1
102
RTVSPropertyOp35
 70
     1
102
RTVSPropertyOp36
 70
     1
102
RTVSPropertyOp37
 70
     1
102
RTVSPropertyOp38
 70
     1
102
RTVSPropertyOp39
 70
     1
102
RTVSPropertyOp40
 70
     1
102
RTVSPropertyOp41
 70
     1
102
RTVSPropertyOp42
 70
     1
102
RTVSPropertyOp43
 70
     1
102
RTVSPropertyOp44
 70
     1
102
RTVSPropertyOp45
 70
     1
102
RTVSPropertyOp46
 70
     1
102
RTVSPropertyOp47
 70
     1
102
RTVSPropertyOp48
 70
     1
102
RTVSPropertyOp49
 70
     1
102
RTVSPropertyOp50
 70
     1
102
RTVSPropertyOp51
 70
     0
102
RTVSPropertyOp52
 70
     0
102
RTVSPropertyOp53
 70
     1
102
RTVSPropertyOp54
 70
     1
102
RTVSPropertyOp55
 70
     1
102
RTVSPropertyOp56
 70
     1
102
RTVSPropertyOp57
 70
     1
102
RTVSPost2010Prop28
280
     0
102
RTVSPost2010PropOp28
 70
     1
102
RTVSPost2010Prop29
280
     1
102
RTVSPost2010PropOp29
 70
     1
102
RTVSPost2010Prop30
280
     1
102
RTVSPost2010PropOp30
 70
     1
102
RTVSPost2010Prop31
280
     0
102
RTVSPost2010PropOp31
 70
     1
102
RTVSPost2010Prop32
280
     0
102
RTVSPost2010PropOp32
 70
     1
102
RTVSPost2010Prop33
280
     0
102
RTVSPost2010PropOp33
 70
     1
102
RTVSPost2010Prop34
280
     0
102
RTVSPost2010PropOp34
 70
     1
102
RTVSPost2010Prop35
280
     0
102
RTVSPost2010PropOp35
 70
     1
102
RTVSPost2010Prop36
280
     0
102
RTVSPost2010PropOp36
 70
     1
102
RTVSPost2010Prop37
 90
       50
102
RTVSPost2010PropOp37
 70
     1
102
RTVSPost2010Prop38
140
0.0
102
RTVSPost2010PropOp38
 70
     1
102
RTVSPost2010Prop39
140
1.0
102
RTVSPost2010PropOp39
 70
     1
102
RTVSPost2010Prop40
 90
        0
102
RTVSPost2010PropOp40
 70
     1
102
RTVSPost2010Prop41ColorIndex
 90
       18
102
RTVSPost2010Prop41ColorRGB
 90
        0
102
RTVSPost2010PropOp41
 70
     1
102
RTVSPost2010Prop42
 90
       50
102
RTVSPost2010PropOp42
 70
     1
102
RTVSPost2010Prop43
 90
        3
102
RTVSPost2010PropOp43
 70
     1
102
RTVSPost2010Prop44ColorIndex
 90
        5
102
RTVSPost2010Prop44ColorRGB
 90
      255
102
RTVSPost2010PropOp44
 70
     1
102
RTVSPost2010Prop45
280
     0
102
RTVSPost2010PropOp45
 70
     1
102
RTVSPost2010Prop46
 90
       50
102
RTVSPost2010PropOp46
 70
     1
102
RTVSPost2010Prop47
 90
       50
102
RTVSPost2010PropOp47
 70
     1
102
RTVSPost2010Prop48
 90
       50
102
RTVSPost2010PropOp48
 70
     1
102
RTVSPost2010Prop49
280
     0
102
RTVSPost2010PropOp49
 70
     1
102
RTVSPost2010Prop50
 90
       50
102
RTVSPost2010PropOp50
 70
     1
102
RTVSPost2010Prop51ColorIndex
 90
      256
102
RTVSPost2010Prop51ColorRGB
 90
-16777216
102
RTVSPost2010PropOp51
 70
     0
102
RTVSPost2010Prop52
140
1.0
102
RTVSPost2010PropOp52
 70
     0
102
RTVSPost2010Prop53
 90
        2
102
RTVSPost2010PropOp53
 70
     1
102
RTVSPost2010Prop54
  1
strokes_ogs.tif
102
RTVSPost2010PropOp54
 70
     1
102
RTVSPost2010Prop55
280
     0
102
RTVSPost2010PropOp55
 70
     1
102
RTVSPost2010Prop56
140
1.0
102
RTVSPost2010PropOp56
 70
     1
102
RTVSPost2010Prop57
140
1.0
102
RTVSPost2010PropOp57
 70
     1
  0
XRECORD
  5
B4
102
{ACAD_REACTORS
330
B3
102
}
330
B3
100
AcDbXrecord
280
     1
102
RTVSPropertyOp0
 70
     1
102
RTVSPropertyOp1
 70
     1
102
RTVSPropertyOp2
 70
     1
102
RTVSPropertyOp3
 70
     1
102
RTVSPropertyOp4
 70
     1
102
RTVSPropertyOp5
 70
     1
102
RTVSPropertyOp6
 70
     1
102
RTVSPropertyOp7
 70
     1
102
RTVSPropertyOp8
 70
     1
102
RTVSPropertyOp9
 70
     1
102
RTVSPropertyOp10
 70
     1
102
RTVSPropertyOp11
 70
     1
102
RTVSPropertyOp12
 70
     1
102
RTVSPropertyOp13
 70
     1
102
RTVSPropertyOp14
 70
     1
102
RTVSPropertyOp15
 70
     1
102
RTVSPropertyOp16
 70
     1
102
RTVSPropertyOp17
 70
     1
102
RTVSPropertyOp18
 70
     1
102
RTVSPropertyOp19
 70
     1
102
RTVSPropertyOp20
 70
     1
102
RTVSPropertyOp21
 70
     1
102
RTVSPropertyOp22
 70
     1
102
RTVSPropertyOp23
 70
     1
102
RTVSPropertyOp24
 70
     1
102
RTVSPropertyOp25
 70
     1
102
RTVSPropertyOp26
 70
     1
102
RTVSPropertyOp27
 70
     1
102
RTVSPropertyOp28
 70
     1
102
RTVSPropertyOp29
 70
     1
102
RTVSPropertyOp30
 70
     1
102
RTVSPropertyOp31
 70
     1
102
RTVSPropertyOp32
 70
     1
102
RTVSPropertyOp33
 70
     1
102
RTVSPropertyOp34
 70
     1
102
RTVSPropertyOp35
 70
     1
102
RTVSPropertyOp36
 70
     1
102
RTVSPropertyOp37
 70
     1
102
RTVSPropertyOp38
 70
     1
102
RTVSPropertyOp39
 70
     1
102
RTVSPropertyOp40
 70
     1
102
RTVSPropertyOp41
 70
     1
102
RTVSPropertyOp42
 70
     1
102
RTVSPropertyOp43
 70
     1
102
RTVSPropertyOp44
 70
     1
102
RTVSPropertyOp45
 70
     1
102
RTVSPropertyOp46
 70
     1
102
RTVSPropertyOp47
 70
     1
102
RTVSPropertyOp48
 70
     1
102
RTVSPropertyOp49
 70
     1
102
RTVSPropertyOp50
 70
     1
102
RTVSPropertyOp51
 70
     0
102
RTVSPropertyOp52
 70
     0
102
RTVSPropertyOp53
 70
     1
102
RTVSPropertyOp54
 70
     1
102
RTVSPropertyOp55
 70
     1
102
RTVSPropertyOp56
 70
     1
102
RTVSPropertyOp57
 70
     1
102
RTVSPost2010Prop28
280
     0
102
RTVSPost2010PropOp28
 70
     1
102
RTVSPost2010Prop29
280
     1
102
RTVSPost2010PropOp29
 70
     1
102
RTVSPost2010Prop30
280
     1
102
RTVSPost2010PropOp30
 70
     1
102
RTVSPost2010Prop31
280
     0
102
RTVSPost2010PropOp31
 70
     1
102
RTVSPost2010Prop32
280
     0
102
RTVSPost2010PropOp32
 70
     1
102
RTVSPost2010Prop33
280
     0
102
RTVSPost2010PropOp33
 70
     1
102
RTVSPost2010Prop34
280
     0
102
RTVSPost2010PropOp34
 70
     1
102
RTVSPost2010Prop35
280
     0
102
RTVSPost2010PropOp35
 70
     1
102
RTVSPost2010Prop36
280
     0
102
RTVSPost2010PropOp36
 70
     1
102
RTVSPost2010Prop37
 90
       50
102
RTVSPost2010PropOp37
 70
     1
102
RTVSPost2010Prop38
140
0.0
102
RTVSPost2010PropOp38
 70
     1
102
RTVSPost2010Prop39
140
1.0
102
RTVSPost2010PropOp39
 70
     1
102
RTVSPost2010Prop40
 90
        0
102
RTVSPost2010PropOp40
 70
     1
102
RTVSPost2010Prop41ColorIndex
 90
       18
102
RTVSPost2010Prop41ColorRGB
 90
        0
102
RTVSPost2010PropOp41
 70
     1
102
RTVSPost2010Prop42
 90
       50
102
RTVSPost2010PropOp42
 70
     1
102
RTVSPost2010Prop43
 90
        3
102
RTVSPost2010PropOp43
 70
     1
102
RTVSPost2010Prop44ColorIndex
 90
        5
102
RTVSPost2010Prop44ColorRGB
 90
      255
102
RTVSPost2010PropOp44
 70
     1
102
RTVSPost2010Prop45
280
     0
102
RTVSPost2010PropOp45
 70
     1
102
RTVSPost2010Prop46
 90
       50
102
RTVSPost2010PropOp46
 70
     1
102
RTVSPost2010Prop47
 90
       50
102
RTVSPost2010PropOp47
 70
     1
102
RTVSPost2010Prop48
 90
       50
102
RTVSPost2010PropOp48
 70
     1
102
RTVSPost2010Prop49
280
     0
102
RTVSPost2010PropOp49
 70
     1
102
RTVSPost2010Prop50
 90
       50
102
RTVSPost2010PropOp50
 70
     1
102
RTVSPost2010Prop51ColorIndex
 90
      256
102
RTVSPost2010Prop51ColorRGB
 90
-16777216
102
RTVSPost2010PropOp51
 70
     0
102
RTVSPost2010Prop52
140
1.0
102
RTVSPost2010PropOp52
 70
     0
102
RTVSPost2010Prop53
 90
        2
102
RTVSPost2010PropOp53
 70
     1
102
RTVSPost2010Prop54
  1
strokes_ogs.tif
102
RTVSPost2010PropOp54
 70
     1
102
RTVSPost2010Prop55
280
     0
102
RTVSPost2010PropOp55
 70
     1
102
RTVSPost2010Prop56
140
1.0
102
RTVSPost2010PropOp56
 70
     1
102
RTVSPost2010Prop57
140
1.0
102
RTVSPost2010PropOp57
 70
     1
  0
XRECORD
  5
A6
102
{ACAD_REACTORS
330
A5
102
}
330
A5
100
AcDbXrecord
280
     1
102
RTVSPropertyOp0
 70
     1
102
RTVSPropertyOp1
 70
     1
102
RTVSPropertyOp2
 70
     1
102
RTVSPropertyOp3
 70
     1
102
RTVSPropertyOp4
 70
     1
102
RTVSPropertyOp5
 70
     1
102
RTVSPropertyOp6
 70
     1
102
RTVSPropertyOp7
 70
     1
102
RTVSPropertyOp8
 70
     1
102
RTVSPropertyOp9
 70
     1
102
RTVSPropertyOp10
 70
     1
102
RTVSPropertyOp11
 70
     1
102
RTVSPropertyOp12
 70
     1
102
RTVSPropertyOp13
 70
     1
102
RTVSPropertyOp14
 70
     1
102
RTVSPropertyOp15
 70
     1
102
RTVSPropertyOp16
 70
     1
102
RTVSPropertyOp17
 70
     1
102
RTVSPropertyOp18
 70
     1
102
RTVSPropertyOp19
 70
     1
102
RTVSPropertyOp20
 70
     1
102
RTVSPropertyOp21
 70
     1
102
RTVSPropertyOp22
 70
     1
102
RTVSPropertyOp23
 70
     1
102
RTVSPropertyOp24
 70
     1
102
RTVSPropertyOp25
 70
     1
102
RTVSPropertyOp26
 70
     1
102
RTVSPropertyOp27
 70
     1
102
RTVSPropertyOp28
 70
     1
102
RTVSPropertyOp29
 70
     1
102
RTVSPropertyOp30
 70
     1
102
RTVSPropertyOp31
 70
     1
102
RTVSPropertyOp32
 70
     1
102
RTVSPropertyOp33
 70
     1
102
RTVSPropertyOp34
 70
     1
102
RTVSPropertyOp35
 70
     1
102
RTVSPropertyOp36
 70
     1
102
RTVSPropertyOp37
 70
     1
102
RTVSPropertyOp38
 70
     1
102
RTVSPropertyOp39
 70
     1
102
RTVSPropertyOp40
 70
     1
102
RTVSPropertyOp41
 70
     1
102
RTVSPropertyOp42
 70
     1
102
RTVSPropertyOp43
 70
     1
102
RTVSPropertyOp44
 70
     1
102
RTVSPropertyOp45
 70
     1
102
RTVSPropertyOp46
 70
     1
102
RTVSPropertyOp47
 70
     1
102
RTVSPropertyOp48
 70
     1
102
RTVSPropertyOp49
 70
     1
102
RTVSPropertyOp50
 70
     1
102
RTVSPropertyOp51
 70
     0
102
RTVSPropertyOp52
 70
     0
102
RTVSPropertyOp53
 70
     1
102
RTVSPropertyOp54
 70
     1
102
RTVSPropertyOp55
 70
     1
102
RTVSPropertyOp56
 70
     1
102
RTVSPropertyOp57
 70
     1
102
RTVSPost2010Prop28
280
     0
102
RTVSPost2010PropOp28
 70
     1
102
RTVSPost2010Prop29
280
     1
102
RTVSPost2010PropOp29
 70
     1
102
RTVSPost2010Prop30
280
     1
102
RTVSPost2010PropOp30
 70
     1
102
RTVSPost2010Prop31
280
     0
102
RTVSPost2010PropOp31
 70
     1
102
RTVSPost2010Prop32
280
     0
102
RTVSPost2010PropOp32
 70
     1
102
RTVSPost2010Prop33
280
     0
102
RTVSPost2010PropOp33
 70
     1
102
RTVSPost2010Prop34
280
     0
102
RTVSPost2010PropOp34
 70
     1
102
RTVSPost2010Prop35
280
     0
102
RTVSPost2010PropOp35
 70
     1
102
RTVSPost2010Prop36
280
     0
102
RTVSPost2010PropOp36
 70
     1
102
RTVSPost2010Prop37
 90
       50
102
RTVSPost2010PropOp37
 70
     1
102
RTVSPost2010Prop38
140
0.0
102
RTVSPost2010PropOp38
 70
     1
102
RTVSPost2010Prop39
140
1.0
102
RTVSPost2010PropOp39
 70
     1
102
RTVSPost2010Prop40
 90
        0
102
RTVSPost2010PropOp40
 70
     1
102
RTVSPost2010Prop41ColorIndex
 90
       18
102
RTVSPost2010Prop41ColorRGB
 90
        0
102
RTVSPost2010PropOp41
 70
     1
102
RTVSPost2010Prop42
 90
       50
102
RTVSPost2010PropOp42
 70
     1
102
RTVSPost2010Prop43
 90
        3
102
RTVSPost2010PropOp43
 70
     1
102
RTVSPost2010Prop44ColorIndex
 90
        5
102
RTVSPost2010Prop44ColorRGB
 90
      255
102
RTVSPost2010PropOp44
 70
     1
102
RTVSPost2010Prop45
280
     0
102
RTVSPost2010PropOp45
 70
     1
102
RTVSPost2010Prop46
 90
       50
102
RTVSPost2010PropOp46
 70
     1
102
RTVSPost2010Prop47
 90
       50
102
RTVSPost2010PropOp47
 70
     1
102
RTVSPost2010Prop48
 90
       50
102
RTVSPost2010PropOp48
 70
     1
102
RTVSPost2010Prop49
280
     0
102
RTVSPost2010PropOp49
 70
     1
102
RTVSPost2010Prop50
 90
       50
102
RTVSPost2010PropOp50
 70
     1
102
RTVSPost2010Prop51ColorIndex
 90
      256
102
RTVSPost2010Prop51ColorRGB
 90
-16777216
102
RTVSPost2010PropOp51
 70
     0
102
RTVSPost2010Prop52
140
1.0
102
RTVSPost2010PropOp52
 70
     0
102
RTVSPost2010Prop53
 90
        2
102
RTVSPost2010PropOp53
 70
     1
102
RTVSPost2010Prop54
  1
strokes_ogs.tif
102
RTVSPost2010PropOp54
 70
     1
102
RTVSPost2010Prop55
280
     0
102
RTVSPost2010PropOp55
 70
     1
102
RTVSPost2010Prop56
140
1.0
102
RTVSPost2010PropOp56
 70
     1
102
RTVSPost2010Prop57
140
1.0
102
RTVSPost2010PropOp57
 70
     1
  0
XRECORD
  5
C6
102
{ACAD_REACTORS
330
C5
102
}
330
C5
100
AcDbXrecord
280
     1
102
RTVSPropertyOp0
 70
     1
102
RTVSPropertyOp1
 70
     1
102
RTVSPropertyOp2
 70
     1
102
RTVSPropertyOp3
 70
     1
102
RTVSPropertyOp4
 70
     1
102
RTVSPropertyOp5
 70
     1
102
RTVSPropertyOp6
 70
     1
102
RTVSPropertyOp7
 70
     1
102
RTVSPropertyOp8
 70
     1
102
RTVSPropertyOp9
 70
     1
102
RTVSPropertyOp10
 70
     1
102
RTVSPropertyOp11
 70
     1
102
RTVSPropertyOp12
 70
     1
102
RTVSPropertyOp13
 70
     1
102
RTVSPropertyOp14
 70
     1
102
RTVSPropertyOp15
 70
     1
102
RTVSPropertyOp16
 70
     1
102
RTVSPropertyOp17
 70
     1
102
RTVSPropertyOp18
 70
     1
102
RTVSPropertyOp19
 70
     1
102
RTVSPropertyOp20
 70
     1
102
RTVSPropertyOp21
 70
     1
102
RTVSPropertyOp22
 70
     1
102
RTVSPropertyOp23
 70
     1
102
RTVSPropertyOp24
 70
     1
102
RTVSPropertyOp25
 70
     1
102
RTVSPropertyOp26
 70
     1
102
RTVSPropertyOp27
 70
     1
102
RTVSPropertyOp28
 70
     1
102
RTVSPropertyOp29
 70
     1
102
RTVSPropertyOp30
 70
     1
102
RTVSPropertyOp31
 70
     1
102
RTVSPropertyOp32
 70
     1
102
RTVSPropertyOp33
 70
     1
102
RTVSPropertyOp34
 70
     1
102
RTVSPropertyOp35
 70
     1
102
RTVSPropertyOp36
 70
     1
102
RTVSPropertyOp37
 70
     1
102
RTVSPropertyOp38
 70
     1
102
RTVSPropertyOp39
 70
     1
102
RTVSPropertyOp40
 70
     1
102
RTVSPropertyOp41
 70
     1
102
RTVSPropertyOp42
 70
     1
102
RTVSPropertyOp43
 70
     1
102
RTVSPropertyOp44
 70
     1
102
RTVSPropertyOp45
 70
     1
102
RTVSPropertyOp46
 70
     1
102
RTVSPropertyOp47
 70
     1
102
RTVSPropertyOp48
 70
     1
102
RTVSPropertyOp49
 70
     1
102
RTVSPropertyOp50
 70
     1
102
RTVSPropertyOp51
 70
     0
102
RTVSPropertyOp52
 70
     0
102
RTVSPropertyOp53
 70
     1
102
RTVSPropertyOp54
 70
     1
102
RTVSPropertyOp55
 70
     1
102
RTVSPropertyOp56
 70
     1
102
RTVSPropertyOp57
 70
     1
102
RTVSPost2010Prop28
280
     0
102
RTVSPost2010PropOp28
 70
     1
102
RTVSPost2010Prop29
280
     1
102
RTVSPost2010PropOp29
 70
     1
102
RTVSPost2010Prop30
280
     1
102
RTVSPost2010PropOp30
 70
     1
102
RTVSPost2010Prop31
280
     0
102
RTVSPost2010PropOp31
 70
     1
102
RTVSPost2010Prop32
280
     0
102
RTVSPost2010PropOp32
 70
     1
102
RTVSPost2010Prop33
280
     0
102
RTVSPost2010PropOp33
 70
     1
102
RTVSPost2010Prop34
280
     0
102
RTVSPost2010PropOp34
 70
     1
102
RTVSPost2010Prop35
280
     0
102
RTVSPost2010PropOp35
 70
     1
102
RTVSPost2010Prop36
280
     0
102
RTVSPost2010PropOp36
 70
     1
102
RTVSPost2010Prop37
 90
       50
102
RTVSPost2010PropOp37
 70
     1
102
RTVSPost2010Prop38
140
0.0
102
RTVSPost2010PropOp38
 70
     1
102
RTVSPost2010Prop39
140
1.0
102
RTVSPost2010PropOp39
 70
     1
102
RTVSPost2010Prop40
 90
        0
102
RTVSPost2010PropOp40
 70
     1
102
RTVSPost2010Prop41ColorIndex
 90
       18
102
RTVSPost2010Prop41ColorRGB
 90
        0
102
RTVSPost2010PropOp41
 70
     1
102
RTVSPost2010Prop42
 90
       50
102
RTVSPost2010PropOp42
 70
     1
102
RTVSPost2010Prop43
 90
        3
102
RTVSPost2010PropOp43
 70
     1
102
RTVSPost2010Prop44ColorIndex
 90
        5
102
RTVSPost2010Prop44ColorRGB
 90
      255
102
RTVSPost2010PropOp44
 70
     1
102
RTVSPost2010Prop45
280
     0
102
RTVSPost2010PropOp45
 70
     1
102
RTVSPost2010Prop46
 90
       50
102
RTVSPost2010PropOp46
 70
     1
102
RTVSPost2010Prop47
 90
       50
102
RTVSPost2010PropOp47
 70
     1
102
RTVSPost2010Prop48
 90
       50
102
RTVSPost2010PropOp48
 70
     1
102
RTVSPost2010Prop49
280
     0
102
RTVSPost2010PropOp49
 70
     1
102
RTVSPost2010Prop50
 90
       50
102
RTVSPost2010PropOp50
 70
     1
102
RTVSPost2010Prop51ColorIndex
 90
      256
102
RTVSPost2010Prop51ColorRGB
 90
-16777216
102
RTVSPost2010PropOp51
 70
     0
102
RTVSPost2010Prop52
140
1.0
102
RTVSPost2010PropOp52
 70
     0
102
RTVSPost2010Prop53
 90
        2
102
RTVSPost2010PropOp53
 70
     1
102
RTVSPost2010Prop54
  1
strokes_ogs.tif
102
RTVSPost2010PropOp54
 70
     1
102
RTVSPost2010Prop55
280
     0
102
RTVSPost2010PropOp55
 70
     1
102
RTVSPost2010Prop56
140
1.0
102
RTVSPost2010PropOp56
 70
     1
102
RTVSPost2010Prop57
140
1.0
102
RTVSPost2010PropOp57
 70
     1
  0
ENDSEC
  0
EOF
