ISO-10303-21;
HEADER;
/* Generated by software containing ST-Developer
 * from STEP Tools, Inc. (www.steptools.com) 
 */

FILE_DESCRIPTION(
/* description */ (''),
/* implementation_level */ '2;1');

FILE_NAME(
/* name */ 'Earcup.step',
/* time_stamp */ '2025-09-09T20:17:42+02:00',
/* author */ (''),
/* organization */ (''),
/* preprocessor_version */ 'ST-DEVELOPER v20.1',
/* originating_system */ 'Autodesk Translation Framework v14.10.0.0',
/* authorisation */ '');

FILE_SCHEMA (('AUTOMOTIVE_DESIGN { 1 0 10303 214 3 1 1 }'));
ENDSEC;

DATA;
#10=MECHANICAL_DESIGN_GEOMETRIC_PRESENTATION_REPRESENTATION('',(#13),#100);
#11=SHAPE_REPRESENTATION_RELATIONSHIP('SRR','None',#107,#12);
#12=ADVANCED_BREP_SHAPE_REPRESENTATION('',(#14),#99);
#13=STYLED_ITEM('',(#119),#14);
#14=MANIFOLD_SOLID_BREP('RIghtEarcup',#51);
#15=SPHERICAL_SURFACE('',#70,8.19514429683921);
#16=LINE('',#94,#17);
#17=VECTOR('',#81,1.09999999999994);
#18=CYLINDRICAL_SURFACE('',#68,1.09999999999994);
#19=FACE_BOUND('',#25,.T.);
#20=FACE_BOUND('',#28,.T.);
#21=FACE_OUTER_BOUND('',#24,.T.);
#22=FACE_OUTER_BOUND('',#26,.T.);
#23=FACE_OUTER_BOUND('',#27,.T.);
#24=EDGE_LOOP('',(#39));
#25=EDGE_LOOP('',(#40));
#26=EDGE_LOOP('',(#41,#42,#43,#44));
#27=EDGE_LOOP('',(#45));
#28=EDGE_LOOP('',(#46));
#29=CIRCLE('',#66,7.96610169491526);
#30=CIRCLE('',#67,1.09999999999993);
#31=CIRCLE('',#69,1.09999999999995);
#32=VERTEX_POINT('',#88);
#33=VERTEX_POINT('',#90);
#34=VERTEX_POINT('',#93);
#35=EDGE_CURVE('',#32,#32,#29,.T.);
#36=EDGE_CURVE('',#33,#33,#30,.T.);
#37=EDGE_CURVE('',#33,#34,#16,.T.);
#38=EDGE_CURVE('',#34,#34,#31,.T.);
#39=ORIENTED_EDGE('',*,*,#35,.T.);
#40=ORIENTED_EDGE('',*,*,#36,.F.);
#41=ORIENTED_EDGE('',*,*,#36,.T.);
#42=ORIENTED_EDGE('',*,*,#37,.T.);
#43=ORIENTED_EDGE('',*,*,#38,.F.);
#44=ORIENTED_EDGE('',*,*,#37,.F.);
#45=ORIENTED_EDGE('',*,*,#35,.F.);
#46=ORIENTED_EDGE('',*,*,#38,.T.);
#47=PLANE('',#65);
#48=ADVANCED_FACE('',(#21,#19),#47,.T.);
#49=ADVANCED_FACE('',(#22),#18,.F.);
#50=ADVANCED_FACE('',(#23,#20),#15,.T.);
#51=CLOSED_SHELL('',(#48,#49,#50));
#52=DERIVED_UNIT_ELEMENT(#54,1.);
#53=DERIVED_UNIT_ELEMENT(#102,-3.);
#54=(
MASS_UNIT()
NAMED_UNIT(*)
SI_UNIT(.KILO.,.GRAM.)
);
#55=DERIVED_UNIT((#52,#53));
#56=MEASURE_REPRESENTATION_ITEM('density measure',
POSITIVE_RATIO_MEASURE(2700.),#55);
#57=PROPERTY_DEFINITION_REPRESENTATION(#62,#59);
#58=PROPERTY_DEFINITION_REPRESENTATION(#63,#60);
#59=REPRESENTATION('material name',(#61),#99);
#60=REPRESENTATION('density',(#56),#99);
#61=DESCRIPTIVE_REPRESENTATION_ITEM('Aluminum','Aluminum');
#62=PROPERTY_DEFINITION('material property','material name',#109);
#63=PROPERTY_DEFINITION('material property','density of part',#109);
#64=AXIS2_PLACEMENT_3D('',#86,#71,#72);
#65=AXIS2_PLACEMENT_3D('',#87,#73,#74);
#66=AXIS2_PLACEMENT_3D('',#89,#75,#76);
#67=AXIS2_PLACEMENT_3D('',#91,#77,#78);
#68=AXIS2_PLACEMENT_3D('',#92,#79,#80);
#69=AXIS2_PLACEMENT_3D('',#95,#82,#83);
#70=AXIS2_PLACEMENT_3D('',#96,#84,#85);
#71=DIRECTION('axis',(0.,0.,1.));
#72=DIRECTION('refdir',(1.,0.,0.));
#73=DIRECTION('center_axis',(1.,0.,0.));
#74=DIRECTION('ref_axis',(0.,0.,-1.));
#75=DIRECTION('center_axis',(1.,0.,0.));
#76=DIRECTION('ref_axis',(0.,0.,-1.));
#77=DIRECTION('center_axis',(1.,0.,0.));
#78=DIRECTION('ref_axis',(0.,0.,-1.));
#79=DIRECTION('center_axis',(1.,0.,0.));
#80=DIRECTION('ref_axis',(0.,1.,0.));
#81=DIRECTION('',(-1.,0.,0.));
#82=DIRECTION('center_axis',(1.,0.,0.));
#83=DIRECTION('ref_axis',(0.,0.,-1.));
#84=DIRECTION('center_axis',(0.,0.,1.));
#85=DIRECTION('ref_axis',(-0.999996878164867,-0.00249873178225709,0.));
#86=CARTESIAN_POINT('',(0.,0.,0.));
#87=CARTESIAN_POINT('Origin',(-15.7627118644068,48.3203389830508,0.));
#88=CARTESIAN_POINT('',(-15.7627118644068,55.1864406779661,0.));
#89=CARTESIAN_POINT('Origin',(-15.7627118644068,47.2203389830508,0.));
#90=CARTESIAN_POINT('',(-15.7627118644068,46.1203389830509,-1.34711147906202E-16));
#91=CARTESIAN_POINT('Origin',(-15.7627118644068,47.2203389830508,0.));
#92=CARTESIAN_POINT('Origin',(-18.8612252108545,47.2203389830508,0.));
#93=CARTESIAN_POINT('',(-21.9597385573022,46.1203389830509,-1.34711147906202E-16));
#94=CARTESIAN_POINT('',(-18.8612252108545,46.1203389830509,-1.34711147906202E-16));
#95=CARTESIAN_POINT('Origin',(-21.9597385573022,47.2203389830508,0.));
#96=CARTESIAN_POINT('Origin',(-13.8387540082456,47.2203389830508,0.));
#97=UNCERTAINTY_MEASURE_WITH_UNIT(LENGTH_MEASURE(0.01),#101,
'DISTANCE_ACCURACY_VALUE',
'Maximum model space distance between geometric entities at asserted c
onnectivities');
#98=UNCERTAINTY_MEASURE_WITH_UNIT(LENGTH_MEASURE(0.01),#101,
'DISTANCE_ACCURACY_VALUE',
'Maximum model space distance between geometric entities at asserted c
onnectivities');
#99=(
GEOMETRIC_REPRESENTATION_CONTEXT(3)
GLOBAL_UNCERTAINTY_ASSIGNED_CONTEXT((#97))
GLOBAL_UNIT_ASSIGNED_CONTEXT((#101,#103,#104))
REPRESENTATION_CONTEXT('','3D')
);
#100=(
GEOMETRIC_REPRESENTATION_CONTEXT(3)
GLOBAL_UNCERTAINTY_ASSIGNED_CONTEXT((#98))
GLOBAL_UNIT_ASSIGNED_CONTEXT((#101,#103,#104))
REPRESENTATION_CONTEXT('','3D')
);
#101=(
LENGTH_UNIT()
NAMED_UNIT(*)
SI_UNIT(.MILLI.,.METRE.)
);
#102=(
LENGTH_UNIT()
NAMED_UNIT(*)
SI_UNIT($,.METRE.)
);
#103=(
NAMED_UNIT(*)
PLANE_ANGLE_UNIT()
SI_UNIT($,.RADIAN.)
);
#104=(
NAMED_UNIT(*)
SI_UNIT($,.STERADIAN.)
SOLID_ANGLE_UNIT()
);
#105=SHAPE_DEFINITION_REPRESENTATION(#106,#107);
#106=PRODUCT_DEFINITION_SHAPE('',$,#109);
#107=SHAPE_REPRESENTATION('',(#64),#99);
#108=PRODUCT_DEFINITION_CONTEXT('part definition',#113,'design');
#109=PRODUCT_DEFINITION('2025-09-09-20-17-42-373','Head',#110,#108);
#110=PRODUCT_DEFINITION_FORMATION('',$,#115);
#111=PRODUCT_RELATED_PRODUCT_CATEGORY('Head','Head',(#115));
#112=APPLICATION_PROTOCOL_DEFINITION('international standard',
'automotive_design',2009,#113);
#113=APPLICATION_CONTEXT(
'Core Data for Automotive Mechanical Design Process');
#114=PRODUCT_CONTEXT('part definition',#113,'mechanical');
#115=PRODUCT('2025-09-09-20-17-42-373','Head',$,(#114));
#116=PRESENTATION_STYLE_ASSIGNMENT((#120));
#117=PRESENTATION_STYLE_ASSIGNMENT((#121));
#118=PRESENTATION_STYLE_ASSIGNMENT((#122));
#119=PRESENTATION_STYLE_ASSIGNMENT((#123));
#120=SURFACE_STYLE_USAGE(.BOTH.,#124);
#121=SURFACE_STYLE_USAGE(.BOTH.,#125);
#122=SURFACE_STYLE_USAGE(.BOTH.,#126);
#123=SURFACE_STYLE_USAGE(.BOTH.,#127);
#124=SURFACE_SIDE_STYLE('',(#128));
#125=SURFACE_SIDE_STYLE('',(#129));
#126=SURFACE_SIDE_STYLE('',(#130));
#127=SURFACE_SIDE_STYLE('',(#131));
#128=SURFACE_STYLE_FILL_AREA(#132);
#129=SURFACE_STYLE_FILL_AREA(#133);
#130=SURFACE_STYLE_FILL_AREA(#134);
#131=SURFACE_STYLE_FILL_AREA(#135);
#132=FILL_AREA_STYLE('Aluminum - Satin',(#136));
#133=FILL_AREA_STYLE('Polymide (Kapton)',(#137));
#134=FILL_AREA_STYLE('Plastic - Glossy (Black)',(#138));
#135=FILL_AREA_STYLE('Plastic - Matte (Red)',(#139));
#136=FILL_AREA_STYLE_COLOUR('Aluminum - Satin',#140);
#137=FILL_AREA_STYLE_COLOUR('Polymide (Kapton)',#141);
#138=FILL_AREA_STYLE_COLOUR('Plastic - Glossy (Black)',#142);
#139=FILL_AREA_STYLE_COLOUR('Plastic - Matte (Red)',#143);
#140=COLOUR_RGB('Aluminum - Satin',0.96078431372549,0.96078431372549,0.964705882352941);
#141=COLOUR_RGB('Polymide (Kapton)',0.784313725490196,0.556862745098039,
0.0274509803921569);
#142=COLOUR_RGB('Plastic - Glossy (Black)',0.0980392156862745,0.0980392156862745,
0.0980392156862745);
#143=COLOUR_RGB('Plastic - Matte (Red)',0.768627450980392,0.207843137254902,
0.152941176470588);
ENDSEC;
END-ISO-10303-21;
