0
SECTION
2
HEADER
9
$INSUNITS
70
4
9
$ACADVER
1
AC1014
9
$HANDSEED
5
FFFF
0
ENDSEC
0
SECTION
2
TABLES
0
TABLE
2
VPORT
5
8
100
AcDbSymbolTable
0
ENDTAB
0
TABLE
2
LTYPE
5
5
100
AcDbSymbolTable
0
LTYPE
5
14
100
AcDbSymbolTableRecord
100
AcDbLinetypeTableRecord
2
BYBLOCK
70
0
0
LTYPE
5
15
100
AcDbSymbolTableRecord
100
AcDbLinetypeTableRecord
2
BYLAYER
70
0
0
ENDTAB
0
TABLE
2
LAYER
5
2
100
AcDbSymbolTable
70
2
0
LAYER
5
50
100
AcDbSymbolTableRecord
100
AcDbLayerTableRecord
2
0
70
0
6
CONTINUOUS
0
ENDTAB
0
TABLE
2
STYLE
5
3
100
AcDbSymbolTable
70
1
0
STYLE
5
11
100
AcDbSymbolTableRecord
100
AcDbTextStyleTableRecord
2
STANDARD
70
0
0
ENDTAB
0
TABLE
2
VIEW
5
6
100
AcDbSymbolTable
70
0
0
ENDTAB
0
TABLE
2
UCS
5
7
100
AcDbSymbolTable
70
0
0
ENDTAB
0
TABLE
2
APPID
5
9
100
AcDbSymbolTable
70
2
0
APPID
5
12
100
AcDbSymbolTableRecord
100
AcDbRegAppTableRecord
2
ACAD
70
0
0
ENDTAB
0
TABLE
2
DIMSTYLE
5
A
100
AcDbSymbolTable
70
1
0
ENDTAB
0
TABLE
2
BLOCK_RECORD
5
1
100
AcDbSymbolTable
70
1
0
BLOCK_RECORD
5
1F
100
AcDbSymbolTableRecord
100
AcDbBlockTableRecord
2
*MODEL_SPACE
0
BLOCK_RECORD
5
1B
100
AcDbSymbolTableRecord
100
AcDbBlockTableRecord
2
*PAPER_SPACE
0
ENDTAB
0
ENDSEC
0
SECTION
2
BLOCKS
0
BLOCK
5
20
100
AcDbEntity
100
AcDbBlockBegin
2
*MODEL_SPACE
0
ENDBLK
5
21
100
AcDbEntity
100
AcDbBlockEnd
0
BLOCK
5
1C
100
AcDbEntity
100
AcDbBlockBegin
2
*PAPER_SPACE
0
ENDBLK
5
1D
100
AcDbEntity
100
AcDbBlockEnd
0
ENDSEC
0
SECTION
2
ENTITIES
0
LINE
5
100
100
AcDbEntity
8
0
100
AcDbLine
10
27.550806297445941
20
-16.499073719558552
30
0
11
26.659344776943978
21
-16.499073719558552
31
0
0
LINE
5
101
100
AcDbEntity
8
0
100
AcDbLine
10
26.659344776943978
20
-16.499073719558552
30
0
11
26.659344776943978
21
-22.499073548516449
31
0
0
LINE
5
102
100
AcDbEntity
8
0
100
AcDbLine
10
26.659344776943978
20
-22.499073548516449
30
0
11
24.659337656675753
21
-22.499073548516449
31
0
0
LINE
5
103
100
AcDbEntity
8
0
100
AcDbLine
10
24.659337656675753
20
-22.499073548516449
30
0
11
24.659337656675753
21
-16.499073719558552
31
0
0
LINE
5
104
100
AcDbEntity
8
0
100
AcDbLine
10
24.659337656675753
20
-16.499073719558552
30
0
11
23.767854604327013
21
-16.499073719558552
31
0
0
SPLINE
5
105
100
AcDbEntity
8
0
100
AcDbSpline
70
0
71
3
72
8
73
4
74
0
42
0.000000001
43
0.0000000001
44
0.0000000001
40
5
40
5
40
5
40
5
40
6
40
6
40
6
40
6
10
23.767854604327013
20
-16.499073719558552
30
0
10
23.767804627738855
20
-16.499075249472369
30
0
10
9.9375833743318829
20
-16.922454422848972
30
0
10
12.61896578604218
20
-35.692131304821046
30
0
0
SPLINE
5
106
100
AcDbEntity
8
0
100
AcDbSpline
70
0
71
3
72
8
73
4
74
0
42
0.000000001
43
0.0000000001
44
0.0000000001
40
6
40
6
40
6
40
6
40
7
40
7
40
7
40
7
10
12.61896578604218
20
-35.692131304821046
30
0
10
12.618978510709875
20
-35.69217965854719
30
0
10
17.558349906172349
20
-54.461786654946359
30
0
10
13.747966640252109
20
-59.401170775076508
30
0
0
SPLINE
5
107
100
AcDbEntity
8
0
100
AcDbSpline
70
0
71
3
72
8
73
4
74
0
42
0.000000001
43
0.0000000001
44
0.0000000001
40
7
40
7
40
7
40
7
40
8
40
8
40
8
40
8
10
13.747966640252109
20
-59.401170775076508
30
0
10
13.747958842170956
20
-59.401220163232281
30
0
10
12.477846062227631
20
-67.445318010207401
30
0
10
14.735847770647501
20
-73.513702984547521
30
0
0
SPLINE
5
108
100
AcDbEntity
8
0
100
AcDbSpline
70
0
71
3
72
8
73
4
74
0
42
0.000000001
43
0.0000000001
44
0.0000000001
40
8
40
8
40
8
40
8
40
9
40
9
40
9
40
9
10
14.735847770647501
20
-73.513702984547521
30
0
10
14.735853535490605
20
-73.513752651101512
30
0
10
16.570468775776959
20
-89.3197364753334
30
0
10
14.594728046832962
20
-92.988978485592327
30
0
0
SPLINE
5
109
100
AcDbEntity
8
0
100
AcDbSpline
70
0
71
3
72
8
73
4
74
0
42
0.000000001
43
0.0000000001
44
0.0000000001
40
9
40
9
40
9
40
9
40
10
40
10
40
10
40
10
10
14.594728046832962
20
-92.988978485592327
30
0
10
14.594735463523591
20
-92.989027932459749
30
0
10
15.018087218276598
20
-95.811502152963953
30
0
10
16.993849479067382
20
-95.811502152963953
30
0
0
SPLINE
5
110
100
AcDbEntity
8
0
100
AcDbSpline
70
0
71
3
72
8
73
4
74
0
42
0.000000001
43
0.0000000001
44
0.0000000001
40
10
40
10
40
10
40
10
40
11
40
11
40
11
40
11
10
16.993849479067382
20
-95.811502152963953
30
0
10
16.993881008461809
20
-95.811463347071538
30
0
10
18.828470484196828
20
-93.553478912697301
30
0
10
20.521971765511744
20
-95.811502152963953
30
0
0
SPLINE
5
111
100
AcDbEntity
8
0
100
AcDbSpline
70
0
71
3
72
8
73
4
74
0
42
0.000000001
43
0.0000000001
44
0.0000000001
40
11
40
11
40
11
40
11
40
12
40
12
40
12
40
12
10
20.521971765511744
20
-95.811502152963953
30
0
10
20.522013076891007
20
-95.811473986140498
30
0
10
23.626734880512462
20
-93.694620168358625
30
0
10
22.074353323012105
20
-90.73097677717243
30
0
0
SPLINE
5
112
100
AcDbEntity
8
0
100
AcDbSpline
70
0
71
3
72
8
73
4
74
0
42
0.000000001
43
0.0000000001
44
0.0000000001
40
12
40
12
40
12
40
12
40
13
40
13
40
13
40
13
10
22.074353323012105
20
-90.73097677717243
30
0
10
22.074342908410639
20
-90.730927873838425
30
0
10
18.828470484196828
20
-75.489443713491511
30
0
10
20.239732317882648
20
-73.513702984547521
30
0
0
SPLINE
5
113
100
AcDbEntity
8
0
100
AcDbSpline
70
0
71
3
72
8
73
4
74
0
42
0.000000001
43
0.0000000001
44
0.0000000001
40
13
40
13
40
13
40
13
40
14
40
14
40
14
40
14
10
20.239732317882648
20
-73.513702984547521
30
0
10
20.239746787307055
20
-73.513655123960845
30
0
10
22.074353323012105
20
-67.445318010207401
30
0
10
20.663113021173068
20
-61.659172483496398
30
0
0
SPLINE
5
114
100
AcDbEntity
8
0
100
AcDbSpline
70
0
71
3
72
8
73
4
74
0
42
0.000000001
43
0.0000000001
44
0.0000000001
40
14
40
14
40
14
40
14
40
15
40
15
40
15
40
15
10
20.663113021173068
20
-61.659172483496398
30
0
10
20.663109836127603
20
-61.659122585044663
30
0
10
19.816351614592218
20
-48.393401680606232
30
0
10
25.32023616182736
20
-44.583018414686002
30
0
0
LINE
5
115
100
AcDbEntity
8
0
100
AcDbLine
10
25.32023616182736
20
-44.583018414686002
30
0
11
25.99842473994558
21
-44.583018414686002
31
0
0
SPLINE
5
116
100
AcDbEntity
8
0
100
AcDbSpline
70
0
71
3
72
8
73
4
74
0
42
0.000000001
43
0.0000000001
44
0.0000000001
40
16
40
16
40
16
40
16
40
17
40
17
40
17
40
17
10
25.99842473994558
20
-44.583018414686002
30
0
10
31.502309287180719
20
-48.393401680606232
30
0
10
30.655572597411471
20
-61.659122585039519
30
0
10
30.65556941244666
20
-61.659172483496398
30
0
0
SPLINE
5
117
100
AcDbEntity
8
0
100
AcDbSpline
70
0
71
3
72
8
73
4
74
0
42
0.000000001
43
0.0000000001
44
0.0000000001
40
17
40
17
40
17
40
17
40
18
40
18
40
18
40
18
10
30.65556941244666
20
-61.659172483496398
30
0
10
29.244307578760843
20
-67.445318010207401
30
0
10
31.078935646157078
20
-73.513655124007883
30
0
10
31.078950115737079
20
-73.513702984547521
30
0
0
SPLINE
5
118
100
AcDbEntity
8
0
100
AcDbSpline
70
0
71
3
72
8
73
4
74
0
42
0.000000001
43
0.0000000001
44
0.0000000001
40
18
40
18
40
18
40
18
40
19
40
19
40
19
40
19
10
31.078950115737079
20
-73.513702984547521
30
0
10
32.490190417576116
20
-75.489443713491511
30
0
10
29.244317993362309
20
-90.730927873838425
30
0
10
29.244307578760843
20
-90.73097677717243
30
0
0
SPLINE
5
119
100
AcDbEntity
8
0
100
AcDbSpline
70
0
71
3
72
8
73
4
74
0
42
0.000000001
43
0.0000000001
44
0.0000000001
40
19
40
19
40
19
40
19
40
20
40
20
40
20
40
20
10
29.244307578760843
20
-90.73097677717243
30
0
10
27.691926021260489
20
-93.694620168358625
30
0
10
30.796647824881941
20
-95.811473986140498
30
0
10
30.796689136261204
20
-95.811502152963953
30
0
0
SPLINE
5
120
100
AcDbEntity
8
0
100
AcDbSpline
70
0
71
3
72
8
73
4
74
0
42
0.000000001
43
0.0000000001
44
0.0000000001
40
20
40
20
40
20
40
20
40
21
40
21
40
21
40
21
10
30.796689136261204
20
-95.811502152963953
30
0
10
32.490190417576116
20
-93.553478912697301
30
0
10
34.324779893311145
20
-95.811463347071538
30
0
10
34.324811422705572
20
-95.811502152963953
30
0
0
SPLINE
5
121
100
AcDbEntity
8
0
100
AcDbSpline
70
0
71
3
72
8
73
4
74
0
42
0.000000001
43
0.0000000001
44
0.0000000001
40
21
40
21
40
21
40
21
40
22
40
22
40
22
40
22
10
34.324811422705572
20
-95.811502152963953
30
0
10
36.300573683496353
20
-95.811502152963953
30
0
10
36.723946969727237
20
-92.989027932404426
30
0
10
36.723954386786772
20
-92.988978485592327
30
0
0
SPLINE
5
122
100
AcDbEntity
8
0
100
AcDbSpline
70
0
71
3
72
8
73
4
74
0
42
0.000000001
43
0.0000000001
44
0.0000000001
40
22
40
22
40
22
40
22
40
23
40
23
40
23
40
23
10
36.723954386786772
20
-92.988978485592327
30
0
10
34.748192125995978
20
-89.3197364753334
30
0
10
36.58282889806236
20
-73.513752651093753
30
0
10
36.582834662972218
20
-73.513702984547521
30
0
0
SPLINE
5
123
100
AcDbEntity
8
0
100
AcDbSpline
70
0
71
3
72
8
73
4
74
0
42
0.000000001
43
0.0000000001
44
0.0000000001
40
23
40
23
40
23
40
23
40
24
40
24
40
24
40
24
10
36.582834662972218
20
-73.513702984547521
30
0
10
38.840836371392093
20
-67.445318010207401
30
0
10
37.570702059730962
20
-59.40122016321191
30
0
10
37.570694261520828
20
-59.401170775076508
30
0
0
SPLINE
5
124
100
AcDbEntity
8
0
100
AcDbSpline
70
0
71
3
72
8
73
4
74
0
42
0.000000001
43
0.0000000001
44
0.0000000001
40
24
40
24
40
24
40
24
40
25
40
25
40
25
40
25
10
37.570694261520828
20
-59.401170775076508
30
0
10
33.760310995600591
20
-54.461786654946359
30
0
10
38.699682391063064
20
-35.69217965854719
30
0
10
38.699695115730755
20
-35.692131304821046
30
0
0
SPLINE
5
125
100
AcDbEntity
8
0
100
AcDbSpline
70
0
71
3
72
8
73
4
74
0
42
0.000000001
43
0.0000000001
44
0.0000000001
40
25
40
25
40
25
40
25
40
26
40
26
40
26
40
26
10
38.699695115730755
20
-35.692131304821046
30
0
10
41.381077527441064
20
-16.922454422848972
30
0
10
27.5508562740341
20
-16.499075249472369
30
0
10
27.550806297445941
20
-16.499073719558552
30
0
0
SPLINE
5
126
100
AcDbEntity
8
0
100
AcDbSpline
70
0
71
3
72
14
73
10
74
0
42
0.000000001
43
0.0000000001
44
0.0000000001
40
0
40
0
40
0
40
0
40
1
40
1
40
1
40
2
40
2
40
2
40
3
40
3
40
3
40
3
10
-21.541076865817722
20
65.386754913941346
30
0
10
-21.619108278558631
20
65.261008928729737
30
0
10
-21.8111936983119
20
65.310166145039787
30
0
10
-21.819246794404862
20
65.457917667558533
30
0
10
-21.887738022234529
20
66.714537863591886
30
0
10
-21.786041032688818
20
70.270411499120485
30
0
10
-18.930189720474353
20
73.61988716828499
30
0
10
-18.657380872685309
20
73.939850113867635
30
0
10
-18.441610585125574
20
74.303264921477847
30
0
10
-18.292760928316
20
74.696522571119147
30
0
0
SPLINE
5
127
100
AcDbEntity
8
0
100
AcDbSpline
70
0
71
3
72
8
73
4
74
0
42
0.000000001
43
0.0000000001
44
0.0000000001
40
3
40
3
40
3
40
3
40
4
40
4
40
4
40
4
10
-18.292760928316
20
74.696522571119147
30
0
10
-17.82676870024239
20
75.927864293087765
30
0
10
-17.001431481210439
20
78.690098789467527
30
0
10
-17.511133358253158
20
81.794668117847195
30
0
0
SPLINE
5
128
100
AcDbEntity
8
0
100
AcDbSpline
70
0
71
3
72
14
73
10
74
0
42
0.000000001
43
0.0000000001
44
0.0000000001
40
4
40
4
40
4
40
4
40
5
40
5
40
5
40
6
40
6
40
6
40
7
40
7
40
7
40
7
10
-17.511133358253158
20
81.794668117847195
30
0
10
-17.511144128636204
20
81.794619291636508
30
0
10
-18.174761293492505
20
78.786192258800824
30
0
10
-19.87360758726323
20
76.039097813567764
30
0
10
-20.124474378883939
20
75.633437353123725
30
0
10
-20.750100430690452
20
75.849100287385497
30
0
10
-20.69039666312241
20
76.322306194302087
30
0
10
-20.097304838817443
20
81.023090852241992
30
0
10
-19.241841670808761
20
93.671290293697496
30
0
10
-26.166806573862686
20
99.231502152116434
30
0
0
SPLINE
5
129
100
AcDbEntity
8
0
100
AcDbSpline
70
0
71
3
72
11
73
7
74
0
42
0.000000001
43
0.0000000001
44
0.0000000001
40
7
40
7
40
7
40
7
40
8
40
8
40
8
40
9
40
9
40
9
40
9
10
-26.166806573862686
20
99.231502152116434
30
0
10
-26.166787125442529
20
99.231456089561647
30
0
10
-21.215213139432603
20
87.503914925337213
30
0
10
-23.333107878010768
20
80.63136703171223
30
0
10
-23.631760558697358
20
79.662241978332091
30
0
10
-24.805606283946901
20
79.289480808360636
30
0
10
-25.604200949274603
20
79.914485724925299
30
0
0
LINE
5
130
100
AcDbEntity
8
0
100
AcDbLine
10
-25.604200949274603
20
79.914485724925299
30
0
11
-28.487552083807675
21
82.171001735917173
31
0
0
LINE
5
131
100
AcDbEntity
8
0
100
AcDbLine
10
-28.487552083807675
20
82.171001735917173
30
0
11
-25.727750686114376
21
76.902331082937451
31
0
0
SPLINE
5
132
100
AcDbEntity
8
0
100
AcDbSpline
70
0
71
3
72
8
73
4
74
0
42
0.000000001
43
0.0000000001
44
0.0000000001
40
11
40
11
40
11
40
11
40
12
40
12
40
12
40
12
10
-25.727750686114376
20
76.902331082937451
30
0
10
-25.727727618477545
20
76.902286722097401
30
0
10
-22.466192662841223
20
70.630104115104459
30
0
10
-29.302941589625952
20
68.434803144516138
30
0
0
SPLINE
5
133
100
AcDbEntity
8
0
100
AcDbSpline
70
0
71
3
72
8
73
4
74
0
42
0.000000001
43
0.0000000001
44
0.0000000001
40
12
40
12
40
12
40
12
40
13
40
13
40
13
40
13
10
-29.302941589625952
20
68.434803144516138
30
0
10
-29.302991439800117
20
68.434807012349594
30
0
10
-36.578724872312222
20
68.999325103467896
30
0
10
-31.999999185794138
20
78.658554633930677
30
0
0
SPLINE
5
134
100
AcDbEntity
8
0
100
AcDbSpline
70
0
71
3
72
8
73
4
74
0
42
0.000000001
43
0.0000000001
44
0.0000000001
40
13
40
13
40
13
40
13
40
14
40
14
40
14
40
14
10
-31.999999185794138
20
78.658554633930677
30
0
10
-31.999973749328532
20
78.658597680257088
30
0
10
-29.55383066833928
20
82.798224432700479
30
0
10
-29.992886556087583
20
87.690582999456979
30
0
0
SPLINE
5
135
100
AcDbEntity
8
0
100
AcDbSpline
70
0
71
3
72
8
73
4
74
0
42
0.000000001
43
0.0000000001
44
0.0000000001
40
14
40
14
40
14
40
14
40
15
40
15
40
15
40
15
10
-29.992886556087583
20
87.690582999456979
30
0
10
-29.992905184477916
20
87.690536599208343
30
0
10
-33.411239487633168
20
79.176029507662022
30
0
10
-33.512697549673781
20
81.230167690742235
30
0
0
SPLINE
5
136
100
AcDbEntity
8
0
100
AcDbSpline
70
0
71
3
72
8
73
4
74
0
42
0.000000001
43
0.0000000001
44
0.0000000001
40
15
40
15
40
15
40
15
40
16
40
16
40
16
40
16
10
-33.512697549673781
20
81.230167690742235
30
0
10
-33.51269678810764
20
81.230217684942062
30
0
10
-33.379889118717401
20
89.948584707876833
30
0
10
-37.833170265878813
20
97.726146147989766
30
0
0
SPLINE
5
137
100
AcDbEntity
8
0
100
AcDbSpline
70
0
71
3
72
8
73
4
74
0
42
0.000000001
43
0.0000000001
44
0.0000000001
40
16
40
16
40
16
40
16
40
17
40
17
40
17
40
17
10
-37.833170265878813
20
97.726146147989766
30
0
10
-37.833160854364102
20
97.726097041743827
30
0
10
-35.528121472238496
20
85.699145554208314
30
0
10
-37.456836647808842
20
87.565138460100314
30
0
0
SPLINE
5
138
100
AcDbEntity
8
0
100
AcDbSpline
70
0
71
3
72
8
73
4
74
0
42
0.000000001
43
0.0000000001
44
0.0000000001
40
17
40
17
40
17
40
17
40
18
40
18
40
18
40
18
10
-37.456836647808842
20
87.565138460100314
30
0
10
-37.456874391402557
20
87.565171253714524
30
0
10
-41.282895098186955
20
90.8894187530518
30
0
10
-44.105418765558575
20
91.014863292408492
30
0
0
SPLINE
5
139
100
AcDbEntity
8
0
100
AcDbSpline
70
0
71
3
72
8
73
4
74
0
42
0.000000001
43
0.0000000001
44
0.0000000001
40
18
40
18
40
18
40
18
40
19
40
19
40
19
40
19
10
-44.105418765558575
20
91.014863292408492
30
0
10
-44.10537589088112
20
91.014837567672672
30
0
10
-36.265113523920569
20
86.310693066533716
30
0
10
-37.645003456843817
20
77.780442858434071
30
0
0
SPLINE
5
140
100
AcDbEntity
8
0
100
AcDbSpline
70
0
71
3
72
8
73
4
74
0
42
0.000000001
43
0.0000000001
44
0.0000000001
40
19
40
19
40
19
40
19
40
20
40
20
40
20
40
20
10
-37.645003456843817
20
77.780442858434071
30
0
10
-37.645002909617901
20
77.780392861428723
30
0
10
-37.621490680156995
20
75.632210504912962
30
0
10
-42.976396379501864
20
83.488169399162103
30
0
0
SPLINE
5
141
100
AcDbEntity
8
0
100
AcDbSpline
70
0
71
3
72
8
73
4
74
0
42
0.000000001
43
0.0000000001
44
0.0000000001
40
20
40
20
40
20
40
20
40
21
40
21
40
21
40
21
10
-42.976396379501864
20
83.488169399162103
30
0
10
-42.976409333109004
20
83.488121106263421
30
0
10
-43.783948293091221
20
80.477500454602264
30
0
10
-37.582281187165492
20
72.637216744811028
30
0
0
SPLINE
5
142
100
AcDbEntity
8
0
100
AcDbSpline
70
0
71
3
72
8
73
4
74
0
42
0.000000001
43
0.0000000001
44
0.0000000001
40
21
40
21
40
21
40
21
40
22
40
22
40
22
40
22
10
-37.582281187165492
20
72.637216744811028
30
0
10
-35.880942313621652
20
70.081278872457389
30
0
10
-35.967177359986813
20
62.930940129127791
30
0
10
-36.666424084258608
20
64.170786930575645
30
0
0
SPLINE
5
143
100
AcDbEntity
8
0
100
AcDbSpline
70
0
71
3
72
8
73
4
74
0
42
0.000000001
43
0.0000000001
44
0.0000000001
40
22
40
22
40
22
40
22
40
23
40
23
40
23
40
23
10
-36.666424084258608
20
64.170786930575645
30
0
10
-39.926539473797312
20
69.940159148642849
30
0
10
-46.701937489231128
20
69.25129583201128
30
0
10
-46.701987232791367
20
69.251290774520356
30
0
0
SPLINE
5
144
100
AcDbEntity
8
0
100
AcDbSpline
70
0
71
3
72
8
73
4
74
0
42
0.000000001
43
0.0000000001
44
0.0000000001
40
23
40
23
40
23
40
23
40
24
40
24
40
24
40
24
10
-46.701987232791367
20
69.251290774520356
30
0
10
-45.322097299868133
20
68.18501218998874
30
0
10
-45.322097299868133
20
66.867894526743825
30
0
10
-45.322097299868133
20
66.867844526743824
30
0
0
SPLINE
5
145
100
AcDbEntity
8
0
100
AcDbSpline
70
0
71
3
72
8
73
4
74
0
42
0.000000001
43
0.0000000001
44
0.0000000001
40
24
40
24
40
24
40
24
40
25
40
25
40
25
40
25
10
-45.322097299868133
20
66.867844526743824
30
0
10
-44.945763681798141
20
62.477285649260743
30
0
10
-40.931584230251772
20
60.721082139209194
30
0
10
-40.931538422385032
20
60.721062098267495
30
0
0
SPLINE
5
146
100
AcDbEntity
8
0
100
AcDbSpline
70
0
71
3
72
8
73
4
74
0
42
0.000000001
43
0.0000000001
44
0.0000000001
40
25
40
25
40
25
40
25
40
26
40
26
40
26
40
26
10
-40.931538422385032
20
60.721062098267495
30
0
10
-38.297203095895178
20
59.529338974379222
30
0
10
-38.171760728399747
20
56.644164521983967
30
0
10
-38.171758556538528
20
56.644114569176054
30
0
0
SPLINE
5
147
100
AcDbEntity
8
0
100
AcDbSpline
70
0
71
3
72
8
73
4
74
0
42
0.000000001
43
0.0000000001
44
0.0000000001
40
26
40
26
40
26
40
26
40
27
40
27
40
27
40
27
10
-38.171758556538528
20
56.644114569176054
30
0
10
-37.546366066731771
20
52.578342068564901
30
0
10
-34.231538254517943
20
52.239710714211618
30
0
10
-30.221339450453215
20
52.208920173312208
30
0
0
LINE
5
148
100
AcDbEntity
8
0
100
AcDbLine
10
-30.221339450453215
20
52.208920173312208
30
0
11
-30.221339450453215
21
58.205281120163797
31
0
0
LINE
5
149
100
AcDbEntity
8
0
100
AcDbLine
10
-30.221339450453215
20
58.205281120163797
30
0
11
-28.221332330184993
21
58.205281120163797
31
0
0
LINE
5
150
100
AcDbEntity
8
0
100
AcDbLine
10
-28.221332330184993
20
58.205281120163797
30
0
11
-28.221332330184993
21
52.207477539577752
31
0
0
SPLINE
5
151
100
AcDbEntity
8
0
100
AcDbSpline
70
0
71
3
72
8
73
4
74
0
42
0.000000001
43
0.0000000001
44
0.0000000001
40
30
40
30
40
30
40
30
40
31
40
31
40
31
40
31
10
-28.221332330184993
20
52.207477539577752
30
0
10
-24.206245796900561
20
52.232928182475042
30
0
10
-20.889264800008451
20
52.573152893490239
30
0
10
-20.263075631870731
20
56.644114569176054
30
0
0
SPLINE
5
152
100
AcDbEntity
8
0
100
AcDbSpline
70
0
71
3
72
8
73
4
74
0
42
0.000000001
43
0.0000000001
44
0.0000000001
40
31
40
31
40
31
40
31
40
32
40
32
40
32
40
32
10
-20.263075631870731
20
56.644114569176054
30
0
10
-20.263074043182204
20
56.644164543930373
30
0
10
-20.145468684743012
20
60.343630356011602
30
0
10
-17.511133358253158
20
61.535353479899861
30
0
0
SPLINE
5
153
100
AcDbEntity
8
0
100
AcDbSpline
70
0
71
3
72
8
73
4
74
0
42
0.000000001
43
0.0000000001
44
0.0000000001
40
32
40
32
40
32
40
32
40
33
40
33
40
33
40
33
10
-17.511133358253158
20
61.535353479899861
30
0
10
-17.511087550386414
20
61.53537352084156
30
0
10
-13.49690809884005
20
63.291577030893095
30
0
10
-13.12057448077007
20
67.682157440222966
30
0
0
SPLINE
5
154
100
AcDbEntity
8
0
100
AcDbSpline
70
0
71
3
72
8
73
4
74
0
42
0.000000001
43
0.0000000001
44
0.0000000001
40
33
40
33
40
33
40
33
40
34
40
34
40
34
40
34
10
-13.12057448077007
20
67.682157440222966
30
0
10
-13.12057448077007
20
67.682207440222967
30
0
10
-13.12057448077007
20
68.999325103467896
30
0
10
-11.740684547846811
20
70.065603687999499
30
0
0
SPLINE
5
155
100
AcDbEntity
8
0
100
AcDbSpline
70
0
71
3
72
8
73
4
74
0
42
0.000000001
43
0.0000000001
44
0.0000000001
40
34
40
34
40
34
40
34
40
35
40
35
40
35
40
35
10
-11.740684547846811
20
70.065603687999499
30
0
10
-11.740734476252504
20
70.065606362752774
30
0
10
-18.415858496373328
20
70.423204599368432
30
0
10
-21.541076865817722
20
65.386754913941346
30
0
0
SPLINE
5
156
100
AcDbEntity
8
0
100
AcDbSpline
70
0
71
3
72
8
73
4
74
0
42
0.000000001
43
0.0000000001
44
0.0000000001
40
0
40
0
40
0
40
0
40
1
40
1
40
1
40
1
10
46.559740479624523
20
7.9906889831948789
30
0
10
45.697303888585793
20
10.860216672093381
30
0
10
43.497265911705256
20
13.643983015255952
30
0
10
43.388228639597088
20
13.796966786647822
30
0
0
SPLINE
5
157
100
AcDbEntity
8
0
100
AcDbSpline
70
0
71
3
72
8
73
4
74
0
42
0.000000001
43
0.0000000001
44
0.0000000001
40
1
40
1
40
1
40
1
40
2
40
2
40
2
40
2
10
43.388228639597088
20
13.796966786647822
30
0
10
43.344002226305193
20
13.859043100922673
30
0
10
42.933885140632981
20
14.457434654863782
30
0
10
42.89801308389282
20
14.524700144213289
30
0
0
SPLINE
5
158
100
AcDbEntity
8
0
100
AcDbSpline
70
0
71
3
72
8
73
4
74
0
42
0.000000001
43
0.0000000001
44
0.0000000001
40
2
40
2
40
2
40
2
40
3
40
3
40
3
40
3
10
42.89801308389282
20
14.524700144213289
30
0
10
42.47194089975455
20
15.32342400062168
30
0
10
39.009942914780211
20
21.135946039641645
30
0
10
28.604677956986553
20
20.024385981325782
30
0
0
ARC
5
159
100
AcDbEntity
8
0
100
AcDbCircle
10
28.818554217158137
20
18.029949058646014
30
0
40
2.0058718037834113
210
0
220
0
230
1
100
AcDbArc
50
96.120802994247015
51
99.531463626566392
0
SPLINE
5
160
100
AcDbEntity
8
0
100
AcDbSpline
70
0
71
3
72
20
73
16
74
0
42
0.000000001
43
0.0000000001
44
0.0000000001
40
4
40
4
40
4
40
4
40
5
40
5
40
5
40
6
40
6
40
6
40
7
40
7
40
7
40
8
40
8
40
8
40
9
40
9
40
9
40
9
10
28.486403522608576
20
20.008129437004762
30
0
10
27.20097380152151
20
19.792251141160293
30
0
10
4.2237366237598284
20
16.049364941215231
30
0
10
-8.9340298515541168
20
22.069480788757222
30
0
10
-9.2238274645043177
20
22.202072836622982
30
0
10
-9.4697253983593566
20
22.412264461846632
30
0
10
-9.6530858748661075
20
22.67293232669229
30
0
10
-11.340774036168121
20
25.072173853072673
30
0
10
-20.155718310657793
20
37.697196801139114
30
0
10
-22.414602357949601
20
42.826568660629569
30
0
10
-22.80359307443327
20
43.709871208684888
30
0
10
-23.523063794446884
20
44.412534623714478
30
0
10
-24.427571649981079
20
44.749297982794289
30
0
10
-24.936370294303558
20
44.938732203303182
30
0
10
-25.553192004246124
20
45.107092680784284
30
0
10
-26.255668505535343
20
45.187794042526257
30
0
0
LINE
5
161
100
AcDbEntity
8
0
100
AcDbLine
10
-26.255668505535343
20
45.187794042526257
30
0
11
-26.255668505535343
21
39.238609371975798
31
0
0
LINE
5
162
100
AcDbEntity
8
0
100
AcDbLine
10
-26.255668505535343
20
39.238609371975798
30
0
11
-28.255675625803569
21
39.238609371975798
31
0
0
LINE
5
163
100
AcDbEntity
8
0
100
AcDbLine
10
-28.255675625803569
20
39.238609371975798
30
0
11
-28.255675625803569
21
45.155237890190627
31
0
0
SPLINE
5
164
100
AcDbEntity
8
0
100
AcDbSpline
70
0
71
3
72
32
73
28
74
0
42
0.000000001
43
0.0000000001
44
0.0000000001
40
12
40
12
40
12
40
12
40
13
40
13
40
13
40
14
40
14
40
14
40
15
40
15
40
15
40
16
40
16
40
16
40
17
40
17
40
17
40
18
40
18
40
18
40
19
40
19
40
19
40
20
40
20
40
20
40
21
40
21
40
21
40
21
10
-28.255675625803569
20
45.155237890190627
30
0
10
-28.973784247857122
20
45.04964571356772
30
0
10
-29.742184423332375
20
44.835970128898694
30
0
10
-30.5483005438502
20
44.470029930021219
30
0
10
-30.66000681702533
20
44.419320342678752
30
0
10
-30.775504408941906
20
44.378002040777758
30
0
10
-30.894941745206694
20
44.349968352360264
30
0
10
-31.765451451126093
20
44.145647001739576
30
0
10
-35.780913820479938
20
42.972661840831648
30
0
10
-35.724319660123477
20
38.730586978982132
30
0
10
-35.713516399521225
20
37.920817208776285
30
0
10
-36.358318710914681
20
37.06666580608389
30
0
10
-36.845289135483419
20
36.419573863782972
30
0
10
-38.478566653361646
20
34.249255774555664
30
0
10
-42.164035903134554
20
30.001718856760053
30
0
10
-44.309260759051455
20
28.171584635159213
30
0
10
-45.169584437479166
20
27.43762530161835
30
0
10
-44.719583321775936
20
25.46254602034605
30
0
10
-43.838832970540594
20
24.753231703613618
30
0
10
-43.503944415516607
20
24.483528437239464
30
0
10
-43.219619349436186
20
24.318636307482656
30
0
10
-42.64710984665232
20
24.188731276508655
30
0
10
-42.214405270735469
20
24.090548624406388
30
0
10
-41.61795030223999
20
24.326574762767322
30
0
10
-41.228957821996005
20
24.54000182492344
30
0
10
-39.43129838487669
20
25.526316964437065
30
0
10
-32.79971350715455
20
28.202956535921761
30
0
10
-30.426710205067671
20
26.378520094320578
30
0
0
SPLINE
5
165
100
AcDbEntity
8
0
100
AcDbSpline
70
0
71
3
72
8
73
4
74
0
42
0.000000001
43
0.0000000001
44
0.0000000001
40
21
40
21
40
21
40
21
40
22
40
22
40
22
40
22
10
-30.426710205067671
20
26.378520094320578
30
0
10
-30.37552900526493
20
26.339181410248379
30
0
10
-30.327534518786038
20
26.297603414110782
30
0
10
-30.280487433565604
20
26.253355468972103
30
0
0
SPLINE
5
166
100
AcDbEntity
8
0
100
AcDbSpline
70
0
71
3
72
14
73
10
74
0
42
0.000000001
43
0.0000000001
44
0.0000000001
40
22
40
22
40
22
40
22
40
23
40
23
40
23
40
24
40
24
40
24
40
25
40
25
40
25
40
25
10
-30.280487433565604
20
26.253355468972103
30
0
10
-29.407995470079289
20
25.432539937764538
30
0
10
-21.022237778512427
20
17.284659700664299
30
0
10
-21.599169788437749
20
7.8589571445776398
30
0
10
-21.601947981673423
20
7.8135680473664184
30
0
10
-21.606317879272584
20
7.7693630679218177
30
0
10
-21.612131960201001
20
7.7242754429511526
30
0
10
-21.754058120953385
20
6.6236520446334035
30
0
10
-23.511003996130363
20
-8.6407463221633201
30
0
10
-11.896273672699412
20
-9.5189226932002864
30
0
0
SPLINE
5
167
100
AcDbEntity
8
0
100
AcDbSpline
70
0
71
3
72
11
73
7
74
0
42
0.000000001
43
0.0000000001
44
0.0000000001
40
25
40
25
40
25
40
25
40
26
40
26
40
26
40
27
40
27
40
27
40
27
10
-11.896273672699412
20
-9.5189226932002864
30
0
10
-11.845221663977359
20
-9.5227768937744077
30
0
10
-11.794794078812021
20
-9.5245425052106008
30
0
10
-11.743612879009271
20
-9.5245425052106008
30
0
10
-11.43398492227244
20
-9.5245425052106008
30
0
10
-10.183802834368841
20
-9.5245425052106008
30
0
10
-8.2974623332670792
20
-9.5245425052106008
30
0
0
LINE
5
168
100
AcDbEntity
8
0
100
AcDbLine
10
-8.2974623332670792
20
-9.5245425052106008
30
0
11
-8.2974623332670792
21
-3.5324233321752105
31
0
0
LINE
5
169
100
AcDbEntity
8
0
100
AcDbLine
10
-8.2974623332670792
20
-3.5324233321752105
30
0
11
-6.2974552129988526
21
-3.5324233321752101
31
0
0
LINE
5
170
100
AcDbEntity
8
0
100
AcDbLine
10
-6.2974552129988526
20
-3.5324233321752101
30
0
11
-6.2974552129988526
21
-9.5245425052106008
31
0
0
LINE
5
171
100
AcDbEntity
8
0
100
AcDbLine
10
-6.2974552129988526
20
-9.5245425052106008
30
0
11
24.659333075431661
21
-9.5245425052106008
31
0
0
LINE
5
172
100
AcDbEntity
8
0
100
AcDbLine
10
24.659333075431661
20
-9.5245425052106008
30
0
11
24.659333075431661
21
-3.5324233321752105
31
0
0
LINE
5
173
100
AcDbEntity
8
0
100
AcDbLine
10
24.659333075431661
20
-3.5324233321752105
30
0
11
26.65934019569988
21
-3.5324233321752101
31
0
0
LINE
5
174
100
AcDbEntity
8
0
100
AcDbLine
10
26.65934019569988
20
-3.5324233321752101
30
0
11
26.65934019569988
21
-9.5245425052106008
31
0
0
SPLINE
5
175
100
AcDbEntity
8
0
100
AcDbSpline
70
0
71
3
72
11
73
7
74
0
42
0.000000001
43
0.0000000001
44
0.0000000001
40
34
40
34
40
34
40
34
40
35
40
35
40
35
40
36
40
36
40
36
40
36
10
26.65934019569988
20
-9.5245425052106008
30
0
10
29.058633882708573
20
-9.5245425052106008
30
0
10
30.643937633939853
20
-9.5245425052106008
30
0
10
30.939010062251491
20
-9.5245425052106008
30
0
10
30.968508692343949
20
-9.5245425052106008
30
0
10
30.995875669604899
20
-9.5251669287673
30
0
10
31.025352767850571
20
-9.5266526261953164
30
0
0
SPLINE
5
176
100
AcDbEntity
8
0
100
AcDbSpline
70
0
71
3
72
11
73
7
74
0
42
0.000000001
43
0.0000000001
44
0.0000000001
40
36
40
36
40
36
40
36
40
37
40
37
40
37
40
38
40
38
40
38
40
38
10
31.025352767850571
20
-9.5266526261953164
30
0
10
31.64618050613937
20
-9.5576584855625644
30
0
10
40.006070032377153
20
-9.7839114782892231
30
0
10
40.86077740053711
20
0.45727715375227823
30
0
10
40.86542804125979
20
0.5130015931043812
30
0
10
40.87246919334018
20
0.56799390990949483
30
0
10
40.88261069317489
20
0.62296471474601245
30
0
0
SPLINE
5
177
100
AcDbEntity
8
0
100
AcDbSpline
70
0
71
3
72
17
73
13
74
0
42
0.000000001
43
0.0000000001
44
0.0000000001
40
38
40
38
40
38
40
38
40
39
40
39
40
39
40
40
40
40
40
40
40
41
40
41
40
41
40
42
40
42
40
42
40
42
10
40.88261069317489
20
0.62296471474601245
30
0
10
41.005708261232208
20
1.291442429965177
30
0
10
41.853115163778625
20
5.9579294774640061
30
0
10
42.001211665388716
20
8.5369304042280252
30
0
10
42.026583479837463
20
8.9787634810772019
30
0
10
42.595088393054034
20
9.1396116295621841
30
0
10
42.849975533720361
20
8.7778071741873376
30
0
10
43.817513583133291
20
7.4044166763098627
30
0
10
44.650768944646366
20
5.8342073813675555
30
0
10
45.38369254019414
20
5.5288237494353467
30
0
10
46.324525220945475
20
5.1368116722779353
30
0
10
47.011435561434347
20
6.4877876096014218
30
0
10
46.559740479624523
20
7.9906889831948789
30
0
0
LINE
5
178
100
AcDbEntity
8
0
100
AcDbLine
10
-5.2350092971945852
20
-16.499073719558552
30
0
11
-6.1264708176965463
21
-16.499073719558552
31
0
0
LINE
5
179
100
AcDbEntity
8
0
100
AcDbLine
10
-6.1264708176965463
20
-16.499073719558552
30
0
11
-6.1264708176965463
21
-22.499073548516449
31
0
0
LINE
5
180
100
AcDbEntity
8
0
100
AcDbLine
10
-6.1264708176965463
20
-22.499073548516449
30
0
11
-8.126477937964772
21
-22.499073548516449
31
0
0
LINE
5
181
100
AcDbEntity
8
0
100
AcDbLine
10
-8.126477937964772
20
-22.499073548516449
30
0
11
-8.126477937964772
21
-16.499073719558552
31
0
0
LINE
5
182
100
AcDbEntity
8
0
100
AcDbLine
10
-8.126477937964772
20
-16.499073719558552
30
0
11
-9.0179609903135152
21
-16.499073719558552
31
0
0
SPLINE
5
183
100
AcDbEntity
8
0
100
AcDbSpline
70
0
71
3
72
8
73
4
74
0
42
0.000000001
43
0.0000000001
44
0.0000000001
40
5
40
5
40
5
40
5
40
6
40
6
40
6
40
6
10
-9.0179609903135152
20
-16.499073719558552
30
0
10
-9.0180109669016719
20
-16.499075249472369
30
0
10
-22.848232220308642
20
-16.922454422848972
30
0
10
-20.166849808598339
20
-35.692131304821046
30
0
0
SPLINE
5
184
100
AcDbEntity
8
0
100
AcDbSpline
70
0
71
3
72
8
73
4
74
0
42
0.000000001
43
0.0000000001
44
0.0000000001
40
6
40
6
40
6
40
6
40
7
40
7
40
7
40
7
10
-20.166849808598339
20
-35.692131304821046
30
0
10
-20.166837083930645
20
-35.69217965854719
30
0
10
-15.227465688468172
20
-54.461786654946359
30
0
10
-19.037848954388412
20
-59.401170775076508
30
0
0
SPLINE
5
185
100
AcDbEntity
8
0
100
AcDbSpline
70
0
71
3
72
8
73
4
74
0
42
0.000000001
43
0.0000000001
44
0.0000000001
40
7
40
7
40
7
40
7
40
8
40
8
40
8
40
8
10
-19.037848954388412
20
-59.401170775076508
30
0
10
-19.037856752469565
20
-59.401220163232281
30
0
10
-20.307969532412891
20
-67.445318010207401
30
0
10
-18.049967823993011
20
-73.513702984547521
30
0
0
SPLINE
5
186
100
AcDbEntity
8
0
100
AcDbSpline
70
0
71
3
72
8
73
4
74
0
42
0.000000001
43
0.0000000001
44
0.0000000001
40
8
40
8
40
8
40
8
40
9
40
9
40
9
40
9
10
-18.049967823993011
20
-73.513702984547521
30
0
10
-18.049962059149905
20
-73.513752651101512
30
0
10
-16.215346818863562
20
-89.3197364753334
30
0
10
-18.191087547807562
20
-92.988978485592327
30
0
0
SPLINE
5
187
100
AcDbEntity
8
0
100
AcDbSpline
70
0
71
3
72
8
73
4
74
0
42
0.000000001
43
0.0000000001
44
0.0000000001
40
9
40
9
40
9
40
9
40
10
40
10
40
10
40
10
10
-18.191087547807562
20
-92.988978485592327
30
0
10
-18.191080131116934
20
-92.989027932459749
30
0
10
-17.76772837636392
20
-95.811502152963953
30
0
10
-15.791966115573143
20
-95.811502152963953
30
0
0
SPLINE
5
188
100
AcDbEntity
8
0
100
AcDbSpline
70
0
71
3
72
8
73
4
74
0
42
0.000000001
43
0.0000000001
44
0.0000000001
40
10
40
10
40
10
40
10
40
11
40
11
40
11
40
11
10
-15.791966115573143
20
-95.811502152963953
30
0
10
-15.791934586178716
20
-95.811463347071538
30
0
10
-13.95734511044369
20
-93.553478912697301
30
0
10
-12.263843829128781
20
-95.811502152963953
30
0
0
SPLINE
5
189
100
AcDbEntity
8
0
100
AcDbSpline
70
0
71
3
72
8
73
4
74
0
42
0.000000001
43
0.0000000001
44
0.0000000001
40
11
40
11
40
11
40
11
40
12
40
12
40
12
40
12
10
-12.263843829128781
20
-95.811502152963953
30
0
10
-12.263802517749518
20
-95.811473986140498
30
0
10
-9.1590807141280646
20
-93.694620168358625
30
0
10
-10.71146227162842
20
-90.73097677717243
30
0
0
SPLINE
5
190
100
AcDbEntity
8
0
100
AcDbSpline
70
0
71
3
72
8
73
4
74
0
42
0.000000001
43
0.0000000001
44
0.0000000001
40
12
40
12
40
12
40
12
40
13
40
13
40
13
40
13
10
-10.71146227162842
20
-90.73097677717243
30
0
10
-10.711472686229886
20
-90.730927873838425
30
0
10
-13.95734511044369
20
-75.489443713491511
30
0
10
-12.546083276757882
20
-73.513702984547521
30
0
0
SPLINE
5
191
100
AcDbEntity
8
0
100
AcDbSpline
70
0
71
3
72
8
73
4
74
0
42
0.000000001
43
0.0000000001
44
0.0000000001
40
13
40
13
40
13
40
13
40
14
40
14
40
14
40
14
10
-12.546083276757882
20
-73.513702984547521
30
0
10
-12.546068807333477
20
-73.513655123960845
30
0
10
-10.71146227162842
20
-67.445318010207401
30
0
10
-12.12270257346745
20
-61.659172483496398
30
0
0
SPLINE
5
192
100
AcDbEntity
8
0
100
AcDbSpline
70
0
71
3
72
8
73
4
74
0
42
0.000000001
43
0.0000000001
44
0.0000000001
40
14
40
14
40
14
40
14
40
15
40
15
40
15
40
15
10
-12.12270257346745
20
-61.659172483496398
30
0
10
-12.122705758512918
20
-61.659122585044663
30
0
10
-12.969463980048301
20
-48.393401680606232
30
0
10
-7.4655794328131577
20
-44.583018414686002
30
0
0
LINE
5
193
100
AcDbEntity
8
0
100
AcDbLine
10
-7.4655794328131577
20
-44.583018414686002
30
0
11
-6.7873908546949435
21
-44.583018414686002
31
0
0
SPLINE
5
194
100
AcDbEntity
8
0
100
AcDbSpline
70
0
71
3
72
8
73
4
74
0
42
0.000000001
43
0.0000000001
44
0.0000000001
40
16
40
16
40
16
40
16
40
17
40
17
40
17
40
17
10
-6.7873908546949435
20
-44.583018414686002
30
0
10
-1.2835063074598039
20
-48.393401680606232
30
0
10
-2.1302429972290593
20
-61.659122585039519
30
0
10
-2.130246182193865
20
-61.659172483496398
30
0
0
SPLINE
5
195
100
AcDbEntity
8
0
100
AcDbSpline
70
0
71
3
72
8
73
4
74
0
42
0.000000001
43
0.0000000001
44
0.0000000001
40
17
40
17
40
17
40
17
40
18
40
18
40
18
40
18
10
-2.130246182193865
20
-61.659172483496398
30
0
10
-3.5415080158796783
20
-67.445318010207401
30
0
10
-1.7068799484834445
20
-73.513655124007883
30
0
10
-1.7068654789034432
20
-73.513702984547521
30
0
0
SPLINE
5
196
100
AcDbEntity
8
0
100
AcDbSpline
70
0
71
3
72
8
73
4
74
0
42
0.000000001
43
0.0000000001
44
0.0000000001
40
18
40
18
40
18
40
18
40
19
40
19
40
19
40
19
10
-1.7068654789034432
20
-73.513702984547521
30
0
10
-0.29562517706441338
20
-75.489443713491511
30
0
10
-3.5414976012782122
20
-90.730927873838425
30
0
10
-3.5415080158796783
20
-90.73097677717243
30
0
0
SPLINE
5
197
100
AcDbEntity
8
0
100
AcDbSpline
70
0
71
3
72
8
73
4
74
0
42
0.000000001
43
0.0000000001
44
0.0000000001
40
19
40
19
40
19
40
19
40
20
40
20
40
20
40
20
10
-3.5415080158796783
20
-90.73097677717243
30
0
10
-5.0938895733800384
20
-93.694620168358625
30
0
10
-1.9891677697585821
20
-95.811473986140498
30
0
10
-1.9891264583793191
20
-95.811502152963953
30
0
0
SPLINE
5
198
100
AcDbEntity
8
0
100
AcDbSpline
70
0
71
3
72
8
73
4
74
0
42
0.000000001
43
0.0000000001
44
0.0000000001
40
20
40
20
40
20
40
20
40
21
40
21
40
21
40
21
10
-1.9891264583793191
20
-95.811502152963953
30
0
10
-0.29562517706441338
20
-93.553478912697301
30
0
10
1.5389642986706114
20
-95.811463347071538
30
0
10
1.5389958280650391
20
-95.811502152963953
30
0
0
SPLINE
5
199
100
AcDbEntity
8
0
100
AcDbSpline
70
0
71
3
72
8
73
4
74
0
42
0.000000001
43
0.0000000001
44
0.0000000001
40
21
40
21
40
21
40
21
40
22
40
22
40
22
40
22
10
1.5389958280650391
20
-95.811502152963953
30
0
10
3.5147580888558201
20
-95.811502152963953
30
0
10
3.9381313750867069
20
-92.989027932404426
30
0
10
3.9381387921462441
20
-92.988978485592327
30
0
0
SPLINE
5
200
100
AcDbEntity
8
0
100
AcDbSpline
70
0
71
3
72
8
73
4
74
0
42
0.000000001
43
0.0000000001
44
0.0000000001
40
22
40
22
40
22
40
22
40
23
40
23
40
23
40
23
10
3.9381387921462441
20
-92.988978485592327
30
0
10
1.9623765313554609
20
-89.3197364753334
30
0
10
3.7970133034218332
20
-73.513752651093753
30
0
10
3.7970190683316969
20
-73.513702984547521
30
0
0
SPLINE
5
201
100
AcDbEntity
8
0
100
AcDbSpline
70
0
71
3
72
8
73
4
74
0
42
0.000000001
43
0.0000000001
44
0.0000000001
40
23
40
23
40
23
40
23
40
24
40
24
40
24
40
24
10
3.7970190683316969
20
-73.513702984547521
30
0
10
6.0550207767515705
20
-67.445318010207401
30
0
10
4.7848864650904401
20
-59.40122016321191
30
0
10
4.7848786668803038
20
-59.401170775076508
30
0
0
SPLINE
5
202
100
AcDbEntity
8
0
100
AcDbSpline
70
0
71
3
72
8
73
4
74
0
42
0.000000001
43
0.0000000001
44
0.0000000001
40
24
40
24
40
24
40
24
40
25
40
25
40
25
40
25
10
4.7848786668803038
20
-59.401170775076508
30
0
10
0.97449540096007037
20
-54.461786654946359
30
0
10
5.913866796422548
20
-35.69217965854719
30
0
10
5.9138795210902417
20
-35.692131304821046
30
0
0
SPLINE
5
203
100
AcDbEntity
8
0
100
AcDbSpline
70
0
71
3
72
8
73
4
74
0
42
0.000000001
43
0.0000000001
44
0.0000000001
40
25
40
25
40
25
40
25
40
26
40
26
40
26
40
26
10
5.9138795210902417
20
-35.692131304821046
30
0
10
8.595261932800538
20
-16.922454422848972
30
0
10
-5.2349593206064293
20
-16.499075249472369
30
0
10
-5.2350092971945852
20
-16.499073719558552
30
0
0
ENDSEC
0
SECTION
2
OBJECTS
0
DICTIONARY
5
C
100
AcDbDictionary
3
ACAD_GROUP
350
D
3
ACAD_MLINESTYLE
350
17
0
DICTIONARY
5
D
100
AcDbDictionary
0
DICTIONARY
5
1A
330
C
100
AcDbDictionary
0
DICTIONARY
5
17
100
AcDbDictionary
0
ENDSEC
0
EOF
