0
SECTION
2
HEADER
9
$INSUNITS
70
4
9
$ACADVER
1
AC1014
9
$HANDSEED
5
FFFF
0
ENDSEC
0
SECTION
2
TABLES
0
TABLE
2
VPORT
5
8
100
AcDbSymbolTable
0
ENDTAB
0
TABLE
2
LTYPE
5
5
100
AcDbSymbolTable
0
LTYPE
5
14
100
AcDbSymbolTableRecord
100
AcDbLinetypeTableRecord
2
BYBLOCK
70
0
0
LTYPE
5
15
100
AcDbSymbolTableRecord
100
AcDbLinetypeTableRecord
2
BYLAYER
70
0
0
ENDTAB
0
TABLE
2
LAYER
5
2
100
AcDbSymbolTable
70
2
0
LAYER
5
50
100
AcDbSymbolTableRecord
100
AcDbLayerTableRecord
2
0
70
0
6
CONTINUOUS
0
ENDTAB
0
TABLE
2
STYLE
5
3
100
AcDbSymbolTable
70
1
0
STYLE
5
11
100
AcDbSymbolTableRecord
100
AcDbTextStyleTableRecord
2
STANDARD
70
0
0
ENDTAB
0
TABLE
2
VIEW
5
6
100
AcDbSymbolTable
70
0
0
ENDTAB
0
TABLE
2
UCS
5
7
100
AcDbSymbolTable
70
0
0
ENDTAB
0
TABLE
2
APPID
5
9
100
AcDbSymbolTable
70
2
0
APPID
5
12
100
AcDbSymbolTableRecord
100
AcDbRegAppTableRecord
2
ACAD
70
0
0
ENDTAB
0
TABLE
2
DIMSTYLE
5
A
100
AcDbSymbolTable
70
1
0
ENDTAB
0
TABLE
2
BLOCK_RECORD
5
1
100
AcDbSymbolTable
70
1
0
BLOCK_RECORD
5
1F
100
AcDbSymbolTableRecord
100
AcDbBlockTableRecord
2
*MODEL_SPACE
0
BLOCK_RECORD
5
1B
100
AcDbSymbolTableRecord
100
AcDbBlockTableRecord
2
*PAPER_SPACE
0
ENDTAB
0
ENDSEC
0
SECTION
2
BLOCKS
0
BLOCK
5
20
100
AcDbEntity
100
AcDbBlockBegin
2
*MODEL_SPACE
0
ENDBLK
5
21
100
AcDbEntity
100
AcDbBlockEnd
0
BLOCK
5
1C
100
AcDbEntity
100
AcDbBlockBegin
2
*PAPER_SPACE
0
ENDBLK
5
1D
100
AcDbEntity
100
AcDbBlockEnd
0
ENDSEC
0
SECTION
2
ENTITIES
0
LWPOLYLINE
5
100
100
AcDbEntity
8
0
100
AcDbPolyline
90
4
70
1
43
0.0
10
22.85395283844446
20
-244.91627673373603
10
122.85395283844429
20
-244.91627673373603
10
122.8539528384442
20
-144.91627673373617
10
22.853952838444364
20
-144.91627673373617
0
LWPOLYLINE
5
101
100
AcDbEntity
8
0
100
AcDbPolyline
90
4
70
1
43
0.0
10
-97.146047161555344
20
-244.91627673373603
10
2.8539528384444779
20
-244.91627673373603
10
2.8539528384444246
20
-144.91627673373617
10
-97.146047161555401
20
-144.91627673373617
0
LWPOLYLINE
5
102
100
AcDbEntity
8
0
100
AcDbPolyline
90
4
70
1
43
0.0
10
-217.14604716155515
20
-244.91627673373603
10
-117.14604716155533
20
-244.91627673373603
10
-117.14604716155542
20
-144.91627673373617
10
-217.14604716155523
20
-144.91627673373617
0
LWPOLYLINE
5
103
100
AcDbEntity
8
0
100
AcDbPolyline
90
4
70
1
43
0.0
10
-287.14604716155509
20
-253.91627673373603
10
-287.14604716155509
20
-265.91627673373603
10
-275.14604716155503
20
-265.91627673373603
10
-275.14604716155509
20
-253.91627673373603
0
LWPOLYLINE
5
104
100
AcDbEntity
8
0
100
AcDbPolyline
90
4
70
1
43
0.0
10
394.85395283844383
20
-253.91627673373594
10
382.85395283844377
20
-253.91627673373594
10
382.85395283844372
20
-265.91627673373591
10
394.85395283844377
20
-265.91627673373591
0
LWPOLYLINE
5
105
100
AcDbEntity
8
0
100
AcDbPolyline
90
4
70
1
43
0.0
10
-287.14604716155509
20
-135.9162767337362
10
-275.14604716155509
20
-135.9162767337362
10
-275.14604716155515
20
-123.9162767337362
10
-287.14604716155515
20
-123.91627673373621
0
LWPOLYLINE
5
106
100
AcDbEntity
8
0
100
AcDbPolyline
90
4
70
1
43
0.0
10
394.85395283844366
20
-135.91627673373614
10
394.85395283844366
20
-123.91627673373617
10
382.85395283844372
20
-123.91627673373618
10
382.85395283844366
20
-135.91627673373614
0
LWPOLYLINE
5
107
100
AcDbEntity
8
0
100
AcDbPolyline
90
4
70
1
43
0.0
10
9.203952838444355
20
-87.91627673373624
10
9.2039528384443603
20
-93.916276733736225
10
15.203952838444348
20
-93.916276733736254
10
15.203952838444346
20
-87.916276733736254
0
CIRCLE
5
108
100
AcDbEntity
8
0
100
AcDbCircle
10
152.9039528384441
20
-20.616276733736321
30
0
40
1.5000000000000013
210
4.9303806576313249e-32
220
-1.9721522630525291e-31
230
1
0
CIRCLE
5
109
100
AcDbEntity
8
0
100
AcDbCircle
10
109.80395283844418
20
-71.416276733736254
30
0
40
1.5000000000000013
210
4.9303806576313249e-32
220
-1.9721522630525291e-31
230
1
0
CIRCLE
5
110
100
AcDbEntity
8
0
100
AcDbCircle
10
137.70395283844414
20
-71.416276733736254
30
0
40
1.5000000000000013
210
4.9303806576313249e-32
220
-1.9721522630525291e-31
230
1
0
CIRCLE
5
111
100
AcDbEntity
8
0
100
AcDbCircle
10
104.70395283844417
20
-19.316276733736323
30
0
40
1.5000000000000013
210
4.9303806576313249e-32
220
-1.9721522630525291e-31
230
1
0
LWPOLYLINE
5
112
100
AcDbEntity
8
0
100
AcDbPolyline
90
4
70
1
43
0.0
10
-37.796047161555649
20
2.6837232662636441
10
-31.796047161555645
20
2.6837232662636445
10
-31.796047161555656
20
8.6837232662636321
10
-37.796047161555649
20
8.6837232662636339
0
LWPOLYLINE
5
113
100
AcDbEntity
8
0
100
AcDbPolyline
90
4
70
1
43
0.0
10
82.203952838444181
20
-11.316276733736338
10
82.203952838444181
20
-5.3162767337363448
10
76.203952838444181
20
-5.3162767337363395
10
76.203952838444195
20
-11.316276733736332
0
LWPOLYLINE
5
114
100
AcDbEntity
8
0
100
AcDbPolyline
90
4
70
1
43
0.0
10
-57.796047161555578
20
-36.616276733736306
10
-57.79604716155557
20
-42.616276733736299
10
-51.796047161555585
20
-42.616276733736299
10
-51.796047161555585
20
-36.616276733736306
0
LWPOLYLINE
5
115
100
AcDbEntity
8
0
100
AcDbPolyline
90
4
70
1
43
0.0
10
82.203952838444224
20
-67.91627673373624
10
76.203952838444224
20
-67.91627673373624
10
76.203952838444252
20
-73.91627673373624
10
82.203952838444238
20
-73.916276733736225
0
LWPOLYLINE
5
116
100
AcDbEntity
8
0
100
AcDbPolyline
90
4
70
1
43
0.0
10
-57.796047161555613
20
-11.316276733736338
10
-51.796047161555606
20
-11.316276733736338
10
-51.796047161555599
20
-5.3162767337363537
10
-57.796047161555613
20
-5.3162767337363439
0
LWPOLYLINE
5
117
100
AcDbEntity
8
0
100
AcDbPolyline
90
4
70
1
43
0.0
10
-57.796047161555563
20
-67.916276733736268
10
-57.796047161555549
20
-73.916276733736254
10
-51.796047161555549
20
-73.916276733736254
10
-51.796047161555549
20
-67.916276733736268
0
LWPOLYLINE
5
118
100
AcDbEntity
8
0
100
AcDbPolyline
90
4
70
1
43
0.0
10
15.20395283844427
20
8.683723266263641
10
9.2039528384442839
20
8.683723266263641
10
9.2039528384442875
20
2.683723266263653
10
15.203952838444273
20
2.6837232662636525
0
LWPOLYLINE
5
119
100
AcDbEntity
8
0
100
AcDbPolyline
90
4
70
1
43
0.0
10
62.203952838444209
20
2.6837232662636525
10
62.203952838444195
20
8.683723266263641
10
56.203952838444209
20
8.6837232662636428
10
56.203952838444224
20
2.683723266263653
0
LWPOLYLINE
5
120
100
AcDbEntity
8
0
100
AcDbPolyline
90
4
70
1
43
0.0
10
-37.796047161555578
20
-87.916276733736254
10
-37.79604716155557
20
-93.916276733736254
10
-31.79604716155557
20
-93.916276733736254
10
-31.796047161555563
20
-87.916276733736254
0
LWPOLYLINE
5
121
100
AcDbEntity
8
0
100
AcDbPolyline
90
4
70
1
43
0.0
10
56.203952838444295
20
-93.916276733736225
10
62.20395283844428
20
-93.916276733736225
10
62.203952838444266
20
-87.916276733736254
10
56.20395283844428
20
-87.91627673373624
0
LWPOLYLINE
5
122
100
AcDbEntity
8
0
100
AcDbPolyline
90
16
70
1
43
0.0
10
414.85395283844377
20
-270.91627673373591
42
-0.41421356237309431
10
399.85395283844377
20
-285.91627673373591
10
-292.14604716155497
20
-285.91627673373597
42
-0.41421356237309509
10
-307.14604716155497
20
-270.91627673373603
10
-307.14604716155497
20
-118.9162767337362
42
-0.41421356237309365
10
-292.14604716155509
20
-103.91627673373625
10
-92.79604716155545
20
-103.91627673373623
42
0.4142135623730947
10
-77.796047161555521
20
-88.916276733736225
10
-77.796047161555606
20
-0.31627673373633791
42
-0.41421356237309509
10
-62.796047161555641
20
14.683723266263623
10
160.50395283844404
20
14.683723266263664
42
-0.41421356237309448
10
175.50395283844398
20
-0.3162767337363448
10
175.50395283844409
20
-88.916276733736211
42
0.4142135623730947
10
190.50395283844404
20
-103.91627673373621
10
399.85395283844366
20
-103.91627673373628
42
-0.41421356237309087
10
414.8539528384436
20
-118.91627673373614
0
ENDSEC
0
SECTION
2
OBJECTS
0
DICTIONARY
5
C
100
AcDbDictionary
3
ACAD_GROUP
350
D
3
ACAD_MLINESTYLE
350
17
0
DICTIONARY
5
D
100
AcDbDictionary
0
DICTIONARY
5
1A
330
C
100
AcDbDictionary
0
DICTIONARY
5
17
100
AcDbDictionary
0
ENDSEC
0
EOF
