0
SECTION
2
HEADER
9
$INSUNITS
70
4
9
$ACADVER
1
AC1014
9
$HANDSEED
5
FFFF
0
ENDSEC
0
SECTION
2
TABLES
0
TABLE
2
VPORT
5
8
100
AcDbSymbolTable
0
ENDTAB
0
TABLE
2
LTYPE
5
5
100
AcDbSymbolTable
0
LTYPE
5
14
100
AcDbSymbolTableRecord
100
AcDbLinetypeTableRecord
2
BYBLOCK
70
0
0
LTYPE
5
15
100
AcDbSymbolTableRecord
100
AcDbLinetypeTableRecord
2
BYLAYER
70
0
0
ENDTAB
0
TABLE
2
LAYER
5
2
100
AcDbSymbolTable
70
2
0
LAYER
5
50
100
AcDbSymbolTableRecord
100
AcDbLayerTableRecord
2
0
70
0
6
CONTINUOUS
0
ENDTAB
0
TABLE
2
STYLE
5
3
100
AcDbSymbolTable
70
1
0
STYLE
5
11
100
AcDbSymbolTableRecord
100
AcDbTextStyleTableRecord
2
STANDARD
70
0
0
ENDTAB
0
TABLE
2
VIEW
5
6
100
AcDbSymbolTable
70
0
0
ENDTAB
0
TABLE
2
UCS
5
7
100
AcDbSymbolTable
70
0
0
ENDTAB
0
TABLE
2
APPID
5
9
100
AcDbSymbolTable
70
2
0
APPID
5
12
100
AcDbSymbolTableRecord
100
AcDbRegAppTableRecord
2
ACAD
70
0
0
ENDTAB
0
TABLE
2
DIMSTYLE
5
A
100
AcDbSymbolTable
70
1
0
ENDTAB
0
TABLE
2
BLOCK_RECORD
5
1
100
AcDbSymbolTable
70
1
0
BLOCK_RECORD
5
1F
100
AcDbSymbolTableRecord
100
AcDbBlockTableRecord
2
*MODEL_SPACE
0
BLOCK_RECORD
5
1B
100
AcDbSymbolTableRecord
100
AcDbBlockTableRecord
2
*PAPER_SPACE
0
ENDTAB
0
ENDSEC
0
SECTION
2
BLOCKS
0
BLOCK
5
20
100
AcDbEntity
100
AcDbBlockBegin
2
*MODEL_SPACE
0
ENDBLK
5
21
100
AcDbEntity
100
AcDbBlockEnd
0
BLOCK
5
1C
100
AcDbEntity
100
AcDbBlockBegin
2
*PAPER_SPACE
0
ENDBLK
5
1D
100
AcDbEntity
100
AcDbBlockEnd
0
ENDSEC
0
SECTION
2
ENTITIES
0
LWPOLYLINE
5
100
100
AcDbEntity
8
0
100
AcDbPolyline
90
20
70
1
43
0.0
10
-199.99999992549419
20
415
10
-199.99999992549419
20
477.0000009983778
10
-203.99999998509884
20
477.0000009983778
10
-203.99999998509884
20
539.00000192224979
10
-199.99999992549419
20
539.00000192224979
10
-199.99999992549419
20
605.00000290572643
10
-137.9999990016222
20
605.00000290572643
10
-137.9999990016222
20
609.00000296533108
10
-75.999998077750206
20
609.00000296533108
10
-75.999998077750206
20
605.00000290572643
10
-9.9999970942735672
20
605.00000290572643
10
-9.9999970942735672
20
543.00000198185444
10
-5.9999970346689224
20
543.00000198185444
10
-5.9999970346689224
20
481.00000105798244
10
-9.9999970942735672
20
481.00000105798244
10
-10
20
415
10
-71.999998018145561
20
415
10
-71.999998018145561
20
411.00000001490116
10
-133.99999894201753
20
411.00000001490116
10
-133.99999894201753
20
415
0
LWPOLYLINE
5
101
100
AcDbEntity
8
0
100
AcDbPolyline
90
16
70
1
43
0.0
10
-215.00000290572643
20
0
10
-215.00000290572638
20
10
10
-209.99999999999994
20
10
10
-209.99999999999994
20
105
10
-205.99999999999994
20
105
10
-205.99999999999994
20
200
10
-271.99999999999994
20
200
10
-271.99999999999994
20
196
10
-334.00000290572632
20
196
10
-334.00000290572632
20
200
10
-400.00000290572643
20
200
10
-400.00000290572643
20
105
10
-404.00000290572643
20
105
10
-404.00000290572643
20
10
10
-395.00000290572643
20
10
10
-395.00000290572643
20
0
0
LWPOLYLINE
5
102
100
AcDbEntity
8
0
100
AcDbPolyline
90
16
70
1
43
0.0
10
-0.99999999999995648
20
105
10
-0.99999999999995648
20
200
10
-66.999999999999972
20
200
10
-66.999999999999972
20
196
10
-129.00000290572638
20
196
10
-129.00000290572638
20
200
10
-195.00000290572643
20
200
10
-195.00000290572643
20
105
10
-199.00000290572643
20
105
10
-199.00000290572643
20
10
10
-190.0000029057264
20
10
10
-190.0000029057264
20
0
10
-10.000002905726397
20
0
10
-10.000002905726378
20
10
10
-4.9999999999999423
20
10
10
-4.9999999999999432
20
105
0
LINE
5
103
100
AcDbEntity
8
0
100
AcDbLine
10
-271.99999999999994
20
196
30
0
11
-334.00000290572632
21
196
31
0
0
LINE
5
104
100
AcDbEntity
8
0
100
AcDbLine
10
-209.99999999999994
20
105
30
0
11
-205.99999999999994
21
105
31
0
0
LINE
5
105
100
AcDbEntity
8
0
100
AcDbLine
10
-400.00000290572643
20
105
30
0
11
-404.00000290572643
21
105
31
0
0
LWPOLYLINE
5
106
100
AcDbEntity
8
0
100
AcDbPolyline
90
16
70
1
43
0.0
10
-195.00000290572643
20
310
10
-199.00000290572643
20
310
10
-199.00000290572643
20
215
10
-190.0000029057264
20
215
10
-190.0000029057264
20
205
10
-10.000002905726397
20
205
10
-10.000002905726378
20
215
10
-4.9999999999999423
20
215
10
-4.9999999999999432
20
310
10
-0.99999999999995648
20
310
10
-0.99999999999995648
20
405
10
-66.999999999999972
20
405
10
-66.999999999999972
20
401
10
-129.00000290572638
20
401
10
-129.00000290572638
20
405
10
-195.00000290572643
20
405
0
CIRCLE
5
107
100
AcDbEntity
8
0
100
AcDbCircle
10
-15.000000223517329
20
5.0000000745058069
30
0
40
1.6000000000000014
210
0
220
0
230
1
0
LINE
5
108
100
AcDbEntity
8
0
100
AcDbLine
10
-0.99999999999995648
20
200
30
0
11
-66.999999999999972
21
200
31
0
0
LINE
5
109
100
AcDbEntity
8
0
100
AcDbLine
10
-205.99999999999994
20
405
30
0
11
-271.99999999999994
21
405
31
0
0
LINE
5
110
100
AcDbEntity
8
0
100
AcDbLine
10
-0.99999999999995648
20
405
30
0
11
-66.999999999999972
21
405
31
0
0
LWPOLYLINE
5
111
100
AcDbEntity
8
0
100
AcDbPolyline
90
16
70
1
43
0.0
10
-404.00000290572643
20
310
10
-404.00000290572643
20
215
10
-395.00000290572643
20
215
10
-395.00000290572643
20
205
10
-215.00000290572643
20
205
10
-215.00000290572638
20
215
10
-209.99999999999994
20
215
10
-209.99999999999994
20
310
10
-205.99999999999994
20
310
10
-205.99999999999994
20
405
10
-271.99999999999994
20
405
10
-271.99999999999994
20
401
10
-334.00000290572632
20
401
10
-334.00000290572632
20
405
10
-400.00000290572643
20
405
10
-400.00000290572643
20
310
0
LINE
5
112
100
AcDbEntity
8
0
100
AcDbLine
10
-190.0000029057264
20
0
30
0
11
-10.000002905726397
21
0
31
0
0
LINE
5
113
100
AcDbEntity
8
0
100
AcDbLine
10
-271.99999999999994
20
401
30
0
11
-334.00000290572632
21
401
31
0
0
LINE
5
114
100
AcDbEntity
8
0
100
AcDbLine
10
-10.000002905726378
20
10
30
0
11
-4.9999999999999423
21
10
31
0
0
CIRCLE
5
115
100
AcDbEntity
8
0
100
AcDbCircle
10
-185.00000275671482
20
5.0000000745058069
30
0
40
1.6000000000000014
210
0
220
0
230
1
0
LINE
5
116
100
AcDbEntity
8
0
100
AcDbLine
10
-190.0000029057264
20
205
30
0
11
-10.000002905726397
21
205
31
0
0
LINE
5
117
100
AcDbEntity
8
0
100
AcDbLine
10
-195.00000290572643
20
105
30
0
11
-199.00000290572643
21
105
31
0
0
LINE
5
118
100
AcDbEntity
8
0
100
AcDbLine
10
-10.000002905726378
20
215
30
0
11
-4.9999999999999423
21
215
31
0
0
LINE
5
119
100
AcDbEntity
8
0
100
AcDbLine
10
-199.00000290572643
20
215
30
0
11
-190.0000029057264
21
215
31
0
0
CIRCLE
5
120
100
AcDbEntity
8
0
100
AcDbCircle
10
-15.000000223517329
20
5.0000000745058069
30
0
40
1.6000000000000014
210
0
220
0
230
1
0
CIRCLE
5
121
100
AcDbEntity
8
0
100
AcDbCircle
10
-220.00000022351736
20
5.0000000745058069
30
0
40
1.6000000000000014
210
0
220
0
230
1
0
CIRCLE
5
122
100
AcDbEntity
8
0
100
AcDbCircle
10
-185.00000275671482
20
5.0000000745058069
30
0
40
1.6000000000000014
210
0
220
0
230
1
0
LINE
5
123
100
AcDbEntity
8
0
100
AcDbLine
10
-215.00000290572638
20
215
30
0
11
-209.99999999999994
21
215
31
0
0
CIRCLE
5
124
100
AcDbEntity
8
0
100
AcDbCircle
10
-220.00000022351736
20
210.00000007450581
30
0
40
1.6000000000000014
210
0
220
0
230
1
0
LINE
5
125
100
AcDbEntity
8
0
100
AcDbLine
10
-199.00000290572643
20
10
30
0
11
-190.0000029057264
21
10
31
0
0
CIRCLE
5
126
100
AcDbEntity
8
0
100
AcDbCircle
10
-390.00000275671482
20
5.0000000745058069
30
0
40
1.6000000000000014
210
0
220
0
230
1
0
LINE
5
127
100
AcDbEntity
8
0
100
AcDbLine
10
-404.00000290572643
20
10
30
0
11
-395.00000290572643
21
10
31
0
0
LINE
5
128
100
AcDbEntity
8
0
100
AcDbLine
10
-4.9999999999999432
20
105
30
0
11
-0.99999999999995648
21
105
31
0
0
CIRCLE
5
129
100
AcDbEntity
8
0
100
AcDbCircle
10
-390.00000275671482
20
5.0000000745058069
30
0
40
1.6000000000000014
210
0
220
0
230
1
0
LINE
5
130
100
AcDbEntity
8
0
100
AcDbLine
10
-404.00000290572643
20
215
30
0
11
-395.00000290572643
21
215
31
0
0
LINE
5
131
100
AcDbEntity
8
0
100
AcDbLine
10
-395.00000290572643
20
205
30
0
11
-215.00000290572643
21
205
31
0
0
LINE
5
132
100
AcDbEntity
8
0
100
AcDbLine
10
-334.00000290572632
20
405
30
0
11
-400.00000290572643
21
405
31
0
0
CIRCLE
5
133
100
AcDbEntity
8
0
100
AcDbCircle
10
-220.00000022351736
20
210.00000007450581
30
0
40
1.6000000000000014
210
0
220
0
230
1
0
LINE
5
134
100
AcDbEntity
8
0
100
AcDbLine
10
-129.00000290572638
20
200
30
0
11
-195.00000290572643
21
200
31
0
0
CIRCLE
5
135
100
AcDbEntity
8
0
100
AcDbCircle
10
-390.00000275671482
20
210.00000007450581
30
0
40
1.6000000000000014
210
0
220
0
230
1
0
CIRCLE
5
136
100
AcDbEntity
8
0
100
AcDbCircle
10
-220.00000022351736
20
5.0000000745058069
30
0
40
1.6000000000000014
210
0
220
0
230
1
0
LINE
5
137
100
AcDbEntity
8
0
100
AcDbLine
10
-205.99999999999994
20
200
30
0
11
-271.99999999999994
21
200
31
0
0
LINE
5
138
100
AcDbEntity
8
0
100
AcDbLine
10
-395.00000290572643
20
0
30
0
11
-215.00000290572643
21
0
31
0
0
LINE
5
139
100
AcDbEntity
8
0
100
AcDbLine
10
-215.00000290572638
20
10
30
0
11
-209.99999999999994
21
10
31
0
0
CIRCLE
5
140
100
AcDbEntity
8
0
100
AcDbCircle
10
-15.000000223517329
20
210.00000007450581
30
0
40
1.6000000000000014
210
0
220
0
230
1
0
LINE
5
141
100
AcDbEntity
8
0
100
AcDbLine
10
-66.999999999999972
20
196
30
0
11
-129.00000290572638
21
196
31
0
0
LINE
5
142
100
AcDbEntity
8
0
100
AcDbLine
10
-66.999999999999972
20
401
30
0
11
-129.00000290572638
21
401
31
0
0
LINE
5
143
100
AcDbEntity
8
0
100
AcDbLine
10
-334.00000290572632
20
200
30
0
11
-400.00000290572643
21
200
31
0
0
LINE
5
144
100
AcDbEntity
8
0
100
AcDbLine
10
-209.99999999999994
20
310
30
0
11
-205.99999999999994
21
310
31
0
0
CIRCLE
5
145
100
AcDbEntity
8
0
100
AcDbCircle
10
-185.00000275671482
20
210.00000007450581
30
0
40
1.6000000000000014
210
0
220
0
230
1
0
CIRCLE
5
146
100
AcDbEntity
8
0
100
AcDbCircle
10
-185.00000275671482
20
210.00000007450581
30
0
40
1.6000000000000014
210
0
220
0
230
1
0
LINE
5
147
100
AcDbEntity
8
0
100
AcDbLine
10
-4.9999999999999432
20
310
30
0
11
-0.99999999999995648
21
310
31
0
0
LINE
5
148
100
AcDbEntity
8
0
100
AcDbLine
10
-129.00000290572638
20
405
30
0
11
-195.00000290572643
21
405
31
0
0
CIRCLE
5
149
100
AcDbEntity
8
0
100
AcDbCircle
10
-15.000000223517329
20
210.00000007450581
30
0
40
1.6000000000000014
210
0
220
0
230
1
0
CIRCLE
5
150
100
AcDbEntity
8
0
100
AcDbCircle
10
-390.00000275671482
20
210.00000007450581
30
0
40
1.6000000000000014
210
0
220
0
230
1
0
LINE
5
151
100
AcDbEntity
8
0
100
AcDbLine
10
-400.00000290572643
20
310
30
0
11
-404.00000290572643
21
310
31
0
0
LINE
5
152
100
AcDbEntity
8
0
100
AcDbLine
10
-195.00000290572643
20
310
30
0
11
-199.00000290572643
21
310
31
0
0
ENDSEC
0
SECTION
2
OBJECTS
0
DICTIONARY
5
C
100
AcDbDictionary
3
ACAD_GROUP
350
D
3
ACAD_MLINESTYLE
350
17
0
DICTIONARY
5
D
100
AcDbDictionary
0
DICTIONARY
5
1A
330
C
100
AcDbDictionary
0
DICTIONARY
5
17
100
AcDbDictionary
0
ENDSEC
0
EOF
