  0
SECTION
  2
HEADER
  9
$ACADVER
  1
AC1014
  9
$ACADMAINTVER
 70
     9
  9
$DWGCODEPAGE
  3
ANSI_1252
  9
$INSBASE
 10
0.0
 20
0.0
 30
0.0
  9
$EXTMIN
 10
1.000000000000000E+20
 20
1.000000000000000E+20
 30
1.000000000000000E+20
  9
$EXTMAX
 10
-1.000000000000000E+20
 20
-1.000000000000000E+20
 30
-1.000000000000000E+20
  9
$LIMMIN
 10
0.0
 20
0.0
  9
$LIMMAX
 10
12.0
 20
9.0
  9
$ORTHOMODE
 70
     0
  9
$REGENMODE
 70
     1
  9
$FILLMODE
 70
     1
  9
$QTEXTMODE
 70
     0
  9
$MIRRTEXT
 70
     1
  9
$DRAGMODE
 70
     2
  9
$LTSCALE
 40
1.0
  9
$OSMODE
 70
    37
  9
$ATTMODE
 70
     1
  9
$TEXTSIZE
 40
0.2
  9
$TRACEWID
 40
0.05
  9
$TEXTSTYLE
  7
STANDARD
  9
$CLAYER
  8
0
  9
$CELTYPE
  6
BYLAYER
  9
$CECOLOR
 62
   256
  9
$CELTSCALE
 40
1.0
  9
$DELOBJ
 70
     1
  9
$DISPSILH
 70
     0
  9
$DIMSCALE
 40
1.0
  9
$DIMASZ
 40
0.18
  9
$DIMEXO
 40
0.0625
  9
$DIMDLI
 40
0.38
  9
$DIMRND
 40
0.0
  9
$DIMDLE
 40
0.0
  9
$DIMEXE
 40
0.18
  9
$DIMTP
 40
0.0
  9
$DIMTM
 40
0.0
  9
$DIMTXT
 40
0.18
  9
$DIMCEN
 40
0.09
  9
$DIMTSZ
 40
0.0
  9
$DIMTOL
 70
     0
  9
$DIMLIM
 70
     0
  9
$DIMTIH
 70
     1
  9
$DIMTOH
 70
     1
  9
$DIMSE1
 70
     0
  9
$DIMSE2
 70
     0
  9
$DIMTAD
 70
     0
  9
$DIMZIN
 70
     0
  9
$DIMBLK
  1

  9
$DIMASO
 70
     1
  9
$DIMSHO
 70
     1
  9
$DIMPOST
  1

  9
$DIMAPOST
  1

  9
$DIMALT
 70
     0
  9
$DIMALTD
 70
     2
  9
$DIMALTF
 40
25.4
  9
$DIMLFAC
 40
1.0
  9
$DIMTOFL
 70
     0
  9
$DIMTVP
 40
0.0
  9
$DIMTIX
 70
     0
  9
$DIMSOXD
 70
     0
  9
$DIMSAH
 70
     0
  9
$DIMBLK1
  1

  9
$DIMBLK2
  1

  9
$DIMSTYLE
  2
STANDARD
  9
$DIMCLRD
 70
     0
  9
$DIMCLRE
 70
     0
  9
$DIMCLRT
 70
     0
  9
$DIMTFAC
 40
1.0
  9
$DIMGAP
 40
0.09
  9
$DIMJUST
 70
     0
  9
$DIMSD1
 70
     0
  9
$DIMSD2
 70
     0
  9
$DIMTOLJ
 70
     1
  9
$DIMTZIN
 70
     0
  9
$DIMALTZ
 70
     0
  9
$DIMALTTZ
 70
     0
  9
$DIMFIT
 70
     3
  9
$DIMUPT
 70
     0
  9
$DIMUNIT
 70
     2
  9
$DIMDEC
 70
     4
  9
$DIMTDEC
 70
     4
  9
$DIMALTU
 70
     2
  9
$DIMALTTD
 70
     2
  9
$DIMTXSTY
  7
STANDARD
  9
$DIMAUNIT
 70
     0
  9
$LUNITS
 70
     2
  9
$LUPREC
 70
     4
  9
$SKETCHINC
 40
0.1
  9
$FILLETRAD
 40
0.5
  9
$AUNITS
 70
     0
  9
$AUPREC
 70
     0
  9
$MENU
  1
.
  9
$ELEVATION
 40
0.0
  9
$PELEVATION
 40
0.0
  9
$THICKNESS
 40
0.0
  9
$LIMCHECK
 70
     0
  9
$CHAMFERA
 40
0.5
  9
$CHAMFERB
 40
0.5
  9
$CHAMFERC
 40
1.0
  9
$CHAMFERD
 40
0.0
  9
$SKPOLY
 70
     0
  9
$TDCREATE
 40
2459683.925106227
  9
$TDUPDATE
 40
2459683.925106528
  9
$TDINDWG
 40
0.0000000116
  9
$TDUSRTIMER
 40
0.0000000116
  9
$USRTIMER
 70
     1
  9
$ANGBASE
 50
0.0
  9
$ANGDIR
 70
     0
  9
$PDMODE
 70
     0
  9
$PDSIZE
 40
0.0
  9
$PLINEWID
 40
0.0
  9
$COORDS
 70
     1
  9
$SPLFRAME
 70
     0
  9
$SPLINETYPE
 70
     6
  9
$SPLINESEGS
 70
     8
  9
$ATTDIA
 70
     0
  9
$ATTREQ
 70
     1
  9
$HANDLING
 70
     1
  9
$HANDSEED
  5
1A5
  9
$SURFTAB1
 70
     6
  9
$SURFTAB2
 70
     6
  9
$SURFTYPE
 70
     6
  9
$SURFU
 70
     6
  9
$SURFV
 70
     6
  9
$UCSNAME
  2

  9
$UCSORG
 10
0.0
 20
0.0
 30
0.0
  9
$UCSXDIR
 10
1.0
 20
0.0
 30
0.0
  9
$UCSYDIR
 10
0.0
 20
1.0
 30
0.0
  9
$PUCSNAME
  2

  9
$PUCSORG
 10
0.0
 20
0.0
 30
0.0
  9
$PUCSXDIR
 10
1.0
 20
0.0
 30
0.0
  9
$PUCSYDIR
 10
0.0
 20
1.0
 30
0.0
  9
$USERI1
 70
     0
  9
$USERI2
 70
     0
  9
$USERI3
 70
     0
  9
$USERI4
 70
     0
  9
$USERI5
 70
     0
  9
$USERR1
 40
0.0
  9
$USERR2
 40
0.0
  9
$USERR3
 40
0.0
  9
$USERR4
 40
0.0
  9
$USERR5
 40
0.0
  9
$WORLDVIEW
 70
     1
  9
$SHADEDGE
 70
     3
  9
$SHADEDIF
 70
    70
  9
$TILEMODE
 70
     1
  9
$MAXACTVP
 70
    64
  9
$PINSBASE
 10
0.0
 20
0.0
 30
0.0
  9
$PLIMCHECK
 70
     0
  9
$PEXTMIN
 10
1.000000000000000E+20
 20
1.000000000000000E+20
 30
1.000000000000000E+20
  9
$PEXTMAX
 10
-1.000000000000000E+20
 20
-1.000000000000000E+20
 30
-1.000000000000000E+20
  9
$PLIMMIN
 10
0.0
 20
0.0
  9
$PLIMMAX
 10
12.0
 20
9.0
  9
$UNITMODE
 70
     0
  9
$VISRETAIN
 70
     1
  9
$PLINEGEN
 70
     0
  9
$PSLTSCALE
 70
     1
  9
$TREEDEPTH
 70
  3020
  9
$PICKSTYLE
 70
     1
  9
$CMLSTYLE
  2
STANDARD
  9
$CMLJUST
 70
     0
  9
$CMLSCALE
 40
1.0
  9
$PROXYGRAPHICS
 70
     1
  9
$MEASUREMENT
 70
     0
  0
ENDSEC
  0
SECTION
  2
CLASSES
  0
CLASS
  1
ACDBDICTIONARYWDFLT
  2
AcDbDictionaryWithDefault
  3
ObjectDBX Classes
 90
        0
280
     0
281
     0
  0
CLASS
  1
VISUALSTYLE
  2
AcDbVisualStyle
  3
ObjectDBX Classes
 90
     4095
280
     0
281
     0
  0
CLASS
  1
MATERIAL
  2
AcDbMaterial
  3
ObjectDBX Classes
 90
     1153
280
     0
281
     0
  0
CLASS
  1
SUN
  2
AcDbSun
  3
SCENEOE
 90
     1024
280
     0
281
     0
  0
CLASS
  1
DICTIONARYVAR
  2
AcDbDictionaryVar
  3
ObjectDBX Classes
 90
        0
280
     0
281
     0
  0
CLASS
  1
XRECORD
  2
AcDbXrecord
  3
AutoCAD 2000
 90
        0
280
     0
281
     0
  0
CLASS
  1
LWPOLYLINE
  2
AcDbPolyline
  3
AutoCAD 2000
 90
        0
280
     0
281
     1
  0
CLASS
  1
HATCH
  2
AcDbHatch
  3
AutoCAD 2000
 90
        0
280
     0
281
     1
  0
CLASS
  1
ACDBPLACEHOLDER
  2
AcDbPlaceHolder
  3
ObjectDBX Classes
 90
        0
280
     0
281
     0
  0
CLASS
  1
LAYOUT
  2
AcDbLayout
  3
ObjectDBX Classes
 90
        0
280
     0
281
     0
  0
ENDSEC
  0
SECTION
  2
TABLES
  0
TABLE
  2
VPORT
  5
8
330
0
100
AcDbSymbolTable
 70
     1
  0
VPORT
  5
29
330
8
100
AcDbSymbolTableRecord
100
AcDbViewportTableRecord
  2
*ACTIVE
 70
     0
 10
0.0
 20
0.0
 11
1.0
 21
1.0
 12
0.0
 22
0.0
 13
0.0
 23
0.0
 14
0.5
 24
0.5
 15
0.5
 25
0.5
 16
0.0
 26
0.0
 36
1.0
 17
103.1134999742139
 27
103.1134999742137
 37
0.0
 40
206.2269999484274
 41
1.000000000000002
 42
50.0
 43
0.0
 44
0.0
 50
0.0
 51
0.0
 71
     0
 72
   100
 73
     1
 74
     3
 75
     0
 76
     0
 77
     0
 78
     0
  0
ENDTAB
  0
TABLE
  2
LTYPE
  5
5
330
0
100
AcDbSymbolTable
 70
     1
  0
LTYPE
  5
14
330
5
100
AcDbSymbolTableRecord
100
AcDbLinetypeTableRecord
  2
BYBLOCK
 70
     0
  3

 72
    65
 73
     0
 40
0.0
  0
LTYPE
  5
15
330
5
100
AcDbSymbolTableRecord
100
AcDbLinetypeTableRecord
  2
BYLAYER
 70
     0
  3

 72
    65
 73
     0
 40
0.0
  0
LTYPE
  5
16
330
5
100
AcDbSymbolTableRecord
100
AcDbLinetypeTableRecord
  2
CONTINUOUS
 70
     0
  3
Solid line
 72
    65
 73
     0
 40
0.0
  0
ENDTAB
  0
TABLE
  2
LAYER
  5
2
330
0
100
AcDbSymbolTable
 70
     4
  0
LAYER
  5
10
330
2
100
AcDbSymbolTableRecord
100
AcDbLayerTableRecord
  2
0
 70
     0
 62
     7
  6
CONTINUOUS
  0
LAYER
  5
40
330
2
100
AcDbSymbolTableRecord
100
AcDbLayerTableRecord
  2
CUT
 70
     0
 62
     7
  6
CONTINUOUS
  0
LAYER
  5
172
330
2
100
AcDbSymbolTableRecord
100
AcDbLayerTableRecord
  2
OUTLINE
 70
     0
 62
     7
  6
CONTINUOUS
  0
LAYER
  5
178
330
2
100
AcDbSymbolTableRecord
100
AcDbLayerTableRecord
  2
WASTE
 70
     0
 62
     7
  6
CONTINUOUS
  0
ENDTAB
  0
TABLE
  2
STYLE
  5
3
330
0
100
AcDbSymbolTable
 70
     1
  0
STYLE
  5
11
330
3
100
AcDbSymbolTableRecord
100
AcDbTextStyleTableRecord
  2
STANDARD
 70
     0
 40
0.0
 41
1.0
 50
0.0
 71
     0
 42
0.2
  3
txt
  4

  0
ENDTAB
  0
TABLE
  2
VIEW
  5
6
330
0
100
AcDbSymbolTable
 70
     0
  0
ENDTAB
  0
TABLE
  2
UCS
  5
7
330
0
100
AcDbSymbolTable
 70
     0
  0
ENDTAB
  0
TABLE
  2
APPID
  5
9
330
0
100
AcDbSymbolTable
 70
     1
  0
APPID
  5
12
330
9
100
AcDbSymbolTableRecord
100
AcDbRegAppTableRecord
  2
ACAD
 70
     0
  0
ENDTAB
  0
TABLE
  2
DIMSTYLE
  5
A
330
0
100
AcDbSymbolTable
 70
     1
  0
DIMSTYLE
105
27
330
A
100
AcDbSymbolTableRecord
100
AcDbDimStyleTableRecord
  2
STANDARD
 70
     0
  3

  4

  5

  6

  7

 40
1.0
 41
0.18
 42
0.0625
 43
0.38
 44
0.18
 45
0.0
 46
0.0
 47
0.0
 48
0.0
140
0.18
141
0.09
142
0.0
143
25.4
144
1.0
145
0.0
146
1.0
147
0.09
 71
     0
 72
     0
 73
     1
 74
     1
 75
     0
 76
     0
 77
     0
 78
     0
170
     0
171
     2
172
     0
173
     0
174
     0
175
     0
176
     0
177
     0
178
     0
270
     2
271
     4
272
     4
273
     2
274
     2
340
11
275
     0
280
     0
281
     0
282
     0
283
     1
284
     0
285
     0
286
     0
287
     3
288
     0
  0
ENDTAB
  0
TABLE
  2
BLOCK_RECORD
  5
1
330
0
100
AcDbSymbolTable
 70
    63
  0
BLOCK_RECORD
  5
1F
330
1
100
AcDbSymbolTableRecord
100
AcDbBlockTableRecord
  2
*MODEL_SPACE
  0
BLOCK_RECORD
  5
1B
330
1
100
AcDbSymbolTableRecord
100
AcDbBlockTableRecord
  2
*PAPER_SPACE
  0
BLOCK_RECORD
  5
41
330
1
100
AcDbSymbolTableRecord
100
AcDbBlockTableRecord
  2
BLOCK_2
  0
BLOCK_RECORD
  5
46
330
1
100
AcDbSymbolTableRecord
100
AcDbBlockTableRecord
  2
BLOCK_3
  0
BLOCK_RECORD
  5
4B
330
1
100
AcDbSymbolTableRecord
100
AcDbBlockTableRecord
  2
BLOCK_4
  0
BLOCK_RECORD
  5
50
330
1
100
AcDbSymbolTableRecord
100
AcDbBlockTableRecord
  2
BLOCK_5
  0
BLOCK_RECORD
  5
55
330
1
100
AcDbSymbolTableRecord
100
AcDbBlockTableRecord
  2
BLOCK_6
  0
BLOCK_RECORD
  5
5A
330
1
100
AcDbSymbolTableRecord
100
AcDbBlockTableRecord
  2
BLOCK_7
  0
BLOCK_RECORD
  5
5F
330
1
100
AcDbSymbolTableRecord
100
AcDbBlockTableRecord
  2
BLOCK_8
  0
BLOCK_RECORD
  5
64
330
1
100
AcDbSymbolTableRecord
100
AcDbBlockTableRecord
  2
BLOCK_9
  0
BLOCK_RECORD
  5
69
330
1
100
AcDbSymbolTableRecord
100
AcDbBlockTableRecord
  2
BLOCK_10
  0
BLOCK_RECORD
  5
6E
330
1
100
AcDbSymbolTableRecord
100
AcDbBlockTableRecord
  2
BLOCK_11
  0
BLOCK_RECORD
  5
73
330
1
100
AcDbSymbolTableRecord
100
AcDbBlockTableRecord
  2
BLOCK_12
  0
BLOCK_RECORD
  5
78
330
1
100
AcDbSymbolTableRecord
100
AcDbBlockTableRecord
  2
BLOCK_13
  0
BLOCK_RECORD
  5
7D
330
1
100
AcDbSymbolTableRecord
100
AcDbBlockTableRecord
  2
BLOCK_14
  0
BLOCK_RECORD
  5
82
330
1
100
AcDbSymbolTableRecord
100
AcDbBlockTableRecord
  2
BLOCK_15
  0
BLOCK_RECORD
  5
87
330
1
100
AcDbSymbolTableRecord
100
AcDbBlockTableRecord
  2
BLOCK_16
  0
BLOCK_RECORD
  5
8C
330
1
100
AcDbSymbolTableRecord
100
AcDbBlockTableRecord
  2
BLOCK_17
  0
BLOCK_RECORD
  5
91
330
1
100
AcDbSymbolTableRecord
100
AcDbBlockTableRecord
  2
BLOCK_18
  0
BLOCK_RECORD
  5
96
330
1
100
AcDbSymbolTableRecord
100
AcDbBlockTableRecord
  2
BLOCK_19
  0
BLOCK_RECORD
  5
9B
330
1
100
AcDbSymbolTableRecord
100
AcDbBlockTableRecord
  2
BLOCK_20
  0
BLOCK_RECORD
  5
A0
330
1
100
AcDbSymbolTableRecord
100
AcDbBlockTableRecord
  2
BLOCK_21
  0
BLOCK_RECORD
  5
A5
330
1
100
AcDbSymbolTableRecord
100
AcDbBlockTableRecord
  2
BLOCK_22
  0
BLOCK_RECORD
  5
AA
330
1
100
AcDbSymbolTableRecord
100
AcDbBlockTableRecord
  2
BLOCK_23
  0
BLOCK_RECORD
  5
AF
330
1
100
AcDbSymbolTableRecord
100
AcDbBlockTableRecord
  2
BLOCK_24
  0
BLOCK_RECORD
  5
B4
330
1
100
AcDbSymbolTableRecord
100
AcDbBlockTableRecord
  2
BLOCK_25
  0
BLOCK_RECORD
  5
B9
330
1
100
AcDbSymbolTableRecord
100
AcDbBlockTableRecord
  2
BLOCK_26
  0
BLOCK_RECORD
  5
BE
330
1
100
AcDbSymbolTableRecord
100
AcDbBlockTableRecord
  2
BLOCK_27
  0
BLOCK_RECORD
  5
C3
330
1
100
AcDbSymbolTableRecord
100
AcDbBlockTableRecord
  2
BLOCK_28
  0
BLOCK_RECORD
  5
C8
330
1
100
AcDbSymbolTableRecord
100
AcDbBlockTableRecord
  2
BLOCK_29
  0
BLOCK_RECORD
  5
CD
330
1
100
AcDbSymbolTableRecord
100
AcDbBlockTableRecord
  2
BLOCK_30
  0
BLOCK_RECORD
  5
D2
330
1
100
AcDbSymbolTableRecord
100
AcDbBlockTableRecord
  2
BLOCK_31
  0
BLOCK_RECORD
  5
D7
330
1
100
AcDbSymbolTableRecord
100
AcDbBlockTableRecord
  2
BLOCK_32
  0
BLOCK_RECORD
  5
DC
330
1
100
AcDbSymbolTableRecord
100
AcDbBlockTableRecord
  2
BLOCK_33
  0
BLOCK_RECORD
  5
E1
330
1
100
AcDbSymbolTableRecord
100
AcDbBlockTableRecord
  2
BLOCK_34
  0
BLOCK_RECORD
  5
E6
330
1
100
AcDbSymbolTableRecord
100
AcDbBlockTableRecord
  2
BLOCK_35
  0
BLOCK_RECORD
  5
EB
330
1
100
AcDbSymbolTableRecord
100
AcDbBlockTableRecord
  2
BLOCK_36
  0
BLOCK_RECORD
  5
F0
330
1
100
AcDbSymbolTableRecord
100
AcDbBlockTableRecord
  2
BLOCK_37
  0
BLOCK_RECORD
  5
F5
330
1
100
AcDbSymbolTableRecord
100
AcDbBlockTableRecord
  2
BLOCK_38
  0
BLOCK_RECORD
  5
FA
330
1
100
AcDbSymbolTableRecord
100
AcDbBlockTableRecord
  2
BLOCK_39
  0
BLOCK_RECORD
  5
FF
330
1
100
AcDbSymbolTableRecord
100
AcDbBlockTableRecord
  2
BLOCK_40
  0
BLOCK_RECORD
  5
104
330
1
100
AcDbSymbolTableRecord
100
AcDbBlockTableRecord
  2
BLOCK_41
  0
BLOCK_RECORD
  5
109
330
1
100
AcDbSymbolTableRecord
100
AcDbBlockTableRecord
  2
BLOCK_42
  0
BLOCK_RECORD
  5
10E
330
1
100
AcDbSymbolTableRecord
100
AcDbBlockTableRecord
  2
BLOCK_43
  0
BLOCK_RECORD
  5
113
330
1
100
AcDbSymbolTableRecord
100
AcDbBlockTableRecord
  2
BLOCK_44
  0
BLOCK_RECORD
  5
118
330
1
100
AcDbSymbolTableRecord
100
AcDbBlockTableRecord
  2
BLOCK_45
  0
BLOCK_RECORD
  5
11D
330
1
100
AcDbSymbolTableRecord
100
AcDbBlockTableRecord
  2
BLOCK_46
  0
BLOCK_RECORD
  5
122
330
1
100
AcDbSymbolTableRecord
100
AcDbBlockTableRecord
  2
BLOCK_47
  0
BLOCK_RECORD
  5
127
330
1
100
AcDbSymbolTableRecord
100
AcDbBlockTableRecord
  2
BLOCK_48
  0
BLOCK_RECORD
  5
12C
330
1
100
AcDbSymbolTableRecord
100
AcDbBlockTableRecord
  2
BLOCK_49
  0
BLOCK_RECORD
  5
131
330
1
100
AcDbSymbolTableRecord
100
AcDbBlockTableRecord
  2
BLOCK_50
  0
BLOCK_RECORD
  5
136
330
1
100
AcDbSymbolTableRecord
100
AcDbBlockTableRecord
  2
BLOCK_51
  0
BLOCK_RECORD
  5
13B
330
1
100
AcDbSymbolTableRecord
100
AcDbBlockTableRecord
  2
BLOCK_52
  0
BLOCK_RECORD
  5
140
330
1
100
AcDbSymbolTableRecord
100
AcDbBlockTableRecord
  2
BLOCK_53
  0
BLOCK_RECORD
  5
145
330
1
100
AcDbSymbolTableRecord
100
AcDbBlockTableRecord
  2
BLOCK_54
  0
BLOCK_RECORD
  5
14A
330
1
100
AcDbSymbolTableRecord
100
AcDbBlockTableRecord
  2
BLOCK_55
  0
BLOCK_RECORD
  5
14F
330
1
100
AcDbSymbolTableRecord
100
AcDbBlockTableRecord
  2
BLOCK_56
  0
BLOCK_RECORD
  5
154
330
1
100
AcDbSymbolTableRecord
100
AcDbBlockTableRecord
  2
BLOCK_57
  0
BLOCK_RECORD
  5
159
330
1
100
AcDbSymbolTableRecord
100
AcDbBlockTableRecord
  2
BLOCK_58
  0
BLOCK_RECORD
  5
15E
330
1
100
AcDbSymbolTableRecord
100
AcDbBlockTableRecord
  2
BLOCK_59
  0
BLOCK_RECORD
  5
163
330
1
100
AcDbSymbolTableRecord
100
AcDbBlockTableRecord
  2
BLOCK_60
  0
BLOCK_RECORD
  5
168
330
1
100
AcDbSymbolTableRecord
100
AcDbBlockTableRecord
  2
BLOCK_61
  0
BLOCK_RECORD
  5
16D
330
1
100
AcDbSymbolTableRecord
100
AcDbBlockTableRecord
  2
BLOCK_62
  0
BLOCK_RECORD
  5
173
330
1
100
AcDbSymbolTableRecord
100
AcDbBlockTableRecord
  2
BLOCK_63
  0
ENDTAB
  0
ENDSEC
  0
SECTION
  2
BLOCKS
  0
BLOCK
  5
20
330
1F
100
AcDbEntity
  8
0
100
AcDbBlockBegin
  2
*MODEL_SPACE
 70
     0
 10
0.0
 20
0.0
 30
0.0
  3
*MODEL_SPACE
  1

  0
ENDBLK
  5
21
330
1F
100
AcDbEntity
  8
0
100
AcDbBlockEnd
  0
BLOCK
  5
1C
330
1B
100
AcDbEntity
 67
     1
  8
0
100
AcDbBlockBegin
  2
*PAPER_SPACE
 70
     0
 10
0.0
 20
0.0
 30
0.0
  3
*PAPER_SPACE
  1

  0
ENDBLK
  5
1D
330
1B
100
AcDbEntity
 67
     1
  8
0
100
AcDbBlockEnd
  0
BLOCK
  5
43
330
41
100
AcDbEntity
  8
0
100
AcDbBlockBegin
  2
BLOCK_2
 70
     0
 10
0.0
 20
0.0
 30
0.0
  3
BLOCK_2
  1

  0
SPLINE
  5
45
330
41
100
AcDbEntity
  8
CUT
100
AcDbSpline
210
0.0
220
0.0
230
1.0
 70
     8
 71
     3
 72
    11
 73
     7
 74
     0
 42
0.0000000001
 43
0.0000000001
 12
1.0
 22
0.0
 32
0.0
 13
1.0
 23
0.0
 33
0.0
 40
0.0
 40
0.0
 40
0.0
 40
0.0
 40
1.0
 40
1.0
 40
1.0
 40
2.0
 40
2.0
 40
2.0
 40
2.0
 10
284.1129793269852
 20
194.139250372222
 30
0.0
 10
284.0292605524595
 20
194.3057876773926
 30
0.0
 10
283.8263879159045
 20
194.3729253616719
 30
0.0
 10
283.6598506107335
 20
194.2892065871469
 30
0.0
 10
283.5067227342544
 20
194.2122287703659
 30
0.0
 10
283.4356025968593
 20
194.0327039525285
 30
0.0
 10
283.4944691628618
 20
193.8717429068109
 30
0.0
  0
ENDBLK
  5
44
330
41
100
AcDbEntity
  8
0
100
AcDbBlockEnd
  0
BLOCK
  5
48
330
46
100
AcDbEntity
  8
0
100
AcDbBlockBegin
  2
BLOCK_3
 70
     0
 10
0.0
 20
0.0
 30
0.0
  3
BLOCK_3
  1

  0
SPLINE
  5
4A
330
46
100
AcDbEntity
  8
CUT
100
AcDbSpline
210
0.0
220
0.0
230
1.0
 70
    11
 71
     3
 72
    35
 73
    31
 74
     0
 42
0.0000000001
 43
0.0000000001
 12
1.0
 22
0.0
 32
0.0
 13
1.0
 23
0.0
 33
0.0
 40
0.0
 40
0.0
 40
0.0
 40
0.0
 40
1.0
 40
1.0
 40
1.0
 40
2.0
 40
2.0
 40
2.0
 40
3.0
 40
3.0
 40
3.0
 40
4.0
 40
4.0
 40
4.0
 40
5.0
 40
5.0
 40
5.0
 40
6.0
 40
6.0
 40
6.0
 40
7.0
 40
7.0
 40
7.0
 40
8.0
 40
8.0
 40
8.0
 40
9.0
 40
9.0
 40
9.0
 40
10.0
 40
10.0
 40
10.0
 40
10.0
 10
-13.91965528951713
 20
238.187221942261
 30
0.0
 10
-13.79977049765997
 20
238.1875660144197
 30
0.0
 10
-13.68906623410447
 20
238.2514811507842
 30
0.0
 10
-13.62882586294586
 20
238.3551323899808
 30
0.0
 10
-1.580751631178386
 20
259.0853802292611
 30
0.0
 10
20.56010107987052
 20
271.8684075020727
 30
0.0
 10
44.53705945131819
 20
271.9372219338227
 30
0.0
 10
44.6569442481992
 20
271.9375660077827
 30
0.0
 10
44.76764851080178
 20
272.001481145796
 30
0.0
 10
44.82788888041551
 20
272.10513238589
 30
0.0
 10
54.83796850207592
 20
289.3287500644111
 30
0.0
 10
71.94499462339863
 20
301.2510434281166
 30
0.0
 10
91.56887447329275
 20
304.6800374103941
 30
0.0
 10
91.75248755410968
 20
304.7121211883897
 30
0.0
 10
91.87532698762894
 20
304.8869789845724
 30
0.0
 10
91.84324303650259
 20
305.0705930562056
 30
0.0
 10
91.81374245523597
 20
305.239422693818
 30
0.0
 10
91.66238820061234
 20
305.3593356779778
 30
0.0
 10
91.49128666116304
 20
305.3494364845974
 30
0.0
 10
27.55193648916876
 20
301.6501828485383
 30
0.0
 10
-30.86844335566527
 20
267.9211608189636
 30
0.0
 10
-66.04176606553249
 20
214.3976860865777
 30
0.0
 10
-66.14413221522491
 20
214.2419148484803
 30
0.0
 10
-66.10083883708491
 20
214.0326531493516
 30
0.0
 10
-65.94506759898758
 20
213.9302869996589
 30
0.0
 10
-65.8018389158885
 20
213.8361632769902
 30
0.0
 10
-65.61080579433457
 20
213.864333840204
 30
0.0
 10
-65.5008427227253
 20
213.9957943046543
 30
0.0
 10
-52.71930667200748
 20
229.276075593876
 30
0.0
 10
-33.84078455507329
 20
238.1300478349796
 30
0.0
 10
-13.91965528951713
 20
238.187221942261
 30
0.0
  0
ENDBLK
  5
49
330
46
100
AcDbEntity
  8
0
100
AcDbBlockEnd
  0
BLOCK
  5
4D
330
4B
100
AcDbEntity
  8
0
100
AcDbBlockBegin
  2
BLOCK_4
 70
     0
 10
0.0
 20
0.0
 30
0.0
  3
BLOCK_4
  1

  0
SPLINE
  5
4F
330
4B
100
AcDbEntity
  8
CUT
100
AcDbSpline
210
0.0
220
0.0
230
1.0
 70
    11
 71
     3
 72
    35
 73
    31
 74
     0
 42
0.0000000001
 43
0.0000000001
 12
1.0
 22
0.0
 32
0.0
 13
1.0
 23
0.0
 33
0.0
 40
0.0
 40
0.0
 40
0.0
 40
0.0
 40
1.0
 40
1.0
 40
1.0
 40
2.0
 40
2.0
 40
2.0
 40
3.0
 40
3.0
 40
3.0
 40
4.0
 40
4.0
 40
4.0
 40
5.0
 40
5.0
 40
5.0
 40
6.0
 40
6.0
 40
6.0
 40
7.0
 40
7.0
 40
7.0
 40
8.0
 40
8.0
 40
8.0
 40
9.0
 40
9.0
 40
9.0
 40
10.0
 40
10.0
 40
10.0
 40
10.0
 10
-72.27926638583176
 20
69.26958953492188
 30
0.0
 10
-72.21962196513257
 20
69.37358484627657
 30
0.0
 10
-72.21962196513162
 20
69.50141511900496
 30
0.0
 10
-72.27926638582984
 20
69.60541043036093
 30
0.0
 10
-84.208150525511
 20
90.40447270139113
 30
0.0
 10
-84.20815052551164
 20
115.9705272470142
 30
0.0
 10
-72.27926638583145
 20
136.7695895180453
 30
0.0
 10
-72.21962196513354
 20
136.8735848294007
 30
0.0
 10
-72.21962196513418
 20
137.001415102129
 30
0.0
 10
-72.27926638583305
 20
137.1054104134841
 30
0.0
 10
-82.19031678926623
 20
154.3862014831712
 30
0.0
 10
-83.96181296253403
 20
175.162467342896
 30
0.0
 10
-77.11946921445268
 20
193.8717429068148
 30
0.0
 10
-77.05544769536561
 20
194.0467993329045
 30
0.0
 10
-77.14545927214982
 20
194.2406103010102
 30
0.0
 10
-77.32051569823952
 20
194.3046318200972
 30
0.0
 10
-77.48147674395703
 20
194.3634983861004
 30
0.0
 10
-77.6610015617945
 20
194.2923782487055
 30
0.0
 10
-77.73797937857513
 20
194.1392503722258
 30
0.0
 10
-106.5040068407035
 20
136.9165220037805
 30
0.0
 10
-106.5040068407048
 20
69.45847794463025
 30
0.0
 10
-77.73797937857866
 20
12.23574957618397
 30
0.0
 10
-77.6542605993127
 20
12.06921226776797
 30
0.0
 10
-77.45138796175692
 20
12.00207458651132
 30
0.0
 10
-77.2848506578341
 20
12.08579336351913
 30
0.0
 10
-77.13172278250173
 20
12.16277118258131
 30
0.0
 10
-77.06060264778218
 20
12.34229600147791
 30
0.0
 10
-77.11946921618333
 20
12.5032570463179
 30
0.0
 10
-83.96181296253435
 20
31.21253260551381
 30
0.0
 10
-82.19031678926495
 20
51.98879846523666
 30
0.0
 10
-72.27926638583176
 20
69.26958953492188
 30
0.0
  0
ENDBLK
  5
4E
330
4B
100
AcDbEntity
  8
0
100
AcDbBlockEnd
  0
BLOCK
  5
52
330
50
100
AcDbEntity
  8
0
100
AcDbBlockBegin
  2
BLOCK_5
 70
     0
 10
0.0
 20
0.0
 30
0.0
  3
BLOCK_5
  1

  0
SPLINE
  5
54
330
50
100
AcDbEntity
  8
CUT
100
AcDbSpline
210
0.0
220
0.0
230
1.0
 70
    11
 71
     3
 72
    35
 73
    31
 74
     0
 42
0.0000000001
 43
0.0000000001
 12
1.0
 22
0.0
 32
0.0
 13
1.0
 23
0.0
 33
0.0
 40
0.0
 40
0.0
 40
0.0
 40
0.0
 40
1.0
 40
1.0
 40
1.0
 40
2.0
 40
2.0
 40
2.0
 40
3.0
 40
3.0
 40
3.0
 40
4.0
 40
4.0
 40
4.0
 40
5.0
 40
5.0
 40
5.0
 40
6.0
 40
6.0
 40
6.0
 40
7.0
 40
7.0
 40
7.0
 40
8.0
 40
8.0
 40
8.0
 40
9.0
 40
9.0
 40
9.0
 40
10.0
 40
10.0
 40
10.0
 40
10.0
 10
44.82788887789042
 20
-65.73013243313628
 30
0.0
 10
44.76764850673148
 20
-65.62648119393971
 30
0.0
 10
44.65694424317662
 20
-65.56256605757584
 30
0.0
 10
44.53705945131946
 20
-65.56222198541708
 30
0.0
 10
20.56010007507217
 20
-65.49340719349622
 30
0.0
 10
-1.580752445494788
 20
-52.71037959075916
 30
0.0
 10
-13.62882636835732
 20
-31.98013157194819
 30
0.0
 10
-13.68906623410479
 20
-31.87648120237702
 30
0.0
 10
-13.79977049766062
 20
-31.81256606601315
 30
0.0
 10
-13.91965528951873
 20
-31.81222199385503
 30
0.0
 10
-33.8407845550749
 20
-31.75504788657297
 30
0.0
 10
-52.71930667200973
 20
-22.90107564546778
 30
0.0
 10
-65.50084272272626
 20
-7.620794356244502
 30
0.0
 10
-65.62043527527217
 20
-7.477821881282122
 30
0.0
 10
-65.83328628557564
 20
-7.458868709359042
 30
0.0
 10
-65.97625876053866
 20
-7.57846126190495
 30
0.0
 10
-66.10771922498924
 20
-7.688424333514225
 30
0.0
 10
-66.13588978820373
 20
-7.879457455069113
 30
0.0
 10
-66.04176606553473
 20
-8.022686138168519
 30
0.0
 10
-30.86844335566912
 20
-61.54616087055442
 30
0.0
 10
27.55193648916331
 20
-95.27518290012986
 30
0.0
 10
91.49128666115695
 20
-98.97443653619025
 30
0.0
 10
91.67737159055649
 20
-98.98520260078111
 30
0.0
 10
91.83695084685395
 20
-98.84307858355362
 30
0.0
 10
91.8477169111538
 20
-98.65699365917537
 30
0.0
 10
91.85761610198465
 20
-98.4858921195785
 30
0.0
 10
91.73770311557028
 20
-98.33453786674167
 30
0.0
 10
91.56887347751831
 20
-98.30503728799084
 30
0.0
 10
71.94499368367659
 20
-94.87604301415902
 30
0.0
 10
54.83796774001275
 20
-82.95374939553945
 30
0.0
 10
44.82788887789042
 20
-65.73013243313628
 30
0.0
  0
ENDBLK
  5
53
330
50
100
AcDbEntity
  8
0
100
AcDbBlockEnd
  0
BLOCK
  5
57
330
55
100
AcDbEntity
  8
0
100
AcDbBlockBegin
  2
BLOCK_6
 70
     0
 10
0.0
 20
0.0
 30
0.0
  3
BLOCK_6
  1

  0
SPLINE
  5
59
330
55
100
AcDbEntity
  8
CUT
100
AcDbSpline
210
0.0
220
0.0
230
1.0
 70
    11
 71
     3
 72
    35
 73
    31
 74
     0
 42
0.0000000001
 43
0.0000000001
 12
1.0
 22
0.0
 32
0.0
 13
1.0
 23
0.0
 33
0.0
 40
0.0
 40
0.0
 40
0.0
 40
0.0
 40
1.0
 40
1.0
 40
1.0
 40
2.0
 40
2.0
 40
2.0
 40
3.0
 40
3.0
 40
3.0
 40
4.0
 40
4.0
 40
4.0
 40
5.0
 40
5.0
 40
5.0
 40
6.0
 40
6.0
 40
6.0
 40
7.0
 40
7.0
 40
7.0
 40
8.0
 40
8.0
 40
8.0
 40
9.0
 40
9.0
 40
9.0
 40
10.0
 40
10.0
 40
10.0
 40
10.0
 10
220.2946552379234
 20
-31.81222199385503
 30
0.0
 10
220.1747704460666
 20
-31.81256606601379
 30
0.0
 10
220.0640661825114
 20
-31.87648120237766
 30
0.0
 10
220.0038258113518
 20
-31.98013244157488
 30
0.0
 10
207.9557515795846
 20
-52.71038028085514
 30
0.0
 10
185.8148988685357
 20
-65.4934075536665
 30
0.0
 10
161.8379404970877
 20
-65.56222198541644
 30
0.0
 10
161.7180557052309
 20
-65.5625660575752
 30
0.0
 10
161.6073514416764
 20
-65.62648119393971
 30
0.0
 10
161.5471110705181
 20
-65.73013243313564
 30
0.0
 10
151.53703144633
 20
-82.95375011600512
 30
0.0
 10
134.4300053250076
 20
-94.87604347971039
 30
0.0
 10
114.8061254751138
 20
-98.30503746198688
 30
0.0
 10
114.6225123942969
 20
-98.33712123998252
 30
0.0
 10
114.4996729607776
 20
-98.51197903616607
 30
0.0
 10
114.5317569119037
 20
-98.69559310779904
 30
0.0
 10
114.5612574931706
 20
-98.8644227454108
 30
0.0
 10
114.7126117477939
 20
-98.98433572957121
 30
0.0
 10
114.8837132872432
 20
-98.9744365361909
 30
0.0
 10
178.8230634592381
 20
-95.27518290013178
 30
0.0
 10
237.2434433040722
 20
-61.54616087055762
 30
0.0
 10
272.4167660139387
 20
-8.022686138171727
 30
0.0
 10
272.5191321636315
 20
-7.866914900074399
 30
0.0
 10
272.4758387854922
 20
-7.657653200945351
 30
0.0
 10
272.3200675473942
 20
-7.555287051252604
 30
0.0
 10
272.1768388642948
 20
-7.461163328584252
 30
0.0
 10
271.9858057427405
 20
-7.489333891797457
 30
0.0
 10
271.8758426711312
 20
-7.62079435624771
 30
0.0
 10
259.0943066204134
 20
-22.9010756454697
 30
0.0
 10
240.2157845034792
 20
-31.75504788657297
 30
0.0
 10
220.2946552379234
 20
-31.81222199385503
 30
0.0
  0
ENDBLK
  5
58
330
55
100
AcDbEntity
  8
0
100
AcDbBlockEnd
  0
BLOCK
  5
5C
330
5A
100
AcDbEntity
  8
0
100
AcDbBlockBegin
  2
BLOCK_7
 70
     0
 10
0.0
 20
0.0
 30
0.0
  3
BLOCK_7
  1

  0
SPLINE
  5
5E
330
5A
100
AcDbEntity
  8
CUT
100
AcDbSpline
210
0.0
220
0.0
230
1.0
 70
     8
 71
     3
 72
    29
 73
    25
 74
     0
 42
0.0000000001
 43
0.0000000001
 12
1.0
 22
0.0
 32
0.0
 13
1.0
 23
0.0
 33
0.0
 40
0.0
 40
0.0
 40
0.0
 40
0.0
 40
1.0
 40
1.0
 40
1.0
 40
2.0
 40
2.0
 40
2.0
 40
3.0
 40
3.0
 40
3.0
 40
4.0
 40
4.0
 40
4.0
 40
5.0
 40
5.0
 40
5.0
 40
6.0
 40
6.0
 40
6.0
 40
7.0
 40
7.0
 40
7.0
 40
8.0
 40
8.0
 40
8.0
 40
8.0
 10
284.1129806822697
 20
194.1392476762226
 30
0.0
 10
312.8790072917122
 20
136.9165188791291
 30
0.0
 10
312.8790062865086
 20
69.45847481997946
 30
0.0
 10
284.112977971695
 20
12.23574688018042
 30
0.0
 10
284.0360015102017
 20
12.08262169970103
 30
0.0
 10
283.8564766923646
 20
12.01150156230655
 30
0.0
 10
283.6955156466474
 20
12.07036812830968
 30
0.0
 10
283.5204592205577
 20
12.13438964739674
 30
0.0
 10
283.4304476437741
 20
12.32820061550273
 30
0.0
 10
283.4944691628612
 20
12.50325704159178
 30
0.0
 10
290.3368129109413
 20
31.21253260551125
 30
0.0
 10
288.5653167376725
 20
51.98879846523601
 30
0.0
 10
278.6542663342377
 20
69.26958953492252
 30
0.0
 10
278.5946219135385
 20
69.37358484627721
 30
0.0
 10
278.5946219135379
 20
69.50141511900496
 30
0.0
 10
278.6542663342364
 20
69.60541043036093
 30
0.0
 10
290.5831506643992
 20
90.40447375165802
 30
0.0
 10
290.5831502834359
 20
115.9705282972814
 30
0.0
 10
278.6542658338261
 20
136.7695903905584
 30
0.0
 10
278.5946219135392
 20
136.873584829401
 30
0.0
 10
278.5946219135404
 20
137.0014151021294
 30
0.0
 10
278.6542663342397
 20
137.1054104134844
 30
0.0
 10
288.5653167376725
 20
154.3862014831699
 30
0.0
 10
290.3368129109419
 20
175.1624673428928
 30
0.0
 10
283.4944691628625
 20
193.8717429068109
 30
0.0
  0
ENDBLK
  5
5D
330
5A
100
AcDbEntity
  8
0
100
AcDbBlockEnd
  0
BLOCK
  5
61
330
5F
100
AcDbEntity
  8
0
100
AcDbBlockBegin
  2
BLOCK_8
 70
     0
 10
0.0
 20
0.0
 30
0.0
  3
BLOCK_8
  1

  0
SPLINE
  5
63
330
5F
100
AcDbEntity
  8
CUT
100
AcDbSpline
210
0.0
220
0.0
230
1.0
 70
    11
 71
     3
 72
    35
 73
    31
 74
     0
 42
0.0000000001
 43
0.0000000001
 12
1.0
 22
0.0
 32
0.0
 13
1.0
 23
0.0
 33
0.0
 40
0.0
 40
0.0
 40
0.0
 40
0.0
 40
1.0
 40
1.0
 40
1.0
 40
2.0
 40
2.0
 40
2.0
 40
3.0
 40
3.0
 40
3.0
 40
4.0
 40
4.0
 40
4.0
 40
5.0
 40
5.0
 40
5.0
 40
6.0
 40
6.0
 40
6.0
 40
7.0
 40
7.0
 40
7.0
 40
8.0
 40
8.0
 40
8.0
 40
9.0
 40
9.0
 40
9.0
 40
10.0
 40
10.0
 40
10.0
 40
10.0
 10
161.5471110705155
 20
272.1051323815422
 30
0.0
 10
161.6073514416745
 20
272.001481142346
 30
0.0
 10
161.7180557052303
 20
271.9375660059818
 30
0.0
 10
161.8379404970871
 20
271.9372219338233
 30
0.0
 10
185.8148988685351
 20
271.8684075020727
 30
0.0
 10
207.9557515795846
 20
259.0853802292611
 30
0.0
 10
220.0038258113512
 20
238.3551323899808
 30
0.0
 10
220.0640661825114
 20
238.2514811507839
 30
0.0
 10
220.1747704460672
 20
238.1875660144194
 30
0.0
 10
220.2946552379253
 20
238.1872219422613
 30
0.0
 10
240.2157845034818
 20
238.1300478349792
 30
0.0
 10
259.0943066204154
 20
229.2760755938744
 30
0.0
 10
271.8758426711325
 20
213.9957943046511
 30
0.0
 10
271.9954352236778
 20
213.8528218296881
 30
0.0
 10
272.2082862339826
 20
213.8338686577653
 30
0.0
 10
272.3512587089449
 20
213.9534612103112
 30
0.0
 10
272.4827191733958
 20
214.0634242819205
 30
0.0
 10
272.5108897366103
 20
214.254457403475
 30
0.0
 10
272.4167660139413
 20
214.3976860865748
 30
0.0
 10
237.2434433040754
 20
267.921160818961
 30
0.0
 10
178.8230634592426
 20
301.6501828485361
 30
0.0
 10
114.8837132872496
 20
305.3494364845968
 30
0.0
 10
114.6976283630312
 20
305.3602025516698
 30
0.0
 10
114.5380491046161
 20
305.2180785368204
 30
0.0
 10
114.5272830375431
 20
305.0319936126023
 30
0.0
 10
114.5173838441628
 20
304.8608920731537
 30
0.0
 10
114.637296828322
 20
304.7095378185297
 30
0.0
 10
114.8061264659344
 20
304.6800372372628
 30
0.0
 10
134.4300062647297
 20
301.2510429625653
 30
0.0
 10
151.5370322083938
 20
289.328749343946
 30
0.0
 10
161.5471110705155
 20
272.1051323815422
 30
0.0
  0
ENDBLK
  5
62
330
5F
100
AcDbEntity
  8
0
100
AcDbBlockEnd
  0
BLOCK
  5
66
330
64
100
AcDbEntity
  8
0
100
AcDbBlockBegin
  2
BLOCK_9
 70
     0
 10
0.0
 20
0.0
 30
0.0
  3
BLOCK_9
  1

  0
SPLINE
  5
68
330
64
100
AcDbEntity
  8
CUT
100
AcDbSpline
210
0.0
220
0.0
230
1.0
 70
    11
 71
     3
 72
    32
 73
    28
 74
     0
 42
0.0000000001
 43
0.0000000001
 12
1.0
 22
0.0
 32
0.0
 13
1.0
 23
0.0
 33
0.0
 40
0.0
 40
0.0
 40
0.0
 40
0.0
 40
1.0
 40
1.0
 40
1.0
 40
2.0
 40
2.0
 40
2.0
 40
3.0
 40
3.0
 40
3.0
 40
4.0
 40
4.0
 40
4.0
 40
5.0
 40
5.0
 40
5.0
 40
6.0
 40
6.0
 40
6.0
 40
7.0
 40
7.0
 40
7.0
 40
8.0
 40
8.0
 40
8.0
 40
9.0
 40
9.0
 40
9.0
 40
9.0
 10
100.1159253055229
 20
299.6957347473085
 30
0.0
 10
100.1925775543762
 20
299.8656404269284
 30
0.0
 10
100.1169807121724
 20
300.0655151195781
 30
0.0
 10
99.94707503255283
 20
300.1421673684317
 30
0.0
 10
99.80068132409242
 20
300.2082122881576
 30
0.0
 10
99.62802466299986
 20
300.1619490752503
 30
0.0
 10
99.53426645238223
 20
300.0315556427469
 30
0.0
 10
88.23091109901642
 20
284.3115105008777
 30
0.0
 10
70.72122954204859
 20
274.2022911405376
 30
0.0
 10
51.45559342386867
 20
272.2733208274543
 30
0.0
 10
51.27012466464359
 20
272.2547507824083
 30
0.0
 10
51.13482652433716
 20
272.0893446502881
 30
0.0
 10
51.15339656938352
 20
271.903875891063
 30
0.0
 10
51.16939684534021
 20
271.7440727607188
 30
0.0
 10
51.29579029352517
 20
271.6176793125342
 30
0.0
 10
51.45559342386932
 20
271.6016790365775
 30
0.0
 10
70.72122954204859
 20
269.6727087234937
 30
0.0
 10
88.23091109901547
 20
259.5634893631532
 30
0.0
 10
99.53426645238031
 20
243.8434442212843
 30
0.0
 10
99.64308296275173
 20
243.6921085867095
 30
0.0
 10
99.85397794526325
 20
243.6576400261787
 30
0.0
 10
100.0053135798384
 20
243.7664565365505
 30
0.0
 10
100.1357070123427
 20
243.8602147471688
 30
0.0
 10
100.1819702252503
 20
244.0328714082617
 30
0.0
 10
100.1159253055248
 20
244.1792651167227
 30
0.0
 10
92.15364454070969
 20
261.8282805716755
 30
0.0
 10
92.15364454070905
 20
282.0467192923554
 30
0.0
 10
100.1159253055229
 20
299.6957347473085
 30
0.0
  0
ENDBLK
  5
67
330
64
100
AcDbEntity
  8
0
100
AcDbBlockEnd
  0
BLOCK
  5
6B
330
69
100
AcDbEntity
  8
0
100
AcDbBlockBegin
  2
BLOCK_10
 70
     0
 10
0.0
 20
0.0
 30
0.0
  3
BLOCK_10
  1

  0
SPLINE
  5
6D
330
69
100
AcDbEntity
  8
CUT
100
AcDbSpline
210
0.0
220
0.0
230
1.0
 70
    11
 71
     3
 72
    32
 73
    28
 74
     0
 42
0.0000000001
 43
0.0000000001
 12
1.0
 22
0.0
 32
0.0
 13
1.0
 23
0.0
 33
0.0
 40
0.0
 40
0.0
 40
0.0
 40
0.0
 40
1.0
 40
1.0
 40
1.0
 40
2.0
 40
2.0
 40
2.0
 40
3.0
 40
3.0
 40
3.0
 40
4.0
 40
4.0
 40
4.0
 40
5.0
 40
5.0
 40
5.0
 40
6.0
 40
6.0
 40
6.0
 40
7.0
 40
7.0
 40
7.0
 40
8.0
 40
8.0
 40
8.0
 40
9.0
 40
9.0
 40
9.0
 40
9.0
 10
96.46269178370451
 20
237.8516790450155
 30
0.0
 10
96.6481605429296
 20
237.8702490900615
 30
0.0
 10
96.7834586832354
 20
238.0356552221817
 30
0.0
 10
96.76488863818935
 20
238.2211239814065
 30
0.0
 10
96.74888836223234
 20
238.3809271117506
 30
0.0
 10
96.62249491404738
 20
238.507320559935
 30
0.0
 10
96.46269178370356
 20
238.5233208358913
 30
0.0
 10
77.19705469344264
 20
240.452291536262
 30
0.0
 10
59.68737328711397
 20
250.5615111575161
 30
0.0
 10
48.38401816799431
 20
266.2815564678181
 30
0.0
 10
48.27520224481696
 20
266.4328912857578
 30
0.0
 10
48.06430726230577
 20
266.4673598462879
 30
0.0
 10
47.9129716277313
 20
266.3585433359161
 30
0.0
 10
47.78257819522726
 20
266.2647851252985
 30
0.0
 10
47.73631498231935
 20
266.0921284642056
 30
0.0
 10
47.8023599020452
 20
265.9457347557449
 30
0.0
 10
55.76464066685964
 20
248.2967193007924
 30
0.0
 10
55.76464066685997
 20
228.0782805801125
 30
0.0
 10
47.80235990204617
 20
210.42926512516
 30
0.0
 10
47.72570765319252
 20
210.2593594455398
 30
0.0
 10
47.80130449539664
 20
210.0594847528895
 30
0.0
 10
47.97121017501715
 20
209.9828325040358
 30
0.0
 10
48.11760388347788
 20
209.9167875843096
 30
0.0
 10
48.29026054457076
 20
209.9630507972172
 30
0.0
 10
48.38401875518872
 20
210.0934442297213
 30
0.0
 10
59.68737410855515
 20
225.8134893715918
 30
0.0
 10
77.19705566552396
 20
235.9227087319326
 30
0.0
 10
96.46269178370451
 20
237.8516790450155
 30
0.0
  0
ENDBLK
  5
6C
330
69
100
AcDbEntity
  8
0
100
AcDbBlockEnd
  0
BLOCK
  5
70
330
6E
100
AcDbEntity
  8
0
100
AcDbBlockBegin
  2
BLOCK_11
 70
     0
 10
0.0
 20
0.0
 30
0.0
  3
BLOCK_11
  1

  0
SPLINE
  5
72
330
6E
100
AcDbEntity
  8
CUT
100
AcDbSpline
210
0.0
220
0.0
230
1.0
 70
    11
 71
     3
 72
    32
 73
    28
 74
     0
 42
0.0000000001
 43
0.0000000001
 12
1.0
 22
0.0
 32
0.0
 13
1.0
 23
0.0
 33
0.0
 40
0.0
 40
0.0
 40
0.0
 40
0.0
 40
1.0
 40
1.0
 40
1.0
 40
2.0
 40
2.0
 40
2.0
 40
3.0
 40
3.0
 40
3.0
 40
4.0
 40
4.0
 40
4.0
 40
5.0
 40
5.0
 40
5.0
 40
6.0
 40
6.0
 40
6.0
 40
7.0
 40
7.0
 40
7.0
 40
8.0
 40
8.0
 40
8.0
 40
9.0
 40
9.0
 40
9.0
 40
9.0
 10
100.1159253055229
 20
232.1957347641835
 30
0.0
 10
100.1925775543765
 20
232.365640443803
 30
0.0
 10
100.1169807121724
 20
232.565515136453
 30
0.0
 10
99.94707503255283
 20
232.6421673853067
 30
0.0
 10
99.80068132409242
 20
232.7082123050329
 30
0.0
 10
99.62802466299986
 20
232.6619490921253
 30
0.0
 10
99.53426645238223
 20
232.5315556596219
 30
0.0
 10
88.23091109901642
 20
216.8115105177526
 30
0.0
 10
70.72122954204892
 20
206.7022911574122
 30
0.0
 10
51.45559342386867
 20
204.7733208443293
 30
0.0
 10
51.27012466464359
 20
204.7547507992832
 30
0.0
 10
51.13482652433716
 20
204.589344667163
 30
0.0
 10
51.15339656938352
 20
204.4038759079379
 30
0.0
 10
51.16939684534021
 20
204.2440727775938
 30
0.0
 10
51.29579029352517
 20
204.1176793294088
 30
0.0
 10
51.45559342386932
 20
204.1016790534521
 30
0.0
 10
70.72122954204859
 20
202.1727087403689
 30
0.0
 10
88.23091109901547
 20
192.0634893800285
 30
0.0
 10
99.53426645238031
 20
176.3434442381595
 30
0.0
 10
99.64308296275173
 20
176.1921086035844
 30
0.0
 10
99.85397794526325
 20
176.157640043054
 30
0.0
 10
100.0053135798384
 20
176.2664565534257
 30
0.0
 10
100.1357070123427
 20
176.3602147640437
 30
0.0
 10
100.1819702252503
 20
176.5328714251369
 30
0.0
 10
100.1159253055248
 20
176.679265133598
 30
0.0
 10
92.15364454071002
 20
194.3282805885501
 30
0.0
 10
92.15364454070905
 20
214.5467193092307
 30
0.0
 10
100.1159253055229
 20
232.1957347641835
 30
0.0
  0
ENDBLK
  5
71
330
6E
100
AcDbEntity
  8
0
100
AcDbBlockEnd
  0
BLOCK
  5
75
330
73
100
AcDbEntity
  8
0
100
AcDbBlockBegin
  2
BLOCK_12
 70
     0
 10
0.0
 20
0.0
 30
0.0
  3
BLOCK_12
  1

  0
SPLINE
  5
77
330
73
100
AcDbEntity
  8
CUT
100
AcDbSpline
210
0.0
220
0.0
230
1.0
 70
    11
 71
     3
 72
    32
 73
    28
 74
     0
 42
0.0000000001
 43
0.0000000001
 12
1.0
 22
0.0
 32
0.0
 13
1.0
 23
0.0
 33
0.0
 40
0.0
 40
0.0
 40
0.0
 40
0.0
 40
1.0
 40
1.0
 40
1.0
 40
2.0
 40
2.0
 40
2.0
 40
3.0
 40
3.0
 40
3.0
 40
4.0
 40
4.0
 40
4.0
 40
5.0
 40
5.0
 40
5.0
 40
6.0
 40
6.0
 40
6.0
 40
7.0
 40
7.0
 40
7.0
 40
8.0
 40
8.0
 40
8.0
 40
9.0
 40
9.0
 40
9.0
 40
9.0
 10
154.919406524537
 20
204.1016790534521
 30
0.0
 10
155.1048752837627
 20
204.1202490984975
 30
0.0
 10
155.2401734240698
 20
204.2856552306171
 30
0.0
 10
155.2216033790247
 20
204.4711239898429
 30
0.0
 10
155.205603103068
 20
204.630927120187
 30
0.0
 10
155.079209654883
 20
204.7573205683723
 30
0.0
 10
154.9194065245395
 20
204.7733208443293
 30
0.0
 10
135.6537704063589
 20
206.7022911574122
 30
0.0
 10
118.1440888493914
 20
216.8115105177517
 30
0.0
 10
106.8407334960256
 20
232.5315556596203
 30
0.0
 10
106.7319169856539
 20
232.6828912941951
 30
0.0
 10
106.5210220031433
 20
232.7173598547252
 30
0.0
 10
106.3696863685682
 20
232.6085433443538
 30
0.0
 10
106.2392929360642
 20
232.5147851337358
 30
0.0
 10
106.1930297231566
 20
232.3421284726432
 30
0.0
 10
106.2590746428824
 20
232.1957347641825
 30
0.0
 10
114.2213554076972
 20
214.5467193092304
 30
0.0
 10
114.2213554076972
 20
194.3282805885501
 30
0.0
 10
106.2590746428831
 20
176.679265133598
 30
0.0
 10
106.1824223940298
 20
176.5093594539781
 30
0.0
 10
106.2580192362339
 20
176.3094847613281
 30
0.0
 10
106.4279249158541
 20
176.2328325124747
 30
0.0
 10
106.5743186243142
 20
176.1667875927486
 30
0.0
 10
106.7469752854061
 20
176.2130508056558
 30
0.0
 10
106.8407334960244
 20
176.3434442381595
 30
0.0
 10
118.1440888493901
 20
192.0634893800288
 30
0.0
 10
135.6537704063577
 20
202.1727087403692
 30
0.0
 10
154.919406524537
 20
204.1016790534521
 30
0.0
  0
ENDBLK
  5
76
330
73
100
AcDbEntity
  8
0
100
AcDbBlockEnd
  0
BLOCK
  5
7A
330
78
100
AcDbEntity
  8
0
100
AcDbBlockBegin
  2
BLOCK_13
 70
     0
 10
0.0
 20
0.0
 30
0.0
  3
BLOCK_13
  1

  0
SPLINE
  5
7C
330
78
100
AcDbEntity
  8
CUT
100
AcDbSpline
210
0.0
220
0.0
230
1.0
 70
    11
 71
     3
 72
    32
 73
    28
 74
     0
 42
0.0000000001
 43
0.0000000001
 12
1.0
 22
0.0
 32
0.0
 13
1.0
 23
0.0
 33
0.0
 40
0.0
 40
0.0
 40
0.0
 40
0.0
 40
1.0
 40
1.0
 40
1.0
 40
2.0
 40
2.0
 40
2.0
 40
3.0
 40
3.0
 40
3.0
 40
4.0
 40
4.0
 40
4.0
 40
5.0
 40
5.0
 40
5.0
 40
6.0
 40
6.0
 40
6.0
 40
7.0
 40
7.0
 40
7.0
 40
8.0
 40
8.0
 40
8.0
 40
9.0
 40
9.0
 40
9.0
 40
9.0
 10
157.990981196154
 20
210.0934442256385
 30
0.0
 10
158.0997977087806
 20
209.9421085926853
 30
0.0
 10
158.3106926918058
 20
209.9076400352972
 30
0.0
 10
158.4620283247587
 20
210.0164565479239
 30
0.0
 10
158.5924217558658
 20
210.1102147604855
 30
0.0
 10
158.6386849662015
 20
210.2828714222679
 30
0.0
 10
158.5726400442932
 20
210.4292651297449
 30
0.0
 10
150.6103592815479
 20
228.0782805801125
 30
0.0
 10
150.6103592815473
 20
248.2967193007921
 30
0.0
 10
158.5726400463601
 20
265.9457347557446
 30
0.0
 10
158.6492922947501
 20
266.1156404410916
 30
0.0
 10
158.5736954495666
 20
266.3155151326158
 30
0.0
 10
158.4037897688042
 20
266.3921673789376
 30
0.0
 10
158.2573960593591
 20
266.458212296482
 30
0.0
 10
158.0847393989557
 20
266.4119490810015
 30
0.0
 10
157.9909811902805
 20
266.2815556471002
 30
0.0
 10
146.6876258398505
 20
250.561510509314
 30
0.0
 10
129.1779442828817
 20
240.4522911489742
 30
0.0
 10
109.9123081647017
 20
238.5233208358916
 30
0.0
 10
109.726839405476
 20
238.5047507908456
 30
0.0
 10
109.5915412651702
 20
238.3393446587251
 30
0.0
 10
109.6101113102159
 20
238.1538758995
 30
0.0
 10
109.6261115861733
 20
237.9940727691558
 30
0.0
 10
109.7525050343589
 20
237.8676793209709
 30
0.0
 10
109.9123081647037
 20
237.8516790450148
 30
0.0
 10
129.1779442828836
 20
235.9227087319319
 30
0.0
 10
146.6876258398517
 20
225.8134893715915
 30
0.0
 10
157.990981196154
 20
210.0934442256385
 30
0.0
  0
ENDBLK
  5
7B
330
78
100
AcDbEntity
  8
0
100
AcDbBlockEnd
  0
BLOCK
  5
7F
330
7D
100
AcDbEntity
  8
0
100
AcDbBlockBegin
  2
BLOCK_14
 70
     0
 10
0.0
 20
0.0
 30
0.0
  3
BLOCK_14
  1

  0
SPLINE
  5
81
330
7D
100
AcDbEntity
  8
CUT
100
AcDbSpline
210
0.0
220
0.0
230
1.0
 70
    11
 71
     3
 72
    32
 73
    28
 74
     0
 42
0.0000000001
 43
0.0000000001
 12
1.0
 22
0.0
 32
0.0
 13
1.0
 23
0.0
 33
0.0
 40
0.0
 40
0.0
 40
0.0
 40
0.0
 40
1.0
 40
1.0
 40
1.0
 40
2.0
 40
2.0
 40
2.0
 40
3.0
 40
3.0
 40
3.0
 40
4.0
 40
4.0
 40
4.0
 40
5.0
 40
5.0
 40
5.0
 40
6.0
 40
6.0
 40
6.0
 40
7.0
 40
7.0
 40
7.0
 40
8.0
 40
8.0
 40
8.0
 40
9.0
 40
9.0
 40
9.0
 40
9.0
 10
154.919406524537
 20
271.6016790365775
 30
0.0
 10
155.1048752837627
 20
271.6202490816226
 30
0.0
 10
155.2401734240698
 20
271.7856552137425
 30
0.0
 10
155.2216033790247
 20
271.9711239729676
 30
0.0
 10
155.205603103068
 20
272.130927103312
 30
0.0
 10
155.079209654883
 20
272.2573205514973
 30
0.0
 10
154.9194065245395
 20
272.2733208274547
 30
0.0
 10
135.6537704063589
 20
274.2022911405372
 30
0.0
 10
118.1440888493914
 20
284.3115105008764
 30
0.0
 10
106.8407334960256
 20
300.0315556427457
 30
0.0
 10
106.7319169856539
 20
300.1828912773198
 30
0.0
 10
106.5210220031433
 20
300.2173598378503
 30
0.0
 10
106.3696863685688
 20
300.1085433274788
 30
0.0
 10
106.2392929360642
 20
300.0147851168605
 30
0.0
 10
106.1930297231566
 20
299.8421284557683
 30
0.0
 10
106.2590746428824
 20
299.6957347473075
 30
0.0
 10
114.2213554076972
 20
282.0467192923551
 30
0.0
 10
114.2213554076972
 20
261.8282805716752
 30
0.0
 10
106.2590746428831
 20
244.1792651167227
 30
0.0
 10
106.1824223940298
 20
244.0093594371031
 30
0.0
 10
106.2580192362339
 20
243.8094847444528
 30
0.0
 10
106.4279249158534
 20
243.7328324955995
 30
0.0
 10
106.5743186243135
 20
243.6667875758733
 30
0.0
 10
106.7469752854061
 20
243.7130507887802
 30
0.0
 10
106.8407334960244
 20
243.843444221284
 30
0.0
 10
118.1440888493895
 20
259.5634893631538
 30
0.0
 10
135.6537704063577
 20
269.672708723494
 30
0.0
 10
154.919406524537
 20
271.6016790365775
 30
0.0
  0
ENDBLK
  5
80
330
7D
100
AcDbEntity
  8
0
100
AcDbBlockEnd
  0
BLOCK
  5
84
330
82
100
AcDbEntity
  8
0
100
AcDbBlockBegin
  2
BLOCK_15
 70
     0
 10
0.0
 20
0.0
 30
0.0
  3
BLOCK_15
  1

  0
SPLINE
  5
86
330
82
100
AcDbEntity
  8
CUT
100
AcDbSpline
210
0.0
220
0.0
230
1.0
 70
    11
 71
     3
 72
    32
 73
    28
 74
     0
 42
0.0000000001
 43
0.0000000001
 12
1.0
 22
0.0
 32
0.0
 13
1.0
 23
0.0
 33
0.0
 40
0.0
 40
0.0
 40
0.0
 40
0.0
 40
1.0
 40
1.0
 40
1.0
 40
2.0
 40
2.0
 40
2.0
 40
3.0
 40
3.0
 40
3.0
 40
4.0
 40
4.0
 40
4.0
 40
5.0
 40
5.0
 40
5.0
 40
6.0
 40
6.0
 40
6.0
 40
7.0
 40
7.0
 40
7.0
 40
8.0
 40
8.0
 40
8.0
 40
9.0
 40
9.0
 40
9.0
 40
9.0
 10
100.1159253055229
 20
164.6957347810584
 30
0.0
 10
100.1925775543765
 20
164.8656404606783
 30
0.0
 10
100.1169807121724
 20
165.0655151533283
 30
0.0
 10
99.94707503255283
 20
165.1421674021816
 30
0.0
 10
99.80068132409242
 20
165.2082123219078
 30
0.0
 10
99.62802466299986
 20
165.1619491090005
 30
0.0
 10
99.53426645238223
 20
165.0315556764968
 30
0.0
 10
88.23091109901642
 20
149.3115105346276
 30
0.0
 10
70.72122954204892
 20
139.2022911742874
 30
0.0
 10
51.45559342386867
 20
137.2733208612042
 30
0.0
 10
51.27012466464359
 20
137.2547508161582
 30
0.0
 10
51.13482652433716
 20
137.089344684038
 30
0.0
 10
51.15339656938352
 20
136.9038759248129
 30
0.0
 10
51.16939684534021
 20
136.7440727944687
 30
0.0
 10
51.29579029352517
 20
136.6176793462841
 30
0.0
 10
51.45559342386932
 20
136.6016790703274
 30
0.0
 10
70.72122954204859
 20
134.6727087572436
 30
0.0
 10
88.23091109901547
 20
124.5634893969037
 30
0.0
 10
99.53426645238031
 20
108.8434442550342
 30
0.0
 10
99.64308296794309
 20
108.6921086179978
 30
0.0
 10
99.85397795096763
 20
108.6576400606098
 30
0.0
 10
100.0053135839215
 20
108.7664565732365
 30
0.0
 10
100.1357070150286
 20
108.8602147857978
 30
0.0
 10
100.1819702253639
 20
109.0328714475799
 30
0.0
 10
100.1159253034563
 20
109.1792651550572
 30
0.0
 10
92.15364454071002
 20
126.8282806054254
 30
0.0
 10
92.15364454070905
 20
147.0467193261056
 30
0.0
 10
100.1159253055229
 20
164.6957347810584
 30
0.0
  0
ENDBLK
  5
85
330
82
100
AcDbEntity
  8
0
100
AcDbBlockEnd
  0
BLOCK
  5
89
330
87
100
AcDbEntity
  8
0
100
AcDbBlockBegin
  2
BLOCK_16
 70
     0
 10
0.0
 20
0.0
 30
0.0
  3
BLOCK_16
  1

  0
SPLINE
  5
8B
330
87
100
AcDbEntity
  8
CUT
100
AcDbSpline
210
0.0
220
0.0
230
1.0
 70
    11
 71
     3
 72
    32
 73
    28
 74
     0
 42
0.0000000001
 43
0.0000000001
 12
1.0
 22
0.0
 32
0.0
 13
1.0
 23
0.0
 33
0.0
 40
0.0
 40
0.0
 40
0.0
 40
0.0
 40
1.0
 40
1.0
 40
1.0
 40
2.0
 40
2.0
 40
2.0
 40
3.0
 40
3.0
 40
3.0
 40
4.0
 40
4.0
 40
4.0
 40
5.0
 40
5.0
 40
5.0
 40
6.0
 40
6.0
 40
6.0
 40
7.0
 40
7.0
 40
7.0
 40
8.0
 40
8.0
 40
8.0
 40
9.0
 40
9.0
 40
9.0
 40
9.0
 10
48.38401875518872
 20
131.2815556849348
 30
0.0
 10
48.27520224481696
 20
131.4328913195093
 30
0.0
 10
48.06430726230545
 20
131.4673598800397
 30
0.0
 10
47.91297162773098
 20
131.3585433696683
 30
0.0
 10
47.78257819522662
 20
131.26478515905
 30
0.0
 10
47.73631498231838
 20
131.0921284979571
 30
0.0
 10
47.80235990204456
 20
130.9457347894957
 30
0.0
 10
55.764640666859
 20
113.2967193345439
 30
0.0
 10
55.76464066685932
 20
93.07828061386395
 30
0.0
 10
47.80235990204584
 20
75.42926515891118
 30
0.0
 10
47.72570765319252
 20
75.25935947929163
 30
0.0
 10
47.80130449539728
 20
75.05948478664097
 30
0.0
 10
47.9712101750178
 20
74.98283253778764
 30
0.0
 10
48.11760388347884
 20
74.91678761806114
 30
0.0
 10
48.29026054457172
 20
74.96305083096937
 30
0.0
 10
48.38401875519
 20
75.0934442634734
 30
0.0
 10
59.68737410855644
 20
90.81348940534234
 30
0.0
 10
77.1970556655246
 20
100.9227087656821
 30
0.0
 10
96.46269178370451
 20
102.8516790787641
 30
0.0
 10
96.64816054765733
 20
102.8702491270754
 30
0.0
 10
96.78345868549866
 20
103.0356552612118
 30
0.0
 10
96.76488863768915
 20
103.2211240201603
 30
0.0
 10
96.74888835935079
 20
103.3809271502661
 30
0.0
 10
96.62249490928211
 20
103.5073205965677
 30
0.0
 10
96.46269177869927
 20
103.5233208701424
 30
0.0
 10
77.197055665523
 20
105.4522911827244
 30
0.0
 10
59.68737410855451
 20
115.5615105430649
 30
0.0
 10
48.38401875518872
 20
131.2815556849348
 30
0.0
  0
ENDBLK
  5
8A
330
87
100
AcDbEntity
  8
0
100
AcDbBlockEnd
  0
BLOCK
  5
8E
330
8C
100
AcDbEntity
  8
0
100
AcDbBlockBegin
  2
BLOCK_17
 70
     0
 10
0.0
 20
0.0
 30
0.0
  3
BLOCK_17
  1

  0
SPLINE
  5
90
330
8C
100
AcDbEntity
  8
CUT
100
AcDbSpline
210
0.0
220
0.0
230
1.0
 70
    11
 71
     3
 72
    32
 73
    28
 74
     0
 42
0.0000000001
 43
0.0000000001
 12
1.0
 22
0.0
 32
0.0
 13
1.0
 23
0.0
 33
0.0
 40
0.0
 40
0.0
 40
0.0
 40
0.0
 40
1.0
 40
1.0
 40
1.0
 40
2.0
 40
2.0
 40
2.0
 40
3.0
 40
3.0
 40
3.0
 40
4.0
 40
4.0
 40
4.0
 40
5.0
 40
5.0
 40
5.0
 40
6.0
 40
6.0
 40
6.0
 40
7.0
 40
7.0
 40
7.0
 40
8.0
 40
8.0
 40
8.0
 40
9.0
 40
9.0
 40
9.0
 40
9.0
 10
51.45559342386867
 20
69.77332087807885
 30
0.0
 10
51.27012466464391
 20
69.75475083303378
 30
0.0
 10
51.13482652433684
 20
69.5893447009142
 30
0.0
 10
51.15339656938223
 20
69.40387594168847
 30
0.0
 10
51.16939684533828
 20
69.24407281134434
 30
0.0
 10
51.29579029352293
 20
69.11767936315937
 30
0.0
 10
51.45559342386739
 20
69.10167908720203
 30
0.0
 10
70.72122954204698
 20
67.17270877411946
 30
0.0
 10
88.2309110990145
 20
57.06348941377965
 30
0.0
 10
99.53426645238062
 20
41.34344427191136
 30
0.0
 10
99.64308296275206
 20
41.19210863733625
 30
0.0
 10
99.85397794526325
 20
41.15764007680581
 30
0.0
 10
100.005313579838
 20
41.26645658717756
 30
0.0
 10
100.1357070123421
 20
41.36021479779584
 30
0.0
 10
100.1819702252497
 20
41.53287145888904
 30
0.0
 10
100.1159253055238
 20
41.67926516734913
 30
0.0
 10
92.15364454070969
 20
59.32828062230127
 30
0.0
 10
92.15364454070905
 20
79.54671934298153
 30
0.0
 10
100.1159253055229
 20
97.19573479793304
 30
0.0
 10
100.1925775543765
 20
97.36564047755323
 30
0.0
 10
100.1169807121724
 20
97.56551517020324
 30
0.0
 10
99.94707503255283
 20
97.64216741905658
 30
0.0
 10
99.80068132409242
 20
97.70821233878243
 30
0.0
 10
99.62802466299986
 20
97.66194912587548
 30
0.0
 10
99.53426645238223
 20
97.53155569337208
 30
0.0
 10
88.23091109901642
 20
81.81151055150252
 30
0.0
 10
70.72122954204892
 20
71.70229119116206
 30
0.0
 10
51.45559342386867
 20
69.77332087807885
 30
0.0
  0
ENDBLK
  5
8F
330
8C
100
AcDbEntity
  8
0
100
AcDbBlockEnd
  0
BLOCK
  5
93
330
91
100
AcDbEntity
  8
0
100
AcDbBlockBegin
  2
BLOCK_18
 70
     0
 10
0.0
 20
0.0
 30
0.0
  3
BLOCK_18
  1

  0
SPLINE
  5
95
330
91
100
AcDbEntity
  8
CUT
100
AcDbSpline
210
0.0
220
0.0
230
1.0
 70
    11
 71
     3
 72
    32
 73
    28
 74
     0
 42
0.0000000001
 43
0.0000000001
 12
1.0
 22
0.0
 32
0.0
 13
1.0
 23
0.0
 33
0.0
 40
0.0
 40
0.0
 40
0.0
 40
0.0
 40
1.0
 40
1.0
 40
1.0
 40
2.0
 40
2.0
 40
2.0
 40
3.0
 40
3.0
 40
3.0
 40
4.0
 40
4.0
 40
4.0
 40
5.0
 40
5.0
 40
5.0
 40
6.0
 40
6.0
 40
6.0
 40
7.0
 40
7.0
 40
7.0
 40
8.0
 40
8.0
 40
8.0
 40
9.0
 40
9.0
 40
9.0
 40
9.0
 10
106.2590746428831
 20
41.67926516734784
 30
0.0
 10
106.1824223940298
 20
41.50935948772766
 30
0.0
 10
106.2580192362339
 20
41.30948479507764
 30
0.0
 10
106.4279249158541
 20
41.23283254622431
 30
0.0
 10
106.5743186243142
 20
41.16678762649845
 30
0.0
 10
106.7469752854061
 20
41.21305083940604
 30
0.0
 10
106.8407334960244
 20
41.34344427191008
 30
0.0
 10
118.1440888493901
 20
57.06348941377901
 30
0.0
 10
135.6537704063577
 20
67.17270877411946
 30
0.0
 10
154.9194065245376
 20
69.10167908720203
 30
0.0
 10
155.1048752837627
 20
69.12024913224839
 30
0.0
 10
155.2401734240691
 20
69.28565526436796
 30
0.0
 10
155.2216033790228
 20
69.47112402359369
 30
0.0
 10
155.2056031030667
 20
69.63092715393783
 30
0.0
 10
155.0792096548811
 20
69.7573206021228
 30
0.0
 10
154.919406524537
 20
69.77332087807885
 30
0.0
 10
135.6537704063577
 20
71.7022911911627
 30
0.0
 10
118.1440888493908
 20
81.81151055150316
 30
0.0
 10
106.8407334960256
 20
97.53155569337208
 30
0.0
 10
106.7319169856539
 20
97.68289132794656
 30
0.0
 10
106.5210220031433
 20
97.717359888477
 30
0.0
 10
106.3696863685682
 20
97.60854337810589
 30
0.0
 10
106.2392929360635
 20
97.5147851674876
 30
0.0
 10
106.1930297231553
 20
97.3421285063944
 30
0.0
 10
106.2590746428818
 20
97.19573479793304
 30
0.0
 10
114.2213554076966
 20
79.54671934298153
 30
0.0
 10
114.2213554076972
 20
59.32828062230062
 30
0.0
 10
106.2590746428831
 20
41.67926516734784
 30
0.0
  0
ENDBLK
  5
94
330
91
100
AcDbEntity
  8
0
100
AcDbBlockEnd
  0
BLOCK
  5
98
330
96
100
AcDbEntity
  8
0
100
AcDbBlockBegin
  2
BLOCK_19
 70
     0
 10
0.0
 20
0.0
 30
0.0
  3
BLOCK_19
  1

  0
SPLINE
  5
9A
330
96
100
AcDbEntity
  8
CUT
100
AcDbSpline
210
0.0
220
0.0
230
1.0
 70
    11
 71
     3
 72
    32
 73
    28
 74
     0
 42
0.0000000001
 43
0.0000000001
 12
1.0
 22
0.0
 32
0.0
 13
1.0
 23
0.0
 33
0.0
 40
0.0
 40
0.0
 40
0.0
 40
0.0
 40
1.0
 40
1.0
 40
1.0
 40
2.0
 40
2.0
 40
2.0
 40
3.0
 40
3.0
 40
3.0
 40
4.0
 40
4.0
 40
4.0
 40
5.0
 40
5.0
 40
5.0
 40
6.0
 40
6.0
 40
6.0
 40
7.0
 40
7.0
 40
7.0
 40
8.0
 40
8.0
 40
8.0
 40
9.0
 40
9.0
 40
9.0
 40
9.0
 10
157.990981196154
 20
75.09344425938899
 30
0.0
 10
158.0997977087806
 20
74.94210862643482
 30
0.0
 10
158.3106926918052
 20
74.90764006904676
 30
0.0
 10
158.4620283247587
 20
75.01645658167345
 30
0.0
 10
158.5924217558658
 20
75.1102147942348
 30
0.0
 10
158.6386849662015
 20
75.28287145601783
 30
0.0
 10
158.5726400442932
 20
75.4292651634942
 30
0.0
 10
150.6103592815479
 20
93.07828061386203
 30
0.0
 10
150.6103592815473
 20
113.296719334542
 30
0.0
 10
158.5726400463601
 20
130.9457347894945
 30
0.0
 10
158.6492922952134
 20
131.1156404691153
 30
0.0
 10
158.5736954530087
 20
131.3155151617653
 30
0.0
 10
158.4037897733878
 20
131.3921674106193
 30
0.0
 10
158.2573960649277
 20
131.4582123303451
 30
0.0
 10
158.0847394038352
 20
131.4119491174372
 30
0.0
 10
157.9909811932163
 20
131.2815556849328
 30
0.0
 10
146.6876258398505
 20
115.5615105430639
 30
0.0
 10
129.1779442828817
 20
105.4522911827241
 30
0.0
 10
109.9123081647017
 20
103.5233208696415
 30
0.0
 10
109.726839405476
 20
103.5047508245955
 30
0.0
 10
109.5915412651702
 20
103.339344692475
 30
0.0
 10
109.6101113102159
 20
103.1538759332502
 30
0.0
 10
109.6261115861733
 20
102.9940728029057
 30
0.0
 10
109.7525050343589
 20
102.8676793547208
 30
0.0
 10
109.9123081647037
 20
102.8516790787641
 30
0.0
 10
129.1779442828836
 20
100.9227087656821
 30
0.0
 10
146.6876258398517
 20
90.8134894053417
 30
0.0
 10
157.990981196154
 20
75.09344425938899
 30
0.0
  0
ENDBLK
  5
99
330
96
100
AcDbEntity
  8
0
100
AcDbBlockEnd
  0
BLOCK
  5
9D
330
9B
100
AcDbEntity
  8
0
100
AcDbBlockBegin
  2
BLOCK_20
 70
     0
 10
0.0
 20
0.0
 30
0.0
  3
BLOCK_20
  1

  0
SPLINE
  5
9F
330
9B
100
AcDbEntity
  8
CUT
100
AcDbSpline
210
0.0
220
0.0
230
1.0
 70
    11
 71
     3
 72
    32
 73
    28
 74
     0
 42
0.0000000001
 43
0.0000000001
 12
1.0
 22
0.0
 32
0.0
 13
1.0
 23
0.0
 33
0.0
 40
0.0
 40
0.0
 40
0.0
 40
0.0
 40
1.0
 40
1.0
 40
1.0
 40
2.0
 40
2.0
 40
2.0
 40
3.0
 40
3.0
 40
3.0
 40
4.0
 40
4.0
 40
4.0
 40
5.0
 40
5.0
 40
5.0
 40
6.0
 40
6.0
 40
6.0
 40
7.0
 40
7.0
 40
7.0
 40
8.0
 40
8.0
 40
8.0
 40
9.0
 40
9.0
 40
9.0
 40
9.0
 10
154.919406524537
 20
136.6016790703274
 30
0.0
 10
155.1048752837627
 20
136.6202491153728
 30
0.0
 10
155.2401734240698
 20
136.7856552474924
 30
0.0
 10
155.2216033790247
 20
136.9711240067175
 30
0.0
 10
155.205603103068
 20
137.1309271370619
 30
0.0
 10
155.079209654883
 20
137.2573205852475
 30
0.0
 10
154.9194065245395
 20
137.2733208612046
 30
0.0
 10
135.6537704063589
 20
139.2022911742871
 30
0.0
 10
118.1440888493914
 20
149.3115105346263
 30
0.0
 10
106.8407334960256
 20
165.0315556764955
 30
0.0
 10
106.7319169856539
 20
165.1828913110697
 30
0.0
 10
106.5210220031433
 20
165.2173598716005
 30
0.0
 10
106.3696863685682
 20
165.1085433612284
 30
0.0
 10
106.2392929360642
 20
165.0147851506104
 30
0.0
 10
106.1930297231566
 20
164.8421284895178
 30
0.0
 10
106.2590746428824
 20
164.6957347810571
 30
0.0
 10
114.2213555583354
 20
147.0467182906148
 30
0.0
 10
114.2213552570577
 20
126.8282795699352
 30
0.0
 10
106.2590742292535
 20
109.17926423363
 30
0.0
 10
106.1824223944937
 20
109.0093594651268
 30
0.0
 10
106.258019239676
 20
108.809484773603
 30
0.0
 10
106.4279249204377
 20
108.7328325272815
 30
0.0
 10
106.5743186298822
 20
108.6667876097368
 30
0.0
 10
106.7469752902849
 20
108.7130508252169
 30
0.0
 10
106.8407334989601
 20
108.8434442591173
 30
0.0
 10
118.1440888493901
 20
124.5634893969041
 30
0.0
 10
135.6537704063577
 20
134.6727087572445
 30
0.0
 10
154.919406524537
 20
136.6016790703274
 30
0.0
  0
ENDBLK
  5
9E
330
9B
100
AcDbEntity
  8
0
100
AcDbBlockEnd
  0
BLOCK
  5
A2
330
A0
100
AcDbEntity
  8
0
100
AcDbBlockBegin
  2
BLOCK_21
 70
     0
 10
0.0
 20
0.0
 30
0.0
  3
BLOCK_21
  1

  0
SPLINE
  5
A4
330
A0
100
AcDbEntity
  8
CUT
100
AcDbSpline
210
0.0
220
0.0
230
1.0
 70
    11
 71
     3
 72
    32
 73
    28
 74
     0
 42
0.0000000001
 43
0.0000000001
 12
1.0
 22
0.0
 32
0.0
 13
1.0
 23
0.0
 33
0.0
 40
0.0
 40
0.0
 40
0.0
 40
0.0
 40
1.0
 40
1.0
 40
1.0
 40
2.0
 40
2.0
 40
2.0
 40
3.0
 40
3.0
 40
3.0
 40
4.0
 40
4.0
 40
4.0
 40
5.0
 40
5.0
 40
5.0
 40
6.0
 40
6.0
 40
6.0
 40
7.0
 40
7.0
 40
7.0
 40
8.0
 40
8.0
 40
8.0
 40
9.0
 40
9.0
 40
9.0
 40
9.0
 10
51.45559342386867
 20
2.273320894954115
 30
0.0
 10
51.27012466464359
 20
2.25475084990904
 30
0.0
 10
51.13482652433684
 20
2.089344717788821
 30
0.0
 10
51.15339656938191
 20
1.903875958564378
 30
0.0
 10
51.16939684533828
 20
1.744072828219597
 30
0.0
 10
51.29579029352293
 20
1.617679380033989
 30
0.0
 10
51.45559342386739
 20
1.601679104076655
 30
0.0
 10
70.72123051412734
 20
-0.3272915962937444
 30
0.0
 10
88.23091192045601
 20
-10.43651121754775
 30
0.0
 10
99.53426703957471
 20
-26.15655652784984
 30
0.0
 10
99.64308296275206
 20
-26.30789134578849
 30
0.0
 10
99.85397794526325
 20
-26.34235990631893
 30
0.0
 10
100.005313579838
 20
-26.23354339594718
 30
0.0
 10
100.1357070123421
 20
-26.13978518532889
 30
0.0
 10
100.1819702252497
 20
-25.96712852423634
 30
0.0
 10
100.1159253055238
 20
-25.82073481577625
 30
0.0
 10
92.15364454070969
 20
-8.171719360824108
 30
0.0
 10
92.15364454070905
 20
12.04671935985616
 30
0.0
 10
100.1159253055229
 20
29.69573481480894
 30
0.0
 10
100.1925775543765
 20
29.86564049442785
 30
0.0
 10
100.1169807121724
 20
30.06551518707787
 30
0.0
 10
99.94707503255283
 20
30.14216743593184
 30
0.0
 10
99.80068132409242
 20
30.20821235565834
 30
0.0
 10
99.62802466299986
 20
30.16194914275075
 30
0.0
 10
99.53426645238223
 20
30.03155571024671
 30
0.0
 10
88.23091109901642
 20
14.31151056837714
 30
0.0
 10
70.72122954204892
 20
4.202291208037327
 30
0.0
 10
51.45559342386867
 20
2.273320894954115
 30
0.0
  0
ENDBLK
  5
A3
330
A0
100
AcDbEntity
  8
0
100
AcDbBlockEnd
  0
BLOCK
  5
A7
330
A5
100
AcDbEntity
  8
0
100
AcDbBlockBegin
  2
BLOCK_22
 70
     0
 10
0.0
 20
0.0
 30
0.0
  3
BLOCK_22
  1

  0
SPLINE
  5
A9
330
A5
100
AcDbEntity
  8
CUT
100
AcDbSpline
210
0.0
220
0.0
230
1.0
 70
    11
 71
     3
 72
    32
 73
    28
 74
     0
 42
0.0000000001
 43
0.0000000001
 12
1.0
 22
0.0
 32
0.0
 13
1.0
 23
0.0
 33
0.0
 40
0.0
 40
0.0
 40
0.0
 40
0.0
 40
1.0
 40
1.0
 40
1.0
 40
2.0
 40
2.0
 40
2.0
 40
3.0
 40
3.0
 40
3.0
 40
4.0
 40
4.0
 40
4.0
 40
5.0
 40
5.0
 40
5.0
 40
6.0
 40
6.0
 40
6.0
 40
7.0
 40
7.0
 40
7.0
 40
8.0
 40
8.0
 40
8.0
 40
9.0
 40
9.0
 40
9.0
 40
9.0
 10
48.38401875225294
 20
-3.718444277232204
 30
0.0
 10
48.27520223962625
 20
-3.567108644279307
 30
0.0
 10
48.06430725660106
 20
-3.532640086891262
 30
0.0
 10
47.91297162364784
 20
-3.64145659951795
 30
0.0
 10
47.78257819254014
 20
-3.735214812079297
 30
0.0
 10
47.73631498220512
 20
-3.907871473861038
 30
0.0
 10
47.80235990411244
 20
-4.054265181338041
 30
0.0
 10
55.76464081749785
 20
-21.70328166719638
 30
0.0
 10
55.76464051622015
 20
-41.921720387876
 30
0.0
 10
47.80235948841595
 20
-59.5707357241812
 30
0.0
 10
47.72570765365614
 20
-59.740640492685
 30
0.0
 10
47.80130449883936
 20
-59.94051518420949
 30
0.0
 10
47.97121017960241
 20
-60.01716743053132
 30
0.0
 10
48.11760388904751
 20
-60.08321234807475
 30
0.0
 10
48.29026054945088
 20
-60.03694913259459
 30
0.0
 10
48.3840187581261
 20
-59.90655569869357
 30
0.0
 10
59.68737410855644
 20
-44.18651056090713
 30
0.0
 10
77.1970556655246
 20
-34.07729120056732
 30
0.0
 10
96.46269178370451
 20
-32.14832088748539
 30
0.0
 10
96.64816054292993
 20
-32.12975084243903
 30
0.0
 10
96.78345868323603
 20
-31.96434471031882
 30
0.0
 10
96.76488863819
 20
-31.77887595109373
 30
0.0
 10
96.74888836223299
 20
-31.61907282074959
 30
0.0
 10
96.62249491404769
 20
-31.49267937256398
 30
0.0
 10
96.46269178370324
 20
-31.47667909660857
 30
0.0
 10
77.197055665523
 20
-29.54770878352536
 30
0.0
 10
59.68737410855483
 20
-19.4384894231849
 30
0.0
 10
48.38401875225294
 20
-3.718444277232204
 30
0.0
  0
ENDBLK
  5
A8
330
A5
100
AcDbEntity
  8
0
100
AcDbBlockEnd
  0
BLOCK
  5
AC
330
AA
100
AcDbEntity
  8
0
100
AcDbBlockBegin
  2
BLOCK_23
 70
     0
 10
0.0
 20
0.0
 30
0.0
  3
BLOCK_23
  1

  0
SPLINE
  5
AE
330
AA
100
AcDbEntity
  8
CUT
100
AcDbSpline
210
0.0
220
0.0
230
1.0
 70
    11
 71
     3
 72
    32
 73
    28
 74
     0
 42
0.0000000001
 43
0.0000000001
 12
1.0
 22
0.0
 32
0.0
 13
1.0
 23
0.0
 33
0.0
 40
0.0
 40
0.0
 40
0.0
 40
0.0
 40
1.0
 40
1.0
 40
1.0
 40
2.0
 40
2.0
 40
2.0
 40
3.0
 40
3.0
 40
3.0
 40
4.0
 40
4.0
 40
4.0
 40
5.0
 40
5.0
 40
5.0
 40
6.0
 40
6.0
 40
6.0
 40
7.0
 40
7.0
 40
7.0
 40
8.0
 40
8.0
 40
8.0
 40
9.0
 40
9.0
 40
9.0
 40
9.0
 10
51.45559341886502
 20
-65.22667908867179
 30
0.0
 10
51.27012465991651
 20
-65.24524913648067
 30
0.0
 10
51.13482652207421
 20
-65.4106552706171
 30
0.0
 10
51.15339656988276
 20
-65.59612402956562
 30
0.0
 10
51.16939684822047
 20
-65.75592715967103
 30
0.0
 10
51.29579029828851
 20
-65.88232060597326
 30
0.0
 10
51.45559342887136
 20
-65.8983208795486
 30
0.0
 10
70.72123051412734
 20
-67.82729157941849
 30
0.0
 10
88.23091192045601
 20
-77.93651120067248
 30
0.0
 10
99.53426703957471
 20
-93.65655651097458
 30
0.0
 10
99.64308296275206
 20
-93.80789132891387
 30
0.0
 10
99.85397794526325
 20
-93.84235988944367
 30
0.0
 10
100.005313579838
 20
-93.73354337907256
 30
0.0
 10
100.1357070123421
 20
-93.63978516845427
 30
0.0
 10
100.1819702252497
 20
-93.4671285073617
 30
0.0
 10
100.1159253055238
 20
-93.32073479890035
 30
0.0
 10
92.15364454070969
 20
-75.67171934394884
 30
0.0
 10
92.15364454070905
 20
-55.45328062326922
 30
0.0
 10
100.1159253055229
 20
-37.80426516831643
 30
0.0
 10
100.1925775543765
 20
-37.63435948869625
 30
0.0
 10
100.1169807121724
 20
-37.43448479604687
 30
0.0
 10
99.94707503255283
 20
-37.35783254719289
 30
0.0
 10
99.80068132409242
 20
-37.29178762746704
 30
0.0
 10
99.62802466299986
 20
-37.33805084037463
 30
0.0
 10
99.53426645238223
 20
-37.46844427287738
 30
0.0
 10
88.23091109901642
 20
-53.18848941474759
 30
0.0
 10
70.72122954204892
 20
-63.29770877508805
 30
0.0
 10
51.45559341886502
 20
-65.22667908867179
 30
0.0
  0
ENDBLK
  5
AD
330
AA
100
AcDbEntity
  8
0
100
AcDbBlockEnd
  0
BLOCK
  5
B1
330
AF
100
AcDbEntity
  8
0
100
AcDbBlockBegin
  2
BLOCK_24
 70
     0
 10
0.0
 20
0.0
 30
0.0
  3
BLOCK_24
  1

  0
SPLINE
  5
B3
330
AF
100
AcDbEntity
  8
CUT
100
AcDbSpline
210
0.0
220
0.0
230
1.0
 70
    11
 71
     3
 72
    32
 73
    28
 74
     0
 42
0.0000000001
 43
0.0000000001
 12
1.0
 22
0.0
 32
0.0
 13
1.0
 23
0.0
 33
0.0
 40
0.0
 40
0.0
 40
0.0
 40
0.0
 40
1.0
 40
1.0
 40
1.0
 40
2.0
 40
2.0
 40
2.0
 40
3.0
 40
3.0
 40
3.0
 40
4.0
 40
4.0
 40
4.0
 40
5.0
 40
5.0
 40
5.0
 40
6.0
 40
6.0
 40
6.0
 40
7.0
 40
7.0
 40
7.0
 40
8.0
 40
8.0
 40
8.0
 40
9.0
 40
9.0
 40
9.0
 40
9.0
 10
106.2590746428837
 20
-93.32073479890227
 30
0.0
 10
106.1824223940298
 20
-93.49064047852181
 30
0.0
 10
106.2580192362339
 20
-93.69051517117184
 30
0.0
 10
106.4279249158541
 20
-93.76716742002516
 30
0.0
 10
106.5743186243135
 20
-93.83321233975167
 30
0.0
 10
106.7469752854061
 20
-93.78694912684408
 30
0.0
 10
106.8407334960244
 20
-93.65655569434068
 30
0.0
 10
118.1440888493901
 20
-77.9365105524711
 30
0.0
 10
135.6537704063577
 20
-67.8272911921313
 30
0.0
 10
154.9194065245376
 20
-65.89832087904743
 30
0.0
 10
155.1048752837627
 20
-65.87975083400173
 30
0.0
 10
155.2401734240691
 20
-65.7143447018815
 30
0.0
 10
155.2216033790228
 20
-65.52887594265641
 30
0.0
 10
155.2056031030667
 20
-65.36907281231228
 30
0.0
 10
155.0792096548811
 20
-65.24267936412731
 30
0.0
 10
154.919406524537
 20
-65.22667908817063
 30
0.0
 10
135.6537704063577
 20
-63.29770877508741
 30
0.0
 10
118.1440888493908
 20
-53.18848941474695
 30
0.0
 10
106.8407334960256
 20
-37.46844427287738
 30
0.0
 10
106.7319169856539
 20
-37.31710863830291
 30
0.0
 10
106.5210220031433
 20
-37.28264007777246
 30
0.0
 10
106.3696863685682
 20
-37.39145658814422
 30
0.0
 10
106.2392929360635
 20
-37.48521479876251
 30
0.0
 10
106.1930297231553
 20
-37.65787145985506
 30
0.0
 10
106.2590746428818
 20
-37.80426516831643
 30
0.0
 10
114.2213554076966
 20
-55.45328062326922
 30
0.0
 10
114.2213554076972
 20
-75.67171934394949
 30
0.0
 10
106.2590746428837
 20
-93.32073479890227
 30
0.0
  0
ENDBLK
  5
B2
330
AF
100
AcDbEntity
  8
0
100
AcDbBlockEnd
  0
BLOCK
  5
B6
330
B4
100
AcDbEntity
  8
0
100
AcDbBlockBegin
  2
BLOCK_25
 70
     0
 10
0.0
 20
0.0
 30
0.0
  3
BLOCK_25
  1

  0
SPLINE
  5
B8
330
B4
100
AcDbEntity
  8
CUT
100
AcDbSpline
210
0.0
220
0.0
230
1.0
 70
    11
 71
     3
 72
    32
 73
    28
 74
     0
 42
0.0000000001
 43
0.0000000001
 12
1.0
 22
0.0
 32
0.0
 13
1.0
 23
0.0
 33
0.0
 40
0.0
 40
0.0
 40
0.0
 40
0.0
 40
1.0
 40
1.0
 40
1.0
 40
2.0
 40
2.0
 40
2.0
 40
3.0
 40
3.0
 40
3.0
 40
4.0
 40
4.0
 40
4.0
 40
5.0
 40
5.0
 40
5.0
 40
6.0
 40
6.0
 40
6.0
 40
7.0
 40
7.0
 40
7.0
 40
8.0
 40
8.0
 40
8.0
 40
9.0
 40
9.0
 40
9.0
 40
9.0
 10
109.9123081647017
 20
-31.47667909660857
 30
0.0
 10
109.726839405476
 20
-31.49524914165429
 30
0.0
 10
109.5915412651709
 20
-31.66065527377515
 30
0.0
 10
109.6101113102166
 20
-31.84612403300024
 30
0.0
 10
109.6261115861739
 20
-32.00592716334437
 30
0.0
 10
109.7525050343589
 20
-32.1323206115287
 30
0.0
 10
109.9123081647024
 20
-32.14832088748539
 30
0.0
 10
129.1779442828829
 20
-34.07729120056732
 30
0.0
 10
146.6876258398511
 20
-44.18651056090713
 30
0.0
 10
157.9909811932176
 20
-59.90655570277671
 30
0.0
 10
158.0997977035893
 20
-60.05789133735118
 30
0.0
 10
158.3106926861005
 20
-60.09235989788162
 30
0.0
 10
158.462028320675
 20
-59.98354338750986
 30
0.0
 10
158.592421753179
 20
-59.88978517689223
 30
0.0
 10
158.6386849660872
 20
-59.71712851579903
 30
0.0
 10
158.5726400463607
 20
-59.5707348073383
 30
0.0
 10
150.6103592815473
 20
-41.92171935238616
 30
0.0
 10
150.610359281546
 20
-21.70328063170588
 30
0.0
 10
158.5726400463601
 20
-4.054265176753744
 30
0.0
 10
158.6492922952134
 20
-3.884359497133556
 30
0.0
 10
158.5736954530093
 20
-3.684484804482893
 30
0.0
 10
158.4037897733891
 20
-3.607832555629565
 30
0.0
 10
158.2573960649284
 20
-3.541787635903066
 30
0.0
 10
158.0847394038358
 20
-3.588050848811298
 30
0.0
 10
157.9909811932176
 20
-3.718444281315334
 30
0.0
 10
146.6876258398511
 20
-19.4384894231849
 30
0.0
 10
129.1779442828829
 20
-29.54770878352536
 30
0.0
 10
109.9123081647017
 20
-31.47667909660857
 30
0.0
  0
ENDBLK
  5
B7
330
B4
100
AcDbEntity
  8
0
100
AcDbBlockEnd
  0
BLOCK
  5
BB
330
B9
100
AcDbEntity
  8
0
100
AcDbBlockBegin
  2
BLOCK_26
 70
     0
 10
0.0
 20
0.0
 30
0.0
  3
BLOCK_26
  1

  0
SPLINE
  5
BD
330
B9
100
AcDbEntity
  8
CUT
100
AcDbSpline
210
0.0
220
0.0
230
1.0
 70
    11
 71
     3
 72
    32
 73
    28
 74
     0
 42
0.0000000001
 43
0.0000000001
 12
1.0
 22
0.0
 32
0.0
 13
1.0
 23
0.0
 33
0.0
 40
0.0
 40
0.0
 40
0.0
 40
0.0
 40
1.0
 40
1.0
 40
1.0
 40
2.0
 40
2.0
 40
2.0
 40
3.0
 40
3.0
 40
3.0
 40
4.0
 40
4.0
 40
4.0
 40
5.0
 40
5.0
 40
5.0
 40
6.0
 40
6.0
 40
6.0
 40
7.0
 40
7.0
 40
7.0
 40
8.0
 40
8.0
 40
8.0
 40
9.0
 40
9.0
 40
9.0
 40
9.0
 10
106.2590746428837
 20
-25.82073481577753
 30
0.0
 10
106.1824223940298
 20
-25.99064049539708
 30
0.0
 10
106.2580192362339
 20
-26.19051518804646
 30
0.0
 10
106.4279249158541
 20
-26.26716743690043
 30
0.0
 10
106.5743186243135
 20
-26.33321235662628
 30
0.0
 10
106.7469752854061
 20
-26.28694914371934
 30
0.0
 10
106.8407334960244
 20
-26.1565557112153
 30
0.0
 10
118.1440888493901
 20
-10.43651056934637
 30
0.0
 10
135.6537704063577
 20
-0.3272912090059146
 30
0.0
 10
154.9194065245376
 20
1.601679104076655
 30
0.0
 10
155.1048752837627
 20
1.620249149123014
 30
0.0
 10
155.2401734240691
 20
1.785655281243232
 30
0.0
 10
155.2216033790228
 20
1.971124040468318
 30
0.0
 10
155.2056031030667
 20
2.130927170812457
 30
0.0
 10
155.0792096548811
 20
2.257320618997423
 30
0.0
 10
154.919406524537
 20
2.273320894954115
 30
0.0
 10
135.6537704063577
 20
4.202291208037327
 30
0.0
 10
118.1440888493908
 20
14.31151056837778
 30
0.0
 10
106.8407334960256
 20
30.03155571024671
 30
0.0
 10
106.7319169856539
 20
30.18289134482247
 30
0.0
 10
106.5210220031433
 20
30.21735990535291
 30
0.0
 10
106.3696863685682
 20
30.10854339498051
 30
0.0
 10
106.2392929360635
 20
30.01478518436287
 30
0.0
 10
106.1930297231553
 20
29.84212852326967
 30
0.0
 10
106.2590746428818
 20
29.69573481480894
 30
0.0
 10
114.2213554076966
 20
12.04671935985616
 30
0.0
 10
114.2213554076972
 20
-8.171719360824108
 30
0.0
 10
106.2590746428837
 20
-25.82073481577753
 30
0.0
  0
ENDBLK
  5
BC
330
B9
100
AcDbEntity
  8
0
100
AcDbBlockEnd
  0
BLOCK
  5
C0
330
BE
100
AcDbEntity
  8
0
100
AcDbBlockBegin
  2
BLOCK_27
 70
     0
 10
0.0
 20
0.0
 30
0.0
  3
BLOCK_27
  1

  0
SPLINE
  5
C2
330
BE
100
AcDbEntity
  8
CUT
100
AcDbSpline
210
0.0
220
0.0
230
1.0
 70
    11
 71
     3
 72
    32
 73
    28
 74
     0
 42
0.0000000001
 43
0.0000000001
 12
1.0
 22
0.0
 32
0.0
 13
1.0
 23
0.0
 33
0.0
 40
0.0
 40
0.0
 40
0.0
 40
0.0
 40
1.0
 40
1.0
 40
1.0
 40
2.0
 40
2.0
 40
2.0
 40
3.0
 40
3.0
 40
3.0
 40
4.0
 40
4.0
 40
4.0
 40
5.0
 40
5.0
 40
5.0
 40
6.0
 40
6.0
 40
6.0
 40
7.0
 40
7.0
 40
7.0
 40
8.0
 40
8.0
 40
8.0
 40
9.0
 40
9.0
 40
9.0
 40
9.0
 10
-16.79750417407733
 20
232.1957347687678
 30
0.0
 10
-16.72085192775583
 20
232.3656404495312
 30
0.0
 10
-16.79644877293872
 20
232.5655151410553
 30
0.0
 10
-16.96635445370241
 20
232.6421673873771
 30
0.0
 10
-17.11274816314783
 20
232.7082123049219
 30
0.0
 10
-17.28540482355152
 20
232.661949089441
 30
0.0
 10
-17.37916303222706
 20
232.5315556555391
 30
0.0
 10
-28.68251838265548
 20
216.811510517753
 30
0.0
 10
-46.19219993962204
 20
206.7022911574131
 30
0.0
 10
-65.45783605780099
 20
204.773320844329
 30
0.0
 10
-65.6433048170264
 20
204.7547507992839
 30
0.0
 10
-65.77860295733348
 20
204.5893446671646
 30
0.0
 10
-65.7600329122884
 20
204.4038759079396
 30
0.0
 10
-65.74403263633235
 20
204.2440727775954
 30
0.0
 10
-65.61763918814769
 20
204.1176793294098
 30
0.0
 10
-65.45783605780356
 20
204.1016790534525
 30
0.0
 10
-46.19219993962332
 20
202.1727087403696
 30
0.0
 10
-28.68251838265452
 20
192.0634893800291
 30
0.0
 10
-17.37916302928776
 20
176.3434442381595
 30
0.0
 10
-17.27034651891632
 20
176.1921086035851
 30
0.0
 10
-17.05945153640609
 20
176.1576400430553
 30
0.0
 10
-16.90811590183162
 20
176.2664565534267
 30
0.0
 10
-16.7777224693279
 20
176.360214764045
 30
0.0
 10
-16.73145925642063
 20
176.5328714251376
 30
0.0
 10
-16.79750417614681
 20
176.679265133598
 30
0.0
 10
-24.75978494096061
 20
194.3282805885504
 30
0.0
 10
-24.75978494095997
 20
214.546719309231
 30
0.0
 10
-16.79750417407733
 20
232.1957347687678
 30
0.0
  0
ENDBLK
  5
C1
330
BE
100
AcDbEntity
  8
0
100
AcDbBlockEnd
  0
BLOCK
  5
C5
330
C3
100
AcDbEntity
  8
0
100
AcDbBlockBegin
  2
BLOCK_28
 70
     0
 10
0.0
 20
0.0
 30
0.0
  3
BLOCK_28
  1

  0
SPLINE
  5
C7
330
C3
100
AcDbEntity
  8
CUT
100
AcDbSpline
210
0.0
220
0.0
230
1.0
 70
    11
 71
     3
 72
    32
 73
    28
 74
     0
 42
0.0000000001
 43
0.0000000001
 12
1.0
 22
0.0
 32
0.0
 13
1.0
 23
0.0
 33
0.0
 40
0.0
 40
0.0
 40
0.0
 40
0.0
 40
1.0
 40
1.0
 40
1.0
 40
2.0
 40
2.0
 40
2.0
 40
3.0
 40
3.0
 40
3.0
 40
4.0
 40
4.0
 40
4.0
 40
5.0
 40
5.0
 40
5.0
 40
6.0
 40
6.0
 40
6.0
 40
7.0
 40
7.0
 40
7.0
 40
8.0
 40
8.0
 40
8.0
 40
9.0
 40
9.0
 40
9.0
 40
9.0
 10
-68.52941072648287
 20
198.7815556680595
 30
0.0
 10
-68.6382272368543
 20
198.9328913026334
 30
0.0
 10
-68.84912221936486
 20
198.9673598631638
 30
0.0
 10
-69.00045785393901
 20
198.858543352792
 30
0.0
 10
-69.13085128644272
 20
198.7647851421737
 30
0.0
 10
-69.17711449935
 20
198.5921284810815
 30
0.0
 10
-69.11106957962382
 20
198.4457347726211
 30
0.0
 10
-61.1487888148097
 20
180.7967193176686
 30
0.0
 10
-61.14878881480874
 20
160.578280596989
 30
0.0
 10
-69.11106957962221
 20
142.9292651420362
 30
0.0
 10
-69.18772182801223
 20
142.7593594566908
 30
0.0
 10
-69.11212498282998
 20
142.5594847651679
 30
0.0
 10
-68.94221930206854
 20
142.4828325188461
 30
0.0
 10
-68.79582559262472
 20
142.4167876013017
 30
0.0
 10
-68.623168932222
 20
142.4630508167812
 30
0.0
 10
-68.5294107235471
 20
142.5934442506813
 30
0.0
 10
-57.22605537311643
 20
158.3134893884677
 30
0.0
 10
-39.71637381614827
 20
168.4227087488072
 30
0.0
 10
-20.45073769796803
 20
170.3516790618895
 30
0.0
 10
-20.26526893874295
 20
170.3702491069361
 30
0.0
 10
-20.12997079843652
 20
170.5356552390564
 30
0.0
 10
-20.14854084348288
 20
170.7211239982818
 30
0.0
 10
-20.16454111944021
 20
170.8809271286262
 30
0.0
 10
-20.2909345676255
 20
171.0073205768109
 30
0.0
 10
-20.45073769796996
 20
171.0233208527672
 30
0.0
 10
-39.71637478822991
 20
172.952291553138
 30
0.0
 10
-57.22605619455858
 20
183.0615111743926
 30
0.0
 10
-68.52941072648287
 20
198.7815556680595
 30
0.0
  0
ENDBLK
  5
C6
330
C3
100
AcDbEntity
  8
0
100
AcDbBlockEnd
  0
BLOCK
  5
CA
330
C8
100
AcDbEntity
  8
0
100
AcDbBlockBegin
  2
BLOCK_29
 70
     0
 10
0.0
 20
0.0
 30
0.0
  3
BLOCK_29
  1

  0
SPLINE
  5
CC
330
C8
100
AcDbEntity
  8
CUT
100
AcDbSpline
210
0.0
220
0.0
230
1.0
 70
    11
 71
     3
 72
    32
 73
    28
 74
     0
 42
0.0000000001
 43
0.0000000001
 12
1.0
 22
0.0
 32
0.0
 13
1.0
 23
0.0
 33
0.0
 40
0.0
 40
0.0
 40
0.0
 40
0.0
 40
1.0
 40
1.0
 40
1.0
 40
2.0
 40
2.0
 40
2.0
 40
3.0
 40
3.0
 40
3.0
 40
4.0
 40
4.0
 40
4.0
 40
5.0
 40
5.0
 40
5.0
 40
6.0
 40
6.0
 40
6.0
 40
7.0
 40
7.0
 40
7.0
 40
8.0
 40
8.0
 40
8.0
 40
9.0
 40
9.0
 40
9.0
 40
9.0
 10
-16.79750417407733
 20
164.6957347856434
 30
0.0
 10
-16.72085192775583
 20
164.8656404664064
 30
0.0
 10
-16.79644877293936
 20
165.0655151579306
 30
0.0
 10
-16.96635445370273
 20
165.1421674042521
 30
0.0
 10
-17.11274816314815
 20
165.2082123217968
 30
0.0
 10
-17.28540482355184
 20
165.1619491063153
 30
0.0
 10
-17.37916303222706
 20
165.0315556724137
 30
0.0
 10
-28.68251838265548
 20
149.3115105346279
 30
0.0
 10
-46.19219993962204
 20
139.2022911742874
 30
0.0
 10
-65.45783605780099
 20
137.2733208612039
 30
0.0
 10
-65.6433048170264
 20
137.2547508161588
 30
0.0
 10
-65.77860295733348
 20
137.0893446840396
 30
0.0
 10
-65.76003291228807
 20
136.9038759248142
 30
0.0
 10
-65.74403263633202
 20
136.74407279447
 30
0.0
 10
-65.61763918814769
 20
136.6176793462847
 30
0.0
 10
-65.45783605780356
 20
136.6016790703277
 30
0.0
 10
-46.19219896754232
 20
134.6727083699567
 30
0.0
 10
-28.68251756121333
 20
124.5634887487014
 30
0.0
 10
-17.37916244209367
 20
108.8434434383987
 30
0.0
 10
-17.27034651891632
 20
108.69210862046
 30
0.0
 10
-17.05945153640545
 20
108.6576400599302
 30
0.0
 10
-16.90811590183162
 20
108.7664565703017
 30
0.0
 10
-16.7777224693279
 20
108.8602147809199
 30
0.0
 10
-16.73145925642063
 20
109.0328714420122
 30
0.0
 10
-16.79750417614681
 20
109.1792651504726
 30
0.0
 10
-24.75978494096061
 20
126.8282806054257
 30
0.0
 10
-24.75978494096029
 20
147.0467193261066
 30
0.0
 10
-16.79750417407733
 20
164.6957347856434
 30
0.0
  0
ENDBLK
  5
CB
330
C8
100
AcDbEntity
  8
0
100
AcDbBlockEnd
  0
BLOCK
  5
CF
330
CD
100
AcDbEntity
  8
0
100
AcDbBlockBegin
  2
BLOCK_30
 70
     0
 10
0.0
 20
0.0
 30
0.0
  3
BLOCK_30
  1

  0
SPLINE
  5
D1
330
CD
100
AcDbEntity
  8
CUT
100
AcDbSpline
210
0.0
220
0.0
230
1.0
 70
    11
 71
     3
 72
    32
 73
    28
 74
     0
 42
0.0000000001
 43
0.0000000001
 12
1.0
 22
0.0
 32
0.0
 13
1.0
 23
0.0
 33
0.0
 40
0.0
 40
0.0
 40
0.0
 40
0.0
 40
1.0
 40
1.0
 40
1.0
 40
2.0
 40
2.0
 40
2.0
 40
3.0
 40
3.0
 40
3.0
 40
4.0
 40
4.0
 40
4.0
 40
5.0
 40
5.0
 40
5.0
 40
6.0
 40
6.0
 40
6.0
 40
7.0
 40
7.0
 40
7.0
 40
8.0
 40
8.0
 40
8.0
 40
9.0
 40
9.0
 40
9.0
 40
9.0
 10
-10.07269598564692
 20
165.0315556764968
 30
0.0
 10
-10.18151249601867
 20
165.1828913110719
 30
0.0
 10
-10.39240747852987
 20
165.2173598716024
 30
0.0
 10
-10.54374311310498
 20
165.1085433612309
 30
0.0
 10
-10.67413654560934
 20
165.0147851506127
 30
0.0
 10
-10.72039975851725
 20
164.8421284895195
 30
0.0
 10
-10.65435483879107
 20
164.6957347810584
 30
0.0
 10
-2.692073923337782
 20
147.0467182906161
 30
0.0
 10
-2.69207422461516
 20
126.8282795699362
 30
0.0
 10
-10.65435525241968
 20
109.179264233631
 30
0.0
 10
-10.73100708717917
 20
109.0093594651268
 30
0.0
 10
-10.65541024199628
 20
108.809484773603
 30
0.0
 10
-10.48550456123322
 20
108.7328325272815
 30
0.0
 10
-10.33911085178813
 20
108.6667876097368
 30
0.0
 10
-10.16645419138476
 20
108.7130508252176
 30
0.0
 10
-10.07269598270986
 20
108.8434442591189
 30
0.0
 10
1.230659367720805
 20
124.563489396905
 30
0.0
 10
18.74034092468897
 20
134.6727087572448
 30
0.0
 10
38.00597704286952
 20
136.6016790703274
 30
0.0
 10
38.19144580209429
 20
136.6202491153734
 30
0.0
 10
38.32674394240072
 20
136.7856552474937
 30
0.0
 10
38.30817389735436
 20
136.9711240067191
 30
0.0
 10
38.29217362139735
 20
137.1309271370635
 30
0.0
 10
38.16578017321206
 20
137.2573205852485
 30
0.0
 10
38.0059770428676
 20
137.2733208612049
 30
0.0
 10
18.74033995260701
 20
139.2022915615753
 30
0.0
 10
1.230658546278015
 20
149.3115111828299
 30
0.0
 10
-10.07269598564692
 20
165.0315556764968
 30
0.0
  0
ENDBLK
  5
D0
330
CD
100
AcDbEntity
  8
0
100
AcDbBlockEnd
  0
BLOCK
  5
D4
330
D2
100
AcDbEntity
  8
0
100
AcDbBlockBegin
  2
BLOCK_31
 70
     0
 10
0.0
 20
0.0
 30
0.0
  3
BLOCK_31
  1

  0
SPLINE
  5
D6
330
D2
100
AcDbEntity
  8
CUT
100
AcDbSpline
210
0.0
220
0.0
230
1.0
 70
    11
 71
     3
 72
    32
 73
    28
 74
     0
 42
0.0000000001
 43
0.0000000001
 12
1.0
 22
0.0
 32
0.0
 13
1.0
 23
0.0
 33
0.0
 40
0.0
 40
0.0
 40
0.0
 40
0.0
 40
1.0
 40
1.0
 40
1.0
 40
2.0
 40
2.0
 40
2.0
 40
3.0
 40
3.0
 40
3.0
 40
4.0
 40
4.0
 40
4.0
 40
5.0
 40
5.0
 40
5.0
 40
6.0
 40
6.0
 40
6.0
 40
7.0
 40
7.0
 40
7.0
 40
8.0
 40
8.0
 40
8.0
 40
9.0
 40
9.0
 40
9.0
 40
9.0
 10
41.65921056468722
 20
198.4457347726211
 30
0.0
 10
41.73586281354087
 20
198.6156404522416
 30
0.0
 10
41.66026597133642
 20
198.8155151448916
 30
0.0
 10
41.49036029171624
 20
198.8921673937453
 30
0.0
 10
41.34396658325551
 20
198.9582123134718
 30
0.0
 10
41.17130992216295
 20
198.9119491005639
 30
0.0
 10
41.07755171154467
 20
198.7815556680598
 30
0.0
 10
29.77419635818048
 20
183.0615105261912
 30
0.0
 10
12.26451480121456
 20
172.9522911658508
 30
0.0
 10
-7.001121316964074
 20
171.0233208527666
 30
0.0
 10
-7.186590084377239
 20
171.0047508020675
 30
0.0
 10
-7.321888220415407
 20
170.8393446664558
 30
0.0
 10
-7.30331817058422
 20
170.6538759077101
 30
0.0
 10
-7.287317890503969
 20
170.4940727777789
 30
0.0
 10
-7.160924439057568
 20
170.3676793328553
 30
0.0
 10
-7.001121308300816
 20
170.3516790610219
 30
0.0
 10
12.26451480121167
 20
168.4227087488066
 30
0.0
 10
29.77419635817919
 20
158.3134893884661
 30
0.0
 10
41.07755171154499
 20
142.5934442465968
 30
0.0
 10
41.18636822191642
 20
142.4421086120221
 30
0.0
 10
41.39726320442794
 20
142.4076400514913
 30
0.0
 10
41.54859883900274
 20
142.5164565618631
 30
0.0
 10
41.67899227150709
 20
142.6102147724813
 30
0.0
 10
41.72525548441532
 20
142.7828714335742
 30
0.0
 10
41.65921056468882
 20
142.9292651420353
 30
0.0
 10
33.69692979987406
 20
160.5782805969877
 30
0.0
 10
33.69692979987342
 20
180.796719317668
 30
0.0
 10
41.65921056468722
 20
198.4457347726211
 30
0.0
  0
ENDBLK
  5
D5
330
D2
100
AcDbEntity
  8
0
100
AcDbBlockEnd
  0
BLOCK
  5
D9
330
D7
100
AcDbEntity
  8
0
100
AcDbBlockBegin
  2
BLOCK_32
 70
     0
 10
0.0
 20
0.0
 30
0.0
  3
BLOCK_32
  1

  0
SPLINE
  5
DB
330
D7
100
AcDbEntity
  8
CUT
100
AcDbSpline
210
0.0
220
0.0
230
1.0
 70
    11
 71
     3
 72
    32
 73
    28
 74
     0
 42
0.0000000001
 43
0.0000000001
 12
1.0
 22
0.0
 32
0.0
 13
1.0
 23
0.0
 33
0.0
 40
0.0
 40
0.0
 40
0.0
 40
0.0
 40
1.0
 40
1.0
 40
1.0
 40
2.0
 40
2.0
 40
2.0
 40
3.0
 40
3.0
 40
3.0
 40
4.0
 40
4.0
 40
4.0
 40
5.0
 40
5.0
 40
5.0
 40
6.0
 40
6.0
 40
6.0
 40
7.0
 40
7.0
 40
7.0
 40
8.0
 40
8.0
 40
8.0
 40
9.0
 40
9.0
 40
9.0
 40
9.0
 10
38.00597704787317
 20
204.1016790539539
 30
0.0
 10
38.19144580682169
 20
204.1202491017638
 30
0.0
 10
38.32674394466303
 20
204.2856552359002
 30
0.0
 10
38.30817389685352
 20
204.4711239948484
 30
0.0
 10
38.29217361851516
 20
204.6309271249545
 30
0.0
 10
38.16578016844616
 20
204.7573205712554
 30
0.0
 10
38.00597703786363
 20
204.7733208448308
 30
0.0
 10
18.74034092468801
 20
206.7022911574118
 30
0.0
 10
1.230659367719522
 20
216.8115105177513
 30
0.0
 10
-10.07269598564724
 20
232.5315556596203
 30
0.0
 10
-10.18151250121002
 20
232.6828912966563
 30
0.0
 10
-10.39240748423457
 20
232.717359854044
 30
0.0
 10
-10.54374311718747
 20
232.6085433414173
 30
0.0
 10
-10.67413654829485
 20
232.514785128856
 30
0.0
 10
-10.72039975862955
 20
232.3421284670742
 30
0.0
 10
-10.65435483672223
 20
232.1957347595973
 30
0.0
 10
-2.692074073976311
 20
214.54671930923
 30
0.0
 10
-2.69207407397599
 20
194.3282805885501
 30
0.0
 10
-10.65435483878979
 20
176.679265133598
 30
0.0
 10
-10.73100708717981
 20
176.5093594482512
 30
0.0
 10
-10.65541024199692
 20
176.3094847567277
 30
0.0
 10
-10.48550456123451
 20
176.2328325104056
 30
0.0
 10
-10.33911085178941
 20
176.1667875928612
 30
0.0
 10
-10.16645419138604
 20
176.2130508083416
 30
0.0
 10
-10.07269598271082
 20
176.343444242243
 30
0.0
 10
1.230659367719522
 20
192.0634893800298
 30
0.0
 10
18.74034092468833
 20
202.1727087403699
 30
0.0
 10
38.00597704787317
 20
204.1016790539539
 30
0.0
  0
ENDBLK
  5
DA
330
D7
100
AcDbEntity
  8
0
100
AcDbBlockEnd
  0
BLOCK
  5
DE
330
DC
100
AcDbEntity
  8
0
100
AcDbBlockBegin
  2
BLOCK_33
 70
     0
 10
0.0
 20
0.0
 30
0.0
  3
BLOCK_33
  1

  0
SPLINE
  5
E0
330
DC
100
AcDbEntity
  8
CUT
100
AcDbSpline
210
0.0
220
0.0
230
1.0
 70
    11
 71
     3
 72
    32
 73
    28
 74
     0
 42
0.0000000001
 43
0.0000000001
 12
1.0
 22
0.0
 32
0.0
 13
1.0
 23
0.0
 33
0.0
 40
0.0
 40
0.0
 40
0.0
 40
0.0
 40
1.0
 40
1.0
 40
1.0
 40
2.0
 40
2.0
 40
2.0
 40
3.0
 40
3.0
 40
3.0
 40
4.0
 40
4.0
 40
4.0
 40
5.0
 40
5.0
 40
5.0
 40
6.0
 40
6.0
 40
6.0
 40
7.0
 40
7.0
 40
7.0
 40
8.0
 40
8.0
 40
8.0
 40
9.0
 40
9.0
 40
9.0
 40
9.0
 10
41.07755171154499
 20
210.0934442297216
 30
0.0
 10
41.18636822191642
 20
209.9421085951471
 30
0.0
 10
41.39726320442794
 20
209.9076400346163
 30
0.0
 10
41.54859883900306
 20
210.0164565449884
 30
0.0
 10
41.67899227150741
 20
210.1102147556067
 30
0.0
 10
41.72525548441532
 20
210.2828714166996
 30
0.0
 10
41.65921056468882
 20
210.429265125161
 30
0.0
 10
33.6969297998747
 20
228.0782805801128
 30
0.0
 10
33.69692979987374
 20
248.2967193007924
 30
0.0
 10
41.65921056468722
 20
265.9457347557449
 30
0.0
 10
41.73586281354087
 20
266.1156404353654
 30
0.0
 10
41.6602659713361
 20
266.3155151280157
 30
0.0
 10
41.49036029171528
 20
266.3921673768694
 30
0.0
 10
41.34396658325454
 20
266.4582122965955
 30
0.0
 10
41.17130992216167
 20
266.4119490836873
 30
0.0
 10
41.07755171154339
 20
266.2815556511833
 30
0.0
 10
29.77419635817823
 20
250.5615105093147
 30
0.0
 10
12.26451480121103
 20
240.4522911489752
 30
0.0
 10
-7.001121316968245
 20
238.5233208358923
 30
0.0
 10
-7.186590076193651
 20
238.5047507908469
 30
0.0
 10
-7.321888216500401
 20
238.339344658727
 30
0.0
 10
-7.303318171455325
 20
238.1538758995016
 30
0.0
 10
-7.287317895498955
 20
237.9940727691571
 30
0.0
 10
-7.16092444731431
 20
237.8676793209719
 30
0.0
 10
-7.001121316969849
 20
237.8516790450148
 30
0.0
 10
12.26451480121071
 20
235.9227087319319
 30
0.0
 10
29.77419635817887
 20
225.8134893715918
 30
0.0
 10
41.07755171154499
 20
210.0934442297216
 30
0.0
  0
ENDBLK
  5
DF
330
DC
100
AcDbEntity
  8
0
100
AcDbBlockEnd
  0
BLOCK
  5
E3
330
E1
100
AcDbEntity
  8
0
100
AcDbBlockBegin
  2
BLOCK_34
 70
     0
 10
0.0
 20
0.0
 30
0.0
  3
BLOCK_34
  1

  0
SPLINE
  5
E5
330
E1
100
AcDbEntity
  8
CUT
100
AcDbSpline
210
0.0
220
0.0
230
1.0
 70
    11
 71
     3
 72
    32
 73
    28
 74
     0
 42
0.0000000001
 43
0.0000000001
 12
1.0
 22
0.0
 32
0.0
 13
1.0
 23
0.0
 33
0.0
 40
0.0
 40
0.0
 40
0.0
 40
0.0
 40
1.0
 40
1.0
 40
1.0
 40
2.0
 40
2.0
 40
2.0
 40
3.0
 40
3.0
 40
3.0
 40
4.0
 40
4.0
 40
4.0
 40
5.0
 40
5.0
 40
5.0
 40
6.0
 40
6.0
 40
6.0
 40
7.0
 40
7.0
 40
7.0
 40
8.0
 40
8.0
 40
8.0
 40
9.0
 40
9.0
 40
9.0
 40
9.0
 10
96.46269178870914
 20
170.351679062391
 30
0.0
 10
96.64816054765733
 20
170.3702491102008
 30
0.0
 10
96.78345868549899
 20
170.5356552443372
 30
0.0
 10
96.76488863768915
 20
170.721124003286
 30
0.0
 10
96.74888835935079
 20
170.8809271333918
 30
0.0
 10
96.62249490928211
 20
171.007320579693
 30
0.0
 10
96.46269177869927
 20
171.0233208532681
 30
0.0
 10
77.19705566552364
 20
172.9522911658495
 30
0.0
 10
59.68737410855515
 20
183.0615105261887
 30
0.0
 10
48.38401875518872
 20
198.7815556680576
 30
0.0
 10
48.27520224481696
 20
198.9328913026324
 30
0.0
 10
48.06430726230577
 20
198.9673598631625
 30
0.0
 10
47.9129716277313
 20
198.8585433527911
 30
0.0
 10
47.78257819522694
 20
198.7647851421728
 30
0.0
 10
47.73631498231903
 20
198.5921284810806
 30
0.0
 10
47.8023599020452
 20
198.4457347726192
 30
0.0
 10
55.76464066685932
 20
180.7967193176674
 30
0.0
 10
55.76464066685964
 20
160.5782805969877
 30
0.0
 10
47.80235990204617
 20
142.9292651420356
 30
0.0
 10
47.72570765365646
 20
142.7593594566889
 30
0.0
 10
47.80130449883904
 20
142.5594847651651
 30
0.0
 10
47.97121017960145
 20
142.4828325188432
 30
0.0
 10
48.11760388904622
 20
142.4167876012985
 30
0.0
 10
48.29026054944959
 20
142.463050816779
 30
0.0
 10
48.38401875812481
 20
142.5934442506803
 30
0.0
 10
59.68737410855515
 20
158.3134893884671
 30
0.0
 10
77.19705566552396
 20
168.4227087488069
 30
0.0
 10
96.46269178870914
 20
170.351679062391
 30
0.0
  0
ENDBLK
  5
E4
330
E1
100
AcDbEntity
  8
0
100
AcDbBlockEnd
  0
BLOCK
  5
E8
330
E6
100
AcDbEntity
  8
0
100
AcDbBlockBegin
  2
BLOCK_35
 70
     0
 10
0.0
 20
0.0
 30
0.0
  3
BLOCK_35
  1

  0
SPLINE
  5
EA
330
E6
100
AcDbEntity
  8
CUT
100
AcDbSpline
210
0.0
220
0.0
230
1.0
 70
    11
 71
     3
 72
    32
 73
    28
 74
     0
 42
0.0000000001
 43
0.0000000001
 12
1.0
 22
0.0
 32
0.0
 13
1.0
 23
0.0
 33
0.0
 40
0.0
 40
0.0
 40
0.0
 40
0.0
 40
1.0
 40
1.0
 40
1.0
 40
2.0
 40
2.0
 40
2.0
 40
3.0
 40
3.0
 40
3.0
 40
4.0
 40
4.0
 40
4.0
 40
5.0
 40
5.0
 40
5.0
 40
6.0
 40
6.0
 40
6.0
 40
7.0
 40
7.0
 40
7.0
 40
8.0
 40
8.0
 40
8.0
 40
9.0
 40
9.0
 40
9.0
 40
9.0
 10
-20.45073769796803
 20
102.8516790787654
 30
0.0
 10
-20.26526893874295
 20
102.8702491238111
 30
0.0
 10
-20.12997079843652
 20
103.0356552559316
 30
0.0
 10
-20.14854084348256
 20
103.2211240151567
 30
0.0
 10
-20.16454111943989
 20
103.3809271455012
 30
0.0
 10
-20.29093456762518
 20
103.5073205936858
 30
0.0
 10
-20.45073769796964
 20
103.5233208696422
 30
0.0
 10
-39.71637381614827
 20
105.4522911827251
 30
0.0
 10
-57.22605537311483
 20
115.5615105430646
 30
0.0
 10
-68.52941072647967
 20
131.2815556849332
 30
0.0
 10
-68.63822723685142
 20
131.4328913195076
 30
0.0
 10
-68.84912221936261
 20
131.4673598800378
 30
0.0
 10
-69.00045785393677
 20
131.3585433696663
 30
0.0
 10
-69.1308512864408
 20
131.264785159048
 30
0.0
 10
-69.17711449934872
 20
131.0921284979555
 30
0.0
 10
-69.11106957962285
 20
130.9457347894948
 30
0.0
 10
-61.1487888148097
 20
113.296719334542
 30
0.0
 10
-61.14878881481066
 20
93.07828061386267
 30
0.0
 10
-69.1110695796251
 20
75.42926515891054
 30
0.0
 10
-69.18772182847876
 20
75.25935947929099
 30
0.0
 10
-69.11212498627462
 20
75.05948478664097
 30
0.0
 10
-68.94221930665508
 20
74.98283253778764
 30
0.0
 10
-68.79582559819467
 20
74.91678761806114
 30
0.0
 10
-68.62316893710212
 20
74.96305083096873
 30
0.0
 10
-68.52941072648416
 20
75.09344426347212
 30
0.0
 10
-57.22605455167653
 20
90.81349005354436
 30
0.0
 10
-39.71637284406856
 20
100.92270915297
 30
0.0
 10
-20.45073769796803
 20
102.8516790787654
 30
0.0
  0
ENDBLK
  5
E9
330
E6
100
AcDbEntity
  8
0
100
AcDbBlockEnd
  0
BLOCK
  5
ED
330
EB
100
AcDbEntity
  8
0
100
AcDbBlockBegin
  2
BLOCK_36
 70
     0
 10
0.0
 20
0.0
 30
0.0
  3
BLOCK_36
  1

  0
SPLINE
  5
EF
330
EB
100
AcDbEntity
  8
CUT
100
AcDbSpline
210
0.0
220
0.0
230
1.0
 70
    11
 71
     3
 72
    32
 73
    28
 74
     0
 42
0.0000000001
 43
0.0000000001
 12
1.0
 22
0.0
 32
0.0
 13
1.0
 23
0.0
 33
0.0
 40
0.0
 40
0.0
 40
0.0
 40
0.0
 40
1.0
 40
1.0
 40
1.0
 40
2.0
 40
2.0
 40
2.0
 40
3.0
 40
3.0
 40
3.0
 40
4.0
 40
4.0
 40
4.0
 40
5.0
 40
5.0
 40
5.0
 40
6.0
 40
6.0
 40
6.0
 40
7.0
 40
7.0
 40
7.0
 40
8.0
 40
8.0
 40
8.0
 40
9.0
 40
9.0
 40
9.0
 40
9.0
 10
41.65921056468722
 20
130.9457347894964
 30
0.0
 10
41.73586281354087
 20
131.1156404691166
 30
0.0
 10
41.66026597133642
 20
131.3155151617669
 30
0.0
 10
41.49036029171592
 20
131.3921674106202
 30
0.0
 10
41.34396658325519
 20
131.4582123303464
 30
0.0
 10
41.17130992216263
 20
131.4119491174385
 30
0.0
 10
41.07755171154467
 20
131.2815556849348
 30
0.0
 10
29.77419635818048
 20
115.5615105430655
 30
0.0
 10
12.26451480121456
 20
105.4522911827251
 30
0.0
 10
-7.001121316964074
 20
103.5233208696412
 30
0.0
 10
-7.186590076188838
 20
103.5047508245965
 30
0.0
 10
-7.321888216496551
 20
103.3393446924772
 30
0.0
 10
-7.303318171451475
 20
103.1538759332524
 30
0.0
 10
-7.287317895496067
 20
102.9940728029077
 30
0.0
 10
-7.160924447312063
 20
102.8676793547221
 30
0.0
 10
-7.001121316967924
 20
102.8516790787641
 30
0.0
 10
12.26451480121167
 20
100.9227087656815
 30
0.0
 10
29.77419635817919
 20
90.81348940534106
 30
0.0
 10
41.07755171154499
 20
75.09344426347212
 30
0.0
 10
41.18636822191642
 20
74.94210862889702
 30
0.0
 10
41.39726320442794
 20
74.90764006836656
 30
0.0
 10
41.54859883900274
 20
75.01645657873833
 30
0.0
 10
41.67899227150709
 20
75.11021478935596
 30
0.0
 10
41.72525548441532
 20
75.2828714504498
 30
0.0
 10
41.65921056468882
 20
75.42926515891054
 30
0.0
 10
33.69692979987406
 20
93.07828061386267
 30
0.0
 10
33.69692979987342
 20
113.2967193345436
 30
0.0
 10
41.65921056468722
 20
130.9457347894964
 30
0.0
  0
ENDBLK
  5
EE
330
EB
100
AcDbEntity
  8
0
100
AcDbBlockEnd
  0
BLOCK
  5
F2
330
F0
100
AcDbEntity
  8
0
100
AcDbBlockBegin
  2
BLOCK_37
 70
     0
 10
0.0
 20
0.0
 30
0.0
  3
BLOCK_37
  1

  0
SPLINE
  5
F4
330
F0
100
AcDbEntity
  8
CUT
100
AcDbSpline
210
0.0
220
0.0
230
1.0
 70
    11
 71
     3
 72
    32
 73
    28
 74
     0
 42
0.0000000001
 43
0.0000000001
 12
1.0
 22
0.0
 32
0.0
 13
1.0
 23
0.0
 33
0.0
 40
0.0
 40
0.0
 40
0.0
 40
0.0
 40
1.0
 40
1.0
 40
1.0
 40
2.0
 40
2.0
 40
2.0
 40
3.0
 40
3.0
 40
3.0
 40
4.0
 40
4.0
 40
4.0
 40
5.0
 40
5.0
 40
5.0
 40
6.0
 40
6.0
 40
6.0
 40
7.0
 40
7.0
 40
7.0
 40
8.0
 40
8.0
 40
8.0
 40
9.0
 40
9.0
 40
9.0
 40
9.0
 10
-16.79750417614521
 20
97.19573479793368
 30
0.0
 10
-16.72085192729188
 20
97.3656404775545
 30
0.0
 10
-16.79644876949697
 20
97.56551517020517
 30
0.0
 10
-16.96635444911811
 20
97.6421674190585
 30
0.0
 10
-17.11274815757981
 20
97.708212338785
 30
0.0
 10
-17.285404818673
 20
97.66194912587677
 30
0.0
 10
-17.37916302929096
 20
97.53155569337208
 30
0.0
 10
-28.68251838265548
 20
81.81151055150316
 30
0.0
 10
-46.19219993962204
 20
71.7022911911627
 30
0.0
 10
-65.45783605780099
 20
69.77332087807885
 30
0.0
 10
-65.6433048170264
 20
69.75475083303378
 30
0.0
 10
-65.77860295733348
 20
69.5893447009142
 30
0.0
 10
-65.76003291228807
 20
69.40387594168911
 30
0.0
 10
-65.74403263633202
 20
69.24407281134562
 30
0.0
 10
-65.61763918814769
 20
69.11767936316001
 30
0.0
 10
-65.45783605780356
 20
69.10167908720203
 30
0.0
 10
-46.192199939623
 20
67.17270877411946
 30
0.0
 10
-28.68251838265452
 20
57.06348941377965
 30
0.0
 10
-17.37916302928776
 20
41.34344427191008
 30
0.0
 10
-17.27034651891632
 20
41.19210863733561
 30
0.0
 10
-17.05945153640609
 20
41.15764007680516
 30
0.0
 10
-16.90811590183162
 20
41.26645658717692
 30
0.0
 10
-16.7777224693279
 20
41.3602147977952
 30
0.0
 10
-16.73145925642063
 20
41.53287145888712
 30
0.0
 10
-16.79750417614681
 20
41.67926516734784
 30
0.0
 10
-24.75978494096061
 20
59.32828062230127
 30
0.0
 10
-24.75978494095997
 20
79.54671934298153
 30
0.0
 10
-16.79750417614521
 20
97.19573479793368
 30
0.0
  0
ENDBLK
  5
F3
330
F0
100
AcDbEntity
  8
0
100
AcDbBlockEnd
  0
BLOCK
  5
F7
330
F5
100
AcDbEntity
  8
0
100
AcDbBlockBegin
  2
BLOCK_38
 70
     0
 10
0.0
 20
0.0
 30
0.0
  3
BLOCK_38
  1

  0
SPLINE
  5
F9
330
F5
100
AcDbEntity
  8
CUT
100
AcDbSpline
210
0.0
220
0.0
230
1.0
 70
    11
 71
     3
 72
    32
 73
    28
 74
     0
 42
0.0000000001
 43
0.0000000001
 12
1.0
 22
0.0
 32
0.0
 13
1.0
 23
0.0
 33
0.0
 40
0.0
 40
0.0
 40
0.0
 40
0.0
 40
1.0
 40
1.0
 40
1.0
 40
2.0
 40
2.0
 40
2.0
 40
3.0
 40
3.0
 40
3.0
 40
4.0
 40
4.0
 40
4.0
 40
5.0
 40
5.0
 40
5.0
 40
6.0
 40
6.0
 40
6.0
 40
7.0
 40
7.0
 40
7.0
 40
8.0
 40
8.0
 40
8.0
 40
9.0
 40
9.0
 40
9.0
 40
9.0
 10
-10.07269598564692
 20
97.53155569337208
 30
0.0
 10
-10.18151249601867
 20
97.68289132794656
 30
0.0
 10
-10.39240747852987
 20
97.71735988847828
 30
0.0
 10
-10.54374311310498
 20
97.60854337810653
 30
0.0
 10
-10.67413654560934
 20
97.5147851674876
 30
0.0
 10
-10.72039975851725
 20
97.34212850639506
 30
0.0
 10
-10.65435483879107
 20
97.19573479793368
 30
0.0
 10
-2.692074073976631
 20
79.54671934298219
 30
0.0
 10
-2.69207407397599
 20
59.32828062230191
 30
0.0
 10
-10.65435483878979
 20
41.67926516734913
 30
0.0
 10
-10.73100708764312
 20
41.5093594877283
 30
0.0
 10
-10.65541024543835
 20
41.30948479507764
 30
0.0
 10
-10.48550456581784
 20
41.23283254622431
 30
0.0
 10
-10.33911085735679
 20
41.16678762649845
 30
0.0
 10
-10.16645419626392
 20
41.21305083940668
 30
0.0
 10
-10.07269598564563
 20
41.34344427191072
 30
0.0
 10
1.230659367720805
 20
57.06348941378029
 30
0.0
 10
18.74034092468897
 20
67.17270877412011
 30
0.0
 10
38.00597704286889
 20
69.10167908720203
 30
0.0
 10
38.19144580682169
 20
69.12024913551336
 30
0.0
 10
38.32674394466303
 20
69.2856552696498
 30
0.0
 10
38.30817389685352
 20
69.47112402859831
 30
0.0
 10
38.29217361851516
 20
69.63092715870373
 30
0.0
 10
38.16578016844616
 20
69.75732060500532
 30
0.0
 10
38.00597703786363
 20
69.77332087858002
 30
0.0
 10
18.74034092468704
 20
71.70229119116206
 30
0.0
 10
1.23065936771888
 20
81.81151055150252
 30
0.0
 10
-10.07269598564692
 20
97.53155569337208
 30
0.0
  0
ENDBLK
  5
F8
330
F5
100
AcDbEntity
  8
0
100
AcDbBlockEnd
  0
BLOCK
  5
FC
330
FA
100
AcDbEntity
  8
0
100
AcDbBlockBegin
  2
BLOCK_39
 70
     0
 10
0.0
 20
0.0
 30
0.0
  3
BLOCK_39
  1

  0
SPLINE
  5
FE
330
FA
100
AcDbEntity
  8
CUT
100
AcDbSpline
210
0.0
220
0.0
230
1.0
 70
    11
 71
     3
 72
    32
 73
    28
 74
     0
 42
0.0000000001
 43
0.0000000001
 12
1.0
 22
0.0
 32
0.0
 13
1.0
 23
0.0
 33
0.0
 40
0.0
 40
0.0
 40
0.0
 40
0.0
 40
1.0
 40
1.0
 40
1.0
 40
2.0
 40
2.0
 40
2.0
 40
3.0
 40
3.0
 40
3.0
 40
4.0
 40
4.0
 40
4.0
 40
5.0
 40
5.0
 40
5.0
 40
6.0
 40
6.0
 40
6.0
 40
7.0
 40
7.0
 40
7.0
 40
8.0
 40
8.0
 40
8.0
 40
9.0
 40
9.0
 40
9.0
 40
9.0
 10
-68.52941072648255
 20
63.78155570181004
 30
0.0
 10
-68.638227236854
 20
63.93289133638387
 30
0.0
 10
-68.84912221936486
 20
63.96735989691368
 30
0.0
 10
-69.00045785393868
 20
63.85854338654192
 30
0.0
 10
-69.13085128644241
 20
63.76478517592427
 30
0.0
 10
-69.17711449934967
 20
63.59212851483236
 30
0.0
 10
-69.11106957962382
 20
63.44573480637163
 30
0.0
 10
-61.14878881480906
 20
45.79671935141885
 30
0.0
 10
-61.14878881480874
 20
25.57828063073987
 30
0.0
 10
-69.11106957962221
 20
7.929265175787081
 30
0.0
 10
-69.18772182847586
 20
7.759359496167535
 30
0.0
 10
-69.11212498627206
 20
7.559484803517513
 30
0.0
 10
-68.94221930665283
 20
7.482832554664185
 30
0.0
 10
-68.79582559819308
 20
7.416787634938328
 30
0.0
 10
-68.62316893710116
 20
7.463050847845277
 30
0.0
 10
-68.52941072648319
 20
7.59344428034803
 30
0.0
 10
-57.22605537311643
 20
23.31348942221696
 30
0.0
 10
-39.71637381614827
 20
33.42270878255678
 30
0.0
 10
-20.45073769796803
 20
35.35167909563999
 30
0.0
 10
-20.26526893874295
 20
35.3702491406857
 30
0.0
 10
-20.12997079843652
 20
35.53565527280657
 30
0.0
 10
-20.14854084348288
 20
35.72112403203165
 30
0.0
 10
-20.16454111944021
 20
35.88092716237578
 30
0.0
 10
-20.2909345676255
 20
36.00732061056011
 30
0.0
 10
-20.45073769796964
 20
36.02332088651681
 30
0.0
 10
-39.71637381614956
 20
37.95229119959937
 30
0.0
 10
-57.22605537311708
 20
48.06151055993983
 30
0.0
 10
-68.52941072648255
 20
63.78155570181004
 30
0.0
  0
ENDBLK
  5
FD
330
FA
100
AcDbEntity
  8
0
100
AcDbBlockEnd
  0
BLOCK
  5
101
330
FF
100
AcDbEntity
  8
0
100
AcDbBlockBegin
  2
BLOCK_40
 70
     0
 10
0.0
 20
0.0
 30
0.0
  3
BLOCK_40
  1

  0
SPLINE
  5
103
330
FF
100
AcDbEntity
  8
CUT
100
AcDbSpline
210
0.0
220
0.0
230
1.0
 70
    11
 71
     3
 72
    32
 73
    28
 74
     0
 42
0.0000000001
 43
0.0000000001
 12
1.0
 22
0.0
 32
0.0
 13
1.0
 23
0.0
 33
0.0
 40
0.0
 40
0.0
 40
0.0
 40
0.0
 40
1.0
 40
1.0
 40
1.0
 40
2.0
 40
2.0
 40
2.0
 40
3.0
 40
3.0
 40
3.0
 40
4.0
 40
4.0
 40
4.0
 40
5.0
 40
5.0
 40
5.0
 40
6.0
 40
6.0
 40
6.0
 40
7.0
 40
7.0
 40
7.0
 40
8.0
 40
8.0
 40
8.0
 40
9.0
 40
9.0
 40
9.0
 40
9.0
 10
-65.45783605780387
 20
2.273320894954115
 30
0.0
 10
-65.64330481702929
 20
2.25475084990904
 30
0.0
 10
-65.77860295733636
 20
2.089344717788821
 30
0.0
 10
-65.76003291229097
 20
1.903875958564378
 30
0.0
 10
-65.7440326363346
 20
1.744072828220238
 30
0.0
 10
-65.61763918814994
 20
1.61767938003463
 30
0.0
 10
-65.4578360578058
 20
1.601679104077297
 30
0.0
 10
-46.19219993962461
 20
-0.3272912090046312
 30
0.0
 10
-28.68251838265516
 20
-10.43651056934509
 30
0.0
 10
-17.37916302928776
 20
-26.15655571121466
 30
0.0
 10
-17.27034651891632
 20
-26.30789134578784
 30
0.0
 10
-17.05945153640609
 20
-26.34235990631765
 30
0.0
 10
-16.90811590183194
 20
-26.23354339594653
 30
0.0
 10
-16.77772246932854
 20
-26.13978518532825
 30
0.0
 10
-16.73145925642127
 20
-25.96712852423569
 30
0.0
 10
-16.79750417614745
 20
-25.82073481577625
 30
0.0
 10
-24.75978494096061
 20
-8.171719360823467
 30
0.0
 10
-24.75978494095997
 20
12.0467193598568
 30
0.0
 10
-16.79750417614521
 20
29.69573481480894
 30
0.0
 10
-16.72085192729188
 20
29.86564049442977
 30
0.0
 10
-16.79644876949697
 20
30.06551518708108
 30
0.0
 10
-16.96635444911811
 20
30.14216743593441
 30
0.0
 10
-17.11274815757981
 20
30.20821235565962
 30
0.0
 10
-17.285404818673
 20
30.16194914275139
 30
0.0
 10
-17.37916302929096
 20
30.03155571024671
 30
0.0
 10
-28.68251838265676
 20
14.31151056837714
 30
0.0
 10
-46.19219993962428
 20
4.202291208037327
 30
0.0
 10
-65.45783605780387
 20
2.273320894954115
 30
0.0
  0
ENDBLK
  5
102
330
FF
100
AcDbEntity
  8
0
100
AcDbBlockEnd
  0
BLOCK
  5
106
330
104
100
AcDbEntity
  8
0
100
AcDbBlockBegin
  2
BLOCK_41
 70
     0
 10
0.0
 20
0.0
 30
0.0
  3
BLOCK_41
  1

  0
SPLINE
  5
108
330
104
100
AcDbEntity
  8
CUT
100
AcDbSpline
210
0.0
220
0.0
230
1.0
 70
    11
 71
     3
 72
    32
 73
    28
 74
     0
 42
0.0000000001
 43
0.0000000001
 12
1.0
 22
0.0
 32
0.0
 13
1.0
 23
0.0
 33
0.0
 40
0.0
 40
0.0
 40
0.0
 40
0.0
 40
1.0
 40
1.0
 40
1.0
 40
2.0
 40
2.0
 40
2.0
 40
3.0
 40
3.0
 40
3.0
 40
4.0
 40
4.0
 40
4.0
 40
5.0
 40
5.0
 40
5.0
 40
6.0
 40
6.0
 40
6.0
 40
7.0
 40
7.0
 40
7.0
 40
8.0
 40
8.0
 40
8.0
 40
9.0
 40
9.0
 40
9.0
 40
9.0
 10
-10.07269598564692
 20
30.03155571024671
 30
0.0
 10
-10.18151249601867
 20
30.18289134482247
 30
0.0
 10
-10.39240747853019
 20
30.21735990535291
 30
0.0
 10
-10.54374311310498
 20
30.10854339498051
 30
0.0
 10
-10.67413654560934
 20
30.01478518436287
 30
0.0
 10
-10.72039975851725
 20
29.84212852326967
 30
0.0
 10
-10.65435483879107
 20
29.69573481480894
 30
0.0
 10
-2.692074073976631
 20
12.04671935985616
 30
0.0
 10
-2.692074073976311
 20
-8.171719360823467
 30
0.0
 10
-10.65435483878979
 20
-25.82073481577625
 30
0.0
 10
-10.73100708764312
 20
-25.99064049539708
 30
0.0
 10
-10.65541024543835
 20
-26.1905151880471
 30
0.0
 10
-10.48550456581752
 20
-26.26716743690043
 30
0.0
 10
-10.33911085735679
 20
-26.33321235662628
 30
0.0
 10
-10.16645419626392
 20
-26.28694914371805
 30
0.0
 10
-10.07269598564563
 20
-26.15655571121402
 30
0.0
 10
1.230659367720805
 20
-10.43651056934509
 30
0.0
 10
18.74034092468897
 20
-0.3272912090052729
 30
0.0
 10
38.00597704286889
 20
1.601679104077297
 30
0.0
 10
38.19144580682169
 20
1.620249152387979
 30
0.0
 10
38.32674394466303
 20
1.785655286524415
 30
0.0
 10
38.30817389685352
 20
1.971124045472928
 30
0.0
 10
38.29217361851516
 20
2.130927175578997
 30
0.0
 10
38.16578016844616
 20
2.257320621879936
 30
0.0
 10
38.00597703786363
 20
2.273320895455282
 30
0.0
 10
18.74033995260669
 20
4.202291595324515
 30
0.0
 10
1.230658546278015
 20
14.3115112165798
 30
0.0
 10
-10.07269598564692
 20
30.03155571024671
 30
0.0
  0
ENDBLK
  5
107
330
104
100
AcDbEntity
  8
0
100
AcDbBlockEnd
  0
BLOCK
  5
10B
330
109
100
AcDbEntity
  8
0
100
AcDbBlockBegin
  2
BLOCK_42
 70
     0
 10
0.0
 20
0.0
 30
0.0
  3
BLOCK_42
  1

  0
SPLINE
  5
10D
330
109
100
AcDbEntity
  8
CUT
100
AcDbSpline
210
0.0
220
0.0
230
1.0
 70
    11
 71
     3
 72
    32
 73
    28
 74
     0
 42
0.0000000001
 43
0.0000000001
 12
1.0
 22
0.0
 32
0.0
 13
1.0
 23
0.0
 33
0.0
 40
0.0
 40
0.0
 40
0.0
 40
0.0
 40
1.0
 40
1.0
 40
1.0
 40
2.0
 40
2.0
 40
2.0
 40
3.0
 40
3.0
 40
3.0
 40
4.0
 40
4.0
 40
4.0
 40
5.0
 40
5.0
 40
5.0
 40
6.0
 40
6.0
 40
6.0
 40
7.0
 40
7.0
 40
7.0
 40
8.0
 40
8.0
 40
8.0
 40
9.0
 40
9.0
 40
9.0
 40
9.0
 10
-7.001121316968245
 20
36.02332088651681
 30
0.0
 10
-7.186590076193651
 20
36.00475084147109
 30
0.0
 10
-7.321888216500401
 20
35.83934470935215
 30
0.0
 10
-7.303318171455325
 20
35.65387595012643
 30
0.0
 10
-7.287317895499275
 20
35.49407281978228
 30
0.0
 10
-7.16092444731463
 20
35.36767937159668
 30
0.0
 10
-7.00112131697017
 20
35.35167909563999
 30
0.0
 10
12.26451480121039
 20
33.42270878255678
 30
0.0
 10
29.77419635817855
 20
23.31348942221696
 30
0.0
 10
41.07755171154499
 20
7.59344428034803
 30
0.0
 10
41.18636822191674
 20
7.442108645773559
 30
0.0
 10
41.39726320442794
 20
7.407640085243114
 30
0.0
 10
41.54859883900274
 20
7.516456595615513
 30
0.0
 10
41.67899227150677
 20
7.610214806233154
 30
0.0
 10
41.72525548441436
 20
7.782871467325711
 30
0.0
 10
41.65921056468818
 20
7.929265175787081
 30
0.0
 10
33.69692979987406
 20
25.57828063073922
 30
0.0
 10
33.69692979987374
 20
45.79671935141821
 30
0.0
 10
41.65921056468722
 20
63.44573480637099
 30
0.0
 10
41.73586281307724
 20
63.61564049171706
 30
0.0
 10
41.66026596789435
 20
63.81551518324154
 30
0.0
 10
41.49036028713194
 20
63.89216742956337
 30
0.0
 10
41.34396657768716
 20
63.95821234710809
 30
0.0
 10
41.17130991728379
 20
63.91194913162729
 30
0.0
 10
41.07755170860857
 20
63.78155569772691
 30
0.0
 10
29.77419635817919
 20
48.06151055993983
 30
0.0
 10
12.26451480121167
 20
37.95229119959937
 30
0.0
 10
-7.001121316968245
 20
36.02332088651681
 30
0.0
  0
ENDBLK
  5
10C
330
109
100
AcDbEntity
  8
0
100
AcDbBlockEnd
  0
BLOCK
  5
110
330
10E
100
AcDbEntity
  8
0
100
AcDbBlockBegin
  2
BLOCK_43
 70
     0
 10
0.0
 20
0.0
 30
0.0
  3
BLOCK_43
  1

  0
SPLINE
  5
112
330
10E
100
AcDbEntity
  8
CUT
100
AcDbSpline
210
0.0
220
0.0
230
1.0
 70
    11
 71
     3
 72
    32
 73
    28
 74
     0
 42
0.0000000001
 43
0.0000000001
 12
1.0
 22
0.0
 32
0.0
 13
1.0
 23
0.0
 33
0.0
 40
0.0
 40
0.0
 40
0.0
 40
0.0
 40
1.0
 40
1.0
 40
1.0
 40
2.0
 40
2.0
 40
2.0
 40
3.0
 40
3.0
 40
3.0
 40
4.0
 40
4.0
 40
4.0
 40
5.0
 40
5.0
 40
5.0
 40
6.0
 40
6.0
 40
6.0
 40
7.0
 40
7.0
 40
7.0
 40
8.0
 40
8.0
 40
8.0
 40
9.0
 40
9.0
 40
9.0
 40
9.0
 10
48.38401875518872
 20
63.78155570181004
 30
0.0
 10
48.27520224481696
 20
63.93289133638451
 30
0.0
 10
48.06430726230545
 20
63.96735989691496
 30
0.0
 10
47.91297162773098
 20
63.8585433865432
 30
0.0
 10
47.78257819522662
 20
63.76478517592492
 30
0.0
 10
47.73631498231838
 20
63.59212851483236
 30
0.0
 10
47.80235990204456
 20
63.44573480637099
 30
0.0
 10
55.764640666859
 20
45.79671935141885
 30
0.0
 10
55.76464066685964
 20
25.57828063073922
 30
0.0
 10
47.80235990204584
 20
7.929265175787081
 30
0.0
 10
47.72570765319252
 20
7.759359496166251
 30
0.0
 10
47.80130449539728
 20
7.559484803515588
 30
0.0
 10
47.97121017501811
 20
7.48283255466226
 30
0.0
 10
48.11760388347884
 20
7.416787634936403
 30
0.0
 10
48.29026054457172
 20
7.463050847843993
 30
0.0
 10
48.38401875519
 20
7.59344428034803
 30
0.0
 10
59.68737410855644
 20
23.31348942221696
 30
0.0
 10
77.1970556655246
 20
33.42270878255678
 30
0.0
 10
96.46269178370451
 20
35.35167909563999
 30
0.0
 10
96.64816054292993
 20
35.3702491406857
 30
0.0
 10
96.78345868323603
 20
35.53565527280592
 30
0.0
 10
96.76488863819
 20
35.72112403203165
 30
0.0
 10
96.74888836223299
 20
35.88092716237578
 30
0.0
 10
96.62249491404769
 20
36.00732061056011
 30
0.0
 10
96.46269178370324
 20
36.02332088651681
 30
0.0
 10
77.19705469344233
 20
37.95229158688785
 30
0.0
 10
59.687373287113
 20
48.06151120814184
 30
0.0
 10
48.38401875518872
 20
63.78155570181004
 30
0.0
  0
ENDBLK
  5
111
330
10E
100
AcDbEntity
  8
0
100
AcDbBlockEnd
  0
BLOCK
  5
115
330
113
100
AcDbEntity
  8
0
100
AcDbBlockBegin
  2
BLOCK_44
 70
     0
 10
0.0
 20
0.0
 30
0.0
  3
BLOCK_44
  1

  0
SPLINE
  5
117
330
113
100
AcDbEntity
  8
CUT
100
AcDbSpline
210
0.0
220
0.0
230
1.0
 70
    11
 71
     3
 72
    32
 73
    28
 74
     0
 42
0.0000000001
 43
0.0000000001
 12
1.0
 22
0.0
 32
0.0
 13
1.0
 23
0.0
 33
0.0
 40
0.0
 40
0.0
 40
0.0
 40
0.0
 40
1.0
 40
1.0
 40
1.0
 40
2.0
 40
2.0
 40
2.0
 40
3.0
 40
3.0
 40
3.0
 40
4.0
 40
4.0
 40
4.0
 40
5.0
 40
5.0
 40
5.0
 40
6.0
 40
6.0
 40
6.0
 40
7.0
 40
7.0
 40
7.0
 40
8.0
 40
8.0
 40
8.0
 40
9.0
 40
9.0
 40
9.0
 40
9.0
 10
41.65921056468722
 20
-4.054265176753744
 30
0.0
 10
41.73586281354087
 20
-3.884359497133556
 30
0.0
 10
41.66026597133642
 20
-3.684484804482893
 30
0.0
 10
41.49036029171592
 20
-3.607832555629565
 30
0.0
 10
41.34396658325519
 20
-3.541787635903066
 30
0.0
 10
41.17130992216295
 20
-3.588050848811298
 30
0.0
 10
41.07755171154467
 20
-3.718444281315334
 30
0.0
 10
29.77419635818048
 20
-19.43848942318427
 30
0.0
 10
12.26451480121456
 20
-29.54770878352472
 30
0.0
 10
-7.001121316964074
 20
-31.47667909660857
 30
0.0
 10
-7.186590080916235
 20
-31.49524914491861
 30
0.0
 10
-7.321888218759182
 20
-31.66065527905312
 30
0.0
 10
-7.30331817095063
 20
-31.84612403800164
 30
0.0
 10
-7.287317892613555
 20
-32.00592716810771
 30
0.0
 10
-7.160924442546165
 20
-32.13232061440993
 30
0.0
 10
-7.001121311963955
 20
-32.14832088798656
 30
0.0
 10
12.26451480121167
 20
-34.0772912005686
 30
0.0
 10
29.77419635817919
 20
-44.18651056090842
 30
0.0
 10
41.07755171154499
 20
-59.90655570277799
 30
0.0
 10
41.18636822191642
 20
-60.05789133735246
 30
0.0
 10
41.39726320442794
 20
-60.09235989788355
 30
0.0
 10
41.54859883900274
 20
-59.98354338751115
 30
0.0
 10
41.67899227150709
 20
-59.8897851768935
 30
0.0
 10
41.72525548441532
 20
-59.71712851580095
 30
0.0
 10
41.65921056468882
 20
-59.57073480733958
 30
0.0
 10
33.69692979987406
 20
-41.92171935238679
 30
0.0
 10
33.69692979987342
 20
-21.70328063170588
 30
0.0
 10
41.65921056468722
 20
-4.054265176753744
 30
0.0
  0
ENDBLK
  5
116
330
113
100
AcDbEntity
  8
0
100
AcDbBlockEnd
  0
BLOCK
  5
11A
330
118
100
AcDbEntity
  8
0
100
AcDbBlockBegin
  2
BLOCK_45
 70
     0
 10
0.0
 20
0.0
 30
0.0
  3
BLOCK_45
  1

  0
SPLINE
  5
11C
330
118
100
AcDbEntity
  8
CUT
100
AcDbSpline
210
0.0
220
0.0
230
1.0
 70
    11
 71
     3
 72
    32
 73
    28
 74
     0
 42
0.0000000001
 43
0.0000000001
 12
1.0
 22
0.0
 32
0.0
 13
1.0
 23
0.0
 33
0.0
 40
0.0
 40
0.0
 40
0.0
 40
0.0
 40
1.0
 40
1.0
 40
1.0
 40
2.0
 40
2.0
 40
2.0
 40
3.0
 40
3.0
 40
3.0
 40
4.0
 40
4.0
 40
4.0
 40
5.0
 40
5.0
 40
5.0
 40
6.0
 40
6.0
 40
6.0
 40
7.0
 40
7.0
 40
7.0
 40
8.0
 40
8.0
 40
8.0
 40
9.0
 40
9.0
 40
9.0
 40
9.0
 10
157.9909811932176
 20
142.5934442465968
 30
0.0
 10
158.0997977035893
 20
142.4421086120217
 30
0.0
 10
158.3106926861005
 20
142.4076400514913
 30
0.0
 10
158.4620283206756
 20
142.5164565618631
 30
0.0
 10
158.5924217531797
 20
142.6102147724813
 30
0.0
 10
158.6386849660879
 20
142.7828714335742
 30
0.0
 10
158.572640046362
 20
142.9292651420353
 30
0.0
 10
150.6103592815479
 20
160.5782805969871
 30
0.0
 10
150.6103592815473
 20
180.796719317667
 30
0.0
 10
158.5726400463601
 20
198.4457347726192
 30
0.0
 10
158.6492922952134
 20
198.61564045224
 30
0.0
 10
158.5736954530087
 20
198.8155151448907
 30
0.0
 10
158.4037897733891
 20
198.8921673937443
 30
0.0
 10
158.2573960649277
 20
198.9582123134702
 30
0.0
 10
158.0847394038352
 20
198.9119491005623
 30
0.0
 10
157.9909811932163
 20
198.7815556680586
 30
0.0
 10
146.6876258398505
 20
183.061510526189
 30
0.0
 10
129.1779442828817
 20
172.9522911658495
 30
0.0
 10
109.9123081647017
 20
171.0233208527666
 30
0.0
 10
109.726839405476
 20
171.0047508077202
 30
0.0
 10
109.5915412651702
 20
170.8393446756003
 30
0.0
 10
109.6101113102159
 20
170.6538759163749
 30
0.0
 10
109.6261115861733
 20
170.4940727860305
 30
0.0
 10
109.7525050343589
 20
170.3676793378458
 30
0.0
 10
109.9123081647037
 20
170.3516790618895
 30
0.0
 10
129.1779442828836
 20
168.4227087488069
 30
0.0
 10
146.6876258398517
 20
158.3134893884664
 30
0.0
 10
157.9909811932176
 20
142.5934442465968
 30
0.0
  0
ENDBLK
  5
11B
330
118
100
AcDbEntity
  8
0
100
AcDbBlockEnd
  0
BLOCK
  5
11F
330
11D
100
AcDbEntity
  8
0
100
AcDbBlockBegin
  2
BLOCK_46
 70
     0
 10
0.0
 20
0.0
 30
0.0
  3
BLOCK_46
  1

  0
SPLINE
  5
121
330
11D
100
AcDbEntity
  8
CUT
100
AcDbSpline
210
0.0
220
0.0
230
1.0
 70
    11
 71
     3
 72
    32
 73
    28
 74
     0
 42
0.0000000001
 43
0.0000000001
 12
1.0
 22
0.0
 32
0.0
 13
1.0
 23
0.0
 33
0.0
 40
0.0
 40
0.0
 40
0.0
 40
0.0
 40
1.0
 40
1.0
 40
1.0
 40
2.0
 40
2.0
 40
2.0
 40
3.0
 40
3.0
 40
3.0
 40
4.0
 40
4.0
 40
4.0
 40
5.0
 40
5.0
 40
5.0
 40
6.0
 40
6.0
 40
6.0
 40
7.0
 40
7.0
 40
7.0
 40
8.0
 40
8.0
 40
8.0
 40
9.0
 40
9.0
 40
9.0
 40
9.0
 10
213.3761212653745
 20
170.3516790618901
 30
0.0
 10
213.5615900245996
 20
170.3702491069349
 30
0.0
 10
213.6968881649067
 20
170.5356552390544
 30
0.0
 10
213.6783181198616
 20
170.7211239982798
 30
0.0
 10
213.6623178439055
 20
170.8809271286243
 30
0.0
 10
213.5359243957206
 20
171.0073205768099
 30
0.0
 10
213.3761212653764
 20
171.0233208527672
 30
0.0
 10
194.1104851471965
 20
172.9522911658495
 30
0.0
 10
176.6008035902283
 20
183.061510526189
 30
0.0
 10
165.2974482368613
 20
198.7815556680586
 30
0.0
 10
165.1886317264895
 20
198.932891302633
 30
0.0
 10
164.977736743979
 20
198.9673598631632
 30
0.0
 10
164.8264011094039
 20
198.8585433527914
 30
0.0
 10
164.6960076768998
 20
198.7647851421731
 30
0.0
 10
164.6497444639916
 20
198.5921284810806
 30
0.0
 10
164.7157893837181
 20
198.4457347726195
 30
0.0
 10
172.6780701485322
 20
180.7967193176677
 30
0.0
 10
172.6780701485328
 20
160.5782805969877
 30
0.0
 10
164.7157893837187
 20
142.9292651420353
 30
0.0
 10
164.6391371348654
 20
142.7593594624151
 30
0.0
 10
164.7147339770695
 20
142.5594847697647
 30
0.0
 10
164.8846396566904
 20
142.4828325209114
 30
0.0
 10
165.0310333651504
 20
142.4167876011852
 30
0.0
 10
165.2036900262436
 20
142.4630508140925
 30
0.0
 10
165.2974482368619
 20
142.5934442465968
 30
0.0
 10
176.6008035902271
 20
158.3134893884661
 30
0.0
 10
194.1104851471946
 20
168.4227087488066
 30
0.0
 10
213.3761212653745
 20
170.3516790618901
 30
0.0
  0
ENDBLK
  5
120
330
11D
100
AcDbEntity
  8
0
100
AcDbBlockEnd
  0
BLOCK
  5
124
330
122
100
AcDbEntity
  8
0
100
AcDbBlockBegin
  2
BLOCK_47
 70
     0
 10
0.0
 20
0.0
 30
0.0
  3
BLOCK_47
  1

  0
SPLINE
  5
126
330
122
100
AcDbEntity
  8
CUT
100
AcDbSpline
210
0.0
220
0.0
230
1.0
 70
    11
 71
     3
 72
    32
 73
    28
 74
     0
 42
0.0000000001
 43
0.0000000001
 12
1.0
 22
0.0
 32
0.0
 13
1.0
 23
0.0
 33
0.0
 40
0.0
 40
0.0
 40
0.0
 40
0.0
 40
1.0
 40
1.0
 40
1.0
 40
2.0
 40
2.0
 40
2.0
 40
3.0
 40
3.0
 40
3.0
 40
4.0
 40
4.0
 40
4.0
 40
5.0
 40
5.0
 40
5.0
 40
6.0
 40
6.0
 40
6.0
 40
7.0
 40
7.0
 40
7.0
 40
8.0
 40
8.0
 40
8.0
 40
9.0
 40
9.0
 40
9.0
 40
9.0
 10
216.4476959340532
 20
176.3434442381595
 30
0.0
 10
216.5565124444249
 20
176.1921086035844
 30
0.0
 10
216.7674074269361
 20
176.157640043054
 30
0.0
 10
216.9187430615112
 20
176.2664565534257
 30
0.0
 10
217.0491364940153
 20
176.360214764044
 30
0.0
 10
217.0953997069235
 20
176.5328714251372
 30
0.0
 10
217.0293547871977
 20
176.6792651335983
 30
0.0
 10
209.0670740223835
 20
194.3282805885501
 30
0.0
 10
209.0670740223829
 20
214.54671930923
 30
0.0
 10
217.0293547871957
 20
232.1957347641822
 30
0.0
 10
217.1060070360497
 20
232.365640443803
 30
0.0
 10
217.0304101938443
 20
232.5655151364537
 30
0.0
 10
216.8605045142235
 20
232.642167385307
 30
0.0
 10
216.7141108057634
 20
232.7082123050332
 30
0.0
 10
216.5414541446708
 20
232.661949092125
 30
0.0
 10
216.4476959340519
 20
232.5315556596209
 30
0.0
 10
205.1443405806861
 20
216.8115105177517
 30
0.0
 10
187.6346590237179
 20
206.7022911574118
 30
0.0
 10
168.3690229055367
 20
204.7733208443293
 30
0.0
 10
168.1835541463116
 20
204.7547507992829
 30
0.0
 10
168.0482560060059
 20
204.5893446671627
 30
0.0
 10
168.0668260510516
 20
204.4038759079376
 30
0.0
 10
168.0828263270089
 20
204.2440727775932
 30
0.0
 10
168.2092197751945
 20
204.1176793294085
 30
0.0
 10
168.3690229055393
 20
204.1016790534521
 30
0.0
 10
187.6346590237192
 20
202.1727087403692
 30
0.0
 10
205.1443405806874
 20
192.0634893800291
 30
0.0
 10
216.4476959340532
 20
176.3434442381595
 30
0.0
  0
ENDBLK
  5
125
330
122
100
AcDbEntity
  8
0
100
AcDbBlockEnd
  0
BLOCK
  5
129
330
127
100
AcDbEntity
  8
0
100
AcDbBlockBegin
  2
BLOCK_48
 70
     0
 10
0.0
 20
0.0
 30
0.0
  3
BLOCK_48
  1

  0
SPLINE
  5
12B
330
127
100
AcDbEntity
  8
CUT
100
AcDbSpline
210
0.0
220
0.0
230
1.0
 70
    11
 71
     3
 72
    32
 73
    28
 74
     0
 42
0.0000000001
 43
0.0000000001
 12
1.0
 22
0.0
 32
0.0
 13
1.0
 23
0.0
 33
0.0
 40
0.0
 40
0.0
 40
0.0
 40
0.0
 40
1.0
 40
1.0
 40
1.0
 40
2.0
 40
2.0
 40
2.0
 40
3.0
 40
3.0
 40
3.0
 40
4.0
 40
4.0
 40
4.0
 40
5.0
 40
5.0
 40
5.0
 40
6.0
 40
6.0
 40
6.0
 40
7.0
 40
7.0
 40
7.0
 40
8.0
 40
8.0
 40
8.0
 40
9.0
 40
9.0
 40
9.0
 40
9.0
 10
164.7157893837187
 20
210.4292651251597
 30
0.0
 10
164.6391371348654
 20
210.2593594455398
 30
0.0
 10
164.7147339770702
 20
210.0594847528895
 30
0.0
 10
164.8846396566904
 20
209.9828325040358
 30
0.0
 10
165.0310333651504
 20
209.91678758431
 30
0.0
 10
165.2036900262436
 20
209.9630507972176
 30
0.0
 10
165.2974482368619
 20
210.0934442297216
 30
0.0
 10
176.6008035902258
 20
225.8134893715908
 30
0.0
 10
194.110485147192
 20
235.922708731931
 30
0.0
 10
213.37612126537
 20
237.8516790450155
 30
0.0
 10
213.5615900245957
 20
237.8702490900602
 30
0.0
 10
213.6968881649022
 20
238.0356552221792
 30
0.0
 10
213.6783181198577
 20
238.2211239814042
 30
0.0
 10
213.6623178439023
 20
238.3809271117484
 30
0.0
 10
213.535924395718
 20
238.5073205599337
 30
0.0
 10
213.3761212653745
 20
238.5233208358916
 30
0.0
 10
194.1104841751142
 20
240.4522915362627
 30
0.0
 10
176.6008027687862
 20
250.5615111575177
 30
0.0
 10
165.2974476496675
 20
266.2815564678204
 30
0.0
 10
165.1886317264895
 20
266.4328912857594
 30
0.0
 10
164.977736743979
 20
266.4673598462898
 30
0.0
 10
164.8264011094032
 20
266.3585433359183
 30
0.0
 10
164.6960076768992
 20
266.2647851253001
 30
0.0
 10
164.6497444639909
 20
266.0921284642072
 30
0.0
 10
164.7157893837174
 20
265.9457347557458
 30
0.0
 10
172.6780701485322
 20
248.2967193007934
 30
0.0
 10
172.6780701485328
 20
228.0782805801128
 30
0.0
 10
164.7157893837187
 20
210.4292651251597
 30
0.0
  0
ENDBLK
  5
12A
330
127
100
AcDbEntity
  8
0
100
AcDbBlockEnd
  0
BLOCK
  5
12E
330
12C
100
AcDbEntity
  8
0
100
AcDbBlockBegin
  2
BLOCK_49
 70
     0
 10
0.0
 20
0.0
 30
0.0
  3
BLOCK_49
  1

  0
SPLINE
  5
130
330
12C
100
AcDbEntity
  8
CUT
100
AcDbSpline
210
0.0
220
0.0
230
1.0
 70
    11
 71
     3
 72
    32
 73
    28
 74
     0
 42
0.0000000001
 43
0.0000000001
 12
1.0
 22
0.0
 32
0.0
 13
1.0
 23
0.0
 33
0.0
 40
0.0
 40
0.0
 40
0.0
 40
0.0
 40
1.0
 40
1.0
 40
1.0
 40
2.0
 40
2.0
 40
2.0
 40
3.0
 40
3.0
 40
3.0
 40
4.0
 40
4.0
 40
4.0
 40
5.0
 40
5.0
 40
5.0
 40
6.0
 40
6.0
 40
6.0
 40
7.0
 40
7.0
 40
7.0
 40
8.0
 40
8.0
 40
8.0
 40
9.0
 40
9.0
 40
9.0
 40
9.0
 10
271.8328360062108
 20
204.1016790534521
 30
0.0
 10
272.0183047654359
 20
204.1202490984975
 30
0.0
 10
272.1536029057423
 20
204.2856552306171
 30
0.0
 10
272.1350328606972
 20
204.4711239898422
 30
0.0
 10
272.1190325847405
 20
204.6309271201867
 30
0.0
 10
271.9926391365562
 20
204.7573205683719
 30
0.0
 10
271.8328360062121
 20
204.773320844329
 30
0.0
 10
252.5671998880309
 20
206.7022911574112
 30
0.0
 10
235.0575183310614
 20
216.811510517751
 30
0.0
 10
223.7541629776943
 20
232.5315556596209
 30
0.0
 10
223.6453464673226
 20
232.6828912941947
 30
0.0
 10
223.434451484812
 20
232.7173598547245
 30
0.0
 10
223.2831158502382
 20
232.6085433443525
 30
0.0
 10
223.1527224177348
 20
232.5147851337348
 30
0.0
 10
223.1064592048285
 20
232.3421284726426
 30
0.0
 10
223.1725041245537
 20
232.1957347641822
 30
0.0
 10
231.1347848893672
 20
214.5467193092294
 30
0.0
 10
231.1347848893666
 20
194.3282805885498
 30
0.0
 10
223.1725041245518
 20
176.679265133598
 30
0.0
 10
223.0958518756978
 20
176.5093594539768
 30
0.0
 10
223.1714487179032
 20
176.3094847613258
 30
0.0
 10
223.3413543975247
 20
176.2328325124725
 30
0.0
 10
223.4877481059854
 20
176.1667875927463
 30
0.0
 10
223.6604047670793
 20
176.2130508056549
 30
0.0
 10
223.7541629776975
 20
176.3434442381595
 30
0.0
 10
235.0575183310627
 20
192.0634893800288
 30
0.0
 10
252.5671998880309
 20
202.1727087403692
 30
0.0
 10
271.8328360062108
 20
204.1016790534521
 30
0.0
  0
ENDBLK
  5
12F
330
12C
100
AcDbEntity
  8
0
100
AcDbBlockEnd
  0
BLOCK
  5
133
330
131
100
AcDbEntity
  8
0
100
AcDbBlockBegin
  2
BLOCK_50
 70
     0
 10
0.0
 20
0.0
 30
0.0
  3
BLOCK_50
  1

  0
SPLINE
  5
135
330
131
100
AcDbEntity
  8
CUT
100
AcDbSpline
210
0.0
220
0.0
230
1.0
 70
    11
 71
     3
 72
    32
 73
    28
 74
     0
 42
0.0000000001
 43
0.0000000001
 12
1.0
 22
0.0
 32
0.0
 13
1.0
 23
0.0
 33
0.0
 40
0.0
 40
0.0
 40
0.0
 40
0.0
 40
1.0
 40
1.0
 40
1.0
 40
2.0
 40
2.0
 40
2.0
 40
3.0
 40
3.0
 40
3.0
 40
4.0
 40
4.0
 40
4.0
 40
5.0
 40
5.0
 40
5.0
 40
6.0
 40
6.0
 40
6.0
 40
7.0
 40
7.0
 40
7.0
 40
8.0
 40
8.0
 40
8.0
 40
9.0
 40
9.0
 40
9.0
 40
9.0
 10
216.4476959340532
 20
108.8434442550342
 30
0.0
 10
216.5565124444249
 20
108.6921086204591
 30
0.0
 10
216.7674074269361
 20
108.6576400599286
 30
0.0
 10
216.9187430615112
 20
108.7664565703001
 30
0.0
 10
217.0491364940153
 20
108.8602147809183
 30
0.0
 10
217.0953997069235
 20
109.0328714420112
 30
0.0
 10
217.0293547871977
 20
109.1792651504723
 30
0.0
 10
209.0670740223835
 20
126.8282806054244
 30
0.0
 10
209.0670740223829
 20
147.0467193261044
 30
0.0
 10
217.0293547871957
 20
164.6957347810568
 30
0.0
 10
217.1060070360497
 20
164.8656404606773
 30
0.0
 10
217.0304101938443
 20
165.065515153328
 30
0.0
 10
216.8605045142247
 20
165.1421674021816
 30
0.0
 10
216.7141108057634
 20
165.2082123219075
 30
0.0
 10
216.5414541446708
 20
165.1619491089999
 30
0.0
 10
216.4476959340519
 20
165.0315556764959
 30
0.0
 10
205.1443405806861
 20
149.3115105346263
 30
0.0
 10
187.6346590237179
 20
139.2022911742868
 30
0.0
 10
168.3690229055367
 20
137.2733208612042
 30
0.0
 10
168.1835541463116
 20
137.2547508161582
 30
0.0
 10
168.0482560060059
 20
137.0893446840377
 30
0.0
 10
168.0668260510516
 20
136.9038759248126
 30
0.0
 10
168.0828263270089
 20
136.7440727944681
 30
0.0
 10
168.2092197751945
 20
136.6176793462835
 30
0.0
 10
168.3690229055393
 20
136.6016790703271
 30
0.0
 10
187.6346590237192
 20
134.6727087572439
 30
0.0
 10
205.1443405806874
 20
124.5634893969041
 30
0.0
 10
216.4476959340532
 20
108.8434442550342
 30
0.0
  0
ENDBLK
  5
134
330
131
100
AcDbEntity
  8
0
100
AcDbBlockEnd
  0
BLOCK
  5
138
330
136
100
AcDbEntity
  8
0
100
AcDbBlockBegin
  2
BLOCK_51
 70
     0
 10
0.0
 20
0.0
 30
0.0
  3
BLOCK_51
  1

  0
SPLINE
  5
13A
330
136
100
AcDbEntity
  8
CUT
100
AcDbSpline
210
0.0
220
0.0
230
1.0
 70
    11
 71
     3
 72
    32
 73
    28
 74
     0
 42
0.0000000001
 43
0.0000000001
 12
1.0
 22
0.0
 32
0.0
 13
1.0
 23
0.0
 33
0.0
 40
0.0
 40
0.0
 40
0.0
 40
0.0
 40
1.0
 40
1.0
 40
1.0
 40
2.0
 40
2.0
 40
2.0
 40
3.0
 40
3.0
 40
3.0
 40
4.0
 40
4.0
 40
4.0
 40
5.0
 40
5.0
 40
5.0
 40
6.0
 40
6.0
 40
6.0
 40
7.0
 40
7.0
 40
7.0
 40
8.0
 40
8.0
 40
8.0
 40
9.0
 40
9.0
 40
9.0
 40
9.0
 10
223.1725041245518
 20
109.1792651504726
 30
0.0
 10
223.0958518756978
 20
109.0093594708514
 30
0.0
 10
223.1714487179039
 20
108.8094847782008
 30
0.0
 10
223.3413543975247
 20
108.7328325293471
 30
0.0
 10
223.4877481059861
 20
108.6667876096213
 30
0.0
 10
223.6604047670793
 20
108.7130508225295
 30
0.0
 10
223.7541629776975
 20
108.8434442550338
 30
0.0
 10
235.0575183310621
 20
124.5634893969031
 30
0.0
 10
252.5671998880283
 20
134.6727087572436
 30
0.0
 10
271.8328360062076
 20
136.6016790703277
 30
0.0
 10
272.0183047654327
 20
136.6202491153728
 30
0.0
 10
272.1536029057397
 20
136.7856552474921
 30
0.0
 10
272.135032860694
 20
136.9711240067171
 30
0.0
 10
272.1190325847386
 20
137.1309271370613
 30
0.0
 10
271.9926391365543
 20
137.2573205852466
 30
0.0
 10
271.8328360062101
 20
137.2733208612042
 30
0.0
 10
252.5671989159492
 20
139.202291561575
 30
0.0
 10
235.0575175096193
 20
149.3115111828296
 30
0.0
 10
223.7541623904999
 20
165.0315564931323
 30
0.0
 10
223.6453464673226
 20
165.182891311071
 30
0.0
 10
223.434451484812
 20
165.2173598716011
 30
0.0
 10
223.2831158502382
 20
165.108543361229
 30
0.0
 10
223.1527224177342
 20
165.0147851506114
 30
0.0
 10
223.1064592048266
 20
164.8421284895188
 30
0.0
 10
223.1725041245531
 20
164.6957347810584
 30
0.0
 10
231.1347848893672
 20
147.0467193261053
 30
0.0
 10
231.1347848893666
 20
126.828280605425
 30
0.0
 10
223.1725041245518
 20
109.1792651504726
 30
0.0
  0
ENDBLK
  5
139
330
136
100
AcDbEntity
  8
0
100
AcDbBlockEnd
  0
BLOCK
  5
13D
330
13B
100
AcDbEntity
  8
0
100
AcDbBlockBegin
  2
BLOCK_52
 70
     0
 10
0.0
 20
0.0
 30
0.0
  3
BLOCK_52
  1

  0
SPLINE
  5
13F
330
13B
100
AcDbEntity
  8
CUT
100
AcDbSpline
210
0.0
220
0.0
230
1.0
 70
    11
 71
     3
 72
    32
 73
    28
 74
     0
 42
0.0000000001
 43
0.0000000001
 12
1.0
 22
0.0
 32
0.0
 13
1.0
 23
0.0
 33
0.0
 40
0.0
 40
0.0
 40
0.0
 40
0.0
 40
1.0
 40
1.0
 40
1.0
 40
2.0
 40
2.0
 40
2.0
 40
3.0
 40
3.0
 40
3.0
 40
4.0
 40
4.0
 40
4.0
 40
5.0
 40
5.0
 40
5.0
 40
6.0
 40
6.0
 40
6.0
 40
7.0
 40
7.0
 40
7.0
 40
8.0
 40
8.0
 40
8.0
 40
9.0
 40
9.0
 40
9.0
 40
9.0
 10
274.9044106778252
 20
142.5934442425134
 30
0.0
 10
275.0132271904513
 20
142.4421086095608
 30
0.0
 10
275.2241221734752
 20
142.4076400521731
 30
0.0
 10
275.3754578064281
 20
142.5164565647998
 30
0.0
 10
275.5058512375351
 20
142.6102147773611
 30
0.0
 10
275.5521144478695
 20
142.7828714391429
 30
0.0
 10
275.4860695259619
 20
142.9292651466189
 30
0.0
 10
267.5237887632153
 20
160.5782805969868
 30
0.0
 10
267.5237887632153
 20
180.796719317667
 30
0.0
 10
275.4860695280288
 20
198.4457347726192
 30
0.0
 10
275.5627217768821
 20
198.6156404522387
 30
0.0
 10
275.4871249346787
 20
198.8155151448884
 30
0.0
 10
275.3172192550591
 20
198.8921673937421
 30
0.0
 10
275.1708255465996
 20
198.9582123134683
 30
0.0
 10
274.9981688855077
 20
198.9119491005613
 30
0.0
 10
274.9044106748888
 20
198.7815556680586
 30
0.0
 10
263.601055321523
 20
183.061510526189
 30
0.0
 10
246.0913737645548
 20
172.9522911658495
 30
0.0
 10
226.8257376463743
 20
171.0233208527666
 30
0.0
 10
226.6402688871492
 20
171.0047508077202
 30
0.0
 10
226.5049707468428
 20
170.8393446756
 30
0.0
 10
226.5235407918891
 20
170.6538759163746
 30
0.0
 10
226.5395410678458
 20
170.4940727860305
 30
0.0
 10
226.6659345160314
 20
170.3676793378455
 30
0.0
 10
226.8257376463762
 20
170.3516790618895
 30
0.0
 10
246.0913747366365
 20
168.4227083615184
 30
0.0
 10
263.6010561429651
 20
158.3134887402638
 30
0.0
 10
274.9044106778252
 20
142.5934442425134
 30
0.0
  0
ENDBLK
  5
13E
330
13B
100
AcDbEntity
  8
0
100
AcDbBlockEnd
  0
BLOCK
  5
142
330
140
100
AcDbEntity
  8
0
100
AcDbBlockBegin
  2
BLOCK_53
 70
     0
 10
0.0
 20
0.0
 30
0.0
  3
BLOCK_53
  1

  0
SPLINE
  5
144
330
140
100
AcDbEntity
  8
CUT
100
AcDbSpline
210
0.0
220
0.0
230
1.0
 70
    11
 71
     3
 72
    32
 73
    28
 74
     0
 42
0.0000000001
 43
0.0000000001
 12
1.0
 22
0.0
 32
0.0
 13
1.0
 23
0.0
 33
0.0
 40
0.0
 40
0.0
 40
0.0
 40
0.0
 40
1.0
 40
1.0
 40
1.0
 40
2.0
 40
2.0
 40
2.0
 40
3.0
 40
3.0
 40
3.0
 40
4.0
 40
4.0
 40
4.0
 40
5.0
 40
5.0
 40
5.0
 40
6.0
 40
6.0
 40
6.0
 40
7.0
 40
7.0
 40
7.0
 40
8.0
 40
8.0
 40
8.0
 40
9.0
 40
9.0
 40
9.0
 40
9.0
 10
164.7157893816512
 20
75.42926515432559
 30
0.0
 10
164.6391371353287
 20
75.25935947356318
 30
0.0
 10
164.7147339805122
 20
75.05948478203933
 30
0.0
 10
164.8846396612746
 20
74.98283253571752
 30
0.0
 10
165.0310333707197
 20
74.91678761817343
 30
0.0
 10
165.2036900311231
 20
74.9630508336536
 30
0.0
 10
165.2974482397983
 20
75.09344426755526
 30
0.0
 10
176.6008035902258
 20
90.8134894053404
 30
0.0
 10
194.110485147192
 20
100.9227087656809
 30
0.0
 10
213.37612126537
 20
102.8516790787654
 30
0.0
 10
213.5615900293225
 20
102.8702491270741
 30
0.0
 10
213.6968881671654
 20
103.0356552612099
 30
0.0
 10
213.6783181193566
 20
103.2211240201581
 30
0.0
 10
213.6623178410205
 20
103.3809271502642
 30
0.0
 10
213.5359243909521
 20
103.5073205965664
 30
0.0
 10
213.3761212603699
 20
103.5233208701424
 30
0.0
 10
194.1104851471946
 20
105.4522911827247
 30
0.0
 10
176.6008035902271
 20
115.5615105430652
 30
0.0
 10
165.2974482368613
 20
131.2815556849348
 30
0.0
 10
165.1886317264895
 20
131.4328913195093
 30
0.0
 10
164.977736743979
 20
131.4673598800397
 30
0.0
 10
164.8264011094032
 20
131.3585433696679
 30
0.0
 10
164.6960076768992
 20
131.2647851590497
 30
0.0
 10
164.6497444639909
 20
131.0921284979565
 30
0.0
 10
164.7157893837174
 20
130.9457347894957
 30
0.0
 10
172.6780701485322
 20
113.2967193345433
 30
0.0
 10
172.6780701485328
 20
93.07828061386267
 30
0.0
 10
164.7157893816512
 20
75.42926515432559
 30
0.0
  0
ENDBLK
  5
143
330
140
100
AcDbEntity
  8
0
100
AcDbBlockEnd
  0
BLOCK
  5
147
330
145
100
AcDbEntity
  8
0
100
AcDbBlockBegin
  2
BLOCK_54
 70
     0
 10
0.0
 20
0.0
 30
0.0
  3
BLOCK_54
  1

  0
SPLINE
  5
149
330
145
100
AcDbEntity
  8
CUT
100
AcDbSpline
210
0.0
220
0.0
230
1.0
 70
    11
 71
     3
 72
    32
 73
    28
 74
     0
 42
0.0000000001
 43
0.0000000001
 12
1.0
 22
0.0
 32
0.0
 13
1.0
 23
0.0
 33
0.0
 40
0.0
 40
0.0
 40
0.0
 40
0.0
 40
1.0
 40
1.0
 40
1.0
 40
2.0
 40
2.0
 40
2.0
 40
3.0
 40
3.0
 40
3.0
 40
4.0
 40
4.0
 40
4.0
 40
5.0
 40
5.0
 40
5.0
 40
6.0
 40
6.0
 40
6.0
 40
7.0
 40
7.0
 40
7.0
 40
8.0
 40
8.0
 40
8.0
 40
9.0
 40
9.0
 40
9.0
 40
9.0
 10
216.4476959340532
 20
41.34344427190879
 30
0.0
 10
216.5565124444249
 20
41.19210863733432
 30
0.0
 10
216.7674074269361
 20
41.15764007680388
 30
0.0
 10
216.9187430615112
 20
41.26645658717499
 30
0.0
 10
217.0491364940153
 20
41.36021479779392
 30
0.0
 10
217.0953997069235
 20
41.53287145888648
 30
0.0
 10
217.0293547871977
 20
41.67926516734784
 30
0.0
 10
209.0670740223835
 20
59.32828062229999
 30
0.0
 10
209.0670740223829
 20
79.54671934297961
 30
0.0
 10
217.0293547871957
 20
97.1957347979324
 30
0.0
 10
217.1060070360497
 20
97.36564047755323
 30
0.0
 10
217.0304101938443
 20
97.56551517020324
 30
0.0
 10
216.8605045142235
 20
97.64216741905658
 30
0.0
 10
216.7141108057627
 20
97.70821233878243
 30
0.0
 10
216.5414541446695
 20
97.66194912587484
 30
0.0
 10
216.4476959340519
 20
97.5315556933708
 30
0.0
 10
205.1443405806861
 20
81.81151055150188
 30
0.0
 10
187.6346590237179
 20
71.70229119116206
 30
0.0
 10
168.3690229055367
 20
69.77332087807885
 30
0.0
 10
168.1835541463116
 20
69.75475083303313
 30
0.0
 10
168.0482560060059
 20
69.58934470091292
 30
0.0
 10
168.0668260510516
 20
69.40387594168719
 30
0.0
 10
168.0828263270089
 20
69.24407281134305
 30
0.0
 10
168.2092197751945
 20
69.11767936315873
 30
0.0
 10
168.3690229055387
 20
69.10167908720203
 30
0.0
 10
187.6346599957996
 20
67.17270838683163
 30
0.0
 10
205.1443414021289
 20
57.06348876557634
 30
0.0
 10
216.4476959340532
 20
41.34344427190879
 30
0.0
  0
ENDBLK
  5
148
330
145
100
AcDbEntity
  8
0
100
AcDbBlockEnd
  0
BLOCK
  5
14C
330
14A
100
AcDbEntity
  8
0
100
AcDbBlockBegin
  2
BLOCK_55
 70
     0
 10
0.0
 20
0.0
 30
0.0
  3
BLOCK_55
  1

  0
SPLINE
  5
14E
330
14A
100
AcDbEntity
  8
CUT
100
AcDbSpline
210
0.0
220
0.0
230
1.0
 70
    11
 71
     3
 72
    32
 73
    28
 74
     0
 42
0.0000000001
 43
0.0000000001
 12
1.0
 22
0.0
 32
0.0
 13
1.0
 23
0.0
 33
0.0
 40
0.0
 40
0.0
 40
0.0
 40
0.0
 40
1.0
 40
1.0
 40
1.0
 40
2.0
 40
2.0
 40
2.0
 40
3.0
 40
3.0
 40
3.0
 40
4.0
 40
4.0
 40
4.0
 40
5.0
 40
5.0
 40
5.0
 40
6.0
 40
6.0
 40
6.0
 40
7.0
 40
7.0
 40
7.0
 40
8.0
 40
8.0
 40
8.0
 40
9.0
 40
9.0
 40
9.0
 40
9.0
 10
223.1725041245518
 20
41.6792651673472
 30
0.0
 10
223.0958518756978
 20
41.50935948772637
 30
0.0
 10
223.1714487179039
 20
41.30948479507571
 30
0.0
 10
223.3413543975247
 20
41.23283254622238
 30
0.0
 10
223.4877481059861
 20
41.16678762649717
 30
0.0
 10
223.6604047670793
 20
41.21305083940476
 30
0.0
 10
223.7541629776969
 20
41.34344427191008
 30
0.0
 10
235.0575191525036
 20
57.06349006198102
 30
0.0
 10
252.5672008601086
 20
67.17270916140664
 30
0.0
 10
271.8328370070316
 20
69.10167918740976
 30
0.0
 10
272.0183047654327
 20
69.12024913224775
 30
0.0
 10
272.1536029057397
 20
69.28565526436668
 30
0.0
 10
272.135032860694
 20
69.47112402359241
 30
0.0
 10
272.119032584738
 20
69.63092715393655
 30
0.0
 10
271.9926391365543
 20
69.75732060212151
 30
0.0
 10
271.8328360062101
 20
69.77332087807885
 30
0.0
 10
252.5671998880289
 20
71.70229119116206
 30
0.0
 10
235.0575183310608
 20
81.81151055150252
 30
0.0
 10
223.7541629776943
 20
97.53155569337208
 30
0.0
 10
223.6453464621319
 20
97.68289133040747
 30
0.0
 10
223.434451479108
 20
97.71735988779488
 30
0.0
 10
223.2831158461551
 20
97.6085433751682
 30
0.0
 10
223.152722415048
 20
97.51478516260748
 30
0.0
 10
223.1064592047136
 20
97.34212850082575
 30
0.0
 10
223.1725041266213
 20
97.19573479334939
 30
0.0
 10
231.1347848893672
 20
79.54671934298025
 30
0.0
 10
231.1347848893666
 20
59.32828062229999
 30
0.0
 10
223.1725041245518
 20
41.6792651673472
 30
0.0
  0
ENDBLK
  5
14D
330
14A
100
AcDbEntity
  8
0
100
AcDbBlockEnd
  0
BLOCK
  5
151
330
14F
100
AcDbEntity
  8
0
100
AcDbBlockBegin
  2
BLOCK_56
 70
     0
 10
0.0
 20
0.0
 30
0.0
  3
BLOCK_56
  1

  0
SPLINE
  5
153
330
14F
100
AcDbEntity
  8
CUT
100
AcDbSpline
210
0.0
220
0.0
230
1.0
 70
    11
 71
     3
 72
    32
 73
    28
 74
     0
 42
0.0000000001
 43
0.0000000001
 12
1.0
 22
0.0
 32
0.0
 13
1.0
 23
0.0
 33
0.0
 40
0.0
 40
0.0
 40
0.0
 40
0.0
 40
1.0
 40
1.0
 40
1.0
 40
2.0
 40
2.0
 40
2.0
 40
3.0
 40
3.0
 40
3.0
 40
4.0
 40
4.0
 40
4.0
 40
5.0
 40
5.0
 40
5.0
 40
6.0
 40
6.0
 40
6.0
 40
7.0
 40
7.0
 40
7.0
 40
8.0
 40
8.0
 40
8.0
 40
9.0
 40
9.0
 40
9.0
 40
9.0
 10
226.8257376463749
 20
103.5233208696412
 30
0.0
 10
226.6402688871492
 20
103.5047508245952
 30
0.0
 10
226.5049707468428
 20
103.3393446924746
 30
0.0
 10
226.5235407918891
 20
103.1538759332496
 30
0.0
 10
226.5395410678458
 20
102.9940728029051
 30
0.0
 10
226.6659345160314
 20
102.8676793547208
 30
0.0
 10
226.8257376463762
 20
102.8516790787641
 30
0.0
 10
246.0913737645548
 20
100.9227087656815
 30
0.0
 10
263.6010553215211
 20
90.8134894053417
 30
0.0
 10
274.9044106748863
 20
75.0934442634734
 30
0.0
 10
275.013227185258
 20
74.94210862889894
 30
0.0
 10
275.2241221677685
 20
74.9076400683685
 30
0.0
 10
275.375457802343
 20
75.01645657874025
 30
0.0
 10
275.5058512348477
 20
75.11021478935854
 30
0.0
 10
275.5521144477553
 20
75.28287145045044
 30
0.0
 10
275.4860695280294
 20
75.42926515891118
 30
0.0
 10
267.523788763216
 20
93.07828061386395
 30
0.0
 10
267.5237887632172
 20
113.2967193345439
 30
0.0
 10
275.486069528032
 20
130.9457347894957
 30
0.0
 10
275.5627217768853
 20
131.1156404691156
 30
0.0
 10
275.4871249346812
 20
131.3155151617653
 30
0.0
 10
275.317219255061
 20
131.3921674106193
 30
0.0
 10
275.1708255466003
 20
131.4582123303451
 30
0.0
 10
274.9981688855084
 20
131.4119491174378
 30
0.0
 10
274.9044106748908
 20
131.2815556849341
 30
0.0
 10
263.6010545000828
 20
115.5615098948616
 30
0.0
 10
246.0913727924751
 20
105.452290795436
 30
0.0
 10
226.8257376463749
 20
103.5233208696412
 30
0.0
  0
ENDBLK
  5
152
330
14F
100
AcDbEntity
  8
0
100
AcDbBlockEnd
  0
BLOCK
  5
156
330
154
100
AcDbEntity
  8
0
100
AcDbBlockBegin
  2
BLOCK_57
 70
     0
 10
0.0
 20
0.0
 30
0.0
  3
BLOCK_57
  1

  0
SPLINE
  5
158
330
154
100
AcDbEntity
  8
CUT
100
AcDbSpline
210
0.0
220
0.0
230
1.0
 70
    11
 71
     3
 72
    32
 73
    28
 74
     0
 42
0.0000000001
 43
0.0000000001
 12
1.0
 22
0.0
 32
0.0
 13
1.0
 23
0.0
 33
0.0
 40
0.0
 40
0.0
 40
0.0
 40
0.0
 40
1.0
 40
1.0
 40
1.0
 40
2.0
 40
2.0
 40
2.0
 40
3.0
 40
3.0
 40
3.0
 40
4.0
 40
4.0
 40
4.0
 40
5.0
 40
5.0
 40
5.0
 40
6.0
 40
6.0
 40
6.0
 40
7.0
 40
7.0
 40
7.0
 40
8.0
 40
8.0
 40
8.0
 40
9.0
 40
9.0
 40
9.0
 40
9.0
 10
109.9123081647017
 20
36.02332088651681
 30
0.0
 10
109.726839405476
 20
36.00475084147045
 30
0.0
 10
109.5915412651702
 20
35.83934470934958
 30
0.0
 10
109.6101113102159
 20
35.65387595012514
 30
0.0
 10
109.6261115861733
 20
35.494072819781
 30
0.0
 10
109.7525050343589
 20
35.36767937159539
 30
0.0
 10
109.9123081647024
 20
35.35167909563934
 30
0.0
 10
129.1779442828829
 20
33.42270878255678
 30
0.0
 10
146.6876258398511
 20
23.31348942221824
 30
0.0
 10
157.9909811932176
 20
7.593444280348671
 30
0.0
 10
158.0997977035893
 20
7.442108645774201
 30
0.0
 10
158.3106926861005
 20
7.407640085243756
 30
0.0
 10
158.462028320675
 20
7.516456595615513
 30
0.0
 10
158.592421753179
 20
7.610214806233154
 30
0.0
 10
158.6386849660872
 20
7.782871467325711
 30
0.0
 10
158.5726400463607
 20
7.929265175787081
 30
0.0
 10
150.6103592815473
 20
25.57828063073922
 30
0.0
 10
150.610359281546
 20
45.79671935141821
 30
0.0
 10
158.5726400463601
 20
63.44573480637099
 30
0.0
 10
158.6492922952134
 20
63.61564048599118
 30
0.0
 10
158.5736954530093
 20
63.81551517864185
 30
0.0
 10
158.4037897733891
 20
63.89216742749517
 30
0.0
 10
158.2573960649284
 20
63.95821234722103
 30
0.0
 10
158.0847394038358
 20
63.9119491343128
 30
0.0
 10
157.9909811932176
 20
63.78155570180876
 30
0.0
 10
146.6876258398511
 20
48.06151055993919
 30
0.0
 10
129.1779442828817
 20
37.95229119959873
 30
0.0
 10
109.9123081647017
 20
36.02332088651681
 30
0.0
  0
ENDBLK
  5
157
330
154
100
AcDbEntity
  8
0
100
AcDbBlockEnd
  0
BLOCK
  5
15B
330
159
100
AcDbEntity
  8
0
100
AcDbBlockBegin
  2
BLOCK_58
 70
     0
 10
0.0
 20
0.0
 30
0.0
  3
BLOCK_58
  1

  0
SPLINE
  5
15D
330
159
100
AcDbEntity
  8
CUT
100
AcDbSpline
210
0.0
220
0.0
230
1.0
 70
    11
 71
     3
 72
    32
 73
    28
 74
     0
 42
0.0000000001
 43
0.0000000001
 12
1.0
 22
0.0
 32
0.0
 13
1.0
 23
0.0
 33
0.0
 40
0.0
 40
0.0
 40
0.0
 40
0.0
 40
1.0
 40
1.0
 40
1.0
 40
2.0
 40
2.0
 40
2.0
 40
3.0
 40
3.0
 40
3.0
 40
4.0
 40
4.0
 40
4.0
 40
5.0
 40
5.0
 40
5.0
 40
6.0
 40
6.0
 40
6.0
 40
7.0
 40
7.0
 40
7.0
 40
8.0
 40
8.0
 40
8.0
 40
9.0
 40
9.0
 40
9.0
 40
9.0
 10
164.7157893837194
 20
7.929265175784514
 30
0.0
 10
164.6391371348654
 20
7.759359496164968
 30
0.0
 10
164.7147339770702
 20
7.559484803514946
 30
0.0
 10
164.8846396566904
 20
7.482832554660977
 30
0.0
 10
165.0310333651504
 20
7.41678763493512
 30
0.0
 10
165.2036900262436
 20
7.46305084784271
 30
0.0
 10
165.2974482368613
 20
7.593444280346747
 30
0.0
 10
176.6008035902258
 20
23.31348942221567
 30
0.0
 10
194.110485147192
 20
33.42270878255549
 30
0.0
 10
213.37612126537
 20
35.35167909563999
 30
0.0
 10
213.5615900245957
 20
35.37024914068442
 30
0.0
 10
213.6968881649034
 20
35.53565527280399
 30
0.0
 10
213.6783181198584
 20
35.72112403202844
 30
0.0
 10
213.6623178439023
 20
35.88092716237322
 30
0.0
 10
213.535924395718
 20
36.00732061055883
 30
0.0
 10
213.3761212653745
 20
36.02332088651681
 30
0.0
 10
194.1104851471946
 20
37.95229119959937
 30
0.0
 10
176.6008035902271
 20
48.06151055993983
 30
0.0
 10
165.2974482368613
 20
63.78155570180876
 30
0.0
 10
165.1886317264895
 20
63.93289133638451
 30
0.0
 10
164.977736743979
 20
63.96735989691496
 30
0.0
 10
164.8264011094032
 20
63.85854338654256
 30
0.0
 10
164.6960076768992
 20
63.76478517592492
 30
0.0
 10
164.6497444639909
 20
63.59212851483236
 30
0.0
 10
164.7157893837174
 20
63.44573480637099
 30
0.0
 10
172.6780701485322
 20
45.79671935141821
 30
0.0
 10
172.6780701485328
 20
25.57828063073794
 30
0.0
 10
164.7157893837194
 20
7.929265175784514
 30
0.0
  0
ENDBLK
  5
15C
330
159
100
AcDbEntity
  8
0
100
AcDbBlockEnd
  0
BLOCK
  5
160
330
15E
100
AcDbEntity
  8
0
100
AcDbBlockBegin
  2
BLOCK_59
 70
     0
 10
0.0
 20
0.0
 30
0.0
  3
BLOCK_59
  1

  0
SPLINE
  5
162
330
15E
100
AcDbEntity
  8
CUT
100
AcDbSpline
210
0.0
220
0.0
230
1.0
 70
    11
 71
     3
 72
    32
 73
    28
 74
     0
 42
0.0000000001
 43
0.0000000001
 12
1.0
 22
0.0
 32
0.0
 13
1.0
 23
0.0
 33
0.0
 40
0.0
 40
0.0
 40
0.0
 40
0.0
 40
1.0
 40
1.0
 40
1.0
 40
2.0
 40
2.0
 40
2.0
 40
3.0
 40
3.0
 40
3.0
 40
4.0
 40
4.0
 40
4.0
 40
5.0
 40
5.0
 40
5.0
 40
6.0
 40
6.0
 40
6.0
 40
7.0
 40
7.0
 40
7.0
 40
8.0
 40
8.0
 40
8.0
 40
9.0
 40
9.0
 40
9.0
 40
9.0
 10
168.3690229055367
 20
2.273320894953474
 30
0.0
 10
168.1835541463116
 20
2.254750849907756
 30
0.0
 10
168.0482560060059
 20
2.089344717787538
 30
0.0
 10
168.0668260510516
 20
1.903875958562453
 30
0.0
 10
168.0828263270089
 20
1.744072828217672
 30
0.0
 10
168.2092197751945
 20
1.617679380033347
 30
0.0
 10
168.3690229055387
 20
1.601679104076655
 30
0.0
 10
187.6346590237186
 20
-0.3272912090052729
 30
0.0
 10
205.1443405806867
 20
-10.43651056934509
 30
0.0
 10
216.4476959340532
 20
-26.15655571121402
 30
0.0
 10
216.5565124444249
 20
-26.30789134578849
 30
0.0
 10
216.7674074269361
 20
-26.34235990631893
 30
0.0
 10
216.9187430615106
 20
-26.23354339594718
 30
0.0
 10
217.0491364940146
 20
-26.13978518532889
 30
0.0
 10
217.0953997069229
 20
-25.96712852423634
 30
0.0
 10
217.029354787197
 20
-25.82073481577625
 30
0.0
 10
209.0670740223829
 20
-8.171719360824108
 30
0.0
 10
209.0670740223823
 20
12.04671935985616
 30
0.0
 10
217.0293547871957
 20
29.6957348148083
 30
0.0
 10
217.1060070360497
 20
29.86564049442913
 30
0.0
 10
217.0304101938443
 20
30.06551518707851
 30
0.0
 10
216.8605045142247
 20
30.14216743593184
 30
0.0
 10
216.714110805764
 20
30.20821235565834
 30
0.0
 10
216.5414541446715
 20
30.16194914275075
 30
0.0
 10
216.4476959340525
 20
30.03155571024671
 30
0.0
 10
205.1443405806867
 20
14.3115105683765
 30
0.0
 10
187.6346590237179
 20
4.202291208036685
 30
0.0
 10
168.3690229055367
 20
2.273320894953474
 30
0.0
  0
ENDBLK
  5
161
330
15E
100
AcDbEntity
  8
0
100
AcDbBlockEnd
  0
BLOCK
  5
165
330
163
100
AcDbEntity
  8
0
100
AcDbBlockBegin
  2
BLOCK_60
 70
     0
 10
0.0
 20
0.0
 30
0.0
  3
BLOCK_60
  1

  0
SPLINE
  5
167
330
163
100
AcDbEntity
  8
CUT
100
AcDbSpline
210
0.0
220
0.0
230
1.0
 70
    11
 71
     3
 72
    32
 73
    28
 74
     0
 42
0.0000000001
 43
0.0000000001
 12
1.0
 22
0.0
 32
0.0
 13
1.0
 23
0.0
 33
0.0
 40
0.0
 40
0.0
 40
0.0
 40
0.0
 40
1.0
 40
1.0
 40
1.0
 40
2.0
 40
2.0
 40
2.0
 40
3.0
 40
3.0
 40
3.0
 40
4.0
 40
4.0
 40
4.0
 40
5.0
 40
5.0
 40
5.0
 40
6.0
 40
6.0
 40
6.0
 40
7.0
 40
7.0
 40
7.0
 40
8.0
 40
8.0
 40
8.0
 40
9.0
 40
9.0
 40
9.0
 40
9.0
 10
165.2974482368613
 20
-3.718444281315334
 30
0.0
 10
165.1886317264895
 20
-3.567108646740864
 30
0.0
 10
164.977736743979
 20
-3.532640086210419
 30
0.0
 10
164.8264011094039
 20
-3.641456596581535
 30
0.0
 10
164.6960076768992
 20
-3.735214807200459
 30
0.0
 10
164.6497444639909
 20
-3.907871468293015
 30
0.0
 10
164.7157893837174
 20
-4.054265176754385
 30
0.0
 10
172.6780701485322
 20
-21.70328063170588
 30
0.0
 10
172.6780701485322
 20
-41.92171935238616
 30
0.0
 10
164.7157893837187
 20
-59.5707348073383
 30
0.0
 10
164.6391371348654
 20
-59.74064048695912
 30
0.0
 10
164.7147339770702
 20
-59.94051517960979
 30
0.0
 10
164.884639656691
 20
-60.01716742846312
 30
0.0
 10
165.0310333651524
 20
-60.08321234818897
 30
0.0
 10
165.2036900262449
 20
-60.03694913528074
 30
0.0
 10
165.2974482368626
 20
-59.90655570277671
 30
0.0
 10
176.600803590229
 20
-44.18651056090778
 30
0.0
 10
194.1104851471959
 20
-34.0772912005686
 30
0.0
 10
213.3761212653751
 20
-32.14832088748539
 30
0.0
 10
213.5615900245996
 20
-32.12975084244032
 30
0.0
 10
213.6968881649067
 20
-31.96434471032074
 30
0.0
 10
213.6783181198616
 20
-31.77887595109501
 30
0.0
 10
213.6623178439049
 20
-31.61907282075087
 30
0.0
 10
213.5359243957206
 20
-31.49267937256591
 30
0.0
 10
213.3761212653764
 20
-31.47667909660857
 30
0.0
 10
194.1104851471959
 20
-29.54770878352536
 30
0.0
 10
176.6008035902271
 20
-19.4384894231849
 30
0.0
 10
165.2974482368613
 20
-3.718444281315334
 30
0.0
  0
ENDBLK
  5
166
330
163
100
AcDbEntity
  8
0
100
AcDbBlockEnd
  0
BLOCK
  5
16A
330
168
100
AcDbEntity
  8
0
100
AcDbBlockBegin
  2
BLOCK_61
 70
     0
 10
0.0
 20
0.0
 30
0.0
  3
BLOCK_61
  1

  0
SPLINE
  5
16C
330
168
100
AcDbEntity
  8
CUT
100
AcDbSpline
210
0.0
220
0.0
230
1.0
 70
    11
 71
     3
 72
    32
 73
    28
 74
     0
 42
0.0000000001
 43
0.0000000001
 12
1.0
 22
0.0
 32
0.0
 13
1.0
 23
0.0
 33
0.0
 40
0.0
 40
0.0
 40
0.0
 40
0.0
 40
1.0
 40
1.0
 40
1.0
 40
2.0
 40
2.0
 40
2.0
 40
3.0
 40
3.0
 40
3.0
 40
4.0
 40
4.0
 40
4.0
 40
5.0
 40
5.0
 40
5.0
 40
6.0
 40
6.0
 40
6.0
 40
7.0
 40
7.0
 40
7.0
 40
8.0
 40
8.0
 40
8.0
 40
9.0
 40
9.0
 40
9.0
 40
9.0
 10
223.1725041245518
 20
-25.82073481577753
 30
0.0
 10
223.0958518756978
 20
-25.99064049539836
 30
0.0
 10
223.1714487179039
 20
-26.19051518804967
 30
0.0
 10
223.3413543975247
 20
-26.26716743690299
 30
0.0
 10
223.4877481059854
 20
-26.33321235662885
 30
0.0
 10
223.6604047670793
 20
-26.28694914372062
 30
0.0
 10
223.7541629776969
 20
-26.15655571121594
 30
0.0
 10
235.0575183310614
 20
-10.43651056934637
 30
0.0
 10
252.5671998880283
 20
-0.3272912090065563
 30
0.0
 10
271.8328360062069
 20
1.601679104077297
 30
0.0
 10
272.0183047654327
 20
1.620249149122372
 30
0.0
 10
272.1536029057397
 20
1.785655281241949
 30
0.0
 10
272.135032860694
 20
1.971124040467034
 30
0.0
 10
272.1190325847386
 20
2.130927170811173
 30
0.0
 10
271.9926391365543
 20
2.257320618996781
 30
0.0
 10
271.8328360062101
 20
2.273320894954115
 30
0.0
 10
252.5671989159486
 20
4.202291595324515
 30
0.0
 10
235.0575175096193
 20
14.31151121657916
 30
0.0
 10
223.7541623904999
 20
30.03155652688254
 30
0.0
 10
223.6453464621319
 20
30.18289134728274
 30
0.0
 10
223.434451479108
 20
30.21735990467014
 30
0.0
 10
223.2831158461551
 20
30.10854339204282
 30
0.0
 10
223.152722415048
 20
30.01478517948275
 30
0.0
 10
223.1064592047136
 20
29.84212851770037
 30
0.0
 10
223.1725041266213
 20
29.69573481022401
 30
0.0
 10
231.1347848893672
 20
12.04671935985552
 30
0.0
 10
231.1347848893666
 20
-8.171719360824751
 30
0.0
 10
223.1725041245518
 20
-25.82073481577753
 30
0.0
  0
ENDBLK
  5
16B
330
168
100
AcDbEntity
  8
0
100
AcDbBlockEnd
  0
BLOCK
  5
16F
330
16D
100
AcDbEntity
  8
0
100
AcDbBlockBegin
  2
BLOCK_62
 70
     0
 10
0.0
 20
0.0
 30
0.0
  3
BLOCK_62
  1

  0
SPLINE
  5
171
330
16D
100
AcDbEntity
  8
CUT
100
AcDbSpline
210
0.0
220
0.0
230
1.0
 70
    11
 71
     3
 72
    32
 73
    28
 74
     0
 42
0.0000000001
 43
0.0000000001
 12
1.0
 22
0.0
 32
0.0
 13
1.0
 23
0.0
 33
0.0
 40
0.0
 40
0.0
 40
0.0
 40
0.0
 40
1.0
 40
1.0
 40
1.0
 40
2.0
 40
2.0
 40
2.0
 40
3.0
 40
3.0
 40
3.0
 40
4.0
 40
4.0
 40
4.0
 40
5.0
 40
5.0
 40
5.0
 40
6.0
 40
6.0
 40
6.0
 40
7.0
 40
7.0
 40
7.0
 40
8.0
 40
8.0
 40
8.0
 40
9.0
 40
9.0
 40
9.0
 40
9.0
 10
274.9044106748888
 20
7.593444280346747
 30
0.0
 10
275.0132271852606
 20
7.442108645772918
 30
0.0
 10
275.2241221677711
 20
7.407640085243114
 30
0.0
 10
275.375457802345
 20
7.516456595614231
 30
0.0
 10
275.505851234849
 20
7.610214806232512
 30
0.0
 10
275.5521144477566
 20
7.782871467325069
 30
0.0
 10
275.4860695280301
 20
7.929265175785797
 30
0.0
 10
267.5237887632153
 20
25.5782806307373
 30
0.0
 10
267.5237887632147
 20
45.79671935141756
 30
0.0
 10
275.4860695280288
 20
63.44573480636971
 30
0.0
 10
275.5627217768821
 20
63.61564048598861
 30
0.0
 10
275.487124934678
 20
63.81551517863863
 30
0.0
 10
275.3172192550584
 20
63.89216742749196
 30
0.0
 10
275.170825546599
 20
63.95821234721846
 30
0.0
 10
274.9981688855077
 20
63.91194913431087
 30
0.0
 10
274.9044106748888
 20
63.78155570180748
 30
0.0
 10
263.601055321523
 20
48.06151055993855
 30
0.0
 10
246.0913737645548
 20
37.95229119959873
 30
0.0
 10
226.8257376463749
 20
36.02332088651681
 30
0.0
 10
226.6402688871492
 20
36.00475084147045
 30
0.0
 10
226.5049707468428
 20
35.83934470934958
 30
0.0
 10
226.5235407918891
 20
35.65387595012514
 30
0.0
 10
226.5395410678458
 20
35.494072819781
 30
0.0
 10
226.6659345160314
 20
35.36767937159603
 30
0.0
 10
226.8257376463762
 20
35.35167909563999
 30
0.0
 10
246.0913737645561
 20
33.42270878255678
 30
0.0
 10
263.6010553215236
 20
23.31348942221632
 30
0.0
 10
274.9044106748888
 20
7.593444280346747
 30
0.0
  0
ENDBLK
  5
170
330
16D
100
AcDbEntity
  8
0
100
AcDbBlockEnd
  0
BLOCK
  5
175
330
173
100
AcDbEntity
  8
0
100
AcDbBlockBegin
  2
BLOCK_63
 70
     0
 10
0.0
 20
0.0
 30
0.0
  3
BLOCK_63
  1

  0
SPLINE
  5
177
330
173
100
AcDbEntity
  8
OUTLINE
100
AcDbSpline
210
0.0
220
0.0
230
1.0
 70
    11
 71
     3
 72
    20
 73
    16
 74
     0
 42
0.0000000001
 43
0.0000000001
 12
1.0
 22
0.0
 32
0.0
 13
1.0
 23
0.0
 33
0.0
 40
0.0
 40
0.0
 40
0.0
 40
0.0
 40
1.0
 40
1.0
 40
1.0
 40
2.0
 40
2.0
 40
2.0
 40
3.0
 40
3.0
 40
3.0
 40
4.0
 40
4.0
 40
4.0
 40
5.0
 40
5.0
 40
5.0
 40
5.0
 10
-121.8124999695467
 20
103.1874999742031
 30
0.0
 10
-121.8124999695467
 20
227.4515686550656
 30
0.0
 10
-21.07656870665932
 20
328.1874999179533
 30
0.0
 10
103.1874999742031
 20
328.1874999179533
 30
0.0
 10
227.4515686550662
 20
328.1874999179533
 30
0.0
 10
328.1874999179533
 20
227.4515686550656
 30
0.0
 10
328.1874999179533
 20
103.1874999742031
 30
0.0
 10
328.1874999179533
 20
-21.07656870665997
 30
0.0
 10
227.4515686550656
 20
-121.8124999695471
 30
0.0
 10
103.1874999742031
 20
-121.8124999695471
 30
0.0
 10
-21.07656870665932
 20
-121.8124999695471
 30
0.0
 10
-121.8124999695467
 20
-21.07656870665932
 30
0.0
 10
-121.8124999695467
 20
103.1874999742031
 30
0.0
 10
-121.8124999695467
 20
103.1874999742031
 30
0.0
 10
-121.8124999695467
 20
103.1874999742031
 30
0.0
 10
-121.8124999695467
 20
103.1874999742031
 30
0.0
  0
ENDBLK
  5
176
330
173
100
AcDbEntity
  8
0
100
AcDbBlockEnd
  0
ENDSEC
  0
SECTION
  2
ENTITIES
  0
INSERT
  5
42
330
1F
100
AcDbEntity
  8
CUT
100
AcDbBlockReference
  2
BLOCK_2
 10
0.0
 20
0.0
 30
0.0
  0
INSERT
  5
47
330
1F
100
AcDbEntity
  8
CUT
100
AcDbBlockReference
  2
BLOCK_3
 10
0.0
 20
0.0
 30
0.0
  0
INSERT
  5
4C
330
1F
100
AcDbEntity
  8
CUT
100
AcDbBlockReference
  2
BLOCK_4
 10
0.0
 20
0.0
 30
0.0
  0
INSERT
  5
51
330
1F
100
AcDbEntity
  8
CUT
100
AcDbBlockReference
  2
BLOCK_5
 10
0.0
 20
0.0
 30
0.0
  0
INSERT
  5
56
330
1F
100
AcDbEntity
  8
CUT
100
AcDbBlockReference
  2
BLOCK_6
 10
0.0
 20
0.0
 30
0.0
  0
INSERT
  5
5B
330
1F
100
AcDbEntity
  8
CUT
100
AcDbBlockReference
  2
BLOCK_7
 10
0.0
 20
0.0
 30
0.0
  0
INSERT
  5
60
330
1F
100
AcDbEntity
  8
CUT
100
AcDbBlockReference
  2
BLOCK_8
 10
0.0
 20
0.0
 30
0.0
  0
INSERT
  5
65
330
1F
100
AcDbEntity
  8
CUT
100
AcDbBlockReference
  2
BLOCK_9
 10
0.0
 20
0.0
 30
0.0
  0
INSERT
  5
6A
330
1F
100
AcDbEntity
  8
CUT
100
AcDbBlockReference
  2
BLOCK_10
 10
0.0
 20
0.0
 30
0.0
  0
INSERT
  5
6F
330
1F
100
AcDbEntity
  8
CUT
100
AcDbBlockReference
  2
BLOCK_11
 10
0.0
 20
0.0
 30
0.0
  0
INSERT
  5
74
330
1F
100
AcDbEntity
  8
CUT
100
AcDbBlockReference
  2
BLOCK_12
 10
0.0
 20
0.0
 30
0.0
  0
INSERT
  5
79
330
1F
100
AcDbEntity
  8
CUT
100
AcDbBlockReference
  2
BLOCK_13
 10
0.0
 20
0.0
 30
0.0
  0
INSERT
  5
7E
330
1F
100
AcDbEntity
  8
CUT
100
AcDbBlockReference
  2
BLOCK_14
 10
0.0
 20
0.0
 30
0.0
  0
INSERT
  5
83
330
1F
100
AcDbEntity
  8
CUT
100
AcDbBlockReference
  2
BLOCK_15
 10
0.0
 20
0.0
 30
0.0
  0
INSERT
  5
88
330
1F
100
AcDbEntity
  8
CUT
100
AcDbBlockReference
  2
BLOCK_16
 10
0.0
 20
0.0
 30
0.0
  0
INSERT
  5
8D
330
1F
100
AcDbEntity
  8
CUT
100
AcDbBlockReference
  2
BLOCK_17
 10
0.0
 20
0.0
 30
0.0
  0
INSERT
  5
92
330
1F
100
AcDbEntity
  8
CUT
100
AcDbBlockReference
  2
BLOCK_18
 10
0.0
 20
0.0
 30
0.0
  0
INSERT
  5
97
330
1F
100
AcDbEntity
  8
CUT
100
AcDbBlockReference
  2
BLOCK_19
 10
0.0
 20
0.0
 30
0.0
  0
INSERT
  5
9C
330
1F
100
AcDbEntity
  8
CUT
100
AcDbBlockReference
  2
BLOCK_20
 10
0.0
 20
0.0
 30
0.0
  0
INSERT
  5
A1
330
1F
100
AcDbEntity
  8
CUT
100
AcDbBlockReference
  2
BLOCK_21
 10
0.0
 20
0.0
 30
0.0
  0
INSERT
  5
A6
330
1F
100
AcDbEntity
  8
CUT
100
AcDbBlockReference
  2
BLOCK_22
 10
0.0
 20
0.0
 30
0.0
  0
INSERT
  5
AB
330
1F
100
AcDbEntity
  8
CUT
100
AcDbBlockReference
  2
BLOCK_23
 10
0.0
 20
0.0
 30
0.0
  0
INSERT
  5
B0
330
1F
100
AcDbEntity
  8
CUT
100
AcDbBlockReference
  2
BLOCK_24
 10
0.0
 20
0.0
 30
0.0
  0
INSERT
  5
B5
330
1F
100
AcDbEntity
  8
CUT
100
AcDbBlockReference
  2
BLOCK_25
 10
0.0
 20
0.0
 30
0.0
  0
INSERT
  5
BA
330
1F
100
AcDbEntity
  8
CUT
100
AcDbBlockReference
  2
BLOCK_26
 10
0.0
 20
0.0
 30
0.0
  0
INSERT
  5
BF
330
1F
100
AcDbEntity
  8
CUT
100
AcDbBlockReference
  2
BLOCK_27
 10
0.0
 20
0.0
 30
0.0
  0
INSERT
  5
C4
330
1F
100
AcDbEntity
  8
CUT
100
AcDbBlockReference
  2
BLOCK_28
 10
0.0
 20
0.0
 30
0.0
  0
INSERT
  5
C9
330
1F
100
AcDbEntity
  8
CUT
100
AcDbBlockReference
  2
BLOCK_29
 10
0.0
 20
0.0
 30
0.0
  0
INSERT
  5
CE
330
1F
100
AcDbEntity
  8
CUT
100
AcDbBlockReference
  2
BLOCK_30
 10
0.0
 20
0.0
 30
0.0
  0
INSERT
  5
D3
330
1F
100
AcDbEntity
  8
CUT
100
AcDbBlockReference
  2
BLOCK_31
 10
0.0
 20
0.0
 30
0.0
  0
INSERT
  5
D8
330
1F
100
AcDbEntity
  8
CUT
100
AcDbBlockReference
  2
BLOCK_32
 10
0.0
 20
0.0
 30
0.0
  0
INSERT
  5
DD
330
1F
100
AcDbEntity
  8
CUT
100
AcDbBlockReference
  2
BLOCK_33
 10
0.0
 20
0.0
 30
0.0
  0
INSERT
  5
E2
330
1F
100
AcDbEntity
  8
CUT
100
AcDbBlockReference
  2
BLOCK_34
 10
0.0
 20
0.0
 30
0.0
  0
INSERT
  5
E7
330
1F
100
AcDbEntity
  8
CUT
100
AcDbBlockReference
  2
BLOCK_35
 10
0.0
 20
0.0
 30
0.0
  0
INSERT
  5
EC
330
1F
100
AcDbEntity
  8
CUT
100
AcDbBlockReference
  2
BLOCK_36
 10
0.0
 20
0.0
 30
0.0
  0
INSERT
  5
F1
330
1F
100
AcDbEntity
  8
CUT
100
AcDbBlockReference
  2
BLOCK_37
 10
0.0
 20
0.0
 30
0.0
  0
INSERT
  5
F6
330
1F
100
AcDbEntity
  8
CUT
100
AcDbBlockReference
  2
BLOCK_38
 10
0.0
 20
0.0
 30
0.0
  0
INSERT
  5
FB
330
1F
100
AcDbEntity
  8
CUT
100
AcDbBlockReference
  2
BLOCK_39
 10
0.0
 20
0.0
 30
0.0
  0
INSERT
  5
100
330
1F
100
AcDbEntity
  8
CUT
100
AcDbBlockReference
  2
BLOCK_40
 10
0.0
 20
0.0
 30
0.0
  0
INSERT
  5
105
330
1F
100
AcDbEntity
  8
CUT
100
AcDbBlockReference
  2
BLOCK_41
 10
0.0
 20
0.0
 30
0.0
  0
INSERT
  5
10A
330
1F
100
AcDbEntity
  8
CUT
100
AcDbBlockReference
  2
BLOCK_42
 10
0.0
 20
0.0
 30
0.0
  0
INSERT
  5
10F
330
1F
100
AcDbEntity
  8
CUT
100
AcDbBlockReference
  2
BLOCK_43
 10
0.0
 20
0.0
 30
0.0
  0
INSERT
  5
114
330
1F
100
AcDbEntity
  8
CUT
100
AcDbBlockReference
  2
BLOCK_44
 10
0.0
 20
0.0
 30
0.0
  0
INSERT
  5
119
330
1F
100
AcDbEntity
  8
CUT
100
AcDbBlockReference
  2
BLOCK_45
 10
0.0
 20
0.0
 30
0.0
  0
INSERT
  5
11E
330
1F
100
AcDbEntity
  8
CUT
100
AcDbBlockReference
  2
BLOCK_46
 10
0.0
 20
0.0
 30
0.0
  0
INSERT
  5
123
330
1F
100
AcDbEntity
  8
CUT
100
AcDbBlockReference
  2
BLOCK_47
 10
0.0
 20
0.0
 30
0.0
  0
INSERT
  5
128
330
1F
100
AcDbEntity
  8
CUT
100
AcDbBlockReference
  2
BLOCK_48
 10
0.0
 20
0.0
 30
0.0
  0
INSERT
  5
12D
330
1F
100
AcDbEntity
  8
CUT
100
AcDbBlockReference
  2
BLOCK_49
 10
0.0
 20
0.0
 30
0.0
  0
INSERT
  5
132
330
1F
100
AcDbEntity
  8
CUT
100
AcDbBlockReference
  2
BLOCK_50
 10
0.0
 20
0.0
 30
0.0
  0
INSERT
  5
137
330
1F
100
AcDbEntity
  8
CUT
100
AcDbBlockReference
  2
BLOCK_51
 10
0.0
 20
0.0
 30
0.0
  0
INSERT
  5
13C
330
1F
100
AcDbEntity
  8
CUT
100
AcDbBlockReference
  2
BLOCK_52
 10
0.0
 20
0.0
 30
0.0
  0
INSERT
  5
141
330
1F
100
AcDbEntity
  8
CUT
100
AcDbBlockReference
  2
BLOCK_53
 10
0.0
 20
0.0
 30
0.0
  0
INSERT
  5
146
330
1F
100
AcDbEntity
  8
CUT
100
AcDbBlockReference
  2
BLOCK_54
 10
0.0
 20
0.0
 30
0.0
  0
INSERT
  5
14B
330
1F
100
AcDbEntity
  8
CUT
100
AcDbBlockReference
  2
BLOCK_55
 10
0.0
 20
0.0
 30
0.0
  0
INSERT
  5
150
330
1F
100
AcDbEntity
  8
CUT
100
AcDbBlockReference
  2
BLOCK_56
 10
0.0
 20
0.0
 30
0.0
  0
INSERT
  5
155
330
1F
100
AcDbEntity
  8
CUT
100
AcDbBlockReference
  2
BLOCK_57
 10
0.0
 20
0.0
 30
0.0
  0
INSERT
  5
15A
330
1F
100
AcDbEntity
  8
CUT
100
AcDbBlockReference
  2
BLOCK_58
 10
0.0
 20
0.0
 30
0.0
  0
INSERT
  5
15F
330
1F
100
AcDbEntity
  8
CUT
100
AcDbBlockReference
  2
BLOCK_59
 10
0.0
 20
0.0
 30
0.0
  0
INSERT
  5
164
330
1F
100
AcDbEntity
  8
CUT
100
AcDbBlockReference
  2
BLOCK_60
 10
0.0
 20
0.0
 30
0.0
  0
INSERT
  5
169
330
1F
100
AcDbEntity
  8
CUT
100
AcDbBlockReference
  2
BLOCK_61
 10
0.0
 20
0.0
 30
0.0
  0
INSERT
  5
16E
330
1F
100
AcDbEntity
  8
CUT
100
AcDbBlockReference
  2
BLOCK_62
 10
0.0
 20
0.0
 30
0.0
  0
INSERT
  5
174
330
1F
100
AcDbEntity
  8
OUTLINE
100
AcDbBlockReference
  2
BLOCK_63
 10
0.0
 20
0.0
 30
0.0
  0
SPLINE
  5
179
330
1F
100
AcDbEntity
  8
WASTE
100
AcDbSpline
210
0.0
220
0.0
230
1.0
 70
    11
 71
     3
 72
    17
 73
    13
 74
     0
 42
0.0000000001
 43
0.0000000001
 12
1.0
 22
0.0
 32
0.0
 13
1.0
 23
0.0
 33
0.0
 40
0.0
 40
0.0
 40
0.0
 40
0.0
 40
1.0
 40
1.0
 40
1.0
 40
2.0
 40
2.0
 40
2.0
 40
3.0
 40
3.0
 40
3.0
 40
4.0
 40
4.0
 40
4.0
 40
4.0
 10
-146.8124999632968
 20
103.1874926457665
 30
0.0
 10
-146.8124999632968
 20
241.2586800612469
 30
0.0
 10
-34.88368744127919
 20
353.1874925832643
 30
0.0
 10
103.1874999742031
 20
353.1874925832643
 30
0.0
 10
241.2586873896855
 20
353.1874925832643
 30
0.0
 10
353.1874999117034
 20
241.2586800612469
 30
0.0
 10
353.1874999117034
 20
103.1874926457665
 30
0.0
 10
353.1874999117034
 20
-34.88369476971645
 30
0.0
 10
241.2586873896855
 20
-146.8125072917357
 30
0.0
 10
103.1874999742031
 20
-146.8125072917357
 30
0.0
 10
-34.88368744127919
 20
-146.8125072917357
 30
0.0
 10
-146.8124999632968
 20
-34.88369476971645
 30
0.0
 10
-146.8124999632968
 20
103.1874926457665
 30
0.0
  0
ENDSEC
  0
SECTION
  2
OBJECTS
  0
DICTIONARY
  5
C
330
0
100
AcDbDictionary
  3
ACAD_GROUP
350
D
  3
ACAD_LAYOUT
350
1A
  3
ACAD_MATERIAL
350
3B
  3
ACAD_MLEADERSTYLE
350
19C
  3
ACAD_MLINESTYLE
350
17
  3
ACAD_PLOTSETTINGS
350
19
  3
ACAD_VISUALSTYLE
350
2A
  3
ACDBHEADERROUNDTRIPXREC
350
17A
  3
ACDBVARIABLEDICTIONARY
350
19A
  0
DICTIONARY
  5
D
102
{ACAD_REACTORS
330
C
102
}
330
C
100
AcDbDictionary
  0
DICTIONARY
  5
1A
102
{ACAD_REACTORS
330
C
102
}
330
C
100
AcDbDictionary
  0
DICTIONARY
  5
3B
102
{ACAD_REACTORS
330
C
102
}
330
C
100
AcDbDictionary
  3
BYBLOCK
350
3D
  3
BYLAYER
350
3C
  3
GLOBAL
350
3E
  0
DICTIONARY
  5
19C
102
{ACAD_REACTORS
330
C
102
}
330
C
100
AcDbDictionary
  0
DICTIONARY
  5
17
102
{ACAD_REACTORS
330
C
102
}
330
C
100
AcDbDictionary
  3
STANDARD
350
18
  0
DICTIONARY
  5
19
102
{ACAD_REACTORS
330
C
102
}
330
C
100
AcDbDictionary
  0
DICTIONARY
  5
2A
102
{ACAD_REACTORS
330
C
102
}
330
C
100
AcDbDictionary
  3
2DWIREFRAME
350
2F
  3
3D_HIDDEN
350
31
  3
3DWIREFRAME
350
30
  3
BASIC
350
32
  3
BRIGHTEN
350
36
  3
COLORCHANGE
350
3A
  3
CONCEPTUAL
350
34
  3
DIM
350
35
  3
FACEPATTERN
350
39
  3
FLAT
350
2B
  3
FLATWITHEDGES
350
2C
  3
GOURAUD
350
2D
  3
GOURAUDWITHEDGES
350
2E
  3
LINEPATTERN
350
38
  3
REALISTIC
350
33
  3
THICKEN
350
37
  0
DICTIONARY
  5
17A
102
{ACAD_REACTORS
330
C
102
}
330
C
100
AcDbDictionary
  3
CEPSNTYPE
350
183
  3
DIMSTYLEDATA
350
199
  3
FINGERPRINTGUID
350
184
  3
HYPERLINKBASE
350
17D
  3
INSUNITS
350
182
  3
LAYOUTDICT
350
17F
  3
LWETCUNION
350
181
  3
PLOTSETDICT
350
180
  3
PSVPSCALE
350
186
  3
PUCSBASE
350
189
  3
PUCSORGBACK
350
18F
  3
PUCSORGBOTTOM
350
18B
  3
PUCSORGFRONT
350
18E
  3
PUCSORGLEFT
350
18C
  3
PUCSORGRIGHT
350
18D
  3
PUCSORGTOP
350
18A
  3
PUCSORTHOREF
350
187
  3
PUCSORTHOVIEW
350
188
  3
STYLESHEET
350
17E
  3
TSTACKALIGN
350
17B
  3
TSTACKSIZE
350
17C
  3
UCSBASE
350
192
  3
UCSORGBACK
350
198
  3
UCSORGBOTTOM
350
194
  3
UCSORGFRONT
350
197
  3
UCSORGLEFT
350
195
  3
UCSORGRIGHT
350
196
  3
UCSORGTOP
350
193
  3
UCSORTHOREF
350
190
  3
UCSORTHOVIEW
350
191
  3
VERSIONGUID
350
185
  0
DICTIONARY
  5
19A
102
{ACAD_REACTORS
330
C
102
}
330
C
100
AcDbDictionary
  3
DIMASSOC
350
19D
  3
HIDETEXT
350
19E
  0
MATERIAL
  5
3D
102
{ACAD_REACTORS
330
3B
102
}
102
{ACAD_XDICTIONARY
360
1A1
102
}
330
3B
100
AcDbMaterial
  1
ByBlock
  0
MATERIAL
  5
3C
102
{ACAD_REACTORS
330
3B
102
}
102
{ACAD_XDICTIONARY
360
19F
102
}
330
3B
100
AcDbMaterial
  1
ByLayer
  0
MATERIAL
  5
3E
102
{ACAD_REACTORS
330
3B
102
}
102
{ACAD_XDICTIONARY
360
1A3
102
}
330
3B
100
AcDbMaterial
  1
Global
  0
MLINESTYLE
  5
18
102
{ACAD_REACTORS
330
17
102
}
330
17
100
AcDbMlineStyle
  2
Standard
 70
     0
  3

 62
   256
 51
90.0
 52
90.0
 71
     2
 49
0.5
 62
   256
  6
BYLAYER
 49
-0.5
 62
   256
  6
BYLAYER
  0
ACAD_PROXY_OBJECT
  5
2F
102
{ACAD_REACTORS
330
2A
102
}
330
2A
100
AcDbProxyObject
 90
      499
 91
      501
 93
      436
310
42CC9915DA5C99599C985B595049028333333333333E3BF0000000000000FB0107901411070040501600405405064090741402480A0340
1001
ACAD
1000
AcDbSavedByObjectVersion
1070
     0
  0
ACAD_PROXY_OBJECT
  5
31
102
{ACAD_REACTORS
330
2A
102
}
330
2A
100
AcDbProxyObject
 90
      499
 91
      501
 93
      500
310
424CD108121A5919195B90640502408333333333333E3BF0000000000000FB01079024090700405020000000000001110200405405064090740C02480A0340
1001
ACAD
1000
AcDbSavedByObjectVersion
1070
     0
  0
ACAD_PROXY_OBJECT
  5
30
102
{ACAD_REACTORS
330
2A
102
}
330
2A
100
AcDbProxyObject
 90
      499
 91
      501
 93
      436
310
42CCD915DA5C99599C985B595059028333333333333E3BF0000000000000FB0107901411070040501600405405064090741402480A0340
1001
ACAD
1000
AcDbSavedByObjectVersion
1070
     0
  0
ACAD_PROXY_OBJECT
  5
32
102
{ACAD_REACTORS
330
2A
102
}
330
2A
100
AcDbProxyObject
 90
      499
 91
      501
 93
      388
310
4150985CDA58D07406404333333333333E3BF0000000000000FB0107A41107004050150841D405064090741402480A0350
1001
ACAD
1000
AcDbSavedByObjectVersion
1070
     0
  0
ACAD_PROXY_OBJECT
  5
36
102
{ACAD_REACTORS
330
2A
102
}
330
2A
100
AcDbProxyObject
 90
      499
 91
      501
 93
      428
310
42109C9A59DA1D195B90C409028333333333333E3BF0000000000000FB010790141107004050150841D405064090741402480A029950
1001
ACAD
1000
AcDbSavedByObjectVersion
1070
     0
  0
ACAD_PROXY_OBJECT
  5
3A
102
{ACAD_REACTORS
330
2A
102
}
330
2A
100
AcDbProxyObject
 90
      499
 91
      501
 93
      452
310
42D0DBDB1BDC90DA185B99D95104090240C333333333333E3BF0000000000000FB0108901411070040501508421405064090741402480A0350
1001
ACAD
1000
AcDbSavedByObjectVersion
1070
     0
  0
ACAD_PROXY_OBJECT
  5
34
102
{ACAD_REACTORS
330
2A
102
}
330
2A
100
AcDbProxyObject
 90
      499
 91
      501
 93
      500
310
4290DBDB98D95C1D1D585B10940D028333333333333E3BF0000000000000FB0107902409070040501000000000000111010841D405064090740C02480A0340
1001
ACAD
1000
AcDbSavedByObjectVersion
1070
     0
  0
ACAD_PROXY_OBJECT
  5
35
102
{ACAD_REACTORS
330
2A
102
}
330
2A
100
AcDbProxyObject
 90
      499
 91
      501
 93
      412
310
40D11A5B50B409028333333333333E3BF0000000000000FB010790141107004050150841D405064090741402480A02677FFFFFD0
1001
ACAD
1000
AcDbSavedByObjectVersion
1070
     0
  0
ACAD_PROXY_OBJECT
  5
39
102
{ACAD_REACTORS
330
2A
102
}
330
2A
100
AcDbProxyObject
 90
      499
 91
      501
 93
      444
310
42D19858D95C185D1D195C9B90F409028333333333333E3BF0000000000000FB010790141107004050150841D405064090741402480A0350
1001
ACAD
1000
AcDbSavedByObjectVersion
1070
     0
  0
ACAD_PROXY_OBJECT
  5
2B
102
{ACAD_REACTORS
330
2A
102
}
330
2A
100
AcDbProxyObject
 90
      499
 91
      501
 93
      388
310
41119B185D240901404333333333333E3BF0000000000000F9010740A41107004050150841D405064090741402480A1B50
1001
ACAD
1000
AcDbSavedByObjectVersion
1070
     0
  0
ACAD_PROXY_OBJECT
  5
2C
102
{ACAD_REACTORS
330
2A
102
}
330
2A
100
AcDbProxyObject
 90
      499
 91
      501
 93
      476
310
43519B185D15DA5D1A115919D95CD0140901404333333333333E3BF0000000000000F9010740901411070040501600405405064090741402480A1B50
1001
ACAD
1000
AcDbSavedByObjectVersion
1070
     0
  0
ACAD_PROXY_OBJECT
  5
2D
102
{ACAD_REACTORS
330
2A
102
}
330
2A
100
AcDbProxyObject
 90
      499
 91
      501
 93
      412
310
41D1DBDD5C985D5910240902404333333333333E3BF0000000000000F9010740A411070040501641D405064090741402480A1B50
1001
ACAD
1000
AcDbSavedByObjectVersion
1070
     0
  0
ACAD_PROXY_OBJECT
  5
2E
102
{ACAD_REACTORS
330
2A
102
}
330
2A
100
AcDbProxyObject
 90
      499
 91
      501
 93
      500
310
4411DBDD5C985D5915DA5D1A115919D95CD0340902404333333333333E3BF0000000000000F9010740901411070040501600405405064090741402480A1B50
1001
ACAD
1000
AcDbSavedByObjectVersion
1070
     0
  0
ACAD_PROXY_OBJECT
  5
38
102
{ACAD_REACTORS
330
2A
102
}
330
2A
100
AcDbProxyObject
 90
      499
 91
      501
 93
      444
310
42D31A5B995C185D1D195C9B90E409028333333333333E3BF0000000000000FB010790141107004050750841D405064090741402483A0350
1001
ACAD
1000
AcDbSavedByObjectVersion
1070
     0
  0
ACAD_PROXY_OBJECT
  5
33
102
{ACAD_REACTORS
330
2A
102
}
330
2A
100
AcDbProxyObject
 90
      499
 91
      501
 93
      420
310
425499585B1A5CDD1A58D08409028333333333333E3BF0000000000000FB01079019070040501508421405064090741402480A1B40
1001
ACAD
1000
AcDbSavedByObjectVersion
1070
     0
  0
ACAD_PROXY_OBJECT
  5
37
102
{ACAD_REACTORS
330
2A
102
}
330
2A
100
AcDbProxyObject
 90
      499
 91
      501
 93
      412
310
41D51A1A58DAD95B90D409028333333333333E3BF0000000000000FB010790141107004050150C41D405064090741402480A0350
1001
ACAD
1000
AcDbSavedByObjectVersion
1070
     0
  0
XRECORD
  5
183
102
{ACAD_REACTORS
330
17A
102
}
330
17A
100
AcDbXrecord
 90
        0
  0
XRECORD
  5
199
102
{ACAD_REACTORS
330
17A
102
}
330
17A
100
AcDbXrecord
1000
DSTYLE
1002
{
1070
   340
340
11
1002
}
  0
XRECORD
  5
184
102
{ACAD_REACTORS
330
17A
102
}
330
17A
100
AcDbXrecord
  1
{09FA2A99-E234-4940-B296-D1288D527B1F}
  0
XRECORD
  5
17D
102
{ACAD_REACTORS
330
17A
102
}
330
17A
100
AcDbXrecord
  1

  0
XRECORD
  5
182
102
{ACAD_REACTORS
330
17A
102
}
330
17A
100
AcDbXrecord
 90
        1
  0
XRECORD
  5
17F
102
{ACAD_REACTORS
330
17A
102
}
330
17A
100
AcDbXrecord
340
1A
  0
XRECORD
  5
181
102
{ACAD_REACTORS
330
17A
102
}
330
17A
100
AcDbXrecord
 90
    10269
  0
XRECORD
  5
180
102
{ACAD_REACTORS
330
17A
102
}
330
17A
100
AcDbXrecord
340
19
  0
XRECORD
  5
186
102
{ACAD_REACTORS
330
17A
102
}
330
17A
100
AcDbXrecord
 40
0.0
  0
XRECORD
  5
189
102
{ACAD_REACTORS
330
17A
102
}
330
17A
100
AcDbXrecord
340
0
  0
XRECORD
  5
18F
102
{ACAD_REACTORS
330
17A
102
}
330
17A
100
AcDbXrecord
 10
0.0
 20
0.0
 30
0.0
  0
XRECORD
  5
18B
102
{ACAD_REACTORS
330
17A
102
}
330
17A
100
AcDbXrecord
 10
0.0
 20
0.0
 30
0.0
  0
XRECORD
  5
18E
102
{ACAD_REACTORS
330
17A
102
}
330
17A
100
AcDbXrecord
 10
0.0
 20
0.0
 30
0.0
  0
XRECORD
  5
18C
102
{ACAD_REACTORS
330
17A
102
}
330
17A
100
AcDbXrecord
 10
0.0
 20
0.0
 30
0.0
  0
XRECORD
  5
18D
102
{ACAD_REACTORS
330
17A
102
}
330
17A
100
AcDbXrecord
 10
0.0
 20
0.0
 30
0.0
  0
XRECORD
  5
18A
102
{ACAD_REACTORS
330
17A
102
}
330
17A
100
AcDbXrecord
 10
0.0
 20
0.0
 30
0.0
  0
XRECORD
  5
187
102
{ACAD_REACTORS
330
17A
102
}
330
17A
100
AcDbXrecord
340
0
  0
XRECORD
  5
188
102
{ACAD_REACTORS
330
17A
102
}
330
17A
100
AcDbXrecord
 70
     0
  0
XRECORD
  5
17E
102
{ACAD_REACTORS
330
17A
102
}
330
17A
100
AcDbXrecord
  1

  0
XRECORD
  5
17B
102
{ACAD_REACTORS
330
17A
102
}
330
17A
100
AcDbXrecord
 90
        1
  0
XRECORD
  5
17C
102
{ACAD_REACTORS
330
17A
102
}
330
17A
100
AcDbXrecord
 90
       70
  0
XRECORD
  5
192
102
{ACAD_REACTORS
330
17A
102
}
330
17A
100
AcDbXrecord
340
0
  0
XRECORD
  5
198
102
{ACAD_REACTORS
330
17A
102
}
330
17A
100
AcDbXrecord
 10
0.0
 20
0.0
 30
0.0
  0
XRECORD
  5
194
102
{ACAD_REACTORS
330
17A
102
}
330
17A
100
AcDbXrecord
 10
0.0
 20
0.0
 30
0.0
  0
XRECORD
  5
197
102
{ACAD_REACTORS
330
17A
102
}
330
17A
100
AcDbXrecord
 10
0.0
 20
0.0
 30
0.0
  0
XRECORD
  5
195
102
{ACAD_REACTORS
330
17A
102
}
330
17A
100
AcDbXrecord
 10
0.0
 20
0.0
 30
0.0
  0
XRECORD
  5
196
102
{ACAD_REACTORS
330
17A
102
}
330
17A
100
AcDbXrecord
 10
0.0
 20
0.0
 30
0.0
  0
XRECORD
  5
193
102
{ACAD_REACTORS
330
17A
102
}
330
17A
100
AcDbXrecord
 10
0.0
 20
0.0
 30
0.0
  0
XRECORD
  5
190
102
{ACAD_REACTORS
330
17A
102
}
330
17A
100
AcDbXrecord
340
0
  0
XRECORD
  5
191
102
{ACAD_REACTORS
330
17A
102
}
330
17A
100
AcDbXrecord
 70
     0
  0
XRECORD
  5
185
102
{ACAD_REACTORS
330
17A
102
}
330
17A
100
AcDbXrecord
  1
{FAEB1C32-E019-11D5-929B-00C0DF256EC4}
  0
DICTIONARYVAR
  5
19D
102
{ACAD_REACTORS
330
19A
102
}
330
19A
100
DictionaryVariables
280
     0
  1
2
  0
DICTIONARYVAR
  5
19E
102
{ACAD_REACTORS
330
19A
102
}
330
19A
100
DictionaryVariables
280
     0
  1
1
  0
DICTIONARY
  5
1A1
330
3D
100
AcDbDictionary
280
     1
  3
ACAD_XREC_ROUNDTRIP
360
1A2
  0
DICTIONARY
  5
19F
330
3C
100
AcDbDictionary
280
     1
  3
ACAD_XREC_ROUNDTRIP
360
1A0
  0
DICTIONARY
  5
1A3
330
3E
100
AcDbDictionary
280
     1
  3
ACAD_XREC_ROUNDTRIP
360
1A4
  0
XRECORD
  5
1A2
102
{ACAD_REACTORS
330
1A1
102
}
330
1A1
100
AcDbXrecord
102
MATERIAL
148
0.0
149
0.0
149
0.0
 93
        0
 94
      127
282
     0
 72
     1
 77
     1
171
     1
175
     1
179
     1
273
     0
  0
XRECORD
  5
1A0
102
{ACAD_REACTORS
330
19F
102
}
330
19F
100
AcDbXrecord
102
MATERIAL
148
0.0
149
0.0
149
0.0
 93
        0
 94
      127
282
     0
 72
     1
 77
     1
171
     1
175
     1
179
     1
273
     0
  0
XRECORD
  5
1A4
102
{ACAD_REACTORS
330
1A3
102
}
330
1A3
100
AcDbXrecord
102
MATERIAL
148
0.0
149
0.0
149
0.0
 93
        0
 94
      127
282
     0
 72
     1
 77
     1
171
     1
175
     1
179
     1
273
     0
  0
ENDSEC
  0
EOF
