  0
SECTION
  2
HEADER
  9
$ACADVER
  1
AC1018
  9
$ACADMAINTVER
 70
     0
  9
$DWGCODEPAGE
  3
ANSI_1252
  9
$INSBASE
 10
0.0
 20
0.0
 30
0.0
  9
$EXTMIN
 10
-581.9208755178606
 20
-77.57084359096778
 30
0.0
  9
$EXTMAX
 10
-80.0969807424687
 20
88.15244522534478
 30
0.0
  9
$LIMMIN
 10
0.0
 20
0.0
  9
$LIMMAX
 10
12.0
 20
9.0
  9
$ORTHOMODE
 70
     0
  9
$REGENMODE
 70
     1
  9
$FILLMODE
 70
     1
  9
$QTEXTMODE
 70
     0
  9
$MIRRTEXT
 70
     1
  9
$LTSCALE
 40
1.0
  9
$ATTMODE
 70
     1
  9
$TEXTSIZE
 40
0.2
  9
$TRACEWID
 40
0.05
  9
$TEXTSTYLE
  7
Standard
  9
$CLAYER
  8
Cara_sup (Fieltro_Rojo)
  9
$CELTYPE
  6
ByLayer
  9
$CECOLOR
 62
   256
  9
$CELTSCALE
 40
1.0
  9
$DISPSILH
 70
     0
  9
$DIMSCALE
 40
1.0
  9
$DIMASZ
 40
0.18
  9
$DIMEXO
 40
0.0625
  9
$DIMDLI
 40
0.38
  9
$DIMRND
 40
0.0
  9
$DIMDLE
 40
0.0
  9
$DIMEXE
 40
0.18
  9
$DIMTP
 40
0.0
  9
$DIMTM
 40
0.0
  9
$DIMTXT
 40
0.18
  9
$DIMCEN
 40
0.09
  9
$DIMTSZ
 40
0.0
  9
$DIMTOL
 70
     0
  9
$DIMLIM
 70
     0
  9
$DIMTIH
 70
     1
  9
$DIMTOH
 70
     1
  9
$DIMSE1
 70
     0
  9
$DIMSE2
 70
     0
  9
$DIMTAD
 70
     0
  9
$DIMZIN
 70
     0
  9
$DIMBLK
  1

  9
$DIMASO
 70
     1
  9
$DIMSHO
 70
     1
  9
$DIMPOST
  1

  9
$DIMAPOST
  1

  9
$DIMALT
 70
     0
  9
$DIMALTD
 70
     2
  9
$DIMALTF
 40
25.4
  9
$DIMLFAC
 40
1.0
  9
$DIMTOFL
 70
     0
  9
$DIMTVP
 40
0.0
  9
$DIMTIX
 70
     0
  9
$DIMSOXD
 70
     0
  9
$DIMSAH
 70
     0
  9
$DIMBLK1
  1

  9
$DIMBLK2
  1

  9
$DIMSTYLE
  2
Standard
  9
$DIMCLRD
 70
     0
  9
$DIMCLRE
 70
     0
  9
$DIMCLRT
 70
     0
  9
$DIMTFAC
 40
1.0
  9
$DIMGAP
 40
0.09
  9
$DIMJUST
 70
     0
  9
$DIMSD1
 70
     0
  9
$DIMSD2
 70
     0
  9
$DIMTOLJ
 70
     1
  9
$DIMTZIN
 70
     0
  9
$DIMALTZ
 70
     0
  9
$DIMALTTZ
 70
     0
  9
$DIMUPT
 70
     0
  9
$DIMDEC
 70
     4
  9
$DIMTDEC
 70
     4
  9
$DIMALTU
 70
     2
  9
$DIMALTTD
 70
     2
  9
$DIMTXSTY
  7
Standard
  9
$DIMAUNIT
 70
     0
  9
$DIMADEC
 70
     0
  9
$DIMALTRND
 40
0.0
  9
$DIMAZIN
 70
     0
  9
$DIMDSEP
 70
    46
  9
$DIMATFIT
 70
     3
  9
$DIMFRAC
 70
     0
  9
$DIMLDRBLK
  1

  9
$DIMLUNIT
 70
     2
  9
$DIMLWD
 70
    -2
  9
$DIMLWE
 70
    -2
  9
$DIMTMOVE
 70
     2
  9
$LUNITS
 70
     2
  9
$LUPREC
 70
     3
  9
$SKETCHINC
 40
0.1
  9
$FILLETRAD
 40
0.5
  9
$AUNITS
 70
     0
  9
$AUPREC
 70
     0
  9
$MENU
  1
.
  9
$ELEVATION
 40
0.0
  9
$PELEVATION
 40
0.0
  9
$THICKNESS
 40
0.0
  9
$LIMCHECK
 70
     0
  9
$CHAMFERA
 40
0.0
  9
$CHAMFERB
 40
0.0
  9
$CHAMFERC
 40
0.0
  9
$CHAMFERD
 40
0.0
  9
$SKPOLY
 70
     0
  9
$TDCREATE
 40
2457327.867133866
  9
$TDUCREATE
 40
2457328.075467199
  9
$TDUPDATE
 40
2457327.867155926
  9
$TDUUPDATE
 40
2457328.075489259
  9
$TDINDWG
 40
0.0000000116
  9
$TDUSRTIMER
 40
0.0000000116
  9
$USRTIMER
 70
     1
  9
$ANGBASE
 50
0.0
  9
$ANGDIR
 70
     0
  9
$PDMODE
 70
     0
  9
$PDSIZE
 40
0.0
  9
$PLINEWID
 40
0.0
  9
$SPLFRAME
 70
     0
  9
$SPLINETYPE
 70
     6
  9
$SPLINESEGS
 70
     8
  9
$HANDSEED
  5
2BE
  9
$SURFTAB1
 70
     6
  9
$SURFTAB2
 70
     6
  9
$SURFTYPE
 70
     6
  9
$SURFU
 70
     6
  9
$SURFV
 70
     6
  9
$UCSBASE
  2

  9
$UCSNAME
  2

  9
$UCSORG
 10
0.0
 20
0.0
 30
0.0
  9
$UCSXDIR
 10
1.0
 20
0.0
 30
0.0
  9
$UCSYDIR
 10
0.0
 20
1.0
 30
0.0
  9
$UCSORTHOREF
  2

  9
$UCSORTHOVIEW
 70
     0
  9
$UCSORGTOP
 10
0.0
 20
0.0
 30
0.0
  9
$UCSORGBOTTOM
 10
0.0
 20
0.0
 30
0.0
  9
$UCSORGLEFT
 10
0.0
 20
0.0
 30
0.0
  9
$UCSORGRIGHT
 10
0.0
 20
0.0
 30
0.0
  9
$UCSORGFRONT
 10
0.0
 20
0.0
 30
0.0
  9
$UCSORGBACK
 10
0.0
 20
0.0
 30
0.0
  9
$PUCSBASE
  2

  9
$PUCSNAME
  2

  9
$PUCSORG
 10
0.0
 20
0.0
 30
0.0
  9
$PUCSXDIR
 10
1.0
 20
0.0
 30
0.0
  9
$PUCSYDIR
 10
0.0
 20
1.0
 30
0.0
  9
$PUCSORTHOREF
  2

  9
$PUCSORTHOVIEW
 70
     0
  9
$PUCSORGTOP
 10
0.0
 20
0.0
 30
0.0
  9
$PUCSORGBOTTOM
 10
0.0
 20
0.0
 30
0.0
  9
$PUCSORGLEFT
 10
0.0
 20
0.0
 30
0.0
  9
$PUCSORGRIGHT
 10
0.0
 20
0.0
 30
0.0
  9
$PUCSORGFRONT
 10
0.0
 20
0.0
 30
0.0
  9
$PUCSORGBACK
 10
0.0
 20
0.0
 30
0.0
  9
$USERI1
 70
     0
  9
$USERI2
 70
     0
  9
$USERI3
 70
     0
  9
$USERI4
 70
     0
  9
$USERI5
 70
     0
  9
$USERR1
 40
0.0
  9
$USERR2
 40
0.0
  9
$USERR3
 40
0.0
  9
$USERR4
 40
0.0
  9
$USERR5
 40
0.0
  9
$WORLDVIEW
 70
     1
  9
$SHADEDGE
 70
     3
  9
$SHADEDIF
 70
    70
  9
$TILEMODE
 70
     1
  9
$MAXACTVP
 70
    64
  9
$PINSBASE
 10
0.0
 20
0.0
 30
0.0
  9
$PLIMCHECK
 70
     0
  9
$PEXTMIN
 10
1.000000000000000E+20
 20
1.000000000000000E+20
 30
1.000000000000000E+20
  9
$PEXTMAX
 10
-1.000000000000000E+20
 20
-1.000000000000000E+20
 30
-1.000000000000000E+20
  9
$PLIMMIN
 10
0.0
 20
0.0
  9
$PLIMMAX
 10
12.0
 20
9.0
  9
$UNITMODE
 70
     0
  9
$VISRETAIN
 70
     1
  9
$PLINEGEN
 70
     0
  9
$PSLTSCALE
 70
     1
  9
$TREEDEPTH
 70
  3020
  9
$CMLSTYLE
  2
Standard
  9
$CMLJUST
 70
     0
  9
$CMLSCALE
 40
1.0
  9
$PROXYGRAPHICS
 70
     1
  9
$MEASUREMENT
 70
     0
  9
$CELWEIGHT
370
    -1
  9
$ENDCAPS
280
     0
  9
$JOINSTYLE
280
     0
  9
$LWDISPLAY
290
     0
  9
$INSUNITS
 70
     4
  9
$HYPERLINKBASE
  1

  9
$STYLESHEET
  1

  9
$XEDIT
290
     1
  9
$CEPSNTYPE
380
     0
  9
$PSTYLEMODE
290
     1
  9
$FINGERPRINTGUID
  2
{04638969-28BB-48F4-AD06-C8B7C68897DF}
  9
$VERSIONGUID
  2
{FAEB1C32-E019-11D5-929B-00C0DF256EC4}
  9
$EXTNAMES
290
     1
  9
$PSVPSCALE
 40
0.0
  9
$OLESTARTUP
290
     0
  9
$SORTENTS
280
   127
  9
$INDEXCTL
280
     0
  9
$HIDETEXT
280
     1
  9
$XCLIPFRAME
290
     0
  9
$HALOGAP
280
     0
  9
$OBSCOLOR
 70
   257
  9
$OBSLTYPE
280
     0
  9
$INTERSECTIONDISPLAY
280
     0
  9
$INTERSECTIONCOLOR
 70
   257
  9
$DIMASSOC
280
     2
  9
$PROJECTNAME
  1

  0
ENDSEC
  0
SECTION
  2
CLASSES
  0
CLASS
  1
ACDBDICTIONARYWDFLT
  2
AcDbDictionaryWithDefault
  3
ObjectDBX Classes
 90
        0
 91
        4
280
     0
281
     0
  0
CLASS
  1
VISUALSTYLE
  2
AcDbVisualStyle
  3
ObjectDBX Classes
 90
     4095
 91
        4
280
     0
281
     0
  0
CLASS
  1
MATERIAL
  2
AcDbMaterial
  3
ObjectDBX Classes
 90
     1153
 91
        4
280
     0
281
     0
  0
CLASS
  1
SCALE
  2
AcDbScale
  3
ObjectDBX Classes
 90
     1153
 91
        4
280
     0
281
     0
  0
CLASS
  1
SUN
  2
AcDbSun
  3
SCENEOE
 90
     1153
 91
        4
280
     0
281
     0
  0
CLASS
  1
DICTIONARYVAR
  2
AcDbDictionaryVar
  3
ObjectDBX Classes
 90
        0
 91
        4
280
     0
281
     0
  0
ENDSEC
  0
SECTION
  2
TABLES
  0
TABLE
  2
VPORT
  5
8
330
0
100
AcDbSymbolTable
 70
     1
  0
VPORT
  5
29
330
8
100
AcDbSymbolTableRecord
100
AcDbViewportTableRecord
  2
*Active
 70
     0
 10
0.0
 20
0.0
 11
1.0
 21
1.0
 12
-331.0089281301647
 22
5.290800817188497
 13
0.0
 23
0.0
 14
0.5
 24
0.5
 15
0.5
 25
0.5
 16
0.0
 26
0.0
 36
1.0
 17
0.0
 27
0.0
 37
0.0
 40
169.0377545926388
 41
3.028083127964065
 42
50.0
 43
0.0
 44
0.0
 50
0.0
 51
0.0
 71
     0
 72
   100
 73
     1
 74
     3
 75
     0
 76
     0
 77
     0
 78
     0
281
     0
 65
     1
110
0.0
120
0.0
130
0.0
111
1.0
121
0.0
131
0.0
112
0.0
122
1.0
132
0.0
 79
     0
146
0.0
  0
ENDTAB
  0
TABLE
  2
LTYPE
  5
5
330
0
100
AcDbSymbolTable
 70
     1
  0
LTYPE
  5
14
330
5
100
AcDbSymbolTableRecord
100
AcDbLinetypeTableRecord
  2
ByBlock
 70
     0
  3

 72
    65
 73
     0
 40
0.0
  0
LTYPE
  5
15
330
5
100
AcDbSymbolTableRecord
100
AcDbLinetypeTableRecord
  2
ByLayer
 70
     0
  3

 72
    65
 73
     0
 40
0.0
  0
LTYPE
  5
16
330
5
100
AcDbSymbolTableRecord
100
AcDbLinetypeTableRecord
  2
Continuous
 70
     0
  3
Solid line
 72
    65
 73
     0
 40
0.0
  0
ENDTAB
  0
TABLE
  2
LAYER
  5
2
330
0
100
AcDbSymbolTable
 70
     8
  0
LAYER
  5
10
330
2
100
AcDbSymbolTableRecord
100
AcDbLayerTableRecord
  2
0
 70
     0
 62
     7
  6
Continuous
370
    -3
390
F
  0
LAYER
  5
6A
330
2
100
AcDbSymbolTableRecord
100
AcDbLayerTableRecord
  2
Vistas
 70
     0
 62
    18
420
        0
  6
Continuous
370
    -3
390
F
  0
LAYER
  5
20D
330
2
100
AcDbSymbolTableRecord
100
AcDbLayerTableRecord
  2
Cara_sup (Fieltro_Rojo)
 70
     0
 62
     5
420
      255
  6
Continuous
370
    -3
390
F
  0
LAYER
  5
210
330
2
100
AcDbSymbolTableRecord
100
AcDbLayerTableRecord
  2
Ojos_Marco (Fieltro_Blanco)
 70
     0
 62
     3
420
    65280
  6
Continuous
370
    -3
390
F
  0
LAYER
  5
227
330
2
100
AcDbSymbolTableRecord
100
AcDbLayerTableRecord
  2
Battery_holder (Fieltro_Rojo)
 70
     0
 62
     5
420
      255
  6
Continuous
370
    -3
390
F
  0
LAYER
  5
23A
330
2
100
AcDbSymbolTableRecord
100
AcDbLayerTableRecord
  2
Cara_inf (Fieltro_Rojo)
 70
     0
 62
     5
420
      255
  6
Continuous
370
    -3
390
F
  0
LAYER
  5
25B
330
2
100
AcDbSymbolTableRecord
100
AcDbLayerTableRecord
  2
Lineas_de_costura
 70
     0
 62
    -4
420
    65535
  6
Continuous
370
    -3
390
F
  0
LAYER
  5
267
330
2
100
AcDbSymbolTableRecord
100
AcDbLayerTableRecord
  2
Circuito (Mica_Transparente)
 70
     0
 62
     1
420
 16711680
  6
Continuous
370
    -3
390
F
  0
ENDTAB
  0
TABLE
  2
STYLE
  5
3
330
0
100
AcDbSymbolTable
 70
     1
  0
STYLE
  5
11
330
3
100
AcDbSymbolTableRecord
100
AcDbTextStyleTableRecord
  2
Standard
 70
     0
 40
0.0
 41
1.0
 50
0.0
 71
     0
 42
0.2
  3
txt
  4

  0
ENDTAB
  0
TABLE
  2
VIEW
  5
6
330
0
100
AcDbSymbolTable
 70
     0
  0
ENDTAB
  0
TABLE
  2
UCS
  5
7
330
0
100
AcDbSymbolTable
 70
     0
  0
ENDTAB
  0
TABLE
  2
APPID
  5
9
330
0
100
AcDbSymbolTable
 70
     1
  0
APPID
  5
12
330
9
100
AcDbSymbolTableRecord
100
AcDbRegAppTableRecord
  2
ACAD
 70
     0
  0
ENDTAB
  0
TABLE
  2
DIMSTYLE
  5
A
330
0
100
AcDbSymbolTable
 70
     1
100
AcDbDimStyleTable
  0
DIMSTYLE
105
27
330
A
100
AcDbSymbolTableRecord
100
AcDbDimStyleTableRecord
  2
Standard
 70
     0
178
     0
340
11
  0
ENDTAB
  0
TABLE
  2
BLOCK_RECORD
  5
1
330
0
100
AcDbSymbolTable
 70
     1
  0
BLOCK_RECORD
  5
1F
330
1
100
AcDbSymbolTableRecord
100
AcDbBlockTableRecord
  2
*Model_Space
340
22
  0
BLOCK_RECORD
  5
1B
330
1
100
AcDbSymbolTableRecord
100
AcDbBlockTableRecord
  2
*Paper_Space
340
1E
  0
BLOCK_RECORD
  5
23
330
1
100
AcDbSymbolTableRecord
100
AcDbBlockTableRecord
  2
*Paper_Space0
340
26
  0
ENDTAB
  0
ENDSEC
  0
SECTION
  2
BLOCKS
  0
BLOCK
  5
20
330
1F
100
AcDbEntity
  8
0
100
AcDbBlockBegin
  2
*Model_Space
 70
     0
 10
0.0
 20
0.0
 30
0.0
  3
*Model_Space
  1
*Model_Space
  0
ENDBLK
  5
21
330
1F
100
AcDbEntity
  8
0
100
AcDbBlockEnd
  0
BLOCK
  5
1C
330
1B
100
AcDbEntity
 67
     1
  8
0
100
AcDbBlockBegin
  2
*Paper_Space
 70
     0
 10
0.0
 20
0.0
 30
0.0
  3
*Paper_Space
  1
*Paper_Space
  0
ENDBLK
  5
1D
330
1B
100
AcDbEntity
 67
     1
  8
0
100
AcDbBlockEnd
  0
BLOCK
  5
24
330
23
100
AcDbEntity
  8
0
100
AcDbBlockBegin
  2
*Paper_Space0
 70
     0
 10
0.0
 20
0.0
 30
0.0
  3
*Paper_Space0
  1
*Paper_Space0
  0
ENDBLK
  5
25
330
23
100
AcDbEntity
  8
0
100
AcDbBlockEnd
  0
ENDSEC
  0
SECTION
  2
ENTITIES
  0
LINE
  5
6B
330
1F
100
AcDbEntity
  8
Vistas
100
AcDbLine
 10
-532.752124861923
 20
-57.18050521363723
 30
0.0
 11
-532.752124861923
 21
-52.21136941116809
 31
0.0
  0
LINE
  5
6C
330
1F
100
AcDbEntity
  8
Vistas
100
AcDbLine
 10
-532.752124861923
 20
-52.21136941116809
 30
0.0
 11
-529.3570631335278
 21
-52.21136941116809
 31
0.0
  0
LINE
  5
6D
330
1F
100
AcDbEntity
  8
Vistas
100
AcDbLine
 10
-529.3570631335278
 20
-52.21136941116809
 30
0.0
 11
-529.3570631335278
 21
-53.04470274450142
 31
0.0
  0
LINE
  5
6E
330
1F
100
AcDbEntity
  8
Vistas
100
AcDbLine
 10
-529.3570631335278
 20
-53.04470274450142
 30
0.0
 11
-531.7336063434044
 21
-53.04470274450142
 31
0.0
  0
LINE
  5
6F
330
1F
100
AcDbEntity
  8
Vistas
100
AcDbLine
 10
-531.7336063434044
 20
-53.04470274450142
 30
0.0
 11
-531.7336063434044
 21
-54.24840644820512
 31
0.0
  0
LINE
  5
70
330
1F
100
AcDbEntity
  8
Vistas
100
AcDbLine
 10
-531.7336063434044
 20
-54.24840644820512
 30
0.0
 11
-529.6657051088365
 21
-54.24840644820512
 31
0.0
  0
LINE
  5
71
330
1F
100
AcDbEntity
  8
Vistas
100
AcDbLine
 10
-529.6657051088365
 20
-54.24840644820512
 30
0.0
 11
-529.6657051088365
 21
-55.08173978153846
 31
0.0
  0
LINE
  5
72
330
1F
100
AcDbEntity
  8
Vistas
100
AcDbLine
 10
-529.6657051088365
 20
-55.08173978153846
 30
0.0
 11
-531.7336063434044
 21
-55.08173978153846
 31
0.0
  0
LINE
  5
73
330
1F
100
AcDbEntity
  8
Vistas
100
AcDbLine
 10
-531.7336063434044
 20
-55.08173978153846
 30
0.0
 11
-531.7336063434044
 21
-57.18050521363723
 31
0.0
  0
LINE
  5
74
330
1F
100
AcDbEntity
  8
Vistas
100
AcDbLine
 10
-531.7336063434044
 20
-57.18050521363723
 30
0.0
 11
-532.752124861923
 21
-57.18050521363723
 31
0.0
  0
LINE
  5
75
330
1F
100
AcDbEntity
  8
Vistas
100
AcDbLine
 10
-528.5237298001946
 20
-57.18050521363723
 30
0.0
 11
-528.5237298001946
 21
-52.21136941116809
 31
0.0
  0
LINE
  5
76
330
1F
100
AcDbEntity
  8
Vistas
100
AcDbLine
 10
-528.5237298001946
 20
-52.21136941116809
 30
0.0
 11
-526.4230353263152
 21
-52.21136941116809
 31
0.0
  0
SPLINE
  5
77
330
1F
100
AcDbEntity
  8
Vistas
100
AcDbSpline
210
0.0
220
0.0
230
1.0
 70
     8
 71
     2
 72
     6
 73
     3
 74
     0
 42
0.000000001
 43
0.0000000001
 40
2.0
 40
2.0
 40
2.0
 40
3.0
 40
3.0
 40
3.0
 10
-526.4230353263152
 20
-52.21136941116809
 30
0.0
 10
-525.6302109284579
 20
-52.21136941116809
 30
0.0
 10
-525.2711736785482
 20
-52.34543569560568
 30
0.0
  0
SPLINE
  5
78
330
1F
100
AcDbEntity
  8
Vistas
100
AcDbSpline
210
0.0
220
0.0
230
1.0
 70
     8
 71
     2
 72
     6
 73
     3
 74
     0
 42
0.000000001
 43
0.0000000001
 40
3.0
 40
3.0
 40
3.0
 40
4.0
 40
4.0
 40
4.0
 10
-525.2711736785482
 20
-52.34543569560568
 30
0.0
 10
-524.9121364286383
 20
-52.47950198004327
 30
0.0
 10
-524.6963281761448
 20
-52.82262510622125
 30
0.0
  0
SPLINE
  5
79
330
1F
100
AcDbEntity
  8
Vistas
100
AcDbSpline
210
0.0
220
0.0
230
1.0
 70
     8
 71
     2
 72
     6
 73
     3
 74
     0
 42
0.000000001
 43
0.0000000001
 40
4.0
 40
4.0
 40
4.0
 40
5.0
 40
5.0
 40
5.0
 10
-524.6963281761448
 20
-52.82262510622125
 30
0.0
 10
-524.4805199236514
 20
-53.16574823239923
 30
0.0
 10
-524.4805199236514
 20
-53.60700947533133
 30
0.0
  0
SPLINE
  5
7A
330
1F
100
AcDbEntity
  8
Vistas
100
AcDbSpline
210
0.0
220
0.0
230
1.0
 70
     8
 71
     2
 72
     6
 73
     3
 74
     0
 42
0.000000001
 43
0.0000000001
 40
5.0
 40
5.0
 40
5.0
 40
6.0
 40
6.0
 40
6.0
 10
-524.4805199236514
 20
-53.60700947533133
 30
0.0
 10
-524.4805199236514
 20
-54.16738763533819
 30
0.0
 10
-524.8043528675029
 20
-54.53245314081213
 30
0.0
  0
SPLINE
  5
7B
330
1F
100
AcDbEntity
  8
Vistas
100
AcDbSpline
210
0.0
220
0.0
230
1.0
 70
     8
 71
     2
 72
     6
 73
     3
 74
     0
 42
0.000000001
 43
0.0000000001
 40
6.0
 40
6.0
 40
6.0
 40
7.0
 40
7.0
 40
7.0
 10
-524.8043528675029
 20
-54.53245314081213
 30
0.0
 10
-525.1281858113543
 20
-54.89751864628607
 30
0.0
 10
-525.7724758759415
 20
-54.99252254110431
 30
0.0
  0
SPLINE
  5
7C
330
1F
100
AcDbEntity
  8
Vistas
100
AcDbSpline
210
0.0
220
0.0
230
1.0
 70
     8
 71
     2
 72
     6
 73
     3
 74
     0
 42
0.000000001
 43
0.0000000001
 40
7.0
 40
7.0
 40
7.0
 40
8.0
 40
8.0
 40
8.0
 10
-525.7724758759415
 20
-54.99252254110431
 30
0.0
 10
-525.4512951290594
 20
-55.18204807029567
 30
0.0
 10
-525.2424796530204
 20
-55.40846605258201
 30
0.0
  0
SPLINE
  5
7D
330
1F
100
AcDbEntity
  8
Vistas
100
AcDbSpline
210
0.0
220
0.0
230
1.0
 70
     8
 71
     2
 72
     6
 73
     3
 74
     0
 42
0.000000001
 43
0.0000000001
 40
8.0
 40
8.0
 40
8.0
 40
9.0
 40
9.0
 40
9.0
 10
-525.2424796530204
 20
-55.40846605258201
 30
0.0
 10
-525.0336641769812
 20
-55.63488403486836
 30
0.0
 10
-524.6792079303427
 20
-56.21310536038757
 30
0.0
  0
LINE
  5
7E
330
1F
100
AcDbEntity
  8
Vistas
100
AcDbLine
 10
-524.6792079303427
 20
-56.21310536038757
 30
0.0
 11
-524.0792853557501
 21
-57.18050521363723
 31
0.0
  0
LINE
  5
7F
330
1F
100
AcDbEntity
  8
Vistas
100
AcDbLine
 10
-524.0792853557501
 20
-57.18050521363723
 30
0.0
 11
-525.2728615901061
 21
-57.18050521363723
 31
0.0
  0
LINE
  5
80
330
1F
100
AcDbEntity
  8
Vistas
100
AcDbLine
 10
-525.2728615901061
 20
-57.18050521363723
 30
0.0
 11
-525.9798445706451
 21
-56.1017046104349
 31
0.0
  0
SPLINE
  5
81
330
1F
100
AcDbEntity
  8
Vistas
100
AcDbSpline
210
0.0
220
0.0
230
1.0
 70
     8
 71
     2
 72
     6
 73
     3
 74
     0
 42
0.000000001
 43
0.0000000001
 40
12.0
 40
12.0
 40
12.0
 40
13.0
 40
13.0
 40
13.0
 10
-525.9798445706451
 20
-56.1017046104349
 30
0.0
 10
-526.362753712589
 20
-55.52444780580596
 30
0.0
 10
-526.5038125380022
 20
-55.37422603193524
 30
0.0
  0
SPLINE
  5
82
330
1F
100
AcDbEntity
  8
Vistas
100
AcDbSpline
210
0.0
220
0.0
230
1.0
 70
     8
 71
     2
 72
     6
 73
     3
 74
     0
 42
0.000000001
 43
0.0000000001
 40
13.0
 40
13.0
 40
13.0
 40
14.0
 40
14.0
 40
14.0
 10
-526.5038125380022
 20
-55.37422603193524
 30
0.0
 10
-526.6448713634154
 20
-55.22400425806453
 30
0.0
 10
-526.8028093044082
 20
-55.16830411856692
 30
0.0
  0
SPLINE
  5
83
330
1F
100
AcDbEntity
  8
Vistas
100
AcDbSpline
210
0.0
220
0.0
230
1.0
 70
     8
 71
     2
 72
     6
 73
     3
 74
     0
 42
0.000000001
 43
0.0000000001
 40
14.0
 40
14.0
 40
14.0
 40
15.0
 40
15.0
 40
15.0
 10
-526.8028093044082
 20
-55.16830411856692
 30
0.0
 10
-526.9607472454011
 20
-55.11260397906933
 30
0.0
 10
-527.3036292413565
 20
-55.11260397906933
 30
0.0
  0
LINE
  5
84
330
1F
100
AcDbEntity
  8
Vistas
100
AcDbLine
 10
-527.3036292413565
 20
-55.11260397906933
 30
0.0
 11
-527.5052112816761
 21
-55.11260397906933
 31
0.0
  0
LINE
  5
85
330
1F
100
AcDbEntity
  8
Vistas
100
AcDbLine
 10
-527.5052112816761
 20
-55.11260397906933
 30
0.0
 11
-527.5052112816761
 21
-57.18050521363723
 31
0.0
  0
LINE
  5
86
330
1F
100
AcDbEntity
  8
Vistas
100
AcDbLine
 10
-527.5052112816761
 20
-57.18050521363723
 30
0.0
 11
-528.5237298001946
 21
-57.18050521363723
 31
0.0
  0
LINE
  5
87
330
1F
100
AcDbEntity
  8
Vistas
100
AcDbLine
 10
-527.5052112816761
 20
-54.31013484326686
 30
0.0
 11
-526.7707394557646
 21
-54.31013484326686
 31
0.0
  0
SPLINE
  5
88
330
1F
100
AcDbEntity
  8
Vistas
100
AcDbSpline
210
0.0
220
0.0
230
1.0
 70
     8
 71
     2
 72
     6
 73
     3
 74
     0
 42
0.000000001
 43
0.0000000001
 40
1.0
 40
1.0
 40
1.0
 40
2.0
 40
2.0
 40
2.0
 10
-526.7707394557646
 20
-54.31013484326686
 30
0.0
 10
-526.0560403081033
 20
-54.31013484326686
 30
0.0
 10
-525.8780890295951
 20
-54.24888847317153
 30
0.0
  0
SPLINE
  5
89
330
1F
100
AcDbEntity
  8
Vistas
100
AcDbSpline
210
0.0
220
0.0
230
1.0
 70
     8
 71
     2
 72
     6
 73
     3
 74
     0
 42
0.000000001
 43
0.0000000001
 40
2.0
 40
2.0
 40
2.0
 40
3.0
 40
3.0
 40
3.0
 10
-525.8780890295951
 20
-54.24888847317153
 30
0.0
 10
-525.7001377510869
 20
-54.18764210307619
 30
0.0
 10
-525.5995880966284
 20
-54.03790258965061
 30
0.0
  0
SPLINE
  5
8A
330
1F
100
AcDbEntity
  8
Vistas
100
AcDbSpline
210
0.0
220
0.0
230
1.0
 70
     8
 71
     2
 72
     6
 73
     3
 74
     0
 42
0.000000001
 43
0.0000000001
 40
3.0
 40
3.0
 40
3.0
 40
4.0
 40
4.0
 40
4.0
 10
-525.5995880966284
 20
-54.03790258965061
 30
0.0
 10
-525.4990384421699
 20
-53.88816307622503
 30
0.0
 10
-525.4990384421699
 20
-53.66391526594176
 30
0.0
  0
SPLINE
  5
8B
330
1F
100
AcDbEntity
  8
Vistas
100
AcDbSpline
210
0.0
220
0.0
230
1.0
 70
     8
 71
     2
 72
     6
 73
     3
 74
     0
 42
0.000000001
 43
0.0000000001
 40
4.0
 40
4.0
 40
4.0
 40
5.0
 40
5.0
 40
5.0
 10
-525.4990384421699
 20
-53.66391526594176
 30
0.0
 10
-525.4990384421699
 20
-53.41217955220101
 30
0.0
 10
-525.6316579452721
 20
-53.25737630410156
 30
0.0
  0
SPLINE
  5
8C
330
1F
100
AcDbEntity
  8
Vistas
100
AcDbSpline
210
0.0
220
0.0
230
1.0
 70
     8
 71
     2
 72
     6
 73
     3
 74
     0
 42
0.000000001
 43
0.0000000001
 40
5.0
 40
5.0
 40
5.0
 40
6.0
 40
6.0
 40
6.0
 10
-525.6316579452721
 20
-53.25737630410156
 30
0.0
 10
-525.7642774483743
 20
-53.10257305600211
 30
0.0
 10
-526.0054039032796
 20
-53.06158138912351
 30
0.0
  0
SPLINE
  5
8D
330
1F
100
AcDbEntity
  8
Vistas
100
AcDbSpline
210
0.0
220
0.0
230
1.0
 70
     8
 71
     2
 72
     6
 73
     3
 74
     0
 42
0.000000001
 43
0.0000000001
 40
6.0
 40
6.0
 40
6.0
 40
7.0
 40
7.0
 40
7.0
 10
-526.0054039032796
 20
-53.06158138912351
 30
0.0
 10
-526.1264493911774
 20
-53.04470274450142
 30
0.0
 10
-526.7302305202885
 20
-53.04470274450142
 30
0.0
  0
LINE
  5
8E
330
1F
100
AcDbEntity
  8
Vistas
100
AcDbLine
 10
-526.7302305202885
 20
-53.04470274450142
 30
0.0
 11
-527.5052112816761
 21
-53.04470274450142
 31
0.0
  0
LINE
  5
8F
330
1F
100
AcDbEntity
  8
Vistas
100
AcDbLine
 10
-527.5052112816761
 20
-53.04470274450142
 30
0.0
 11
-527.5052112816761
 21
-54.31013484326686
 31
0.0
  0
SPLINE
  5
90
330
1F
100
AcDbEntity
  8
Vistas
100
AcDbSpline
210
0.0
220
0.0
230
1.0
 70
     8
 71
     2
 72
     6
 73
     3
 74
     0
 42
0.000000001
 43
0.0000000001
 40
0.0
 40
0.0
 40
0.0
 40
1.0
 40
1.0
 40
1.0
 10
-523.7089149853798
 20
-54.72631901400966
 30
0.0
 10
-523.7089149853798
 20
-53.96484154508579
 30
0.0
 10
-523.4851494355416
 20
-53.44834814367084
 30
0.0
  0
SPLINE
  5
91
330
1F
100
AcDbEntity
  8
Vistas
100
AcDbSpline
210
0.0
220
0.0
230
1.0
 70
     8
 71
     2
 72
     6
 73
     3
 74
     0
 42
0.000000001
 43
0.0000000001
 40
1.0
 40
1.0
 40
1.0
 40
2.0
 40
2.0
 40
2.0
 10
-523.4851494355416
 20
-53.44834814367084
 30
0.0
 10
-523.3178074158687
 20
-53.06736851446507
 30
0.0
 10
-523.0286967531092
 20
-52.76475455924183
 30
0.0
  0
SPLINE
  5
92
330
1F
100
AcDbEntity
  8
Vistas
100
AcDbSpline
210
0.0
220
0.0
230
1.0
 70
     8
 71
     2
 72
     6
 73
     3
 74
     0
 42
0.000000001
 43
0.0000000001
 40
2.0
 40
2.0
 40
2.0
 40
3.0
 40
3.0
 40
3.0
 10
-523.0286967531092
 20
-52.76475455924183
 30
0.0
 10
-522.7395860903496
 20
-52.46214060401858
 30
0.0
 10
-522.3952573130588
 20
-52.31601804393147
 30
0.0
  0
SPLINE
  5
93
330
1F
100
AcDbEntity
  8
Vistas
100
AcDbSpline
210
0.0
220
0.0
230
1.0
 70
     8
 71
     2
 72
     6
 73
     3
 74
     0
 42
0.000000001
 43
0.0000000001
 40
3.0
 40
3.0
 40
3.0
 40
4.0
 40
4.0
 40
4.0
 10
-522.3952573130588
 20
-52.31601804393147
 30
0.0
 10
-521.9375992149922
 20
-52.1187768185755
 30
0.0
 10
-521.3391229507776
 20
-52.1187768185755
 30
0.0
  0
SPLINE
  5
94
330
1F
100
AcDbEntity
  8
Vistas
100
AcDbSpline
210
0.0
220
0.0
230
1.0
 70
     8
 71
     2
 72
     6
 73
     3
 74
     0
 42
0.000000001
 43
0.0000000001
 40
4.0
 40
4.0
 40
4.0
 40
5.0
 40
5.0
 40
5.0
 10
-521.3391229507776
 20
-52.1187768185755
 30
0.0
 10
-520.2559824745265
 20
-52.1187768185755
 30
0.0
 10
-519.6059055200766
 20
-52.80212927278195
 30
0.0
  0
SPLINE
  5
95
330
1F
100
AcDbEntity
  8
Vistas
100
AcDbSpline
210
0.0
220
0.0
230
1.0
 70
     8
 71
     2
 72
     6
 73
     3
 74
     0
 42
0.000000001
 43
0.0000000001
 40
5.0
 40
5.0
 40
5.0
 40
6.0
 40
6.0
 40
6.0
 10
-519.6059055200766
 20
-52.80212927278195
 30
0.0
 10
-518.9558285656267
 20
-53.4854817269884
 30
0.0
 10
-518.9558285656267
 20
-54.70268872315575
 30
0.0
  0
SPLINE
  5
96
330
1F
100
AcDbEntity
  8
Vistas
100
AcDbSpline
210
0.0
220
0.0
230
1.0
 70
     8
 71
     2
 72
     6
 73
     3
 74
     0
 42
0.000000001
 43
0.0000000001
 40
6.0
 40
6.0
 40
6.0
 40
7.0
 40
7.0
 40
7.0
 10
-518.9558285656267
 20
-54.70268872315575
 30
0.0
 10
-518.9558285656267
 20
-55.90976824997536
 30
0.0
 10
-519.6008420208815
 20
-56.59143302810259
 30
0.0
  0
SPLINE
  5
97
330
1F
100
AcDbEntity
  8
Vistas
100
AcDbSpline
210
0.0
220
0.0
230
1.0
 70
     8
 71
     2
 72
     6
 73
     3
 74
     0
 42
0.000000001
 43
0.0000000001
 40
7.0
 40
7.0
 40
7.0
 40
8.0
 40
8.0
 40
8.0
 10
-519.6008420208815
 20
-56.59143302810259
 30
0.0
 10
-520.2458554761363
 20
-57.27309780622982
 30
0.0
 10
-521.3256201292713
 20
-57.27309780622982
 30
0.0
  0
SPLINE
  5
98
330
1F
100
AcDbEntity
  8
Vistas
100
AcDbSpline
210
0.0
220
0.0
230
1.0
 70
     8
 71
     2
 72
     6
 73
     3
 74
     0
 42
0.000000001
 43
0.0000000001
 40
8.0
 40
8.0
 40
8.0
 40
9.0
 40
9.0
 40
9.0
 10
-521.3256201292713
 20
-57.27309780622982
 30
0.0
 10
-522.4188876039127
 20
-57.27309780622982
 30
0.0
 10
-523.0639012946463
 20
-56.59480861573977
 30
0.0
  0
SPLINE
  5
99
330
1F
100
AcDbEntity
  8
Vistas
100
AcDbSpline
210
0.0
220
0.0
230
1.0
 70
     8
 71
     2
 72
     6
 73
     3
 74
     0
 42
0.000000001
 43
0.0000000001
 40
9.0
 40
9.0
 40
9.0
 40
10.0
 40
10.0
 40
10.0
 10
-523.0639012946463
 20
-56.59480861573977
 30
0.0
 10
-523.7089149853798
 20
-55.91651942524972
 30
0.0
 10
-523.7089149853798
 20
-54.72631901400966
 30
0.0
  0
SPLINE
  5
9A
330
1F
100
AcDbEntity
  8
Vistas
100
AcDbSpline
210
0.0
220
0.0
230
1.0
 70
     8
 71
     2
 72
     6
 73
     3
 74
     0
 42
0.000000001
 43
0.0000000001
 40
0.0
 40
0.0
 40
0.0
 40
1.0
 40
1.0
 40
1.0
 10
-522.6903964668612
 20
-54.69256125380802
 30
0.0
 10
-522.6903964668612
 20
-55.53698657737934
 30
0.0
 10
-522.3053171529144
 20
-55.97294342637248
 30
0.0
  0
SPLINE
  5
9B
330
1F
100
AcDbEntity
  8
Vistas
100
AcDbSpline
210
0.0
220
0.0
230
1.0
 70
     8
 71
     2
 72
     6
 73
     3
 74
     0
 42
0.000000001
 43
0.0000000001
 40
1.0
 40
1.0
 40
1.0
 40
2.0
 40
2.0
 40
2.0
 10
-522.3053171529144
 20
-55.97294342637248
 30
0.0
 10
-521.9202378389675
 20
-56.40890027536562
 30
0.0
 10
-521.3275491710519
 20
-56.40890027536562
 30
0.0
  0
SPLINE
  5
9C
330
1F
100
AcDbEntity
  8
Vistas
100
AcDbSpline
210
0.0
220
0.0
230
1.0
 70
     8
 71
     2
 72
     6
 73
     3
 74
     0
 42
0.000000001
 43
0.0000000001
 40
2.0
 40
2.0
 40
2.0
 40
3.0
 40
3.0
 40
3.0
 10
-521.3275491710519
 20
-56.40890027536562
 30
0.0
 10
-520.7343777717336
 20
-56.40890027536562
 30
0.0
 10
-520.3543624279395
 20
-55.97631924948839
 30
0.0
  0
SPLINE
  5
9D
330
1F
100
AcDbEntity
  8
Vistas
100
AcDbSpline
210
0.0
220
0.0
230
1.0
 70
     8
 71
     2
 72
     6
 73
     3
 74
     0
 42
0.000000001
 43
0.0000000001
 40
3.0
 40
3.0
 40
3.0
 40
4.0
 40
4.0
 40
4.0
 10
-520.3543624279395
 20
-55.97631924948839
 30
0.0
 10
-519.9743470841452
 20
-55.54373822361116
 30
0.0
 10
-519.9743470841452
 20
-54.67905843230184
 30
0.0
  0
SPLINE
  5
9E
330
1F
100
AcDbEntity
  8
Vistas
100
AcDbSpline
210
0.0
220
0.0
230
1.0
 70
     8
 71
     2
 72
     6
 73
     3
 74
     0
 42
0.000000001
 43
0.0000000001
 40
4.0
 40
4.0
 40
4.0
 40
5.0
 40
5.0
 40
5.0
 10
-519.9743470841452
 20
-54.67905843230184
 30
0.0
 10
-519.9743470841452
 20
-53.82402337893765
 30
0.0
 10
-520.344476324293
 20
-53.40349886418867
 30
0.0
  0
SPLINE
  5
9F
330
1F
100
AcDbEntity
  8
Vistas
100
AcDbSpline
210
0.0
220
0.0
230
1.0
 70
     8
 71
     2
 72
     6
 73
     3
 74
     0
 42
0.000000001
 43
0.0000000001
 40
5.0
 40
5.0
 40
5.0
 40
6.0
 40
6.0
 40
6.0
 10
-520.344476324293
 20
-53.40349886418867
 30
0.0
 10
-520.7146055644408
 20
-52.98297434943969
 30
0.0
 10
-521.3275491710519
 20
-52.98297434943969
 30
0.0
  0
SPLINE
  5
A0
330
1F
100
AcDbEntity
  8
Vistas
100
AcDbSpline
210
0.0
220
0.0
230
1.0
 70
     8
 71
     2
 72
     6
 73
     3
 74
     0
 42
0.000000001
 43
0.0000000001
 40
6.0
 40
6.0
 40
6.0
 40
7.0
 40
7.0
 40
7.0
 10
-521.3275491710519
 20
-52.98297434943969
 30
0.0
 10
-521.9400105172178
 20
-52.98297434943969
 30
0.0
 10
-522.3152034920396
 20
-53.40856259886254
 30
0.0
  0
SPLINE
  5
A1
330
1F
100
AcDbEntity
  8
Vistas
100
AcDbSpline
210
0.0
220
0.0
230
1.0
 70
     8
 71
     2
 72
     6
 73
     3
 74
     0
 42
0.000000001
 43
0.0000000001
 40
7.0
 40
7.0
 40
7.0
 40
8.0
 40
8.0
 40
8.0
 10
-522.3152034920396
 20
-53.40856259886254
 30
0.0
 10
-522.6903964668612
 20
-53.83415084828538
 30
0.0
 10
-522.6903964668612
 20
-54.69256125380802
 30
0.0
  0
LINE
  5
A2
330
1F
100
AcDbEntity
  8
Vistas
100
AcDbLine
 10
-518.1533594298241
 20
-57.18050521363723
 30
0.0
 11
-518.1533594298241
 21
-52.21136941116809
 31
0.0
  0
LINE
  5
A3
330
1F
100
AcDbEntity
  8
Vistas
100
AcDbLine
 10
-518.1533594298241
 20
-52.21136941116809
 30
0.0
 11
-517.1531663372632
 21
-52.21136941116809
 31
0.0
  0
LINE
  5
A4
330
1F
100
AcDbEntity
  8
Vistas
100
AcDbLine
 10
-517.1531663372632
 20
-52.21136941116809
 30
0.0
 11
-515.1595322693304
 21
-55.46464845252475
 31
0.0
  0
LINE
  5
A5
330
1F
100
AcDbEntity
  8
Vistas
100
AcDbLine
 10
-515.1595322693304
 20
-55.46464845252475
 30
0.0
 11
-515.1595322693304
 21
-52.21136941116809
 31
0.0
  0
LINE
  5
A6
330
1F
100
AcDbEntity
  8
Vistas
100
AcDbLine
 10
-515.1595322693304
 20
-52.21136941116809
 30
0.0
 11
-514.2027421458736
 21
-52.21136941116809
 31
0.0
  0
LINE
  5
A7
330
1F
100
AcDbEntity
  8
Vistas
100
AcDbLine
 10
-514.2027421458736
 20
-52.21136941116809
 30
0.0
 11
-514.2027421458736
 21
-57.18050521363723
 31
0.0
  0
LINE
  5
A8
330
1F
100
AcDbEntity
  8
Vistas
100
AcDbLine
 10
-514.2027421458736
 20
-57.18050521363723
 30
0.0
 11
-515.2328344441178
 21
-57.18050521363723
 31
0.0
  0
LINE
  5
A9
330
1F
100
AcDbEntity
  8
Vistas
100
AcDbLine
 10
-515.2328344441178
 20
-57.18050521363723
 30
0.0
 11
-517.1965693063673
 21
-53.97641532481145
 31
0.0
  0
LINE
  5
AA
330
1F
100
AcDbEntity
  8
Vistas
100
AcDbLine
 10
-517.1965693063673
 20
-53.97641532481145
 30
0.0
 11
-517.1965693063673
 21
-57.18050521363723
 31
0.0
  0
LINE
  5
AB
330
1F
100
AcDbEntity
  8
Vistas
100
AcDbLine
 10
-517.1965693063673
 20
-57.18050521363723
 30
0.0
 11
-518.1533594298241
 21
-57.18050521363723
 31
0.0
  0
LINE
  5
AC
330
1F
100
AcDbEntity
  8
Vistas
100
AcDbLine
 10
-512.0422483187131
 20
-57.18050521363723
 30
0.0
 11
-512.0422483187131
 21
-53.04470274450142
 31
0.0
  0
LINE
  5
AD
330
1F
100
AcDbEntity
  8
Vistas
100
AcDbLine
 10
-512.0422483187131
 20
-53.04470274450142
 30
0.0
 11
-513.4928656026636
 21
-53.04470274450142
 31
0.0
  0
LINE
  5
AE
330
1F
100
AcDbEntity
  8
Vistas
100
AcDbLine
 10
-513.4928656026636
 20
-53.04470274450142
 30
0.0
 11
-513.4928656026636
 21
-52.21136941116809
 31
0.0
  0
LINE
  5
AF
330
1F
100
AcDbEntity
  8
Vistas
100
AcDbLine
 10
-513.4928656026636
 20
-52.21136941116809
 30
0.0
 11
-509.573112516244
 21
-52.21136941116809
 31
0.0
  0
LINE
  5
B0
330
1F
100
AcDbEntity
  8
Vistas
100
AcDbLine
 10
-509.573112516244
 20
-52.21136941116809
 30
0.0
 11
-509.573112516244
 21
-53.04470274450142
 31
0.0
  0
LINE
  5
B1
330
1F
100
AcDbEntity
  8
Vistas
100
AcDbLine
 10
-509.573112516244
 20
-53.04470274450142
 30
0.0
 11
-511.0237298001946
 21
-53.04470274450142
 31
0.0
  0
LINE
  5
B2
330
1F
100
AcDbEntity
  8
Vistas
100
AcDbLine
 10
-511.0237298001946
 20
-53.04470274450142
 30
0.0
 11
-511.0237298001946
 21
-57.18050521363723
 31
0.0
  0
LINE
  5
B3
330
1F
100
AcDbEntity
  8
Vistas
100
AcDbLine
 10
-511.0237298001946
 20
-57.18050521363723
 30
0.0
 11
-512.0422483187131
 21
-57.18050521363723
 31
0.0
  0
LINE
  5
B4
330
1F
100
AcDbEntity
  8
Vistas
100
AcDbLine
 10
-504.5113841211822
 20
-57.18050521363723
 30
0.0
 11
-505.6012757727076
 21
-57.18050521363723
 31
0.0
  0
LINE
  5
B5
330
1F
100
AcDbEntity
  8
Vistas
100
AcDbLine
 10
-505.6012757727076
 20
-57.18050521363723
 30
0.0
 11
-506.0174604144079
 21
-56.03852990499525
 31
0.0
  0
LINE
  5
B6
330
1F
100
AcDbEntity
  8
Vistas
100
AcDbLine
 10
-506.0174604144079
 20
-56.03852990499525
 30
0.0
 11
-507.9310406613214
 21
-56.03852990499525
 31
0.0
  0
LINE
  5
B7
330
1F
100
AcDbEntity
  8
Vistas
100
AcDbLine
 10
-507.9310406613214
 20
-56.03852990499525
 30
0.0
 11
-508.3288994061068
 21
-57.18050521363723
 31
0.0
  0
LINE
  5
B8
330
1F
100
AcDbEntity
  8
Vistas
100
AcDbLine
 10
-508.3288994061068
 20
-57.18050521363723
 30
0.0
 11
-509.4187915285896
 21
-57.18050521363723
 31
0.0
  0
LINE
  5
B9
330
1F
100
AcDbEntity
  8
Vistas
100
AcDbLine
 10
-509.4187915285896
 20
-57.18050521363723
 30
0.0
 11
-507.5900877071466
 21
-52.21136941116809
 31
0.0
  0
LINE
  5
BA
330
1F
100
AcDbEntity
  8
Vistas
100
AcDbLine
 10
-507.5900877071466
 20
-52.21136941116809
 30
0.0
 11
-506.4206240240896
 21
-52.21136941116809
 31
0.0
  0
LINE
  5
BB
330
1F
100
AcDbEntity
  8
Vistas
100
AcDbLine
 10
-506.4206240240896
 20
-52.21136941116809
 30
0.0
 11
-504.5113841211822
 21
-57.18050521363723
 31
0.0
  0
LINE
  5
BC
330
1F
100
AcDbEntity
  8
Vistas
100
AcDbLine
 10
-506.3212797852652
 20
-55.20519657166192
 30
0.0
 11
-506.9959517869381
 21
-53.35334471981007
 31
0.0
  0
LINE
  5
BD
330
1F
100
AcDbEntity
  8
Vistas
100
AcDbLine
 10
-506.9959517869381
 20
-53.35334471981007
 30
0.0
 11
-507.6412063724154
 21
-55.20519657166192
 31
0.0
  0
LINE
  5
BE
330
1F
100
AcDbEntity
  8
Vistas
100
AcDbLine
 10
-507.6412063724154
 20
-55.20519657166192
 30
0.0
 11
-506.3212797852652
 21
-55.20519657166192
 31
0.0
  0
LINE
  5
BF
330
1F
100
AcDbEntity
  8
Vistas
100
AcDbLine
 10
-503.9249643680958
 20
-57.18050521363723
 30
0.0
 11
-503.9249643680958
 21
-52.27309780622982
 31
0.0
  0
LINE
  5
C0
330
1F
100
AcDbEntity
  8
Vistas
100
AcDbLine
 10
-503.9249643680958
 20
-52.27309780622982
 30
0.0
 11
-502.9064458495773
 21
-52.27309780622982
 31
0.0
  0
LINE
  5
C1
330
1F
100
AcDbEntity
  8
Vistas
100
AcDbLine
 10
-502.9064458495773
 20
-52.27309780622982
 30
0.0
 11
-502.9064458495773
 21
-56.34717188030389
 31
0.0
  0
LINE
  5
C2
330
1F
100
AcDbEntity
  8
Vistas
100
AcDbLine
 10
-502.9064458495773
 20
-56.34717188030389
 30
0.0
 11
-500.4064458495773
 21
-56.34717188030389
 31
0.0
  0
LINE
  5
C3
330
1F
100
AcDbEntity
  8
Vistas
100
AcDbLine
 10
-500.4064458495773
 20
-56.34717188030389
 30
0.0
 11
-500.4064458495773
 21
-57.18050521363723
 31
0.0
  0
LINE
  5
C4
330
1F
100
AcDbEntity
  8
Vistas
100
AcDbLine
 10
-500.4064458495773
 20
-57.18050521363723
 30
0.0
 11
-503.9249643680958
 21
-57.18050521363723
 31
0.0
  0
LINE
  5
C5
330
1F
100
AcDbEntity
  8
Vistas
100
AcDbLine
 10
-424.0626129673207
 20
-54.31013484326686
 30
0.0
 11
-423.3281411414092
 21
-54.31013484326686
 31
0.0
  0
SPLINE
  5
C6
330
1F
100
AcDbEntity
  8
Vistas
100
AcDbSpline
210
0.0
220
0.0
230
1.0
 70
     8
 71
     2
 72
     6
 73
     3
 74
     0
 42
0.000000001
 43
0.0000000001
 40
1.0
 40
1.0
 40
1.0
 40
2.0
 40
2.0
 40
2.0
 10
-423.3281411414092
 20
-54.31013484326686
 30
0.0
 10
-422.613441993748
 20
-54.31013484326686
 30
0.0
 10
-422.4354907152398
 20
-54.24888847317153
 30
0.0
  0
SPLINE
  5
C7
330
1F
100
AcDbEntity
  8
Vistas
100
AcDbSpline
210
0.0
220
0.0
230
1.0
 70
     8
 71
     2
 72
     6
 73
     3
 74
     0
 42
0.000000001
 43
0.0000000001
 40
2.0
 40
2.0
 40
2.0
 40
3.0
 40
3.0
 40
3.0
 10
-422.4354907152398
 20
-54.24888847317153
 30
0.0
 10
-422.2575394367316
 20
-54.18764210307619
 30
0.0
 10
-422.1569897822731
 20
-54.03790258965061
 30
0.0
  0
SPLINE
  5
C8
330
1F
100
AcDbEntity
  8
Vistas
100
AcDbSpline
210
0.0
220
0.0
230
1.0
 70
     8
 71
     2
 72
     6
 73
     3
 74
     0
 42
0.000000001
 43
0.0000000001
 40
3.0
 40
3.0
 40
3.0
 40
4.0
 40
4.0
 40
4.0
 10
-422.1569897822731
 20
-54.03790258965061
 30
0.0
 10
-422.0564401278145
 20
-53.88816307622503
 30
0.0
 10
-422.0564401278145
 20
-53.66391526594176
 30
0.0
  0
SPLINE
  5
C9
330
1F
100
AcDbEntity
  8
Vistas
100
AcDbSpline
210
0.0
220
0.0
230
1.0
 70
     8
 71
     2
 72
     6
 73
     3
 74
     0
 42
0.000000001
 43
0.0000000001
 40
4.0
 40
4.0
 40
4.0
 40
5.0
 40
5.0
 40
5.0
 10
-422.0564401278145
 20
-53.66391526594176
 30
0.0
 10
-422.0564401278145
 20
-53.41217955220101
 30
0.0
 10
-422.1890596309167
 20
-53.25737630410156
 30
0.0
  0
SPLINE
  5
CA
330
1F
100
AcDbEntity
  8
Vistas
100
AcDbSpline
210
0.0
220
0.0
230
1.0
 70
     8
 71
     2
 72
     6
 73
     3
 74
     0
 42
0.000000001
 43
0.0000000001
 40
5.0
 40
5.0
 40
5.0
 40
6.0
 40
6.0
 40
6.0
 10
-422.1890596309167
 20
-53.25737630410156
 30
0.0
 10
-422.321679134019
 20
-53.10257305600211
 30
0.0
 10
-422.5628055889243
 20
-53.06158138912351
 30
0.0
  0
SPLINE
  5
CB
330
1F
100
AcDbEntity
  8
Vistas
100
AcDbSpline
210
0.0
220
0.0
230
1.0
 70
     8
 71
     2
 72
     6
 73
     3
 74
     0
 42
0.000000001
 43
0.0000000001
 40
6.0
 40
6.0
 40
6.0
 40
7.0
 40
7.0
 40
7.0
 10
-422.5628055889243
 20
-53.06158138912351
 30
0.0
 10
-422.6838510768221
 20
-53.04470274450142
 30
0.0
 10
-423.2876322059332
 20
-53.04470274450142
 30
0.0
  0
LINE
  5
CC
330
1F
100
AcDbEntity
  8
Vistas
100
AcDbLine
 10
-423.2876322059332
 20
-53.04470274450142
 30
0.0
 11
-424.0626129673207
 21
-53.04470274450142
 31
0.0
  0
LINE
  5
CD
330
1F
100
AcDbEntity
  8
Vistas
100
AcDbLine
 10
-424.0626129673207
 20
-53.04470274450142
 30
0.0
 11
-424.0626129673207
 21
-54.31013484326686
 31
0.0
  0
LINE
  5
CE
330
1F
100
AcDbEntity
  8
Vistas
100
AcDbLine
 10
-425.0811314858393
 20
-57.18050521363723
 30
0.0
 11
-425.0811314858393
 21
-52.21136941116809
 31
0.0
  0
LINE
  5
CF
330
1F
100
AcDbEntity
  8
Vistas
100
AcDbLine
 10
-425.0811314858393
 20
-52.21136941116809
 30
0.0
 11
-422.98043701196
 21
-52.21136941116809
 31
0.0
  0
SPLINE
  5
D0
330
1F
100
AcDbEntity
  8
Vistas
100
AcDbSpline
210
0.0
220
0.0
230
1.0
 70
     8
 71
     2
 72
     6
 73
     3
 74
     0
 42
0.000000001
 43
0.0000000001
 40
2.0
 40
2.0
 40
2.0
 40
3.0
 40
3.0
 40
3.0
 10
-422.98043701196
 20
-52.21136941116809
 30
0.0
 10
-422.1876126141026
 20
-52.21136941116809
 30
0.0
 10
-421.8285753641928
 20
-52.34543569560568
 30
0.0
  0
SPLINE
  5
D1
330
1F
100
AcDbEntity
  8
Vistas
100
AcDbSpline
210
0.0
220
0.0
230
1.0
 70
     8
 71
     2
 72
     6
 73
     3
 74
     0
 42
0.000000001
 43
0.0000000001
 40
3.0
 40
3.0
 40
3.0
 40
4.0
 40
4.0
 40
4.0
 10
-421.8285753641928
 20
-52.34543569560568
 30
0.0
 10
-421.469538114283
 20
-52.47950198004327
 30
0.0
 10
-421.2537298617895
 20
-52.82262510622125
 30
0.0
  0
SPLINE
  5
D2
330
1F
100
AcDbEntity
  8
Vistas
100
AcDbSpline
210
0.0
220
0.0
230
1.0
 70
     8
 71
     2
 72
     6
 73
     3
 74
     0
 42
0.000000001
 43
0.0000000001
 40
4.0
 40
4.0
 40
4.0
 40
5.0
 40
5.0
 40
5.0
 10
-421.2537298617895
 20
-52.82262510622125
 30
0.0
 10
-421.0379216092961
 20
-53.16574823239923
 30
0.0
 10
-421.0379216092961
 20
-53.60700947533133
 30
0.0
  0
SPLINE
  5
D3
330
1F
100
AcDbEntity
  8
Vistas
100
AcDbSpline
210
0.0
220
0.0
230
1.0
 70
     8
 71
     2
 72
     6
 73
     3
 74
     0
 42
0.000000001
 43
0.0000000001
 40
5.0
 40
5.0
 40
5.0
 40
6.0
 40
6.0
 40
6.0
 10
-421.0379216092961
 20
-53.60700947533133
 30
0.0
 10
-421.0379216092961
 20
-54.16738763533819
 30
0.0
 10
-421.3617545531475
 20
-54.53245314081213
 30
0.0
  0
SPLINE
  5
D4
330
1F
100
AcDbEntity
  8
Vistas
100
AcDbSpline
210
0.0
220
0.0
230
1.0
 70
     8
 71
     2
 72
     6
 73
     3
 74
     0
 42
0.000000001
 43
0.0000000001
 40
6.0
 40
6.0
 40
6.0
 40
7.0
 40
7.0
 40
7.0
 10
-421.3617545531475
 20
-54.53245314081213
 30
0.0
 10
-421.6855874969991
 20
-54.89751864628607
 30
0.0
 10
-422.3298775615862
 20
-54.99252254110431
 30
0.0
  0
SPLINE
  5
D5
330
1F
100
AcDbEntity
  8
Vistas
100
AcDbSpline
210
0.0
220
0.0
230
1.0
 70
     8
 71
     2
 72
     6
 73
     3
 74
     0
 42
0.000000001
 43
0.0000000001
 40
7.0
 40
7.0
 40
7.0
 40
8.0
 40
8.0
 40
8.0
 10
-422.3298775615862
 20
-54.99252254110431
 30
0.0
 10
-422.0086968147041
 20
-55.18204807029567
 30
0.0
 10
-421.799881338665
 20
-55.40846605258201
 30
0.0
  0
SPLINE
  5
D6
330
1F
100
AcDbEntity
  8
Vistas
100
AcDbSpline
210
0.0
220
0.0
230
1.0
 70
     8
 71
     2
 72
     6
 73
     3
 74
     0
 42
0.000000001
 43
0.0000000001
 40
8.0
 40
8.0
 40
8.0
 40
9.0
 40
9.0
 40
9.0
 10
-421.799881338665
 20
-55.40846605258201
 30
0.0
 10
-421.591065862626
 20
-55.63488403486836
 30
0.0
 10
-421.2366096159874
 20
-56.21310536038757
 30
0.0
  0
LINE
  5
D7
330
1F
100
AcDbEntity
  8
Vistas
100
AcDbLine
 10
-421.2366096159874
 20
-56.21310536038757
 30
0.0
 11
-420.6366870413948
 21
-57.18050521363723
 31
0.0
  0
LINE
  5
D8
330
1F
100
AcDbEntity
  8
Vistas
100
AcDbLine
 10
-420.6366870413948
 20
-57.18050521363723
 30
0.0
 11
-421.8302632757508
 21
-57.18050521363723
 31
0.0
  0
LINE
  5
D9
330
1F
100
AcDbEntity
  8
Vistas
100
AcDbLine
 10
-421.8302632757508
 20
-57.18050521363723
 30
0.0
 11
-422.5372462562899
 21
-56.1017046104349
 31
0.0
  0
SPLINE
  5
DA
330
1F
100
AcDbEntity
  8
Vistas
100
AcDbSpline
210
0.0
220
0.0
230
1.0
 70
     8
 71
     2
 72
     6
 73
     3
 74
     0
 42
0.000000001
 43
0.0000000001
 40
12.0
 40
12.0
 40
12.0
 40
13.0
 40
13.0
 40
13.0
 10
-422.5372462562899
 20
-56.1017046104349
 30
0.0
 10
-422.9201553982336
 20
-55.52444780580596
 30
0.0
 10
-423.0612142236469
 20
-55.37422603193524
 30
0.0
  0
SPLINE
  5
DB
330
1F
100
AcDbEntity
  8
Vistas
100
AcDbSpline
210
0.0
220
0.0
230
1.0
 70
     8
 71
     2
 72
     6
 73
     3
 74
     0
 42
0.000000001
 43
0.0000000001
 40
13.0
 40
13.0
 40
13.0
 40
14.0
 40
14.0
 40
14.0
 10
-423.0612142236469
 20
-55.37422603193524
 30
0.0
 10
-423.2022730490601
 20
-55.22400425806453
 30
0.0
 10
-423.3602109900529
 20
-55.16830411856692
 30
0.0
  0
SPLINE
  5
DC
330
1F
100
AcDbEntity
  8
Vistas
100
AcDbSpline
210
0.0
220
0.0
230
1.0
 70
     8
 71
     2
 72
     6
 73
     3
 74
     0
 42
0.000000001
 43
0.0000000001
 40
14.0
 40
14.0
 40
14.0
 40
15.0
 40
15.0
 40
15.0
 10
-423.3602109900529
 20
-55.16830411856692
 30
0.0
 10
-423.5181489310457
 20
-55.11260397906933
 30
0.0
 10
-423.8610309270011
 20
-55.11260397906933
 30
0.0
  0
LINE
  5
DD
330
1F
100
AcDbEntity
  8
Vistas
100
AcDbLine
 10
-423.8610309270011
 20
-55.11260397906933
 30
0.0
 11
-424.0626129673207
 21
-55.11260397906933
 31
0.0
  0
LINE
  5
DE
330
1F
100
AcDbEntity
  8
Vistas
100
AcDbLine
 10
-424.0626129673207
 20
-55.11260397906933
 30
0.0
 11
-424.0626129673207
 21
-57.18050521363723
 31
0.0
  0
LINE
  5
DF
330
1F
100
AcDbEntity
  8
Vistas
100
AcDbLine
 10
-424.0626129673207
 20
-57.18050521363723
 30
0.0
 11
-425.0811314858393
 21
-57.18050521363723
 31
0.0
  0
SPLINE
  5
E0
330
1F
100
AcDbEntity
  8
Vistas
100
AcDbSpline
210
0.0
220
0.0
230
1.0
 70
     8
 71
     2
 72
     6
 73
     3
 74
     0
 42
0.000000001
 43
0.0000000001
 40
0.0
 40
0.0
 40
0.0
 40
1.0
 40
1.0
 40
1.0
 10
-429.6181685228763
 20
-54.69256125380802
 30
0.0
 10
-429.6181685228763
 20
-55.53698657737934
 30
0.0
 10
-429.2330892089294
 20
-55.97294342637248
 30
0.0
  0
SPLINE
  5
E1
330
1F
100
AcDbEntity
  8
Vistas
100
AcDbSpline
210
0.0
220
0.0
230
1.0
 70
     8
 71
     2
 72
     6
 73
     3
 74
     0
 42
0.000000001
 43
0.0000000001
 40
1.0
 40
1.0
 40
1.0
 40
2.0
 40
2.0
 40
2.0
 10
-429.2330892089294
 20
-55.97294342637248
 30
0.0
 10
-428.8480098949826
 20
-56.40890027536562
 30
0.0
 10
-428.2553212270669
 20
-56.40890027536562
 30
0.0
  0
SPLINE
  5
E2
330
1F
100
AcDbEntity
  8
Vistas
100
AcDbSpline
210
0.0
220
0.0
230
1.0
 70
     8
 71
     2
 72
     6
 73
     3
 74
     0
 42
0.000000001
 43
0.0000000001
 40
2.0
 40
2.0
 40
2.0
 40
3.0
 40
3.0
 40
3.0
 10
-428.2553212270669
 20
-56.40890027536562
 30
0.0
 10
-427.6621498277487
 20
-56.40890027536562
 30
0.0
 10
-427.2821344839545
 20
-55.97631924948839
 30
0.0
  0
SPLINE
  5
E3
330
1F
100
AcDbEntity
  8
Vistas
100
AcDbSpline
210
0.0
220
0.0
230
1.0
 70
     8
 71
     2
 72
     6
 73
     3
 74
     0
 42
0.000000001
 43
0.0000000001
 40
3.0
 40
3.0
 40
3.0
 40
4.0
 40
4.0
 40
4.0
 10
-427.2821344839545
 20
-55.97631924948839
 30
0.0
 10
-426.9021191401603
 20
-55.54373822361116
 30
0.0
 10
-426.9021191401603
 20
-54.67905843230184
 30
0.0
  0
SPLINE
  5
E4
330
1F
100
AcDbEntity
  8
Vistas
100
AcDbSpline
210
0.0
220
0.0
230
1.0
 70
     8
 71
     2
 72
     6
 73
     3
 74
     0
 42
0.000000001
 43
0.0000000001
 40
4.0
 40
4.0
 40
4.0
 40
5.0
 40
5.0
 40
5.0
 10
-426.9021191401603
 20
-54.67905843230184
 30
0.0
 10
-426.9021191401603
 20
-53.82402337893765
 30
0.0
 10
-427.272248380308
 20
-53.40349886418867
 30
0.0
  0
SPLINE
  5
E5
330
1F
100
AcDbEntity
  8
Vistas
100
AcDbSpline
210
0.0
220
0.0
230
1.0
 70
     8
 71
     2
 72
     6
 73
     3
 74
     0
 42
0.000000001
 43
0.0000000001
 40
5.0
 40
5.0
 40
5.0
 40
6.0
 40
6.0
 40
6.0
 10
-427.272248380308
 20
-53.40349886418867
 30
0.0
 10
-427.6423776204558
 20
-52.98297434943969
 30
0.0
 10
-428.2553212270669
 20
-52.98297434943969
 30
0.0
  0
SPLINE
  5
E6
330
1F
100
AcDbEntity
  8
Vistas
100
AcDbSpline
210
0.0
220
0.0
230
1.0
 70
     8
 71
     2
 72
     6
 73
     3
 74
     0
 42
0.000000001
 43
0.0000000001
 40
6.0
 40
6.0
 40
6.0
 40
7.0
 40
7.0
 40
7.0
 10
-428.2553212270669
 20
-52.98297434943969
 30
0.0
 10
-428.8677825732329
 20
-52.98297434943969
 30
0.0
 10
-429.2429755480546
 20
-53.40856259886254
 30
0.0
  0
SPLINE
  5
E7
330
1F
100
AcDbEntity
  8
Vistas
100
AcDbSpline
210
0.0
220
0.0
230
1.0
 70
     8
 71
     2
 72
     6
 73
     3
 74
     0
 42
0.000000001
 43
0.0000000001
 40
7.0
 40
7.0
 40
7.0
 40
8.0
 40
8.0
 40
8.0
 10
-429.2429755480546
 20
-53.40856259886254
 30
0.0
 10
-429.6181685228763
 20
-53.83415084828538
 30
0.0
 10
-429.6181685228763
 20
-54.69256125380802
 30
0.0
  0
SPLINE
  5
E8
330
1F
100
AcDbEntity
  8
Vistas
100
AcDbSpline
210
0.0
220
0.0
230
1.0
 70
     8
 71
     2
 72
     6
 73
     3
 74
     0
 42
0.000000001
 43
0.0000000001
 40
0.0
 40
0.0
 40
0.0
 40
1.0
 40
1.0
 40
1.0
 10
-430.6366870413948
 20
-54.72631901400966
 30
0.0
 10
-430.6366870413948
 20
-53.96484154508579
 30
0.0
 10
-430.4129214915566
 20
-53.44834814367084
 30
0.0
  0
SPLINE
  5
E9
330
1F
100
AcDbEntity
  8
Vistas
100
AcDbSpline
210
0.0
220
0.0
230
1.0
 70
     8
 71
     2
 72
     6
 73
     3
 74
     0
 42
0.000000001
 43
0.0000000001
 40
1.0
 40
1.0
 40
1.0
 40
2.0
 40
2.0
 40
2.0
 10
-430.4129214915566
 20
-53.44834814367084
 30
0.0
 10
-430.2455794718838
 20
-53.06736851446507
 30
0.0
 10
-429.9564688091242
 20
-52.76475455924183
 30
0.0
  0
SPLINE
  5
EA
330
1F
100
AcDbEntity
  8
Vistas
100
AcDbSpline
210
0.0
220
0.0
230
1.0
 70
     8
 71
     2
 72
     6
 73
     3
 74
     0
 42
0.000000001
 43
0.0000000001
 40
2.0
 40
2.0
 40
2.0
 40
3.0
 40
3.0
 40
3.0
 10
-429.9564688091242
 20
-52.76475455924183
 30
0.0
 10
-429.6673581463646
 20
-52.46214060401858
 30
0.0
 10
-429.3230293690738
 20
-52.31601804393147
 30
0.0
  0
SPLINE
  5
EB
330
1F
100
AcDbEntity
  8
Vistas
100
AcDbSpline
210
0.0
220
0.0
230
1.0
 70
     8
 71
     2
 72
     6
 73
     3
 74
     0
 42
0.000000001
 43
0.0000000001
 40
3.0
 40
3.0
 40
3.0
 40
4.0
 40
4.0
 40
4.0
 10
-429.3230293690738
 20
-52.31601804393147
 30
0.0
 10
-428.8653712710073
 20
-52.1187768185755
 30
0.0
 10
-428.2668950067927
 20
-52.1187768185755
 30
0.0
  0
SPLINE
  5
EC
330
1F
100
AcDbEntity
  8
Vistas
100
AcDbSpline
210
0.0
220
0.0
230
1.0
 70
     8
 71
     2
 72
     6
 73
     3
 74
     0
 42
0.000000001
 43
0.0000000001
 40
4.0
 40
4.0
 40
4.0
 40
5.0
 40
5.0
 40
5.0
 10
-428.2668950067927
 20
-52.1187768185755
 30
0.0
 10
-427.1837545305416
 20
-52.1187768185755
 30
0.0
 10
-426.5336775760917
 20
-52.80212927278195
 30
0.0
  0
SPLINE
  5
ED
330
1F
100
AcDbEntity
  8
Vistas
100
AcDbSpline
210
0.0
220
0.0
230
1.0
 70
     8
 71
     2
 72
     6
 73
     3
 74
     0
 42
0.000000001
 43
0.0000000001
 40
5.0
 40
5.0
 40
5.0
 40
6.0
 40
6.0
 40
6.0
 10
-426.5336775760917
 20
-52.80212927278195
 30
0.0
 10
-425.8836006216417
 20
-53.4854817269884
 30
0.0
 10
-425.8836006216417
 20
-54.70268872315575
 30
0.0
  0
SPLINE
  5
EE
330
1F
100
AcDbEntity
  8
Vistas
100
AcDbSpline
210
0.0
220
0.0
230
1.0
 70
     8
 71
     2
 72
     6
 73
     3
 74
     0
 42
0.000000001
 43
0.0000000001
 40
6.0
 40
6.0
 40
6.0
 40
7.0
 40
7.0
 40
7.0
 10
-425.8836006216417
 20
-54.70268872315575
 30
0.0
 10
-425.8836006216417
 20
-55.90976824997536
 30
0.0
 10
-426.5286140768965
 20
-56.59143302810259
 30
0.0
  0
SPLINE
  5
EF
330
1F
100
AcDbEntity
  8
Vistas
100
AcDbSpline
210
0.0
220
0.0
230
1.0
 70
     8
 71
     2
 72
     6
 73
     3
 74
     0
 42
0.000000001
 43
0.0000000001
 40
7.0
 40
7.0
 40
7.0
 40
8.0
 40
8.0
 40
8.0
 10
-426.5286140768965
 20
-56.59143302810259
 30
0.0
 10
-427.1736275321513
 20
-57.27309780622982
 30
0.0
 10
-428.2533921852864
 20
-57.27309780622982
 30
0.0
  0
SPLINE
  5
F0
330
1F
100
AcDbEntity
  8
Vistas
100
AcDbSpline
210
0.0
220
0.0
230
1.0
 70
     8
 71
     2
 72
     6
 73
     3
 74
     0
 42
0.000000001
 43
0.0000000001
 40
8.0
 40
8.0
 40
8.0
 40
9.0
 40
9.0
 40
9.0
 10
-428.2533921852864
 20
-57.27309780622982
 30
0.0
 10
-429.3466596599277
 20
-57.27309780622982
 30
0.0
 10
-429.9916733506612
 20
-56.59480861573977
 30
0.0
  0
SPLINE
  5
F1
330
1F
100
AcDbEntity
  8
Vistas
100
AcDbSpline
210
0.0
220
0.0
230
1.0
 70
     8
 71
     2
 72
     6
 73
     3
 74
     0
 42
0.000000001
 43
0.0000000001
 40
9.0
 40
9.0
 40
9.0
 40
10.0
 40
10.0
 40
10.0
 10
-429.9916733506612
 20
-56.59480861573977
 30
0.0
 10
-430.6366870413948
 20
-55.91651942524972
 30
0.0
 10
-430.6366870413948
 20
-54.72631901400966
 30
0.0
  0
LINE
  5
F2
330
1F
100
AcDbEntity
  8
Vistas
100
AcDbLine
 10
-432.395946300654
 20
-57.18050521363723
 30
0.0
 11
-432.395946300654
 21
-52.21136941116809
 31
0.0
  0
LINE
  5
F3
330
1F
100
AcDbEntity
  8
Vistas
100
AcDbLine
 10
-432.395946300654
 20
-52.21136941116809
 30
0.0
 11
-431.3774277821356
 21
-52.21136941116809
 31
0.0
  0
LINE
  5
F4
330
1F
100
AcDbEntity
  8
Vistas
100
AcDbLine
 10
-431.3774277821356
 20
-52.21136941116809
 30
0.0
 11
-431.3774277821356
 21
-57.18050521363723
 31
0.0
  0
LINE
  5
F5
330
1F
100
AcDbEntity
  8
Vistas
100
AcDbLine
 10
-431.3774277821356
 20
-57.18050521363723
 30
0.0
 11
-432.395946300654
 21
-57.18050521363723
 31
0.0
  0
LINE
  5
F6
330
1F
100
AcDbEntity
  8
Vistas
100
AcDbLine
 10
-436.3465635846047
 20
-54.31013484326686
 30
0.0
 11
-435.6120917586932
 21
-54.31013484326686
 31
0.0
  0
SPLINE
  5
F7
330
1F
100
AcDbEntity
  8
Vistas
100
AcDbSpline
210
0.0
220
0.0
230
1.0
 70
     8
 71
     2
 72
     6
 73
     3
 74
     0
 42
0.000000001
 43
0.0000000001
 40
1.0
 40
1.0
 40
1.0
 40
2.0
 40
2.0
 40
2.0
 10
-435.6120917586932
 20
-54.31013484326686
 30
0.0
 10
-434.897392611032
 20
-54.31013484326686
 30
0.0
 10
-434.7194413325237
 20
-54.24888847317153
 30
0.0
  0
SPLINE
  5
F8
330
1F
100
AcDbEntity
  8
Vistas
100
AcDbSpline
210
0.0
220
0.0
230
1.0
 70
     8
 71
     2
 72
     6
 73
     3
 74
     0
 42
0.000000001
 43
0.0000000001
 40
2.0
 40
2.0
 40
2.0
 40
3.0
 40
3.0
 40
3.0
 10
-434.7194413325237
 20
-54.24888847317153
 30
0.0
 10
-434.5414900540155
 20
-54.18764210307619
 30
0.0
 10
-434.440940399557
 20
-54.03790258965061
 30
0.0
  0
SPLINE
  5
F9
330
1F
100
AcDbEntity
  8
Vistas
100
AcDbSpline
210
0.0
220
0.0
230
1.0
 70
     8
 71
     2
 72
     6
 73
     3
 74
     0
 42
0.000000001
 43
0.0000000001
 40
3.0
 40
3.0
 40
3.0
 40
4.0
 40
4.0
 40
4.0
 10
-434.440940399557
 20
-54.03790258965061
 30
0.0
 10
-434.3403907450985
 20
-53.88816307622503
 30
0.0
 10
-434.3403907450985
 20
-53.66391526594176
 30
0.0
  0
SPLINE
  5
FA
330
1F
100
AcDbEntity
  8
Vistas
100
AcDbSpline
210
0.0
220
0.0
230
1.0
 70
     8
 71
     2
 72
     6
 73
     3
 74
     0
 42
0.000000001
 43
0.0000000001
 40
4.0
 40
4.0
 40
4.0
 40
5.0
 40
5.0
 40
5.0
 10
-434.3403907450985
 20
-53.66391526594176
 30
0.0
 10
-434.3403907450985
 20
-53.41217955220101
 30
0.0
 10
-434.4730102482007
 20
-53.25737630410156
 30
0.0
  0
SPLINE
  5
FB
330
1F
100
AcDbEntity
  8
Vistas
100
AcDbSpline
210
0.0
220
0.0
230
1.0
 70
     8
 71
     2
 72
     6
 73
     3
 74
     0
 42
0.000000001
 43
0.0000000001
 40
5.0
 40
5.0
 40
5.0
 40
6.0
 40
6.0
 40
6.0
 10
-434.4730102482007
 20
-53.25737630410156
 30
0.0
 10
-434.6056297513029
 20
-53.10257305600211
 30
0.0
 10
-434.8467562062083
 20
-53.06158138912351
 30
0.0
  0
SPLINE
  5
FC
330
1F
100
AcDbEntity
  8
Vistas
100
AcDbSpline
210
0.0
220
0.0
230
1.0
 70
     8
 71
     2
 72
     6
 73
     3
 74
     0
 42
0.000000001
 43
0.0000000001
 40
6.0
 40
6.0
 40
6.0
 40
7.0
 40
7.0
 40
7.0
 10
-434.8467562062083
 20
-53.06158138912351
 30
0.0
 10
-434.9678016941061
 20
-53.04470274450142
 30
0.0
 10
-435.5715828232172
 20
-53.04470274450142
 30
0.0
  0
LINE
  5
FD
330
1F
100
AcDbEntity
  8
Vistas
100
AcDbLine
 10
-435.5715828232172
 20
-53.04470274450142
 30
0.0
 11
-436.3465635846047
 21
-53.04470274450142
 31
0.0
  0
LINE
  5
FE
330
1F
100
AcDbEntity
  8
Vistas
100
AcDbLine
 10
-436.3465635846047
 20
-53.04470274450142
 30
0.0
 11
-436.3465635846047
 21
-54.31013484326686
 31
0.0
  0
LINE
  5
FF
330
1F
100
AcDbEntity
  8
Vistas
100
AcDbLine
 10
-437.3650821031232
 20
-57.18050521363723
 30
0.0
 11
-437.3650821031232
 21
-52.21136941116809
 31
0.0
  0
LINE
  5
100
330
1F
100
AcDbEntity
  8
Vistas
100
AcDbLine
 10
-437.3650821031232
 20
-52.21136941116809
 30
0.0
 11
-435.2643876292439
 21
-52.21136941116809
 31
0.0
  0
SPLINE
  5
101
330
1F
100
AcDbEntity
  8
Vistas
100
AcDbSpline
210
0.0
220
0.0
230
1.0
 70
     8
 71
     2
 72
     6
 73
     3
 74
     0
 42
0.000000001
 43
0.0000000001
 40
2.0
 40
2.0
 40
2.0
 40
3.0
 40
3.0
 40
3.0
 10
-435.2643876292439
 20
-52.21136941116809
 30
0.0
 10
-434.4715632313865
 20
-52.21136941116809
 30
0.0
 10
-434.1125259814768
 20
-52.34543569560568
 30
0.0
  0
SPLINE
  5
102
330
1F
100
AcDbEntity
  8
Vistas
100
AcDbSpline
210
0.0
220
0.0
230
1.0
 70
     8
 71
     2
 72
     6
 73
     3
 74
     0
 42
0.000000001
 43
0.0000000001
 40
3.0
 40
3.0
 40
3.0
 40
4.0
 40
4.0
 40
4.0
 10
-434.1125259814768
 20
-52.34543569560568
 30
0.0
 10
-433.753488731567
 20
-52.47950198004327
 30
0.0
 10
-433.5376804790735
 20
-52.82262510622125
 30
0.0
  0
SPLINE
  5
103
330
1F
100
AcDbEntity
  8
Vistas
100
AcDbSpline
210
0.0
220
0.0
230
1.0
 70
     8
 71
     2
 72
     6
 73
     3
 74
     0
 42
0.000000001
 43
0.0000000001
 40
4.0
 40
4.0
 40
4.0
 40
5.0
 40
5.0
 40
5.0
 10
-433.5376804790735
 20
-52.82262510622125
 30
0.0
 10
-433.32187222658
 20
-53.16574823239923
 30
0.0
 10
-433.32187222658
 20
-53.60700947533133
 30
0.0
  0
SPLINE
  5
104
330
1F
100
AcDbEntity
  8
Vistas
100
AcDbSpline
210
0.0
220
0.0
230
1.0
 70
     8
 71
     2
 72
     6
 73
     3
 74
     0
 42
0.000000001
 43
0.0000000001
 40
5.0
 40
5.0
 40
5.0
 40
6.0
 40
6.0
 40
6.0
 10
-433.32187222658
 20
-53.60700947533133
 30
0.0
 10
-433.32187222658
 20
-54.16738763533819
 30
0.0
 10
-433.6457051704315
 20
-54.53245314081213
 30
0.0
  0
SPLINE
  5
105
330
1F
100
AcDbEntity
  8
Vistas
100
AcDbSpline
210
0.0
220
0.0
230
1.0
 70
     8
 71
     2
 72
     6
 73
     3
 74
     0
 42
0.000000001
 43
0.0000000001
 40
6.0
 40
6.0
 40
6.0
 40
7.0
 40
7.0
 40
7.0
 10
-433.6457051704315
 20
-54.53245314081213
 30
0.0
 10
-433.969538114283
 20
-54.89751864628607
 30
0.0
 10
-434.6138281788701
 20
-54.99252254110431
 30
0.0
  0
SPLINE
  5
106
330
1F
100
AcDbEntity
  8
Vistas
100
AcDbSpline
210
0.0
220
0.0
230
1.0
 70
     8
 71
     2
 72
     6
 73
     3
 74
     0
 42
0.000000001
 43
0.0000000001
 40
7.0
 40
7.0
 40
7.0
 40
8.0
 40
8.0
 40
8.0
 10
-434.6138281788701
 20
-54.99252254110431
 30
0.0
 10
-434.2926474319881
 20
-55.18204807029567
 30
0.0
 10
-434.083831955949
 20
-55.40846605258201
 30
0.0
  0
SPLINE
  5
107
330
1F
100
AcDbEntity
  8
Vistas
100
AcDbSpline
210
0.0
220
0.0
230
1.0
 70
     8
 71
     2
 72
     6
 73
     3
 74
     0
 42
0.000000001
 43
0.0000000001
 40
8.0
 40
8.0
 40
8.0
 40
9.0
 40
9.0
 40
9.0
 10
-434.083831955949
 20
-55.40846605258201
 30
0.0
 10
-433.8750164799099
 20
-55.63488403486836
 30
0.0
 10
-433.5205602332713
 20
-56.21310536038757
 30
0.0
  0
LINE
  5
108
330
1F
100
AcDbEntity
  8
Vistas
100
AcDbLine
 10
-433.5205602332713
 20
-56.21310536038757
 30
0.0
 11
-432.9206376586787
 21
-57.18050521363723
 31
0.0
  0
LINE
  5
109
330
1F
100
AcDbEntity
  8
Vistas
100
AcDbLine
 10
-432.9206376586787
 20
-57.18050521363723
 30
0.0
 11
-434.1142138930347
 21
-57.18050521363723
 31
0.0
  0
LINE
  5
10A
330
1F
100
AcDbEntity
  8
Vistas
100
AcDbLine
 10
-434.1142138930347
 20
-57.18050521363723
 30
0.0
 11
-434.8211968735739
 21
-56.1017046104349
 31
0.0
  0
SPLINE
  5
10B
330
1F
100
AcDbEntity
  8
Vistas
100
AcDbSpline
210
0.0
220
0.0
230
1.0
 70
     8
 71
     2
 72
     6
 73
     3
 74
     0
 42
0.000000001
 43
0.0000000001
 40
12.0
 40
12.0
 40
12.0
 40
13.0
 40
13.0
 40
13.0
 10
-434.8211968735739
 20
-56.1017046104349
 30
0.0
 10
-435.2041060155176
 20
-55.52444780580596
 30
0.0
 10
-435.3451648409308
 20
-55.37422603193524
 30
0.0
  0
SPLINE
  5
10C
330
1F
100
AcDbEntity
  8
Vistas
100
AcDbSpline
210
0.0
220
0.0
230
1.0
 70
     8
 71
     2
 72
     6
 73
     3
 74
     0
 42
0.000000001
 43
0.0000000001
 40
13.0
 40
13.0
 40
13.0
 40
14.0
 40
14.0
 40
14.0
 10
-435.3451648409308
 20
-55.37422603193524
 30
0.0
 10
-435.486223666344
 20
-55.22400425806453
 30
0.0
 10
-435.6441616073369
 20
-55.16830411856692
 30
0.0
  0
SPLINE
  5
10D
330
1F
100
AcDbEntity
  8
Vistas
100
AcDbSpline
210
0.0
220
0.0
230
1.0
 70
     8
 71
     2
 72
     6
 73
     3
 74
     0
 42
0.000000001
 43
0.0000000001
 40
14.0
 40
14.0
 40
14.0
 40
15.0
 40
15.0
 40
15.0
 10
-435.6441616073369
 20
-55.16830411856692
 30
0.0
 10
-435.8020995483296
 20
-55.11260397906933
 30
0.0
 10
-436.1449815442851
 20
-55.11260397906933
 30
0.0
  0
LINE
  5
10E
330
1F
100
AcDbEntity
  8
Vistas
100
AcDbLine
 10
-436.1449815442851
 20
-55.11260397906933
 30
0.0
 11
-436.3465635846047
 21
-55.11260397906933
 31
0.0
  0
LINE
  5
10F
330
1F
100
AcDbEntity
  8
Vistas
100
AcDbLine
 10
-436.3465635846047
 20
-55.11260397906933
 30
0.0
 11
-436.3465635846047
 21
-57.18050521363723
 31
0.0
  0
LINE
  5
110
330
1F
100
AcDbEntity
  8
Vistas
100
AcDbLine
 10
-436.3465635846047
 20
-57.18050521363723
 30
0.0
 11
-437.3650821031232
 21
-57.18050521363723
 31
0.0
  0
LINE
  5
111
330
1F
100
AcDbEntity
  8
Vistas
100
AcDbLine
 10
-441.9638475352219
 20
-57.18050521363723
 30
0.0
 11
-441.9638475352219
 21
-52.21136941116809
 31
0.0
  0
LINE
  5
112
330
1F
100
AcDbEntity
  8
Vistas
100
AcDbLine
 10
-441.9638475352219
 20
-52.21136941116809
 30
0.0
 11
-438.2910080290491
 21
-52.21136941116809
 31
0.0
  0
LINE
  5
113
330
1F
100
AcDbEntity
  8
Vistas
100
AcDbLine
 10
-438.2910080290491
 20
-52.21136941116809
 30
0.0
 11
-438.2910080290491
 21
-53.04470274450142
 31
0.0
  0
LINE
  5
114
330
1F
100
AcDbEntity
  8
Vistas
100
AcDbLine
 10
-438.2910080290491
 20
-53.04470274450142
 30
0.0
 11
-440.9453290167035
 21
-53.04470274450142
 31
0.0
  0
LINE
  5
115
330
1F
100
AcDbEntity
  8
Vistas
100
AcDbLine
 10
-440.9453290167035
 20
-53.04470274450142
 30
0.0
 11
-440.9453290167035
 21
-54.15581385561254
 31
0.0
  0
LINE
  5
116
330
1F
100
AcDbEntity
  8
Vistas
100
AcDbLine
 10
-440.9453290167035
 20
-54.15581385561254
 30
0.0
 11
-438.4761932142343
 21
-54.15581385561254
 31
0.0
  0
LINE
  5
117
330
1F
100
AcDbEntity
  8
Vistas
100
AcDbLine
 10
-438.4761932142343
 20
-54.15581385561254
 30
0.0
 11
-438.4761932142343
 21
-54.98914718894586
 31
0.0
  0
LINE
  5
118
330
1F
100
AcDbEntity
  8
Vistas
100
AcDbLine
 10
-438.4761932142343
 20
-54.98914718894586
 30
0.0
 11
-440.9453290167035
 21
-54.98914718894586
 31
0.0
  0
LINE
  5
119
330
1F
100
AcDbEntity
  8
Vistas
100
AcDbLine
 10
-440.9453290167035
 20
-54.98914718894586
 30
0.0
 11
-440.9453290167035
 21
-56.34717188030389
 31
0.0
  0
LINE
  5
11A
330
1F
100
AcDbEntity
  8
Vistas
100
AcDbLine
 10
-440.9453290167035
 20
-56.34717188030389
 30
0.0
 11
-438.1984154364566
 21
-56.34717188030389
 31
0.0
  0
LINE
  5
11B
330
1F
100
AcDbEntity
  8
Vistas
100
AcDbLine
 10
-438.1984154364566
 20
-56.34717188030389
 30
0.0
 11
-438.1984154364566
 21
-57.18050521363723
 31
0.0
  0
LINE
  5
11C
330
1F
100
AcDbEntity
  8
Vistas
100
AcDbLine
 10
-438.1984154364566
 20
-57.18050521363723
 30
0.0
 11
-441.9638475352219
 21
-57.18050521363723
 31
0.0
  0
LINE
  5
11D
330
1F
100
AcDbEntity
  8
Vistas
100
AcDbLine
 10
-445.0811314858393
 20
-57.18050521363723
 30
0.0
 11
-445.0811314858393
 21
-53.04470274450142
 31
0.0
  0
LINE
  5
11E
330
1F
100
AcDbEntity
  8
Vistas
100
AcDbLine
 10
-445.0811314858393
 20
-53.04470274450142
 30
0.0
 11
-446.5317487697898
 21
-53.04470274450142
 31
0.0
  0
LINE
  5
11F
330
1F
100
AcDbEntity
  8
Vistas
100
AcDbLine
 10
-446.5317487697898
 20
-53.04470274450142
 30
0.0
 11
-446.5317487697898
 21
-52.21136941116809
 31
0.0
  0
LINE
  5
120
330
1F
100
AcDbEntity
  8
Vistas
100
AcDbLine
 10
-446.5317487697898
 20
-52.21136941116809
 30
0.0
 11
-442.6119956833701
 21
-52.21136941116809
 31
0.0
  0
LINE
  5
121
330
1F
100
AcDbEntity
  8
Vistas
100
AcDbLine
 10
-442.6119956833701
 20
-52.21136941116809
 30
0.0
 11
-442.6119956833701
 21
-53.04470274450142
 31
0.0
  0
LINE
  5
122
330
1F
100
AcDbEntity
  8
Vistas
100
AcDbLine
 10
-442.6119956833701
 20
-53.04470274450142
 30
0.0
 11
-444.0626129673207
 21
-53.04470274450142
 31
0.0
  0
LINE
  5
123
330
1F
100
AcDbEntity
  8
Vistas
100
AcDbLine
 10
-444.0626129673207
 20
-53.04470274450142
 30
0.0
 11
-444.0626129673207
 21
-57.18050521363723
 31
0.0
  0
LINE
  5
124
330
1F
100
AcDbEntity
  8
Vistas
100
AcDbLine
 10
-444.0626129673207
 20
-57.18050521363723
 30
0.0
 11
-445.0811314858393
 21
-57.18050521363723
 31
0.0
  0
LINE
  5
125
330
1F
100
AcDbEntity
  8
Vistas
100
AcDbLine
 10
-451.0379216092961
 20
-55.57556694203229
 30
0.0
 11
-450.0811314858393
 21
-55.48297434943969
 31
0.0
  0
SPLINE
  5
126
330
1F
100
AcDbEntity
  8
Vistas
100
AcDbSpline
210
0.0
220
0.0
230
1.0
 70
     8
 71
     2
 72
     6
 73
     3
 74
     0
 42
0.000000001
 43
0.0000000001
 40
1.0
 40
1.0
 40
1.0
 40
2.0
 40
2.0
 40
2.0
 10
-450.0811314858393
 20
-55.48297434943969
 30
0.0
 10
-449.9938432871857
 20
-55.96088691524422
 30
0.0
 10
-449.7276397600909
 20
-56.18489359530492
 30
0.0
  0
SPLINE
  5
127
330
1F
100
AcDbEntity
  8
Vistas
100
AcDbSpline
210
0.0
220
0.0
230
1.0
 70
     8
 71
     2
 72
     6
 73
     3
 74
     0
 42
0.000000001
 43
0.0000000001
 40
2.0
 40
2.0
 40
2.0
 40
3.0
 40
3.0
 40
3.0
 10
-449.7276397600909
 20
-56.18489359530492
 30
0.0
 10
-449.4614362329963
 20
-56.40890027536562
 30
0.0
 10
-449.0090825288688
 20
-56.40890027536562
 30
0.0
  0
SPLINE
  5
128
330
1F
100
AcDbEntity
  8
Vistas
100
AcDbSpline
210
0.0
220
0.0
230
1.0
 70
     8
 71
     2
 72
     6
 73
     3
 74
     0
 42
0.000000001
 43
0.0000000001
 40
3.0
 40
3.0
 40
3.0
 40
4.0
 40
4.0
 40
4.0
 10
-449.0090825288688
 20
-56.40890027536562
 30
0.0
 10
-448.5297231817289
 20
-56.40890027536562
 30
0.0
 10
-448.2869088152655
 20
-56.20852388615884
 30
0.0
  0
SPLINE
  5
129
330
1F
100
AcDbEntity
  8
Vistas
100
AcDbSpline
210
0.0
220
0.0
230
1.0
 70
     8
 71
     2
 72
     6
 73
     3
 74
     0
 42
0.000000001
 43
0.0000000001
 40
4.0
 40
4.0
 40
4.0
 40
5.0
 40
5.0
 40
5.0
 10
-448.2869088152655
 20
-56.20852388615884
 30
0.0
 10
-448.0440944488022
 20
-56.00814749695205
 30
0.0
 10
-448.0440944488022
 20
-55.73953266763174
 30
0.0
  0
SPLINE
  5
12A
330
1F
100
AcDbEntity
  8
Vistas
100
AcDbSpline
210
0.0
220
0.0
230
1.0
 70
     8
 71
     2
 72
     6
 73
     3
 74
     0
 42
0.000000001
 43
0.0000000001
 40
5.0
 40
5.0
 40
5.0
 40
6.0
 40
6.0
 40
6.0
 10
-448.0440944488022
 20
-55.73953266763174
 30
0.0
 10
-448.0440944488022
 20
-55.56736851446507
 30
0.0
 10
-448.145608624151
 20
-55.44632302656727
 30
0.0
  0
SPLINE
  5
12B
330
1F
100
AcDbEntity
  8
Vistas
100
AcDbSpline
210
0.0
220
0.0
230
1.0
 70
     8
 71
     2
 72
     6
 73
     3
 74
     0
 42
0.000000001
 43
0.0000000001
 40
6.0
 40
6.0
 40
6.0
 40
7.0
 40
7.0
 40
7.0
 10
-448.145608624151
 20
-55.44632302656727
 30
0.0
 10
-448.2471227994997
 20
-55.32527753866946
 30
0.0
 10
-448.5003057655333
 20
-55.23606076919278
 30
0.0
  0
SPLINE
  5
12C
330
1F
100
AcDbEntity
  8
Vistas
100
AcDbSpline
210
0.0
220
0.0
230
1.0
 70
     8
 71
     2
 72
     6
 73
     3
 74
     0
 42
0.000000001
 43
0.0000000001
 40
7.0
 40
7.0
 40
7.0
 40
8.0
 40
8.0
 40
8.0
 10
-448.5003057655333
 20
-55.23606076919278
 30
0.0
 10
-448.6739167000354
 20
-55.17529642406384
 30
0.0
 10
-449.2902361297624
 20
-55.0195291260316
 30
0.0
  0
SPLINE
  5
12D
330
1F
100
AcDbEntity
  8
Vistas
100
AcDbSpline
210
0.0
220
0.0
230
1.0
 70
     8
 71
     2
 72
     6
 73
     3
 74
     0
 42
0.000000001
 43
0.0000000001
 40
8.0
 40
8.0
 40
8.0
 40
9.0
 40
9.0
 40
9.0
 10
-449.2902361297624
 20
-55.0195291260316
 30
0.0
 10
-450.0830600566623
 20
-54.81987612749251
 30
0.0
 10
-450.4027940222089
 20
-54.52570196553778
 30
0.0
  0
SPLINE
  5
12E
330
1F
100
AcDbEntity
  8
Vistas
100
AcDbSpline
210
0.0
220
0.0
230
1.0
 70
     8
 71
     2
 72
     6
 73
     3
 74
     0
 42
0.000000001
 43
0.0000000001
 40
9.0
 40
9.0
 40
9.0
 40
10.0
 40
10.0
 40
10.0
 10
-450.4027940222089
 20
-54.52570196553778
 30
0.0
 10
-450.8527364241108
 20
-54.11192862606315
 30
0.0
 10
-450.8527364241108
 20
-53.51731044540952
 30
0.0
  0
SPLINE
  5
12F
330
1F
100
AcDbEntity
  8
Vistas
100
AcDbSpline
210
0.0
220
0.0
230
1.0
 70
     8
 71
     2
 72
     6
 73
     3
 74
     0
 42
0.000000001
 43
0.0000000001
 40
10.0
 40
10.0
 40
10.0
 40
11.0
 40
11.0
 40
11.0
 10
-450.8527364241108
 20
-53.51731044540952
 30
0.0
 10
-450.8527364241108
 20
-53.13440177442323
 30
0.0
 10
-450.6400626290319
 20
-52.80092362166912
 30
0.0
  0
SPLINE
  5
130
330
1F
100
AcDbEntity
  8
Vistas
100
AcDbSpline
210
0.0
220
0.0
230
1.0
 70
     8
 71
     2
 72
     6
 73
     3
 74
     0
 42
0.000000001
 43
0.0000000001
 40
11.0
 40
11.0
 40
11.0
 40
12.0
 40
12.0
 40
12.0
 10
-450.6400626290319
 20
-52.80092362166912
 30
0.0
 10
-450.4273888339531
 20
-52.46744546891501
 30
0.0
 10
-450.0273599171647
 20
-52.29311114374526
 30
0.0
  0
SPLINE
  5
131
330
1F
100
AcDbEntity
  8
Vistas
100
AcDbSpline
210
0.0
220
0.0
230
1.0
 70
     8
 71
     2
 72
     6
 73
     3
 74
     0
 42
0.000000001
 43
0.0000000001
 40
12.0
 40
12.0
 40
12.0
 40
13.0
 40
13.0
 40
13.0
 10
-450.0273599171647
 20
-52.29311114374526
 30
0.0
 10
-449.6273310003763
 20
-52.1187768185755
 30
0.0
 10
-449.0616484464305
 20
-52.1187768185755
 30
0.0
  0
SPLINE
  5
132
330
1F
100
AcDbEntity
  8
Vistas
100
AcDbSpline
210
0.0
220
0.0
230
1.0
 70
     8
 71
     2
 72
     6
 73
     3
 74
     0
 42
0.000000001
 43
0.0000000001
 40
13.0
 40
13.0
 40
13.0
 40
14.0
 40
14.0
 40
14.0
 10
-449.0616484464305
 20
-52.1187768185755
 30
0.0
 10
-448.1376510913276
 20
-52.1187768185755
 30
0.0
 10
-447.6705891500598
 20
-52.53930133332447
 30
0.0
  0
SPLINE
  5
133
330
1F
100
AcDbEntity
  8
Vistas
100
AcDbSpline
210
0.0
220
0.0
230
1.0
 70
     8
 71
     2
 72
     6
 73
     3
 74
     0
 42
0.000000001
 43
0.0000000001
 40
14.0
 40
14.0
 40
14.0
 40
15.0
 40
15.0
 40
15.0
 10
-447.6705891500598
 20
-52.53930133332447
 30
0.0
 10
-447.2035272087919
 20
-52.95982584807345
 30
0.0
 10
-447.179896917938
 20
-53.66198669511871
 30
0.0
  0
LINE
  5
134
330
1F
100
AcDbEntity
  8
Vistas
100
AcDbLine
 10
-447.179896917938
 20
-53.66198669511871
 30
0.0
 11
-448.1675512389256
 21
-53.69285089264957
 31
0.0
  0
SPLINE
  5
135
330
1F
100
AcDbEntity
  8
Vistas
100
AcDbSpline
210
0.0
220
0.0
230
1.0
 70
     8
 71
     2
 72
     6
 73
     3
 74
     0
 42
0.000000001
 43
0.0000000001
 40
16.0
 40
16.0
 40
16.0
 40
17.0
 40
17.0
 40
17.0
 10
-448.1675512389256
 20
-53.69285089264957
 30
0.0
 10
-448.2307259443653
 20
-53.31428209471199
 30
0.0
 10
-448.4393005256606
 20
-53.14862822207584
 30
0.0
  0
SPLINE
  5
136
330
1F
100
AcDbEntity
  8
Vistas
100
AcDbSpline
210
0.0
220
0.0
230
1.0
 70
     8
 71
     2
 72
     6
 73
     3
 74
     0
 42
0.000000001
 43
0.0000000001
 40
17.0
 40
17.0
 40
17.0
 40
18.0
 40
18.0
 40
18.0
 10
-448.4393005256606
 20
-53.14862822207584
 30
0.0
 10
-448.6478751069558
 20
-52.98297434943969
 30
0.0
 10
-449.0650237985889
 20
-52.98297434943969
 30
0.0
  0
SPLINE
  5
137
330
1F
100
AcDbEntity
  8
Vistas
100
AcDbSpline
210
0.0
220
0.0
230
1.0
 70
     8
 71
     2
 72
     6
 73
     3
 74
     0
 42
0.000000001
 43
0.0000000001
 40
18.0
 40
18.0
 40
18.0
 40
19.0
 40
19.0
 40
19.0
 10
-449.0650237985889
 20
-52.98297434943969
 30
0.0
 10
-449.4956757826856
 20
-52.98297434943969
 30
0.0
 10
-449.739214010774
 20
-53.16092562794793
 30
0.0
  0
SPLINE
  5
138
330
1F
100
AcDbEntity
  8
Vistas
100
AcDbSpline
210
0.0
220
0.0
230
1.0
 70
     8
 71
     2
 72
     6
 73
     3
 74
     0
 42
0.000000001
 43
0.0000000001
 40
19.0
 40
19.0
 40
19.0
 40
20.0
 40
20.0
 40
20.0
 10
-449.739214010774
 20
-53.16092562794793
 30
0.0
 10
-449.895946300654
 20
-53.27521946961391
 30
0.0
 10
-449.895946300654
 20
-53.46619178014066
 30
0.0
  0
SPLINE
  5
139
330
1F
100
AcDbEntity
  8
Vistas
100
AcDbSpline
210
0.0
220
0.0
230
1.0
 70
     8
 71
     2
 72
     6
 73
     3
 74
     0
 42
0.000000001
 43
0.0000000001
 40
20.0
 40
20.0
 40
20.0
 40
21.0
 40
21.0
 40
21.0
 10
-449.895946300654
 20
-53.46619178014066
 30
0.0
 10
-449.895946300654
 20
-53.64076723553298
 30
0.0
 10
-449.7483764882741
 20
-53.7651885465467
 30
0.0
  0
SPLINE
  5
13A
330
1F
100
AcDbEntity
  8
Vistas
100
AcDbSpline
210
0.0
220
0.0
230
1.0
 70
     8
 71
     2
 72
     6
 73
     3
 74
     0
 42
0.000000001
 43
0.0000000001
 40
21.0
 40
21.0
 40
21.0
 40
22.0
 40
22.0
 40
22.0
 10
-449.7483764882741
 20
-53.7651885465467
 30
0.0
 10
-449.5607800008632
 20
-53.92288535731693
 30
0.0
 10
-448.8364358797782
 20
-54.09553200640746
 30
0.0
  0
SPLINE
  5
13B
330
1F
100
AcDbEntity
  8
Vistas
100
AcDbSpline
210
0.0
220
0.0
230
1.0
 70
     8
 71
     2
 72
     6
 73
     3
 74
     0
 42
0.000000001
 43
0.0000000001
 40
22.0
 40
22.0
 40
22.0
 40
23.0
 40
23.0
 40
23.0
 10
-448.8364358797782
 20
-54.09553200640746
 30
0.0
 10
-448.1120917586932
 20
-54.268178655498
 30
0.0
 10
-447.7651107844329
 20
-54.45215818957035
 30
0.0
  0
SPLINE
  5
13C
330
1F
100
AcDbEntity
  8
Vistas
100
AcDbSpline
210
0.0
220
0.0
230
1.0
 70
     8
 71
     2
 72
     6
 73
     3
 74
     0
 42
0.000000001
 43
0.0000000001
 40
23.0
 40
23.0
 40
23.0
 40
24.0
 40
24.0
 40
24.0
 10
-447.7651107844329
 20
-54.45215818957035
 30
0.0
 10
-447.4181298101726
 20
-54.63613772364272
 30
0.0
 10
-447.2218528702281
 20
-54.95514806304293
 30
0.0
  0
SPLINE
  5
13D
330
1F
100
AcDbEntity
  8
Vistas
100
AcDbSpline
210
0.0
220
0.0
230
1.0
 70
     8
 71
     2
 72
     6
 73
     3
 74
     0
 42
0.000000001
 43
0.0000000001
 40
24.0
 40
24.0
 40
24.0
 40
25.0
 40
25.0
 40
25.0
 10
-447.2218528702281
 20
-54.95514806304293
 30
0.0
 10
-447.0255759302837
 20
-55.27415840244313
 30
0.0
 10
-447.0255759302837
 20
-55.74339075119278
 30
0.0
  0
SPLINE
  5
13E
330
1F
100
AcDbEntity
  8
Vistas
100
AcDbSpline
210
0.0
220
0.0
230
1.0
 70
     8
 71
     2
 72
     6
 73
     3
 74
     0
 42
0.000000001
 43
0.0000000001
 40
25.0
 40
25.0
 40
25.0
 40
26.0
 40
26.0
 40
26.0
 10
-447.0255759302837
 20
-55.74339075119278
 30
0.0
 10
-447.0255759302837
 20
-56.16922013083819
 30
0.0
 10
-447.26115639007
 20
-56.54055502209882
 30
0.0
  0
SPLINE
  5
13F
330
1F
100
AcDbEntity
  8
Vistas
100
AcDbSpline
210
0.0
220
0.0
230
1.0
 70
     8
 71
     2
 72
     6
 73
     3
 74
     0
 42
0.000000001
 43
0.0000000001
 40
26.0
 40
26.0
 40
26.0
 40
27.0
 40
27.0
 40
27.0
 10
-447.26115639007
 20
-56.54055502209882
 30
0.0
 10
-447.4967368498564
 20
-56.91188991335945
 30
0.0
 10
-447.9276299641757
 20
-57.09249385979464
 30
0.0
  0
SPLINE
  5
140
330
1F
100
AcDbEntity
  8
Vistas
100
AcDbSpline
210
0.0
220
0.0
230
1.0
 70
     8
 71
     2
 72
     6
 73
     3
 74
     0
 42
0.000000001
 43
0.0000000001
 40
27.0
 40
27.0
 40
27.0
 40
28.0
 40
28.0
 40
28.0
 10
-447.9276299641757
 20
-57.09249385979464
 30
0.0
 10
-448.358523078495
 20
-57.27309780622982
 30
0.0
 10
-449.0013663617467
 20
-57.27309780622982
 30
0.0
  0
SPLINE
  5
141
330
1F
100
AcDbEntity
  8
Vistas
100
AcDbSpline
210
0.0
220
0.0
230
1.0
 70
     8
 71
     2
 72
     6
 73
     3
 74
     0
 42
0.000000001
 43
0.0000000001
 40
28.0
 40
28.0
 40
28.0
 40
29.0
 40
29.0
 40
29.0
 10
-449.0013663617467
 20
-57.27309780622982
 30
0.0
 10
-449.9374197570203
 20
-57.27309780622982
 30
0.0
 10
-450.4389630846363
 20
-56.83955225946233
 30
0.0
  0
SPLINE
  5
142
330
1F
100
AcDbEntity
  8
Vistas
100
AcDbSpline
210
0.0
220
0.0
230
1.0
 70
     8
 71
     2
 72
     6
 73
     3
 74
     0
 42
0.000000001
 43
0.0000000001
 40
29.0
 40
29.0
 40
29.0
 40
30.0
 40
30.0
 40
30.0
 10
-450.4389630846363
 20
-56.83955225946233
 30
0.0
 10
-450.9405064122521
 20
-56.40600671269484
 30
0.0
 10
-451.0379216092961
 20
-55.57556694203229
 30
0.0
  0
SPLINE
  5
143
330
1F
100
AcDbEntity
  8
Vistas
100
AcDbSpline
210
0.0
220
0.0
230
1.0
 70
     8
 71
     2
 72
     6
 73
     3
 74
     0
 42
0.000000001
 43
0.0000000001
 40
0.0
 40
0.0
 40
0.0
 40
1.0
 40
1.0
 40
1.0
 10
-455.3280450660861
 20
-54.69256125380802
 30
0.0
 10
-455.3280450660861
 20
-55.53698657737934
 30
0.0
 10
-454.9429657521393
 20
-55.97294342637248
 30
0.0
  0
SPLINE
  5
144
330
1F
100
AcDbEntity
  8
Vistas
100
AcDbSpline
210
0.0
220
0.0
230
1.0
 70
     8
 71
     2
 72
     6
 73
     3
 74
     0
 42
0.000000001
 43
0.0000000001
 40
1.0
 40
1.0
 40
1.0
 40
2.0
 40
2.0
 40
2.0
 10
-454.9429657521393
 20
-55.97294342637248
 30
0.0
 10
-454.5578864381924
 20
-56.40890027536562
 30
0.0
 10
-453.9651977702769
 20
-56.40890027536562
 30
0.0
  0
SPLINE
  5
145
330
1F
100
AcDbEntity
  8
Vistas
100
AcDbSpline
210
0.0
220
0.0
230
1.0
 70
     8
 71
     2
 72
     6
 73
     3
 74
     0
 42
0.000000001
 43
0.0000000001
 40
2.0
 40
2.0
 40
2.0
 40
3.0
 40
3.0
 40
3.0
 10
-453.9651977702769
 20
-56.40890027536562
 30
0.0
 10
-453.3720263709586
 20
-56.40890027536562
 30
0.0
 10
-452.9920110271644
 20
-55.97631924948839
 30
0.0
  0
SPLINE
  5
146
330
1F
100
AcDbEntity
  8
Vistas
100
AcDbSpline
210
0.0
220
0.0
230
1.0
 70
     8
 71
     2
 72
     6
 73
     3
 74
     0
 42
0.000000001
 43
0.0000000001
 40
3.0
 40
3.0
 40
3.0
 40
4.0
 40
4.0
 40
4.0
 10
-452.9920110271644
 20
-55.97631924948839
 30
0.0
 10
-452.6119956833701
 20
-55.54373822361116
 30
0.0
 10
-452.6119956833701
 20
-54.67905843230184
 30
0.0
  0
SPLINE
  5
147
330
1F
100
AcDbEntity
  8
Vistas
100
AcDbSpline
210
0.0
220
0.0
230
1.0
 70
     8
 71
     2
 72
     6
 73
     3
 74
     0
 42
0.000000001
 43
0.0000000001
 40
4.0
 40
4.0
 40
4.0
 40
5.0
 40
5.0
 40
5.0
 10
-452.6119956833701
 20
-54.67905843230184
 30
0.0
 10
-452.6119956833701
 20
-53.82402337893765
 30
0.0
 10
-452.9821249235179
 20
-53.40349886418867
 30
0.0
  0
SPLINE
  5
148
330
1F
100
AcDbEntity
  8
Vistas
100
AcDbSpline
210
0.0
220
0.0
230
1.0
 70
     8
 71
     2
 72
     6
 73
     3
 74
     0
 42
0.000000001
 43
0.0000000001
 40
5.0
 40
5.0
 40
5.0
 40
6.0
 40
6.0
 40
6.0
 10
-452.9821249235179
 20
-53.40349886418867
 30
0.0
 10
-453.3522541636657
 20
-52.98297434943969
 30
0.0
 10
-453.9651977702769
 20
-52.98297434943969
 30
0.0
  0
SPLINE
  5
149
330
1F
100
AcDbEntity
  8
Vistas
100
AcDbSpline
210
0.0
220
0.0
230
1.0
 70
     8
 71
     2
 72
     6
 73
     3
 74
     0
 42
0.000000001
 43
0.0000000001
 40
6.0
 40
6.0
 40
6.0
 40
7.0
 40
7.0
 40
7.0
 10
-453.9651977702769
 20
-52.98297434943969
 30
0.0
 10
-454.5776591164428
 20
-52.98297434943969
 30
0.0
 10
-454.9528520912645
 20
-53.40856259886254
 30
0.0
  0
SPLINE
  5
14A
330
1F
100
AcDbEntity
  8
Vistas
100
AcDbSpline
210
0.0
220
0.0
230
1.0
 70
     8
 71
     2
 72
     6
 73
     3
 74
     0
 42
0.000000001
 43
0.0000000001
 40
7.0
 40
7.0
 40
7.0
 40
8.0
 40
8.0
 40
8.0
 10
-454.9528520912645
 20
-53.40856259886254
 30
0.0
 10
-455.3280450660861
 20
-53.83415084828538
 30
0.0
 10
-455.3280450660861
 20
-54.69256125380802
 30
0.0
  0
SPLINE
  5
14B
330
1F
100
AcDbEntity
  8
Vistas
100
AcDbSpline
210
0.0
220
0.0
230
1.0
 70
     8
 71
     2
 72
     6
 73
     3
 74
     0
 42
0.000000001
 43
0.0000000001
 40
0.0
 40
0.0
 40
0.0
 40
1.0
 40
1.0
 40
1.0
 10
-456.3465635846047
 20
-54.72631901400966
 30
0.0
 10
-456.3465635846047
 20
-53.96484154508579
 30
0.0
 10
-456.1227980347666
 20
-53.44834814367084
 30
0.0
  0
SPLINE
  5
14C
330
1F
100
AcDbEntity
  8
Vistas
100
AcDbSpline
210
0.0
220
0.0
230
1.0
 70
     8
 71
     2
 72
     6
 73
     3
 74
     0
 42
0.000000001
 43
0.0000000001
 40
1.0
 40
1.0
 40
1.0
 40
2.0
 40
2.0
 40
2.0
 10
-456.1227980347666
 20
-53.44834814367084
 30
0.0
 10
-455.9554560150937
 20
-53.06736851446507
 30
0.0
 10
-455.6663453523341
 20
-52.76475455924183
 30
0.0
  0
SPLINE
  5
14D
330
1F
100
AcDbEntity
  8
Vistas
100
AcDbSpline
210
0.0
220
0.0
230
1.0
 70
     8
 71
     2
 72
     6
 73
     3
 74
     0
 42
0.000000001
 43
0.0000000001
 40
2.0
 40
2.0
 40
2.0
 40
3.0
 40
3.0
 40
3.0
 10
-455.6663453523341
 20
-52.76475455924183
 30
0.0
 10
-455.3772346895745
 20
-52.46214060401858
 30
0.0
 10
-455.0329059122837
 20
-52.31601804393147
 30
0.0
  0
SPLINE
  5
14E
330
1F
100
AcDbEntity
  8
Vistas
100
AcDbSpline
210
0.0
220
0.0
230
1.0
 70
     8
 71
     2
 72
     6
 73
     3
 74
     0
 42
0.000000001
 43
0.0000000001
 40
3.0
 40
3.0
 40
3.0
 40
4.0
 40
4.0
 40
4.0
 10
-455.0329059122837
 20
-52.31601804393147
 30
0.0
 10
-454.5752478142172
 20
-52.1187768185755
 30
0.0
 10
-453.9767715500025
 20
-52.1187768185755
 30
0.0
  0
SPLINE
  5
14F
330
1F
100
AcDbEntity
  8
Vistas
100
AcDbSpline
210
0.0
220
0.0
230
1.0
 70
     8
 71
     2
 72
     6
 73
     3
 74
     0
 42
0.000000001
 43
0.0000000001
 40
4.0
 40
4.0
 40
4.0
 40
5.0
 40
5.0
 40
5.0
 10
-453.9767715500025
 20
-52.1187768185755
 30
0.0
 10
-452.8936310737515
 20
-52.1187768185755
 30
0.0
 10
-452.2435541193015
 20
-52.80212927278195
 30
0.0
  0
SPLINE
  5
150
330
1F
100
AcDbEntity
  8
Vistas
100
AcDbSpline
210
0.0
220
0.0
230
1.0
 70
     8
 71
     2
 72
     6
 73
     3
 74
     0
 42
0.000000001
 43
0.0000000001
 40
5.0
 40
5.0
 40
5.0
 40
6.0
 40
6.0
 40
6.0
 10
-452.2435541193015
 20
-52.80212927278195
 30
0.0
 10
-451.5934771648516
 20
-53.4854817269884
 30
0.0
 10
-451.5934771648516
 20
-54.70268872315575
 30
0.0
  0
SPLINE
  5
151
330
1F
100
AcDbEntity
  8
Vistas
100
AcDbSpline
210
0.0
220
0.0
230
1.0
 70
     8
 71
     2
 72
     6
 73
     3
 74
     0
 42
0.000000001
 43
0.0000000001
 40
6.0
 40
6.0
 40
6.0
 40
7.0
 40
7.0
 40
7.0
 10
-451.5934771648516
 20
-54.70268872315575
 30
0.0
 10
-451.5934771648516
 20
-55.90976824997536
 30
0.0
 10
-452.2384906201064
 20
-56.59143302810259
 30
0.0
  0
SPLINE
  5
152
330
1F
100
AcDbEntity
  8
Vistas
100
AcDbSpline
210
0.0
220
0.0
230
1.0
 70
     8
 71
     2
 72
     6
 73
     3
 74
     0
 42
0.000000001
 43
0.0000000001
 40
7.0
 40
7.0
 40
7.0
 40
8.0
 40
8.0
 40
8.0
 10
-452.2384906201064
 20
-56.59143302810259
 30
0.0
 10
-452.8835040753612
 20
-57.27309780622982
 30
0.0
 10
-453.9632687284963
 20
-57.27309780622982
 30
0.0
  0
SPLINE
  5
153
330
1F
100
AcDbEntity
  8
Vistas
100
AcDbSpline
210
0.0
220
0.0
230
1.0
 70
     8
 71
     2
 72
     6
 73
     3
 74
     0
 42
0.000000001
 43
0.0000000001
 40
8.0
 40
8.0
 40
8.0
 40
9.0
 40
9.0
 40
9.0
 10
-453.9632687284963
 20
-57.27309780622982
 30
0.0
 10
-455.0565362031376
 20
-57.27309780622982
 30
0.0
 10
-455.7015498938712
 20
-56.59480861573977
 30
0.0
  0
SPLINE
  5
154
330
1F
100
AcDbEntity
  8
Vistas
100
AcDbSpline
210
0.0
220
0.0
230
1.0
 70
     8
 71
     2
 72
     6
 73
     3
 74
     0
 42
0.000000001
 43
0.0000000001
 40
9.0
 40
9.0
 40
9.0
 40
10.0
 40
10.0
 40
10.0
 10
-455.7015498938712
 20
-56.59480861573977
 30
0.0
 10
-456.3465635846047
 20
-55.91651942524972
 30
0.0
 10
-456.3465635846047
 20
-54.72631901400966
 30
0.0
  0
LINE
  5
155
330
1F
100
AcDbEntity
  8
Vistas
100
AcDbLine
 10
-459.7416253129998
 20
-53.04470274450142
 30
0.0
 11
-459.7416253129998
 21
-54.46445583092117
 31
0.0
  0
LINE
  5
156
330
1F
100
AcDbEntity
  8
Vistas
100
AcDbLine
 10
-459.7416253129998
 20
-54.46445583092117
 30
0.0
 11
-459.1957144953893
 21
-54.46445583092117
 31
0.0
  0
SPLINE
  5
157
330
1F
100
AcDbEntity
  8
Vistas
100
AcDbSpline
210
0.0
220
0.0
230
1.0
 70
     8
 71
     2
 72
     6
 73
     3
 74
     0
 42
0.000000001
 43
0.0000000001
 40
2.0
 40
2.0
 40
2.0
 40
3.0
 40
3.0
 40
3.0
 10
-459.1957144953893
 20
-54.46445583092117
 30
0.0
 10
-458.605918919187
 20
-54.46445583092117
 30
0.0
 10
-458.4069895467943
 20
-54.38584855575863
 30
0.0
  0
SPLINE
  5
158
330
1F
100
AcDbEntity
  8
Vistas
100
AcDbSpline
210
0.0
220
0.0
230
1.0
 70
     8
 71
     2
 72
     6
 73
     3
 74
     0
 42
0.000000001
 43
0.0000000001
 40
3.0
 40
3.0
 40
3.0
 40
4.0
 40
4.0
 40
4.0
 10
-458.4069895467943
 20
-54.38584855575863
 30
0.0
 10
-458.2080601744017
 20
-54.30724128059607
 30
0.0
 10
-458.095213114071
 20
-54.14014039114581
 30
0.0
  0
SPLINE
  5
159
330
1F
100
AcDbEntity
  8
Vistas
100
AcDbSpline
210
0.0
220
0.0
230
1.0
 70
     8
 71
     2
 72
     6
 73
     3
 74
     0
 42
0.000000001
 43
0.0000000001
 40
4.0
 40
4.0
 40
4.0
 40
5.0
 40
5.0
 40
5.0
 10
-458.095213114071
 20
-54.14014039114581
 30
0.0
 10
-457.9823660537405
 20
-53.97303950169553
 30
0.0
 10
-457.9823660537405
 20
-53.75120346459539
 30
0.0
  0
SPLINE
  5
15A
330
1F
100
AcDbEntity
  8
Vistas
100
AcDbSpline
210
0.0
220
0.0
230
1.0
 70
     8
 71
     2
 72
     6
 73
     3
 74
     0
 42
0.000000001
 43
0.0000000001
 40
5.0
 40
5.0
 40
5.0
 40
6.0
 40
6.0
 40
6.0
 10
-457.9823660537405
 20
-53.75120346459539
 30
0.0
 10
-457.9823660537405
 20
-53.47824782031145
 30
0.0
 10
-458.1407860196997
 20
-53.30077880224835
 30
0.0
  0
SPLINE
  5
15B
330
1F
100
AcDbEntity
  8
Vistas
100
AcDbSpline
210
0.0
220
0.0
230
1.0
 70
     8
 71
     2
 72
     6
 73
     3
 74
     0
 42
0.000000001
 43
0.0000000001
 40
6.0
 40
6.0
 40
6.0
 40
7.0
 40
7.0
 40
7.0
 10
-458.1407860196997
 20
-53.30077880224835
 30
0.0
 10
-458.2992059856589
 20
-53.12330978418524
 30
0.0
 10
-458.5417792218996
 20
-53.07894229419073
 30
0.0
  0
SPLINE
  5
15C
330
1F
100
AcDbEntity
  8
Vistas
100
AcDbSpline
210
0.0
220
0.0
230
1.0
 70
     8
 71
     2
 72
     6
 73
     3
 74
     0
 42
0.000000001
 43
0.0000000001
 40
7.0
 40
7.0
 40
7.0
 40
8.0
 40
8.0
 40
8.0
 10
-458.5417792218996
 20
-53.07894229419073
 30
0.0
 10
-458.7202132318105
 20
-53.04470274450142
 30
0.0
 10
-459.2598541926767
 20
-53.04470274450142
 30
0.0
  0
LINE
  5
15D
330
1F
100
AcDbEntity
  8
Vistas
100
AcDbLine
 10
-459.2598541926767
 20
-53.04470274450142
 30
0.0
 11
-459.7416253129998
 21
-53.04470274450142
 31
0.0
  0
LINE
  5
15E
330
1F
100
AcDbEntity
  8
Vistas
100
AcDbLine
 10
-460.7601438315182
 20
-57.18050521363723
 30
0.0
 11
-460.7601438315182
 21
-52.21136941116809
 31
0.0
  0
LINE
  5
15F
330
1F
100
AcDbEntity
  8
Vistas
100
AcDbLine
 10
-460.7601438315182
 20
-52.21136941116809
 30
0.0
 11
-459.1542410390231
 21
-52.21136941116809
 31
0.0
  0
SPLINE
  5
160
330
1F
100
AcDbEntity
  8
Vistas
100
AcDbSpline
210
0.0
220
0.0
230
1.0
 70
     8
 71
     2
 72
     6
 73
     3
 74
     0
 42
0.000000001
 43
0.0000000001
 40
2.0
 40
2.0
 40
2.0
 40
3.0
 40
3.0
 40
3.0
 10
-459.1542410390231
 20
-52.21136941116809
 30
0.0
 10
-458.2418179346033
 20
-52.21136941116809
 30
0.0
 10
-457.9645224172707
 20
-52.28563610684574
 30
0.0
  0
SPLINE
  5
161
330
1F
100
AcDbEntity
  8
Vistas
100
AcDbSpline
210
0.0
220
0.0
230
1.0
 70
     8
 71
     2
 72
     6
 73
     3
 74
     0
 42
0.000000001
 43
0.0000000001
 40
3.0
 40
3.0
 40
3.0
 40
4.0
 40
4.0
 40
4.0
 10
-457.9645224172707
 20
-52.28563610684574
 30
0.0
 10
-457.5386930376253
 20
-52.39751864628607
 30
0.0
 10
-457.2512702864236
 20
-52.77102370954979
 30
0.0
  0
SPLINE
  5
162
330
1F
100
AcDbEntity
  8
Vistas
100
AcDbSpline
210
0.0
220
0.0
230
1.0
 70
     8
 71
     2
 72
     6
 73
     3
 74
     0
 42
0.000000001
 43
0.0000000001
 40
4.0
 40
4.0
 40
4.0
 40
5.0
 40
5.0
 40
5.0
 10
-457.2512702864236
 20
-52.77102370954979
 30
0.0
 10
-456.9638475352219
 20
-53.1445287728135
 30
0.0
 10
-456.9638475352219
 20
-53.73577113035122
 30
0.0
  0
SPLINE
  5
163
330
1F
100
AcDbEntity
  8
Vistas
100
AcDbSpline
210
0.0
220
0.0
230
1.0
 70
     8
 71
     2
 72
     6
 73
     3
 74
     0
 42
0.000000001
 43
0.0000000001
 40
5.0
 40
5.0
 40
5.0
 40
6.0
 40
6.0
 40
6.0
 10
-456.9638475352219
 20
-53.73577113035122
 30
0.0
 10
-456.9638475352219
 20
-54.19246470752749
 30
0.0
 10
-457.1285368869678
 20
-54.50351798506178
 30
0.0
  0
SPLINE
  5
164
330
1F
100
AcDbEntity
  8
Vistas
100
AcDbSpline
210
0.0
220
0.0
230
1.0
 70
     8
 71
     2
 72
     6
 73
     3
 74
     0
 42
0.000000001
 43
0.0000000001
 40
6.0
 40
6.0
 40
6.0
 40
7.0
 40
7.0
 40
7.0
 10
-457.1285368869678
 20
-54.50351798506178
 30
0.0
 10
-457.2932262387137
 20
-54.81457126259608
 30
0.0
 10
-457.5466500994912
 20
-54.99204051613791
 30
0.0
  0
SPLINE
  5
165
330
1F
100
AcDbEntity
  8
Vistas
100
AcDbSpline
210
0.0
220
0.0
230
1.0
 70
     8
 71
     2
 72
     6
 73
     3
 74
     0
 42
0.000000001
 43
0.0000000001
 40
7.0
 40
7.0
 40
7.0
 40
8.0
 40
8.0
 40
8.0
 10
-457.5466500994912
 20
-54.99204051613791
 30
0.0
 10
-457.8000739602686
 20
-55.16950976967975
 30
0.0
 10
-458.0624198747597
 20
-55.22689782073531
 30
0.0
  0
SPLINE
  5
166
330
1F
100
AcDbEntity
  8
Vistas
100
AcDbSpline
210
0.0
220
0.0
230
1.0
 70
     8
 71
     2
 72
     6
 73
     3
 74
     0
 42
0.000000001
 43
0.0000000001
 40
8.0
 40
8.0
 40
8.0
 40
9.0
 40
9.0
 40
9.0
 10
-458.0624198747597
 20
-55.22689782073531
 30
0.0
 10
-458.4183224317761
 20
-55.29778916425451
 30
0.0
 10
-459.0934771648516
 20
-55.29778916425451
 30
0.0
  0
LINE
  5
167
330
1F
100
AcDbEntity
  8
Vistas
100
AcDbLine
 10
-459.0934771648516
 20
-55.29778916425451
 30
0.0
 11
-459.7416253129998
 21
-55.29778916425451
 31
0.0
  0
LINE
  5
168
330
1F
100
AcDbEntity
  8
Vistas
100
AcDbLine
 10
-459.7416253129998
 20
-55.29778916425451
 30
0.0
 11
-459.7416253129998
 21
-57.18050521363723
 31
0.0
  0
LINE
  5
169
330
1F
100
AcDbEntity
  8
Vistas
100
AcDbLine
 10
-459.7416253129998
 20
-57.18050521363723
 30
0.0
 11
-460.7601438315182
 21
-57.18050521363723
 31
0.0
  0
LINE
  5
16A
330
1F
100
AcDbEntity
  8
Vistas
100
AcDbLine
 10
-542.3144628214299
 20
63.91930914677208
 30
0.0
 11
-540.4008825745162
 21
64.16622272701899
 31
0.0
  0
SPLINE
  5
16B
330
1F
100
AcDbEntity
  8
Vistas
100
AcDbSpline
210
0.0
220
0.0
230
1.0
 70
     8
 71
     2
 72
     6
 73
     3
 74
     0
 42
0.000000001
 43
0.0000000001
 40
1.0
 40
1.0
 40
1.0
 40
2.0
 40
2.0
 40
2.0
 10
-540.4008825745162
 20
64.16622272701899
 30
0.0
 10
-540.2783893633681
 20
63.62031238036604
 30
0.0
 10
-539.9056081617296
 20
63.33771199813696
 30
0.0
  0
SPLINE
  5
16C
330
1F
100
AcDbEntity
  8
Vistas
100
AcDbSpline
210
0.0
220
0.0
230
1.0
 70
     8
 71
     2
 72
     6
 73
     3
 74
     0
 42
0.000000001
 43
0.0000000001
 40
2.0
 40
2.0
 40
2.0
 40
3.0
 40
3.0
 40
3.0
 10
-539.9056081617296
 20
63.33771199813696
 30
0.0
 10
-539.532826960091
 20
63.05511161590788
 30
0.0
 10
-538.8624943605093
 20
63.05511161590788
 30
0.0
  0
SPLINE
  5
16D
330
1F
100
AcDbEntity
  8
Vistas
100
AcDbSpline
210
0.0
220
0.0
230
1.0
 70
     8
 71
     2
 72
     6
 73
     3
 74
     0
 42
0.000000001
 43
0.0000000001
 40
3.0
 40
3.0
 40
3.0
 40
4.0
 40
4.0
 40
4.0
 10
-538.8624943605093
 20
63.05511161590788
 30
0.0
 10
-538.1236826615492
 20
63.05511161590788
 30
0.0
 10
-537.7504187285081
 20
63.33192534375286
 30
0.0
  0
SPLINE
  5
16E
330
1F
100
AcDbEntity
  8
Vistas
100
AcDbSpline
210
0.0
220
0.0
230
1.0
 70
     8
 71
     2
 72
     6
 73
     3
 74
     0
 42
0.000000001
 43
0.0000000001
 40
4.0
 40
4.0
 40
4.0
 40
5.0
 40
5.0
 40
5.0
 10
-537.7504187285081
 20
63.33192534375286
 30
0.0
 10
-537.499648006615
 20
63.5257912169504
 30
0.0
 10
-537.499648006615
 20
63.85083004739346
 30
0.0
  0
SPLINE
  5
16F
330
1F
100
AcDbEntity
  8
Vistas
100
AcDbSpline
210
0.0
220
0.0
230
1.0
 70
     8
 71
     2
 72
     6
 73
     3
 74
     0
 42
0.000000001
 43
0.0000000001
 40
5.0
 40
5.0
 40
5.0
 40
6.0
 40
6.0
 40
6.0
 10
-537.499648006615
 20
63.85083004739346
 30
0.0
 10
-537.499648006615
 20
64.07170156360334
 30
0.0
 10
-537.6356426263969
 20
64.21734233420278
 30
0.0
  0
SPLINE
  5
170
330
1F
100
AcDbEntity
  8
Vistas
100
AcDbSpline
210
0.0
220
0.0
230
1.0
 70
     8
 71
     2
 72
     6
 73
     3
 74
     0
 42
0.000000001
 43
0.0000000001
 40
6.0
 40
6.0
 40
6.0
 40
7.0
 40
7.0
 40
7.0
 10
-537.6356426263969
 20
64.21734233420278
 30
0.0
 10
-537.7783898343256
 20
64.35526599576522
 30
0.0
 10
-538.2760750783805
 20
64.47293660246204
 30
0.0
  0
SPLINE
  5
171
330
1F
100
AcDbEntity
  8
Vistas
100
AcDbSpline
210
0.0
220
0.0
230
1.0
 70
     8
 71
     2
 72
     6
 73
     3
 74
     0
 42
0.000000001
 43
0.0000000001
 40
7.0
 40
7.0
 40
7.0
 40
8.0
 40
8.0
 40
8.0
 10
-538.2760750783805
 20
64.47293660246204
 30
0.0
 10
-540.5899249013476
 20
64.99184036418771
 30
0.0
 10
-541.2101024146357
 20
65.41718748338798
 30
0.0
  0
SPLINE
  5
172
330
1F
100
AcDbEntity
  8
Vistas
100
AcDbSpline
210
0.0
220
0.0
230
1.0
 70
     8
 71
     2
 72
     6
 73
     3
 74
     0
 42
0.000000001
 43
0.0000000001
 40
8.0
 40
8.0
 40
8.0
 40
9.0
 40
9.0
 40
9.0
 10
-541.2101024146357
 20
65.41718748338798
 30
0.0
 10
-542.0675492411829
 20
66.00650127010266
 30
0.0
 10
-542.0675492411829
 20
67.05491946526178
 30
0.0
  0
SPLINE
  5
173
330
1F
100
AcDbEntity
  8
Vistas
100
AcDbSpline
210
0.0
220
0.0
230
1.0
 70
     8
 71
     2
 72
     6
 73
     3
 74
     0
 42
0.000000001
 43
0.0000000001
 40
9.0
 40
9.0
 40
9.0
 40
10.0
 40
10.0
 40
10.0
 10
-542.0675492411829
 20
67.05491946526178
 30
0.0
 10
-542.0675492411829
 20
68.00109938796822
 30
0.0
 10
-541.3263262399971
 20
68.64538945255535
 30
0.0
  0
SPLINE
  5
174
330
1F
100
AcDbEntity
  8
Vistas
100
AcDbSpline
210
0.0
220
0.0
230
1.0
 70
     8
 71
     2
 72
     6
 73
     3
 74
     0
 42
0.000000001
 43
0.0000000001
 40
10.0
 40
10.0
 40
10.0
 40
11.0
 40
11.0
 40
11.0
 10
-541.3263262399971
 20
68.64538945255535
 30
0.0
 10
-540.5851032388111
 20
69.28967951714245
 30
0.0
 10
-539.0283900698043
 20
69.28967951714245
 30
0.0
  0
SPLINE
  5
175
330
1F
100
AcDbEntity
  8
Vistas
100
AcDbSpline
210
0.0
220
0.0
230
1.0
 70
     8
 71
     2
 72
     6
 73
     3
 74
     0
 42
0.000000001
 43
0.0000000001
 40
11.0
 40
11.0
 40
11.0
 40
12.0
 40
12.0
 40
12.0
 10
-539.0283900698043
 20
69.28967951714245
 30
0.0
 10
-537.5459440674326
 20
69.28967951714245
 30
0.0
 10
-536.8254577944299
 20
68.79054796270967
 30
0.0
  0
SPLINE
  5
176
330
1F
100
AcDbEntity
  8
Vistas
100
AcDbSpline
210
0.0
220
0.0
230
1.0
 70
     8
 71
     2
 72
     6
 73
     3
 74
     0
 42
0.000000001
 43
0.0000000001
 40
12.0
 40
12.0
 40
12.0
 40
13.0
 40
13.0
 40
13.0
 10
-536.8254577944299
 20
68.79054796270967
 30
0.0
 10
-536.1049715214272
 20
68.29141640827686
 30
0.0
 10
-535.8329813399483
 20
67.31437087516713
 30
0.0
  0
LINE
  5
177
330
1F
100
AcDbEntity
  8
Vistas
100
AcDbLine
 10
-535.8329813399483
 20
67.31437087516713
 30
0.0
 11
-537.6231047967385
 21
67.0057288998585
 31
0.0
  0
SPLINE
  5
178
330
1F
100
AcDbEntity
  8
Vistas
100
AcDbSpline
210
0.0
220
0.0
230
1.0
 70
     8
 71
     2
 72
     6
 73
     3
 74
     0
 42
0.000000001
 43
0.0000000001
 40
14.0
 40
14.0
 40
14.0
 40
15.0
 40
15.0
 40
15.0
 10
-537.6231047967385
 20
67.0057288998585
 30
0.0
 10
-537.7388454197398
 20
67.45422452042502
 30
0.0
 10
-538.0609902165547
 20
67.69293967310472
 30
0.0
  0
SPLINE
  5
179
330
1F
100
AcDbEntity
  8
Vistas
100
AcDbSpline
210
0.0
220
0.0
230
1.0
 70
     8
 71
     2
 72
     6
 73
     3
 74
     0
 42
0.000000001
 43
0.0000000001
 40
15.0
 40
15.0
 40
15.0
 40
16.0
 40
16.0
 40
16.0
 10
-538.0609902165547
 20
67.69293967310472
 30
0.0
 10
-538.3831350133695
 20
67.93165482578442
 30
0.0
 10
-538.9811294880965
 20
67.93165482578442
 30
0.0
  0
SPLINE
  5
17A
330
1F
100
AcDbEntity
  8
Vistas
100
AcDbSpline
210
0.0
220
0.0
230
1.0
 70
     8
 71
     2
 72
     6
 73
     3
 74
     0
 42
0.000000001
 43
0.0000000001
 40
16.0
 40
16.0
 40
16.0
 40
17.0
 40
17.0
 40
17.0
 10
-538.9811294880965
 20
67.93165482578442
 30
0.0
 10
-539.7344080584957
 20
67.93165482578442
 30
0.0
 10
-540.060411409829
 20
67.71753495580637
 30
0.0
  0
SPLINE
  5
17B
330
1F
100
AcDbEntity
  8
Vistas
100
AcDbSpline
210
0.0
220
0.0
230
1.0
 70
     8
 71
     2
 72
     6
 73
     3
 74
     0
 42
0.000000001
 43
0.0000000001
 40
17.0
 40
17.0
 40
17.0
 40
18.0
 40
18.0
 40
18.0
 10
-540.060411409829
 20
67.71753495580637
 30
0.0
 10
-540.2774257843928
 20
67.5651425389751
 30
0.0
 10
-540.2774257843928
 20
67.32305156317949
 30
0.0
  0
SPLINE
  5
17C
330
1F
100
AcDbEntity
  8
Vistas
100
AcDbSpline
210
0.0
220
0.0
230
1.0
 70
     8
 71
     2
 72
     6
 73
     3
 74
     0
 42
0.000000001
 43
0.0000000001
 40
18.0
 40
18.0
 40
18.0
 40
19.0
 40
19.0
 40
19.0
 10
-540.2774257843928
 20
67.32305156317949
 30
0.0
 10
-540.2774257843928
 20
67.11568333943325
 30
0.0
 10
-540.0874179947564
 20
66.9700425688338
 30
0.0
  0
SPLINE
  5
17D
330
1F
100
AcDbEntity
  8
Vistas
100
AcDbSpline
210
0.0
220
0.0
230
1.0
 70
     8
 71
     2
 72
     6
 73
     3
 74
     0
 42
0.000000001
 43
0.0000000001
 40
19.0
 40
19.0
 40
19.0
 40
20.0
 40
20.0
 40
20.0
 10
-540.0874179947564
 20
66.9700425688338
 30
0.0
 10
-539.8298946847165
 20
66.77617669563628
 30
0.0
 10
-538.3079037968016
 20
66.42364996173572
 30
0.0
  0
SPLINE
  5
17E
330
1F
100
AcDbEntity
  8
Vistas
100
AcDbSpline
210
0.0
220
0.0
230
1.0
 70
     8
 71
     2
 72
     6
 73
     3
 74
     0
 42
0.000000001
 43
0.0000000001
 40
20.0
 40
20.0
 40
20.0
 40
21.0
 40
21.0
 40
21.0
 10
-538.3079037968016
 20
66.42364996173572
 30
0.0
 10
-536.7859129088866
 20
66.07112322783516
 30
0.0
 10
-536.1830967716232
 20
65.56475729576795
 30
0.0
  0
SPLINE
  5
17F
330
1F
100
AcDbEntity
  8
Vistas
100
AcDbSpline
210
0.0
220
0.0
230
1.0
 70
     8
 71
     2
 72
     6
 73
     3
 74
     0
 42
0.000000001
 43
0.0000000001
 40
21.0
 40
21.0
 40
21.0
 40
22.0
 40
22.0
 40
22.0
 10
-536.1830967716232
 20
65.56475729576795
 30
0.0
 10
-535.5860677597015
 20
65.0516397174689
 30
0.0
 10
-535.5860677597015
 20
64.13439447955534
 30
0.0
  0
SPLINE
  5
180
330
1F
100
AcDbEntity
  8
Vistas
100
AcDbSpline
210
0.0
220
0.0
230
1.0
 70
     8
 71
     2
 72
     6
 73
     3
 74
     0
 42
0.000000001
 43
0.0000000001
 40
22.0
 40
22.0
 40
22.0
 40
23.0
 40
23.0
 40
23.0
 10
-535.5860677597015
 20
64.13439447955534
 30
0.0
 10
-535.5860677597015
 20
63.13420138699429
 30
0.0
 10
-536.4136139676932
 20
62.41564415577208
 30
0.0
  0
SPLINE
  5
181
330
1F
100
AcDbEntity
  8
Vistas
100
AcDbSpline
210
0.0
220
0.0
230
1.0
 70
     8
 71
     2
 72
     6
 73
     3
 74
     0
 42
0.000000001
 43
0.0000000001
 40
23.0
 40
23.0
 40
23.0
 40
24.0
 40
24.0
 40
24.0
 10
-536.4136139676932
 20
62.41564415577208
 30
0.0
 10
-537.241160175685
 20
61.69708692454986
 30
0.0
 10
-538.8624943605093
 20
61.69708692454986
 30
0.0
  0
SPLINE
  5
182
330
1F
100
AcDbEntity
  8
Vistas
100
AcDbSpline
210
0.0
220
0.0
230
1.0
 70
     8
 71
     2
 72
     6
 73
     3
 74
     0
 42
0.000000001
 43
0.0000000001
 40
24.0
 40
24.0
 40
24.0
 40
25.0
 40
25.0
 40
25.0
 10
-538.8624943605093
 20
61.69708692454986
 30
0.0
 10
-540.3343315750033
 20
61.69708692454986
 30
0.0
 10
-541.1922597200808
 20
62.2950809283194
 30
0.0
  0
SPLINE
  5
183
330
1F
100
AcDbEntity
  8
Vistas
100
AcDbSpline
210
0.0
220
0.0
230
1.0
 70
     8
 71
     2
 72
     6
 73
     3
 74
     0
 42
0.000000001
 43
0.0000000001
 40
25.0
 40
25.0
 40
25.0
 40
26.0
 40
26.0
 40
26.0
 10
-541.1922597200808
 20
62.2950809283194
 30
0.0
 10
-542.0501878651583
 20
62.89307493208894
 30
0.0
 10
-542.3144628214299
 20
63.91930914677208
 30
0.0
  0
SPLINE
  5
184
330
1F
100
AcDbEntity
  8
Vistas
100
AcDbSpline
210
0.0
220
0.0
230
1.0
 70
     8
 71
     2
 72
     6
 73
     3
 74
     0
 42
0.000000001
 43
0.0000000001
 40
0.0
 40
0.0
 40
0.0
 40
1.0
 40
1.0
 40
1.0
 10
-545.5243393646397
 20
65.33906223319184
 30
0.0
 10
-545.8763838380951
 20
65.21656996395865
 30
0.0
 10
-546.6383435674641
 20
65.04681711301762
 30
0.0
  0
SPLINE
  5
185
330
1F
100
AcDbEntity
  8
Vistas
100
AcDbSpline
210
0.0
220
0.0
230
1.0
 70
     8
 71
     2
 72
     6
 73
     3
 74
     0
 42
0.000000001
 43
0.0000000001
 40
1.0
 40
1.0
 40
1.0
 40
2.0
 40
2.0
 40
2.0
 10
-546.6383435674641
 20
65.04681711301762
 30
0.0
 10
-547.4003032968332
 20
64.8770642620766
 30
0.0
 10
-547.6346781055067
 20
64.7140630573674
 30
0.0
  0
SPLINE
  5
186
330
1F
100
AcDbEntity
  8
Vistas
100
AcDbSpline
210
0.0
220
0.0
230
1.0
 70
     8
 71
     2
 72
     6
 73
     3
 74
     0
 42
0.000000001
 43
0.0000000001
 40
2.0
 40
2.0
 40
2.0
 40
3.0
 40
3.0
 40
3.0
 10
-547.6346781055067
 20
64.7140630573674
 30
0.0
 10
-547.9934751671088
 20
64.44882358020553
 30
0.0
 10
-547.9934751671088
 20
64.04083783702995
 30
0.0
  0
SPLINE
  5
187
330
1F
100
AcDbEntity
  8
Vistas
100
AcDbSpline
210
0.0
220
0.0
230
1.0
 70
     8
 71
     2
 72
     6
 73
     3
 74
     0
 42
0.000000001
 43
0.0000000001
 40
3.0
 40
3.0
 40
3.0
 40
4.0
 40
4.0
 40
4.0
 10
-547.9934751671088
 20
64.04083783702995
 30
0.0
 10
-547.9934751671088
 20
63.63960279817125
 30
0.0
 10
-547.7070167013187
 20
63.34735720703956
 30
0.0
  0
SPLINE
  5
188
330
1F
100
AcDbEntity
  8
Vistas
100
AcDbSpline
210
0.0
220
0.0
230
1.0
 70
     8
 71
     2
 72
     6
 73
     3
 74
     0
 42
0.000000001
 43
0.0000000001
 40
4.0
 40
4.0
 40
4.0
 40
5.0
 40
5.0
 40
5.0
 10
-547.7070167013187
 20
63.34735720703956
 30
0.0
 10
-547.4205582355286
 20
63.05511161590788
 30
0.0
 10
-546.9768852194134
 20
63.05511161590788
 30
0.0
  0
SPLINE
  5
189
330
1F
100
AcDbEntity
  8
Vistas
100
AcDbSpline
210
0.0
220
0.0
230
1.0
 70
     8
 71
     2
 72
     6
 73
     3
 74
     0
 42
0.000000001
 43
0.0000000001
 40
5.0
 40
5.0
 40
5.0
 40
6.0
 40
6.0
 40
6.0
 10
-546.9768852194134
 20
63.05511161590788
 30
0.0
 10
-546.4820935380293
 20
63.05511161590788
 30
0.0
 10
-546.0326333965725
 20
63.39461825970485
 30
0.0
  0
SPLINE
  5
18A
330
1F
100
AcDbEntity
  8
Vistas
100
AcDbSpline
210
0.0
220
0.0
230
1.0
 70
     8
 71
     2
 72
     6
 73
     3
 74
     0
 42
0.000000001
 43
0.0000000001
 40
6.0
 40
6.0
 40
6.0
 40
7.0
 40
7.0
 40
7.0
 10
-546.0326333965725
 20
63.39461825970485
 30
0.0
 10
-545.6998793409223
 20
63.65310609063489
 30
0.0
 10
-545.5957120266892
 20
64.0273345445663
 30
0.0
  0
SPLINE
  5
18B
330
1F
100
AcDbEntity
  8
Vistas
100
AcDbSpline
210
0.0
220
0.0
230
1.0
 70
     8
 71
     2
 72
     6
 73
     3
 74
     0
 42
0.000000001
 43
0.0000000001
 40
7.0
 40
7.0
 40
7.0
 40
8.0
 40
8.0
 40
8.0
 10
-545.5957120266892
 20
64.0273345445663
 30
0.0
 10
-545.5243393646397
 20
64.2723190830327
 30
0.0
 10
-545.5243393646397
 20
64.95808307494352
 30
0.0
  0
LINE
  5
18C
330
1F
100
AcDbEntity
  8
Vistas
100
AcDbLine
 10
-545.5243393646397
 20
64.95808307494352
 30
0.0
 11
-545.5243393646397
 21
65.33906223319184
 31
0.0
  0
LINE
  5
18D
330
1F
100
AcDbEntity
  8
Vistas
100
AcDbLine
 10
-547.9317467720471
 20
66.88227210973503
 30
0.0
 11
-549.6601418337755
 21
67.12918568998197
 31
0.0
  0
SPLINE
  5
18E
330
1F
100
AcDbEntity
  8
Vistas
100
AcDbSpline
210
0.0
220
0.0
230
1.0
 70
     8
 71
     2
 72
     6
 73
     3
 74
     0
 42
0.000000001
 43
0.0000000001
 40
1.0
 40
1.0
 40
1.0
 40
2.0
 40
2.0
 40
2.0
 10
-549.6601418337755
 20
67.12918568998197
 30
0.0
 10
-549.373682897028
 20
68.23065253410539
 30
0.0
 10
-548.6729693022755
 20
68.76016602562393
 30
0.0
  0
SPLINE
  5
18F
330
1F
100
AcDbEntity
  8
Vistas
100
AcDbSpline
210
0.0
220
0.0
230
1.0
 70
     8
 71
     2
 72
     6
 73
     3
 74
     0
 42
0.000000001
 43
0.0000000001
 40
2.0
 40
2.0
 40
2.0
 40
3.0
 40
3.0
 40
3.0
 10
-548.6729693022755
 20
68.76016602562393
 30
0.0
 10
-547.9722557075231
 20
69.28967951714245
 30
0.0
 10
-546.5920470356891
 20
69.28967951714245
 30
0.0
  0
SPLINE
  5
190
330
1F
100
AcDbEntity
  8
Vistas
100
AcDbSpline
210
0.0
220
0.0
230
1.0
 70
     8
 71
     2
 72
     6
 73
     3
 74
     0
 42
0.000000001
 43
0.0000000001
 40
3.0
 40
3.0
 40
3.0
 40
4.0
 40
4.0
 40
4.0
 10
-546.5920470356891
 20
69.28967951714245
 30
0.0
 10
-545.3381896585643
 20
69.28967951714245
 30
0.0
 10
-544.7247633205506
 20
68.98634240673024
 30
0.0
  0
SPLINE
  5
191
330
1F
100
AcDbEntity
  8
Vistas
100
AcDbSpline
210
0.0
220
0.0
230
1.0
 70
     8
 71
     2
 72
     6
 73
     3
 74
     0
 42
0.000000001
 43
0.0000000001
 40
4.0
 40
4.0
 40
4.0
 40
5.0
 40
5.0
 40
5.0
 10
-544.7247633205506
 20
68.98634240673024
 30
0.0
 10
-544.1113369825368
 20
68.68300529631802
 30
0.0
 10
-543.8610480501316
 20
68.2157019893489
 30
0.0
  0
SPLINE
  5
192
330
1F
100
AcDbEntity
  8
Vistas
100
AcDbSpline
210
0.0
220
0.0
230
1.0
 70
     8
 71
     2
 72
     6
 73
     3
 74
     0
 42
0.000000001
 43
0.0000000001
 40
5.0
 40
5.0
 40
5.0
 40
6.0
 40
6.0
 40
6.0
 10
-543.8610480501316
 20
68.2157019893489
 30
0.0
 10
-543.6107591177262
 20
67.74839868237976
 30
0.0
 10
-543.6107591177262
 20
66.50032843059648
 30
0.0
  0
LINE
  5
193
330
1F
100
AcDbEntity
  8
Vistas
100
AcDbLine
 10
-543.6107591177262
 20
66.50032843059648
 30
0.0
 11
-543.6107591177262
 21
64.26267387413009
 31
0.0
  0
SPLINE
  5
194
330
1F
100
AcDbEntity
  8
Vistas
100
AcDbSpline
210
0.0
220
0.0
230
1.0
 70
     8
 71
     2
 72
     6
 73
     3
 74
     0
 42
0.000000001
 43
0.0000000001
 40
7.0
 40
7.0
 40
7.0
 40
8.0
 40
8.0
 40
8.0
 10
-543.6107591177262
 20
64.26267387413009
 30
0.0
 10
-543.6107591177262
 20
63.30781232149636
 30
0.0
 10
-543.5065922744504
 20
62.85401230699087
 30
0.0
  0
SPLINE
  5
195
330
1F
100
AcDbEntity
  8
Vistas
100
AcDbSpline
210
0.0
220
0.0
230
1.0
 70
     8
 71
     2
 72
     6
 73
     3
 74
     0
 42
0.000000001
 43
0.0000000001
 40
8.0
 40
8.0
 40
8.0
 40
9.0
 40
9.0
 40
9.0
 10
-543.5065922744504
 20
62.85401230699087
 30
0.0
 10
-543.4024254311747
 20
62.40021229248538
 30
0.0
 10
-543.1169319572323
 20
61.88227210973504
 30
0.0
  0
LINE
  5
196
330
1F
100
AcDbEntity
  8
Vistas
100
AcDbLine
 10
-543.1169319572323
 20
61.88227210973504
 30
0.0
 11
-545.0305122041459
 21
61.88227210973504
 31
0.0
  0
SPLINE
  5
197
330
1F
100
AcDbEntity
  8
Vistas
100
AcDbSpline
210
0.0
220
0.0
230
1.0
 70
     8
 71
     2
 72
     6
 73
     3
 74
     0
 42
0.000000001
 43
0.0000000001
 40
10.0
 40
10.0
 40
10.0
 40
11.0
 40
11.0
 40
11.0
 10
-545.0305122041459
 20
61.88227210973504
 30
0.0
 10
-545.1047784288661
 20
62.07131537848127
 30
0.0
 10
-545.2137683475505
 20
62.44168574885164
 30
0.0
  0
SPLINE
  5
198
330
1F
100
AcDbEntity
  8
Vistas
100
AcDbSpline
210
0.0
220
0.0
230
1.0
 70
     8
 71
     2
 72
     6
 73
     3
 74
     0
 42
0.000000001
 43
0.0000000001
 40
11.0
 40
11.0
 40
11.0
 40
12.0
 40
12.0
 40
12.0
 10
-545.2137683475505
 20
62.44168574885164
 30
0.0
 10
-545.2610289292584
 20
62.61047502081733
 30
0.0
 10
-545.2812829260389
 20
62.66448724875698
 30
0.0
  0
SPLINE
  5
199
330
1F
100
AcDbEntity
  8
Vistas
100
AcDbSpline
210
0.0
220
0.0
230
1.0
 70
     8
 71
     2
 72
     6
 73
     3
 74
     0
 42
0.000000001
 43
0.0000000001
 40
12.0
 40
12.0
 40
12.0
 40
13.0
 40
13.0
 40
13.0
 10
-545.2812829260389
 20
62.66448724875698
 30
0.0
 10
-545.7693239031062
 20
62.18126981805601
 30
0.0
 10
-546.3258439795519
 20
61.93917837130294
 30
0.0
  0
SPLINE
  5
19A
330
1F
100
AcDbEntity
  8
Vistas
100
AcDbSpline
210
0.0
220
0.0
230
1.0
 70
     8
 71
     2
 72
     6
 73
     3
 74
     0
 42
0.000000001
 43
0.0000000001
 40
13.0
 40
13.0
 40
13.0
 40
14.0
 40
14.0
 40
14.0
 10
-546.3258439795519
 20
61.93917837130294
 30
0.0
 10
-546.8823640559978
 20
61.69708692454986
 30
0.0
 10
-547.5131503571638
 20
61.69708692454986
 30
0.0
  0
SPLINE
  5
19B
330
1F
100
AcDbEntity
  8
Vistas
100
AcDbSpline
210
0.0
220
0.0
230
1.0
 70
     8
 71
     2
 72
     6
 73
     3
 74
     0
 42
0.000000001
 43
0.0000000001
 40
14.0
 40
14.0
 40
14.0
 40
15.0
 40
15.0
 40
15.0
 10
-547.5131503571638
 20
61.69708692454986
 30
0.0
 10
-548.6252259891651
 20
61.69708692454986
 30
0.0
 10
-549.2661407015937
 20
62.30231483499635
 30
0.0
  0
SPLINE
  5
19C
330
1F
100
AcDbEntity
  8
Vistas
100
AcDbSpline
210
0.0
220
0.0
230
1.0
 70
     8
 71
     2
 72
     6
 73
     3
 74
     0
 42
0.000000001
 43
0.0000000001
 40
15.0
 40
15.0
 40
15.0
 40
16.0
 40
16.0
 40
16.0
 10
-549.2661407015937
 20
62.30231483499635
 30
0.0
 10
-549.9070554140224
 20
62.90754274544285
 30
0.0
 10
-549.9070554140224
 20
63.83250415047851
 30
0.0
  0
SPLINE
  5
19D
330
1F
100
AcDbEntity
  8
Vistas
100
AcDbSpline
210
0.0
220
0.0
230
1.0
 70
     8
 71
     2
 72
     6
 73
     3
 74
     0
 42
0.000000001
 43
0.0000000001
 40
16.0
 40
16.0
 40
16.0
 40
17.0
 40
17.0
 40
17.0
 10
-549.9070554140224
 20
63.83250415047851
 30
0.0
 10
-549.9070554140224
 20
64.4449654966445
 30
0.0
 10
-549.6215614691225
 20
64.9243248437844
 30
0.0
  0
SPLINE
  5
19E
330
1F
100
AcDbEntity
  8
Vistas
100
AcDbSpline
210
0.0
220
0.0
230
1.0
 70
     8
 71
     2
 72
     6
 73
     3
 74
     0
 42
0.000000001
 43
0.0000000001
 40
17.0
 40
17.0
 40
17.0
 40
18.0
 40
18.0
 40
18.0
 10
-549.6215614691225
 20
64.9243248437844
 30
0.0
 10
-549.3360675242227
 20
65.40368419092434
 30
0.0
 10
-548.8215031645883
 20
65.65879619873846
 30
0.0
  0
SPLINE
  5
19F
330
1F
100
AcDbEntity
  8
Vistas
100
AcDbSpline
210
0.0
220
0.0
230
1.0
 70
     8
 71
     2
 72
     6
 73
     3
 74
     0
 42
0.000000001
 43
0.0000000001
 40
18.0
 40
18.0
 40
18.0
 40
19.0
 40
19.0
 40
19.0
 10
-548.8215031645883
 20
65.65879619873846
 30
0.0
 10
-548.3069388049539
 20
65.9139082065526
 30
0.0
 10
-547.3376103808812
 20
66.10391599618907
 30
0.0
  0
SPLINE
  5
1A0
330
1F
100
AcDbEntity
  8
Vistas
100
AcDbSpline
210
0.0
220
0.0
230
1.0
 70
     8
 71
     2
 72
     6
 73
     3
 74
     0
 42
0.000000001
 43
0.0000000001
 40
19.0
 40
19.0
 40
19.0
 40
20.0
 40
20.0
 40
20.0
 10
-547.3376103808812
 20
66.10391599618907
 30
0.0
 10
-546.0287753130115
 20
66.35565218088729
 30
0.0
 10
-545.5243393646397
 20
66.5736301344264
 30
0.0
  0
LINE
  5
1A1
330
1F
100
AcDbEntity
  8
Vistas
100
AcDbLine
 10
-545.5243393646397
 20
66.5736301344264
 30
0.0
 11
-545.5243393646397
 21
66.76749600762392
 31
0.0
  0
SPLINE
  5
1A2
330
1F
100
AcDbEntity
  8
Vistas
100
AcDbSpline
210
0.0
220
0.0
230
1.0
 70
     8
 71
     2
 72
     6
 73
     3
 74
     0
 42
0.000000001
 43
0.0000000001
 40
21.0
 40
21.0
 40
21.0
 40
22.0
 40
22.0
 40
22.0
 10
-545.5243393646397
 20
66.76749600762392
 30
0.0
 10
-545.5243393646397
 20
67.3298032094113
 30
0.0
 10
-545.7804154223866
 20
67.56900062253612
 30
0.0
  0
SPLINE
  5
1A3
330
1F
100
AcDbEntity
  8
Vistas
100
AcDbSpline
210
0.0
220
0.0
230
1.0
 70
     8
 71
     2
 72
     6
 73
     3
 74
     0
 42
0.000000001
 43
0.0000000001
 40
22.0
 40
22.0
 40
22.0
 40
23.0
 40
23.0
 40
23.0
 10
-545.7804154223866
 20
67.56900062253612
 30
0.0
 10
-546.0364914801336
 20
67.80819803566098
 30
0.0
 10
-546.7473330151911
 20
67.80819803566098
 30
0.0
  0
SPLINE
  5
1A4
330
1F
100
AcDbEntity
  8
Vistas
100
AcDbSpline
210
0.0
220
0.0
230
1.0
 70
     8
 71
     2
 72
     6
 73
     3
 74
     0
 42
0.000000001
 43
0.0000000001
 40
23.0
 40
23.0
 40
23.0
 40
24.0
 40
24.0
 40
24.0
 10
-546.7473330151911
 20
67.80819803566098
 30
0.0
 10
-547.2276568832214
 20
67.80819803566098
 30
0.0
 10
-547.4962717125417
 20
67.60275838273779
 30
0.0
  0
SPLINE
  5
1A5
330
1F
100
AcDbEntity
  8
Vistas
100
AcDbSpline
210
0.0
220
0.0
230
1.0
 70
     8
 71
     2
 72
     6
 73
     3
 74
     0
 42
0.000000001
 43
0.0000000001
 40
24.0
 40
24.0
 40
24.0
 40
25.0
 40
25.0
 40
25.0
 10
-547.4962717125417
 20
67.60275838273779
 30
0.0
 10
-547.764886541862
 20
67.3973187298146
 30
0.0
 10
-547.9317467720471
 20
66.88227210973503
 30
0.0
  0
LINE
  5
1A6
330
1F
100
AcDbEntity
  8
Vistas
100
AcDbLine
 10
-550.6477961547632
 20
69.10449433195726
 30
0.0
 11
-550.6477961547632
 21
67.62301285047579
 31
0.0
  0
LINE
  5
1A7
330
1F
100
AcDbEntity
  8
Vistas
100
AcDbLine
 10
-550.6477961547632
 20
67.62301285047579
 30
0.0
 11
-551.9440924510595
 21
67.62301285047579
 31
0.0
  0
LINE
  5
1A8
330
1F
100
AcDbEntity
  8
Vistas
100
AcDbLine
 10
-551.9440924510595
 20
67.62301285047579
 30
0.0
 11
-551.9440924510595
 21
64.64076041162255
 31
0.0
  0
SPLINE
  5
1A9
330
1F
100
AcDbEntity
  8
Vistas
100
AcDbSpline
210
0.0
220
0.0
230
1.0
 70
     8
 71
     2
 72
     6
 73
     3
 74
     0
 42
0.000000001
 43
0.0000000001
 40
3.0
 40
3.0
 40
3.0
 40
4.0
 40
4.0
 40
4.0
 10
-551.9440924510595
 20
64.64076041162255
 30
0.0
 10
-551.9440924510595
 20
63.73508848247715
 30
0.0
 10
-551.907441128187
 20
63.585107838829
 30
0.0
  0
SPLINE
  5
1AA
330
1F
100
AcDbEntity
  8
Vistas
100
AcDbSpline
210
0.0
220
0.0
230
1.0
 70
     8
 71
     2
 72
     6
 73
     3
 74
     0
 42
0.000000001
 43
0.0000000001
 40
4.0
 40
4.0
 40
4.0
 40
5.0
 40
5.0
 40
5.0
 10
-551.907441128187
 20
63.585107838829
 30
0.0
 10
-551.8707898053146
 20
63.43512719518085
 30
0.0
 10
-551.7420281502948
 20
63.33771199813696
 30
0.0
  0
SPLINE
  5
1AB
330
1F
100
AcDbEntity
  8
Vistas
100
AcDbSpline
210
0.0
220
0.0
230
1.0
 70
     8
 71
     2
 72
     6
 73
     3
 74
     0
 42
0.000000001
 43
0.0000000001
 40
5.0
 40
5.0
 40
5.0
 40
6.0
 40
6.0
 40
6.0
 10
-551.7420281502948
 20
63.33771199813696
 30
0.0
 10
-551.6132664952748
 20
63.24029680109307
 30
0.0
 10
-551.4271167891993
 20
63.24029680109307
 30
0.0
  0
SPLINE
  5
1AC
330
1F
100
AcDbEntity
  8
Vistas
100
AcDbSpline
210
0.0
220
0.0
230
1.0
 70
     8
 71
     2
 72
     6
 73
     3
 74
     0
 42
0.000000001
 43
0.0000000001
 40
6.0
 40
6.0
 40
6.0
 40
7.0
 40
7.0
 40
7.0
 10
-551.4271167891993
 20
63.24029680109307
 30
0.0
 10
-551.1686289582693
 20
63.24029680109307
 30
0.0
 10
-550.6786598813366
 20
63.4225893655224
 30
0.0
  0
LINE
  5
1AD
330
1F
100
AcDbEntity
  8
Vistas
100
AcDbLine
 10
-550.6786598813366
 20
63.4225893655224
 30
0.0
 11
-550.5243393646397
 21
61.9748651732851
 31
0.0
  0
SPLINE
  5
1AE
330
1F
100
AcDbEntity
  8
Vistas
100
AcDbSpline
210
0.0
220
0.0
230
1.0
 70
     8
 71
     2
 72
     6
 73
     3
 74
     0
 42
0.000000001
 43
0.0000000001
 40
8.0
 40
8.0
 40
8.0
 40
9.0
 40
9.0
 40
9.0
 10
-550.5243393646397
 20
61.9748651732851
 30
0.0
 10
-551.1811677298427
 20
61.69708692454986
 30
0.0
 10
-552.0135360713284
 20
61.69708692454986
 30
0.0
  0
SPLINE
  5
1AF
330
1F
100
AcDbEntity
  8
Vistas
100
AcDbSpline
210
0.0
220
0.0
230
1.0
 70
     8
 71
     2
 72
     6
 73
     3
 74
     0
 42
0.000000001
 43
0.0000000001
 40
9.0
 40
9.0
 40
9.0
 40
10.0
 40
10.0
 40
10.0
 10
-552.0135360713284
 20
61.69708692454986
 30
0.0
 10
-552.5227955660664
 20
61.69708692454986
 30
0.0
 10
-552.9322285615348
 20
61.8726273717899
 30
0.0
  0
SPLINE
  5
1B0
330
1F
100
AcDbEntity
  8
Vistas
100
AcDbSpline
210
0.0
220
0.0
230
1.0
 70
     8
 71
     2
 72
     6
 73
     3
 74
     0
 42
0.000000001
 43
0.0000000001
 40
10.0
 40
10.0
 40
10.0
 40
11.0
 40
11.0
 40
11.0
 10
-552.9322285615348
 20
61.8726273717899
 30
0.0
 10
-553.3416615570032
 20
62.04816781902995
 30
0.0
 10
-553.53263386753
 20
62.32642785725286
 30
0.0
  0
SPLINE
  5
1B1
330
1F
100
AcDbEntity
  8
Vistas
100
AcDbSpline
210
0.0
220
0.0
230
1.0
 70
     8
 71
     2
 72
     6
 73
     3
 74
     0
 42
0.000000001
 43
0.0000000001
 40
11.0
 40
11.0
 40
11.0
 40
12.0
 40
12.0
 40
12.0
 10
-553.53263386753
 20
62.32642785725286
 30
0.0
 10
-553.7236061780568
 20
62.60468789547577
 30
0.0
 10
-553.7969078818867
 20
63.07922463816439
 30
0.0
  0
SPLINE
  5
1B2
330
1F
100
AcDbEntity
  8
Vistas
100
AcDbSpline
210
0.0
220
0.0
230
1.0
 70
     8
 71
     2
 72
     6
 73
     3
 74
     0
 42
0.000000001
 43
0.0000000001
 40
12.0
 40
12.0
 40
12.0
 40
13.0
 40
13.0
 40
13.0
 10
-553.7969078818867
 20
63.07922463816439
 30
0.0
 10
-553.857672697973
 20
63.41583771929058
 30
0.0
 10
-553.857672697973
 20
64.4401428921932
 30
0.0
  0
LINE
  5
1B3
330
1F
100
AcDbEntity
  8
Vistas
100
AcDbLine
 10
-553.857672697973
 20
64.4401428921932
 30
0.0
 11
-553.857672697973
 21
67.62301285047579
 31
0.0
  0
LINE
  5
1B4
330
1F
100
AcDbEntity
  8
Vistas
100
AcDbLine
 10
-553.857672697973
 20
67.62301285047579
 30
0.0
 11
-554.783598623899
 21
67.62301285047579
 31
0.0
  0
LINE
  5
1B5
330
1F
100
AcDbEntity
  8
Vistas
100
AcDbLine
 10
-554.783598623899
 20
67.62301285047579
 30
0.0
 11
-554.783598623899
 21
69.10449433195726
 31
0.0
  0
LINE
  5
1B6
330
1F
100
AcDbEntity
  8
Vistas
100
AcDbLine
 10
-554.783598623899
 20
69.10449433195726
 30
0.0
 11
-553.857672697973
 21
69.10449433195726
 31
0.0
  0
LINE
  5
1B7
330
1F
100
AcDbEntity
  8
Vistas
100
AcDbLine
 10
-553.857672697973
 20
69.10449433195726
 30
0.0
 11
-553.857672697973
 21
70.46251902331528
 31
0.0
  0
LINE
  5
1B8
330
1F
100
AcDbEntity
  8
Vistas
100
AcDbLine
 10
-553.857672697973
 20
70.46251902331528
 30
0.0
 11
-551.9440924510595
 21
71.5736301344264
 31
0.0
  0
LINE
  5
1B9
330
1F
100
AcDbEntity
  8
Vistas
100
AcDbLine
 10
-551.9440924510595
 20
71.5736301344264
 30
0.0
 11
-551.9440924510595
 21
69.10449433195726
 31
0.0
  0
LINE
  5
1BA
330
1F
100
AcDbEntity
  8
Vistas
100
AcDbLine
 10
-551.9440924510595
 20
69.10449433195726
 30
0.0
 11
-550.6477961547632
 21
69.10449433195726
 31
0.0
  0
LINE
  5
1BB
330
1F
100
AcDbEntity
  8
Vistas
100
AcDbLine
 10
-562.3761912164916
 20
63.91930914677208
 30
0.0
 11
-560.462610969578
 21
64.16622272701899
 31
0.0
  0
SPLINE
  5
1BC
330
1F
100
AcDbEntity
  8
Vistas
100
AcDbSpline
210
0.0
220
0.0
230
1.0
 70
     8
 71
     2
 72
     6
 73
     3
 74
     0
 42
0.000000001
 43
0.0000000001
 40
1.0
 40
1.0
 40
1.0
 40
2.0
 40
2.0
 40
2.0
 10
-560.462610969578
 20
64.16622272701899
 30
0.0
 10
-560.3401177584299
 20
63.62031238036604
 30
0.0
 10
-559.9673365567912
 20
63.33771199813696
 30
0.0
  0
SPLINE
  5
1BD
330
1F
100
AcDbEntity
  8
Vistas
100
AcDbSpline
210
0.0
220
0.0
230
1.0
 70
     8
 71
     2
 72
     6
 73
     3
 74
     0
 42
0.000000001
 43
0.0000000001
 40
2.0
 40
2.0
 40
2.0
 40
3.0
 40
3.0
 40
3.0
 10
-559.9673365567912
 20
63.33771199813696
 30
0.0
 10
-559.5945553551528
 20
63.05511161590788
 30
0.0
 10
-558.9242227555711
 20
63.05511161590788
 30
0.0
  0
SPLINE
  5
1BE
330
1F
100
AcDbEntity
  8
Vistas
100
AcDbSpline
210
0.0
220
0.0
230
1.0
 70
     8
 71
     2
 72
     6
 73
     3
 74
     0
 42
0.000000001
 43
0.0000000001
 40
3.0
 40
3.0
 40
3.0
 40
4.0
 40
4.0
 40
4.0
 10
-558.9242227555711
 20
63.05511161590788
 30
0.0
 10
-558.185411056611
 20
63.05511161590788
 30
0.0
 10
-557.8121471235697
 20
63.33192534375286
 30
0.0
  0
SPLINE
  5
1BF
330
1F
100
AcDbEntity
  8
Vistas
100
AcDbSpline
210
0.0
220
0.0
230
1.0
 70
     8
 71
     2
 72
     6
 73
     3
 74
     0
 42
0.000000001
 43
0.0000000001
 40
4.0
 40
4.0
 40
4.0
 40
5.0
 40
5.0
 40
5.0
 10
-557.8121471235697
 20
63.33192534375286
 30
0.0
 10
-557.5613764016767
 20
63.5257912169504
 30
0.0
 10
-557.5613764016767
 20
63.85083004739346
 30
0.0
  0
SPLINE
  5
1C0
330
1F
100
AcDbEntity
  8
Vistas
100
AcDbSpline
210
0.0
220
0.0
230
1.0
 70
     8
 71
     2
 72
     6
 73
     3
 74
     0
 42
0.000000001
 43
0.0000000001
 40
5.0
 40
5.0
 40
5.0
 40
6.0
 40
6.0
 40
6.0
 10
-557.5613764016767
 20
63.85083004739346
 30
0.0
 10
-557.5613764016767
 20
64.07170156360334
 30
0.0
 10
-557.6973710214586
 20
64.21734233420278
 30
0.0
  0
SPLINE
  5
1C1
330
1F
100
AcDbEntity
  8
Vistas
100
AcDbSpline
210
0.0
220
0.0
230
1.0
 70
     8
 71
     2
 72
     6
 73
     3
 74
     0
 42
0.000000001
 43
0.0000000001
 40
6.0
 40
6.0
 40
6.0
 40
7.0
 40
7.0
 40
7.0
 10
-557.6973710214586
 20
64.21734233420278
 30
0.0
 10
-557.8401182293874
 20
64.35526599576522
 30
0.0
 10
-558.3378034734421
 20
64.47293660246204
 30
0.0
  0
SPLINE
  5
1C2
330
1F
100
AcDbEntity
  8
Vistas
100
AcDbSpline
210
0.0
220
0.0
230
1.0
 70
     8
 71
     2
 72
     6
 73
     3
 74
     0
 42
0.000000001
 43
0.0000000001
 40
7.0
 40
7.0
 40
7.0
 40
8.0
 40
8.0
 40
8.0
 10
-558.3378034734421
 20
64.47293660246204
 30
0.0
 10
-560.6516532964092
 20
64.99184036418771
 30
0.0
 10
-561.2718308096973
 20
65.41718748338798
 30
0.0
  0
SPLINE
  5
1C3
330
1F
100
AcDbEntity
  8
Vistas
100
AcDbSpline
210
0.0
220
0.0
230
1.0
 70
     8
 71
     2
 72
     6
 73
     3
 74
     0
 42
0.000000001
 43
0.0000000001
 40
8.0
 40
8.0
 40
8.0
 40
9.0
 40
9.0
 40
9.0
 10
-561.2718308096973
 20
65.41718748338798
 30
0.0
 10
-562.1292776362446
 20
66.00650127010266
 30
0.0
 10
-562.1292776362446
 20
67.05491946526178
 30
0.0
  0
SPLINE
  5
1C4
330
1F
100
AcDbEntity
  8
Vistas
100
AcDbSpline
210
0.0
220
0.0
230
1.0
 70
     8
 71
     2
 72
     6
 73
     3
 74
     0
 42
0.000000001
 43
0.0000000001
 40
9.0
 40
9.0
 40
9.0
 40
10.0
 40
10.0
 40
10.0
 10
-562.1292776362446
 20
67.05491946526178
 30
0.0
 10
-562.1292776362446
 20
68.00109938796822
 30
0.0
 10
-561.3880546350588
 20
68.64538945255535
 30
0.0
  0
SPLINE
  5
1C5
330
1F
100
AcDbEntity
  8
Vistas
100
AcDbSpline
210
0.0
220
0.0
230
1.0
 70
     8
 71
     2
 72
     6
 73
     3
 74
     0
 42
0.000000001
 43
0.0000000001
 40
10.0
 40
10.0
 40
10.0
 40
11.0
 40
11.0
 40
11.0
 10
-561.3880546350588
 20
68.64538945255535
 30
0.0
 10
-560.6468316338729
 20
69.28967951714245
 30
0.0
 10
-559.090118464866
 20
69.28967951714245
 30
0.0
  0
SPLINE
  5
1C6
330
1F
100
AcDbEntity
  8
Vistas
100
AcDbSpline
210
0.0
220
0.0
230
1.0
 70
     8
 71
     2
 72
     6
 73
     3
 74
     0
 42
0.000000001
 43
0.0000000001
 40
11.0
 40
11.0
 40
11.0
 40
12.0
 40
12.0
 40
12.0
 10
-559.090118464866
 20
69.28967951714245
 30
0.0
 10
-557.6076724624943
 20
69.28967951714245
 30
0.0
 10
-556.8871861894916
 20
68.79054796270967
 30
0.0
  0
SPLINE
  5
1C7
330
1F
100
AcDbEntity
  8
Vistas
100
AcDbSpline
210
0.0
220
0.0
230
1.0
 70
     8
 71
     2
 72
     6
 73
     3
 74
     0
 42
0.000000001
 43
0.0000000001
 40
12.0
 40
12.0
 40
12.0
 40
13.0
 40
13.0
 40
13.0
 10
-556.8871861894916
 20
68.79054796270967
 30
0.0
 10
-556.1666999164888
 20
68.29141640827686
 30
0.0
 10
-555.8947097350101
 20
67.31437087516713
 30
0.0
  0
LINE
  5
1C8
330
1F
100
AcDbEntity
  8
Vistas
100
AcDbLine
 10
-555.8947097350101
 20
67.31437087516713
 30
0.0
 11
-557.6848331918002
 21
67.0057288998585
 31
0.0
  0
SPLINE
  5
1C9
330
1F
100
AcDbEntity
  8
Vistas
100
AcDbSpline
210
0.0
220
0.0
230
1.0
 70
     8
 71
     2
 72
     6
 73
     3
 74
     0
 42
0.000000001
 43
0.0000000001
 40
14.0
 40
14.0
 40
14.0
 40
15.0
 40
15.0
 40
15.0
 10
-557.6848331918002
 20
67.0057288998585
 30
0.0
 10
-557.8005738148015
 20
67.45422452042502
 30
0.0
 10
-558.1227186116164
 20
67.69293967310472
 30
0.0
  0
SPLINE
  5
1CA
330
1F
100
AcDbEntity
  8
Vistas
100
AcDbSpline
210
0.0
220
0.0
230
1.0
 70
     8
 71
     2
 72
     6
 73
     3
 74
     0
 42
0.000000001
 43
0.0000000001
 40
15.0
 40
15.0
 40
15.0
 40
16.0
 40
16.0
 40
16.0
 10
-558.1227186116164
 20
67.69293967310472
 30
0.0
 10
-558.4448634084313
 20
67.93165482578442
 30
0.0
 10
-559.0428578831581
 20
67.93165482578442
 30
0.0
  0
SPLINE
  5
1CB
330
1F
100
AcDbEntity
  8
Vistas
100
AcDbSpline
210
0.0
220
0.0
230
1.0
 70
     8
 71
     2
 72
     6
 73
     3
 74
     0
 42
0.000000001
 43
0.0000000001
 40
16.0
 40
16.0
 40
16.0
 40
17.0
 40
17.0
 40
17.0
 10
-559.0428578831581
 20
67.93165482578442
 30
0.0
 10
-559.7961364535574
 20
67.93165482578442
 30
0.0
 10
-560.1221398048908
 20
67.71753495580637
 30
0.0
  0
SPLINE
  5
1CC
330
1F
100
AcDbEntity
  8
Vistas
100
AcDbSpline
210
0.0
220
0.0
230
1.0
 70
     8
 71
     2
 72
     6
 73
     3
 74
     0
 42
0.000000001
 43
0.0000000001
 40
17.0
 40
17.0
 40
17.0
 40
18.0
 40
18.0
 40
18.0
 10
-560.1221398048908
 20
67.71753495580637
 30
0.0
 10
-560.3391541794545
 20
67.5651425389751
 30
0.0
 10
-560.3391541794545
 20
67.32305156317949
 30
0.0
  0
SPLINE
  5
1CD
330
1F
100
AcDbEntity
  8
Vistas
100
AcDbSpline
210
0.0
220
0.0
230
1.0
 70
     8
 71
     2
 72
     6
 73
     3
 74
     0
 42
0.000000001
 43
0.0000000001
 40
18.0
 40
18.0
 40
18.0
 40
19.0
 40
19.0
 40
19.0
 10
-560.3391541794545
 20
67.32305156317949
 30
0.0
 10
-560.3391541794545
 20
67.11568333943325
 30
0.0
 10
-560.149146389818
 20
66.9700425688338
 30
0.0
  0
SPLINE
  5
1CE
330
1F
100
AcDbEntity
  8
Vistas
100
AcDbSpline
210
0.0
220
0.0
230
1.0
 70
     8
 71
     2
 72
     6
 73
     3
 74
     0
 42
0.000000001
 43
0.0000000001
 40
19.0
 40
19.0
 40
19.0
 40
20.0
 40
20.0
 40
20.0
 10
-560.149146389818
 20
66.9700425688338
 30
0.0
 10
-559.8916230797782
 20
66.77617669563628
 30
0.0
 10
-558.3696321918633
 20
66.42364996173572
 30
0.0
  0
SPLINE
  5
1CF
330
1F
100
AcDbEntity
  8
Vistas
100
AcDbSpline
210
0.0
220
0.0
230
1.0
 70
     8
 71
     2
 72
     6
 73
     3
 74
     0
 42
0.000000001
 43
0.0000000001
 40
20.0
 40
20.0
 40
20.0
 40
21.0
 40
21.0
 40
21.0
 10
-558.3696321918633
 20
66.42364996173572
 30
0.0
 10
-556.8476413039484
 20
66.07112322783516
 30
0.0
 10
-556.2448251666849
 20
65.56475729576795
 30
0.0
  0
SPLINE
  5
1D0
330
1F
100
AcDbEntity
  8
Vistas
100
AcDbSpline
210
0.0
220
0.0
230
1.0
 70
     8
 71
     2
 72
     6
 73
     3
 74
     0
 42
0.000000001
 43
0.0000000001
 40
21.0
 40
21.0
 40
21.0
 40
22.0
 40
22.0
 40
22.0
 10
-556.2448251666849
 20
65.56475729576795
 30
0.0
 10
-555.6477961547632
 20
65.0516397174689
 30
0.0
 10
-555.6477961547632
 20
64.13439447955534
 30
0.0
  0
SPLINE
  5
1D1
330
1F
100
AcDbEntity
  8
Vistas
100
AcDbSpline
210
0.0
220
0.0
230
1.0
 70
     8
 71
     2
 72
     6
 73
     3
 74
     0
 42
0.000000001
 43
0.0000000001
 40
22.0
 40
22.0
 40
22.0
 40
23.0
 40
23.0
 40
23.0
 10
-555.6477961547632
 20
64.13439447955534
 30
0.0
 10
-555.6477961547632
 20
63.13420138699429
 30
0.0
 10
-556.4753423627549
 20
62.41564415577208
 30
0.0
  0
SPLINE
  5
1D2
330
1F
100
AcDbEntity
  8
Vistas
100
AcDbSpline
210
0.0
220
0.0
230
1.0
 70
     8
 71
     2
 72
     6
 73
     3
 74
     0
 42
0.000000001
 43
0.0000000001
 40
23.0
 40
23.0
 40
23.0
 40
24.0
 40
24.0
 40
24.0
 10
-556.4753423627549
 20
62.41564415577208
 30
0.0
 10
-557.3028885707467
 20
61.69708692454986
 30
0.0
 10
-558.9242227555711
 20
61.69708692454986
 30
0.0
  0
SPLINE
  5
1D3
330
1F
100
AcDbEntity
  8
Vistas
100
AcDbSpline
210
0.0
220
0.0
230
1.0
 70
     8
 71
     2
 72
     6
 73
     3
 74
     0
 42
0.000000001
 43
0.0000000001
 40
24.0
 40
24.0
 40
24.0
 40
25.0
 40
25.0
 40
25.0
 10
-558.9242227555711
 20
61.69708692454986
 30
0.0
 10
-560.3960599700649
 20
61.69708692454986
 30
0.0
 10
-561.2539881151424
 20
62.2950809283194
 30
0.0
  0
SPLINE
  5
1D4
330
1F
100
AcDbEntity
  8
Vistas
100
AcDbSpline
210
0.0
220
0.0
230
1.0
 70
     8
 71
     2
 72
     6
 73
     3
 74
     0
 42
0.000000001
 43
0.0000000001
 40
25.0
 40
25.0
 40
25.0
 40
26.0
 40
26.0
 40
26.0
 10
-561.2539881151424
 20
62.2950809283194
 30
0.0
 10
-562.1119162602199
 20
62.89307493208894
 30
0.0
 10
-562.3761912164916
 20
63.91930914677208
 30
0.0
  0
LINE
  5
1D5
330
1F
100
AcDbEntity
  8
Vistas
100
AcDbLine
 10
-565.5243393646397
 20
61.88227210973504
 30
0.0
 11
-565.5243393646397
 21
69.10449433195726
 31
0.0
  0
LINE
  5
1D6
330
1F
100
AcDbEntity
  8
Vistas
100
AcDbLine
 10
-565.5243393646397
 20
69.10449433195726
 30
0.0
 11
-563.610759117726
 21
69.10449433195726
 31
0.0
  0
LINE
  5
1D7
330
1F
100
AcDbEntity
  8
Vistas
100
AcDbLine
 10
-563.610759117726
 20
69.10449433195726
 30
0.0
 11
-563.610759117726
 21
61.88227210973504
 31
0.0
  0
LINE
  5
1D8
330
1F
100
AcDbEntity
  8
Vistas
100
AcDbLine
 10
-563.610759117726
 20
61.88227210973504
 30
0.0
 11
-565.5243393646397
 21
61.88227210973504
 31
0.0
  0
LINE
  5
1D9
330
1F
100
AcDbEntity
  8
Vistas
100
AcDbLine
 10
-565.5243393646397
 20
70.15387704800665
 30
0.0
 11
-565.5243393646397
 21
71.8205437146733
 31
0.0
  0
LINE
  5
1DA
330
1F
100
AcDbEntity
  8
Vistas
100
AcDbLine
 10
-565.5243393646397
 20
71.8205437146733
 30
0.0
 11
-563.610759117726
 21
71.8205437146733
 31
0.0
  0
LINE
  5
1DB
330
1F
100
AcDbEntity
  8
Vistas
100
AcDbLine
 10
-563.610759117726
 20
71.8205437146733
 30
0.0
 11
-563.610759117726
 21
70.15387704800665
 31
0.0
  0
LINE
  5
1DC
330
1F
100
AcDbEntity
  8
Vistas
100
AcDbLine
 10
-563.610759117726
 20
70.15387704800665
 30
0.0
 11
-565.5243393646397
 21
70.15387704800665
 31
0.0
  0
LINE
  5
1DD
330
1F
100
AcDbEntity
  8
Vistas
100
AcDbLine
 10
-572.2778110275999
 20
61.88227210973504
 30
0.0
 11
-575.7095245498249
 21
71.8205437146733
 31
0.0
  0
LINE
  5
1DE
330
1F
100
AcDbEntity
  8
Vistas
100
AcDbLine
 10
-575.7095245498249
 20
71.8205437146733
 30
0.0
 11
-573.55095882253
 21
71.8205437146733
 31
0.0
  0
LINE
  5
1DF
330
1F
100
AcDbEntity
  8
Vistas
100
AcDbLine
 10
-573.55095882253
 20
71.8205437146733
 30
0.0
 11
-571.1107586467687
 21
64.47486470232764
 31
0.0
  0
LINE
  5
1E0
330
1F
100
AcDbEntity
  8
Vistas
100
AcDbLine
 10
-571.1107586467687
 20
64.47486470232764
 30
0.0
 11
-568.6705584710073
 21
71.8205437146733
 31
0.0
  0
LINE
  5
1E1
330
1F
100
AcDbEntity
  8
Vistas
100
AcDbLine
 10
-568.6705584710073
 20
71.8205437146733
 30
0.0
 11
-566.5119936856274
 21
71.8205437146733
 31
0.0
  0
LINE
  5
1E2
330
1F
100
AcDbEntity
  8
Vistas
100
AcDbLine
 10
-566.5119936856274
 20
71.8205437146733
 30
0.0
 11
-570.0739147022927
 21
61.88227210973504
 31
0.0
  0
LINE
  5
1E3
330
1F
100
AcDbEntity
  8
Vistas
100
AcDbLine
 10
-570.0739147022927
 20
61.88227210973504
 30
0.0
 11
-572.2778110275999
 21
61.88227210973504
 31
0.0
  0
LINE
  5
1E4
330
1F
100
AcDbEntity
  8
Vistas
100
AcDbLine
 10
-404.2282471982033
 20
-36.42980605451796
 30
0.0
 11
-404.2282471982033
 21
8.570193945482043
 31
0.0
  0
SPLINE
  5
1E5
330
1F
100
AcDbEntity
  8
Vistas
100
AcDbSpline
210
0.0
220
0.0
230
1.0
 70
    12
 71
     2
 72
     8
 73
     5
 74
     0
 42
0.000000001
 43
0.0000000001
 40
45.00000000000001
 40
45.00000000000001
 40
45.00000000000001
 40
46.57079632679491
 40
46.57079632679491
 40
48.1415926535898
 40
48.1415926535898
 40
48.1415926535898
 10
-404.2282471982033
 20
8.570193945482043
 30
0.0
 41
1.0
 10
-404.2282471982033
 20
44.57019394548205
 30
0.0
 41
0.7071067811865475
 10
-439.2282471982033
 20
44.57019394548204
 30
0.0
 41
1.0
 10
-474.2282471982033
 20
44.57019394548202
 30
0.0
 41
0.7071067811865475
 10
-474.2282471982033
 20
8.570193945482028
 30
0.0
 41
1.0
  0
LINE
  5
1E6
330
1F
100
AcDbEntity
  8
Vistas
100
AcDbLine
 10
-474.2282471982033
 20
8.570193945482028
 30
0.0
 11
-474.2282471982033
 21
-31.42980605451796
 31
0.0
  0
LINE
  5
1E7
330
1F
100
AcDbEntity
  8
Vistas
100
AcDbLine
 10
-474.2282471982033
 20
-31.42980605451796
 30
0.0
 11
-474.2282471982033
 21
-36.42980605451796
 31
0.0
  0
SPLINE
  5
1E8
330
1F
100
AcDbEntity
  8
Vistas
100
AcDbSpline
210
0.0
220
0.0
230
1.0
 70
     8
 71
     3
 72
     9
 73
     5
 74
     0
 42
0.000000001
 43
0.0000000001
 40
93.14159265358978
 40
93.14159265358978
 40
93.14159265358978
 40
93.14159265358978
 40
100.2126604654553
 40
107.2837282773208
 40
107.2837282773208
 40
107.2837282773208
 40
107.2837282773208
 10
-474.2282471982033
 20
-36.42980605451796
 30
0.0
 10
-473.2387012830814
 20
-39.08930211392444
 30
0.0
 10
-469.2282471982034
 20
-43.7703099951115
 30
0.0
 10
-465.2177931133253
 20
-39.08930211392443
 30
0.0
 10
-464.2282471982032
 20
-36.42980605451796
 30
0.0
  0
SPLINE
  5
1E9
330
1F
100
AcDbEntity
  8
Vistas
100
AcDbSpline
210
0.0
220
0.0
230
1.0
 70
     8
 71
     3
 72
     9
 73
     5
 74
     0
 42
0.000000001
 43
0.0000000001
 40
107.2837282773208
 40
107.2837282773208
 40
107.2837282773208
 40
107.2837282773208
 40
114.3547960891863
 40
121.4258639010517
 40
121.4258639010517
 40
121.4258639010517
 40
121.4258639010517
 10
-464.2282471982032
 20
-36.42980605451796
 30
0.0
 10
-463.2387012830812
 20
-33.7703099951115
 30
0.0
 10
-459.2282471982033
 20
-29.08930211392443
 30
0.0
 10
-455.2177931133252
 20
-33.77030999511151
 30
0.0
 10
-454.2282471982032
 20
-36.42980605451798
 30
0.0
  0
SPLINE
  5
1EA
330
1F
100
AcDbEntity
  8
Vistas
100
AcDbSpline
210
0.0
220
0.0
230
1.0
 70
     8
 71
     3
 72
     9
 73
     5
 74
     0
 42
0.000000001
 43
0.0000000001
 40
121.4258639010517
 40
121.4258639010517
 40
121.4258639010517
 40
121.4258639010517
 40
128.4969317129171
 40
135.5679995247826
 40
135.5679995247826
 40
135.5679995247826
 40
135.5679995247826
 10
-454.2282471982032
 20
-36.42980605451798
 30
0.0
 10
-453.2387012830812
 20
-39.08930211392441
 30
0.0
 10
-449.2282471982034
 20
-43.77030999511151
 30
0.0
 10
-445.2177931133254
 20
-39.08930211392443
 30
0.0
 10
-444.2282471982033
 20
-36.42980605451796
 30
0.0
  0
SPLINE
  5
1EB
330
1F
100
AcDbEntity
  8
Vistas
100
AcDbSpline
210
0.0
220
0.0
230
1.0
 70
     8
 71
     3
 72
     8
 73
     4
 74
     0
 42
0.000000001
 43
0.0000000001
 40
135.5679995247826
 40
135.5679995247826
 40
135.5679995247826
 40
135.5679995247826
 40
142.6390673366481
 40
142.6390673366481
 40
142.6390673366481
 40
142.6390673366481
 10
-444.2282471982033
 20
-36.42980605451796
 30
0.0
 10
-443.2387012830812
 20
-33.77030999511151
 30
0.0
 10
-441.2334742406423
 20
-31.42980605451797
 30
0.0
 10
-439.2282471982033
 20
-31.42980605451796
 30
0.0
  0
SPLINE
  5
1EC
330
1F
100
AcDbEntity
  8
Vistas
100
AcDbSpline
210
0.0
220
0.0
230
1.0
 70
     8
 71
     3
 72
     8
 73
     4
 74
     0
 42
0.000000001
 43
0.0000000001
 40
142.6390673366481
 40
142.6390673366481
 40
142.6390673366481
 40
142.6390673366481
 40
149.7101351485135
 40
149.7101351485135
 40
149.7101351485135
 40
149.7101351485135
 10
-439.2282471982033
 20
-31.42980605451796
 30
0.0
 10
-437.2230201557644
 20
-31.42980605451797
 30
0.0
 10
-435.2177931133255
 20
-33.77030999511151
 30
0.0
 10
-434.2282471982033
 20
-36.42980605451796
 30
0.0
  0
SPLINE
  5
1ED
330
1F
100
AcDbEntity
  8
Vistas
100
AcDbSpline
210
0.0
220
0.0
230
1.0
 70
     8
 71
     3
 72
     9
 73
     5
 74
     0
 42
0.000000001
 43
0.0000000001
 40
149.7101351485135
 40
149.7101351485135
 40
149.7101351485135
 40
149.7101351485135
 40
156.781202960379
 40
163.8522707722444
 40
163.8522707722444
 40
163.8522707722444
 40
163.8522707722444
 10
-434.2282471982033
 20
-36.42980605451796
 30
0.0
 10
-433.2387012830813
 20
-39.08930211392443
 30
0.0
 10
-429.2282471982033
 20
-43.77030999511151
 30
0.0
 10
-425.2177931133255
 20
-39.08930211392441
 30
0.0
 10
-424.2282471982035
 20
-36.42980605451798
 30
0.0
  0
SPLINE
  5
1EE
330
1F
100
AcDbEntity
  8
Vistas
100
AcDbSpline
210
0.0
220
0.0
230
1.0
 70
     8
 71
     3
 72
     9
 73
     5
 74
     0
 42
0.000000001
 43
0.0000000001
 40
163.8522707722444
 40
163.8522707722444
 40
163.8522707722444
 40
163.8522707722444
 40
170.9233385841098
 40
177.9944063959753
 40
177.9944063959753
 40
177.9944063959753
 40
177.9944063959753
 10
-424.2282471982035
 20
-36.42980605451798
 30
0.0
 10
-423.2387012830815
 20
-33.77030999511151
 30
0.0
 10
-419.2282471982034
 20
-29.08930211392443
 30
0.0
 10
-415.2177931133255
 20
-33.7703099951115
 30
0.0
 10
-414.2282471982035
 20
-36.42980605451796
 30
0.0
  0
SPLINE
  5
1EF
330
1F
100
AcDbEntity
  8
Vistas
100
AcDbSpline
210
0.0
220
0.0
230
1.0
 70
     8
 71
     3
 72
     9
 73
     5
 74
     0
 42
0.000000001
 43
0.0000000001
 40
177.9944063959753
 40
177.9944063959753
 40
177.9944063959753
 40
177.9944063959753
 40
185.0654742078409
 40
192.1365420197063
 40
192.1365420197063
 40
192.1365420197063
 40
192.1365420197063
 10
-414.2282471982035
 20
-36.42980605451796
 30
0.0
 10
-413.2387012830814
 20
-39.08930211392443
 30
0.0
 10
-409.2282471982033
 20
-43.7703099951115
 30
0.0
 10
-405.2177931133253
 20
-39.08930211392444
 30
0.0
 10
-404.2282471982033
 20
-36.42980605451796
 30
0.0
  0
LINE
  5
1F0
330
1F
100
AcDbEntity
  8
Vistas
100
AcDbLine
 10
-482.2730265244747
 20
-36.31955394274348
 30
0.0
 11
-482.2730265244747
 21
8.680446057256528
 31
0.0
  0
SPLINE
  5
1F1
330
1F
100
AcDbEntity
  8
Vistas
100
AcDbSpline
210
0.0
220
0.0
230
1.0
 70
    12
 71
     2
 72
     8
 73
     5
 74
     0
 42
0.000000001
 43
0.0000000001
 40
45.00000000000001
 40
45.00000000000001
 40
45.00000000000001
 40
46.57079632679491
 40
46.57079632679491
 40
48.1415926535898
 40
48.1415926535898
 40
48.1415926535898
 10
-482.2730265244747
 20
8.680446057256528
 30
0.0
 41
1.0
 10
-482.2730265244748
 20
44.68044605725653
 30
0.0
 41
0.7071067811865475
 10
-517.2730265244747
 20
44.68044605725652
 30
0.0
 41
1.0
 10
-552.2730265244747
 20
44.6804460572565
 30
0.0
 41
0.7071067811865475
 10
-552.2730265244747
 20
8.680446057256514
 30
0.0
 41
1.0
  0
LINE
  5
1F2
330
1F
100
AcDbEntity
  8
Vistas
100
AcDbLine
 10
-552.2730265244747
 20
8.680446057256514
 30
0.0
 11
-552.2730265244747
 21
-31.31955394274348
 31
0.0
  0
LINE
  5
1F3
330
1F
100
AcDbEntity
  8
Vistas
100
AcDbLine
 10
-552.2730265244747
 20
-31.31955394274348
 30
0.0
 11
-552.2730265244747
 21
-36.31955394274348
 31
0.0
  0
SPLINE
  5
1F4
330
1F
100
AcDbEntity
  8
Vistas
100
AcDbSpline
210
0.0
220
0.0
230
1.0
 70
     8
 71
     3
 72
     9
 73
     5
 74
     0
 42
0.000000001
 43
0.0000000001
 40
93.14159265358978
 40
93.14159265358978
 40
93.14159265358978
 40
93.14159265358978
 40
100.2126604654553
 40
107.2837282773208
 40
107.2837282773208
 40
107.2837282773208
 40
107.2837282773208
 10
-552.2730265244747
 20
-36.31955394274348
 30
0.0
 10
-551.2834806093529
 20
-38.97905000214995
 30
0.0
 10
-547.2730265244747
 20
-43.66005788333701
 30
0.0
 10
-543.2625724395967
 20
-38.97905000214994
 30
0.0
 10
-542.2730265244746
 20
-36.31955394274348
 30
0.0
  0
SPLINE
  5
1F5
330
1F
100
AcDbEntity
  8
Vistas
100
AcDbSpline
210
0.0
220
0.0
230
1.0
 70
     8
 71
     3
 72
     9
 73
     5
 74
     0
 42
0.000000001
 43
0.0000000001
 40
107.2837282773208
 40
107.2837282773208
 40
107.2837282773208
 40
107.2837282773208
 40
114.3547960891863
 40
121.4258639010517
 40
121.4258639010517
 40
121.4258639010517
 40
121.4258639010517
 10
-542.2730265244746
 20
-36.31955394274348
 30
0.0
 10
-541.2834806093526
 20
-33.66005788333701
 30
0.0
 10
-537.2730265244747
 20
-28.97905000214994
 30
0.0
 10
-533.2625724395966
 20
-33.66005788333702
 30
0.0
 10
-532.2730265244746
 20
-36.31955394274349
 30
0.0
  0
SPLINE
  5
1F6
330
1F
100
AcDbEntity
  8
Vistas
100
AcDbSpline
210
0.0
220
0.0
230
1.0
 70
     8
 71
     3
 72
     9
 73
     5
 74
     0
 42
0.000000001
 43
0.0000000001
 40
121.4258639010517
 40
121.4258639010517
 40
121.4258639010517
 40
121.4258639010517
 40
128.4969317129171
 40
135.5679995247826
 40
135.5679995247826
 40
135.5679995247826
 40
135.5679995247826
 10
-532.2730265244746
 20
-36.31955394274349
 30
0.0
 10
-531.2834806093526
 20
-38.97905000214993
 30
0.0
 10
-527.2730265244747
 20
-43.66005788333702
 30
0.0
 10
-523.2625724395969
 20
-38.97905000214994
 30
0.0
 10
-522.2730265244747
 20
-36.31955394274348
 30
0.0
  0
SPLINE
  5
1F7
330
1F
100
AcDbEntity
  8
Vistas
100
AcDbSpline
210
0.0
220
0.0
230
1.0
 70
     8
 71
     3
 72
     8
 73
     4
 74
     0
 42
0.000000001
 43
0.0000000001
 40
135.5679995247826
 40
135.5679995247826
 40
135.5679995247826
 40
135.5679995247826
 40
142.6390673366481
 40
142.6390673366481
 40
142.6390673366481
 40
142.6390673366481
 10
-522.2730265244747
 20
-36.31955394274348
 30
0.0
 10
-521.2834806093526
 20
-33.66005788333702
 30
0.0
 10
-519.2782535669137
 20
-31.31955394274348
 30
0.0
 10
-517.2730265244747
 20
-31.31955394274348
 30
0.0
  0
SPLINE
  5
1F8
330
1F
100
AcDbEntity
  8
Vistas
100
AcDbSpline
210
0.0
220
0.0
230
1.0
 70
     8
 71
     3
 72
     8
 73
     4
 74
     0
 42
0.000000001
 43
0.0000000001
 40
142.6390673366481
 40
142.6390673366481
 40
142.6390673366481
 40
142.6390673366481
 40
149.7101351485135
 40
149.7101351485135
 40
149.7101351485135
 40
149.7101351485135
 10
-517.2730265244747
 20
-31.31955394274348
 30
0.0
 10
-515.2677994820358
 20
-31.31955394274348
 30
0.0
 10
-513.2625724395969
 20
-33.66005788333702
 30
0.0
 10
-512.2730265244747
 20
-36.31955394274348
 30
0.0
  0
SPLINE
  5
1F9
330
1F
100
AcDbEntity
  8
Vistas
100
AcDbSpline
210
0.0
220
0.0
230
1.0
 70
     8
 71
     3
 72
     9
 73
     5
 74
     0
 42
0.000000001
 43
0.0000000001
 40
149.7101351485135
 40
149.7101351485135
 40
149.7101351485135
 40
149.7101351485135
 40
156.781202960379
 40
163.8522707722444
 40
163.8522707722444
 40
163.8522707722444
 40
163.8522707722444
 10
-512.2730265244747
 20
-36.31955394274348
 30
0.0
 10
-511.2834806093527
 20
-38.97905000214994
 30
0.0
 10
-507.2730265244747
 20
-43.66005788333702
 30
0.0
 10
-503.2625724395969
 20
-38.97905000214993
 30
0.0
 10
-502.2730265244749
 20
-36.31955394274349
 30
0.0
  0
SPLINE
  5
1FA
330
1F
100
AcDbEntity
  8
Vistas
100
AcDbSpline
210
0.0
220
0.0
230
1.0
 70
     8
 71
     3
 72
     9
 73
     5
 74
     0
 42
0.000000001
 43
0.0000000001
 40
163.8522707722444
 40
163.8522707722444
 40
163.8522707722444
 40
163.8522707722444
 40
170.9233385841098
 40
177.9944063959753
 40
177.9944063959753
 40
177.9944063959753
 40
177.9944063959753
 10
-502.2730265244749
 20
-36.31955394274349
 30
0.0
 10
-501.2834806093529
 20
-33.66005788333702
 30
0.0
 10
-497.2730265244748
 20
-28.97905000214994
 30
0.0
 10
-493.2625724395969
 20
-33.66005788333701
 30
0.0
 10
-492.2730265244749
 20
-36.31955394274348
 30
0.0
  0
SPLINE
  5
1FB
330
1F
100
AcDbEntity
  8
Vistas
100
AcDbSpline
210
0.0
220
0.0
230
1.0
 70
     8
 71
     3
 72
     9
 73
     5
 74
     0
 42
0.000000001
 43
0.0000000001
 40
177.9944063959753
 40
177.9944063959753
 40
177.9944063959753
 40
177.9944063959753
 40
185.0654742078409
 40
192.1365420197063
 40
192.1365420197063
 40
192.1365420197063
 40
192.1365420197063
 10
-492.2730265244749
 20
-36.31955394274348
 30
0.0
 10
-491.2834806093528
 20
-38.97905000214994
 30
0.0
 10
-487.2730265244747
 20
-43.66005788333701
 30
0.0
 10
-483.2625724395967
 20
-38.97905000214995
 30
0.0
 10
-482.2730265244747
 20
-36.31955394274348
 30
0.0
  0
LINE
  5
1FC
330
1F
100
AcDbEntity
  8
Vistas
100
AcDbLine
 10
-460.2282471983614
 20
12.09975611047021
 30
0.0
 11
-418.2282471983614
 21
12.09975611047021
 31
0.0
  0
CIRCLE
  5
1FD
330
1F
100
AcDbEntity
  8
Vistas
100
AcDbCircle
 10
-536.2605696757108
 20
11.43423524426871
 30
0.0
 40
9.213967665273978
  0
CIRCLE
  5
1FE
330
1F
100
AcDbEntity
  8
Vistas
100
AcDbCircle
 10
-508.5390418854799
 20
11.43423524426871
 30
0.0
 40
9.213967665273978
  0
POLYLINE
  5
1FF
330
1F
100
AcDbEntity
  8
Vistas
100
AcDb2dPolyline
 66
     1
 10
0.0
 20
0.0
 30
0.0
  0
VERTEX
  5
200
330
1FF
100
AcDbEntity
  8
Vistas
100
AcDbVertex
100
AcDb2dVertex
 10
-543.0625937708312
 20
7.971863035210745
 30
0.0
  0
VERTEX
  5
201
330
1FF
100
AcDbEntity
  8
Vistas
100
AcDbVertex
100
AcDb2dVertex
 10
-535.5625937708312
 20
7.971863035210745
 30
0.0
  0
VERTEX
  5
202
330
1FF
100
AcDbEntity
  8
Vistas
100
AcDbVertex
100
AcDb2dVertex
 10
-535.5625937708312
 20
15.47186303521075
 30
0.0
  0
VERTEX
  5
203
330
1FF
100
AcDbEntity
  8
Vistas
100
AcDbVertex
100
AcDb2dVertex
 10
-543.0625937708312
 20
15.47186303521075
 30
0.0
  0
VERTEX
  5
204
330
1FF
100
AcDbEntity
  8
Vistas
100
AcDbVertex
100
AcDb2dVertex
 10
-543.0625937708312
 20
7.971863035210745
 30
0.0
  0
SEQEND
  5
205
330
1FF
100
AcDbEntity
  8
Vistas
  0
POLYLINE
  5
206
330
1F
100
AcDbEntity
  8
Vistas
100
AcDb2dPolyline
 66
     1
 10
0.0
 20
0.0
 30
0.0
  0
VERTEX
  5
207
330
206
100
AcDbEntity
  8
Vistas
100
AcDbVertex
100
AcDb2dVertex
 10
-515.2995832129153
 20
7.971863035210745
 30
0.0
  0
VERTEX
  5
208
330
206
100
AcDbEntity
  8
Vistas
100
AcDbVertex
100
AcDb2dVertex
 10
-507.7995832129153
 20
7.971863035210745
 30
0.0
  0
VERTEX
  5
209
330
206
100
AcDbEntity
  8
Vistas
100
AcDbVertex
100
AcDb2dVertex
 10
-507.7995832129153
 20
15.47186303521075
 30
0.0
  0
VERTEX
  5
20A
330
206
100
AcDbEntity
  8
Vistas
100
AcDbVertex
100
AcDb2dVertex
 10
-515.2995832129153
 20
15.47186303521075
 30
0.0
  0
VERTEX
  5
20B
330
206
100
AcDbEntity
  8
Vistas
100
AcDbVertex
100
AcDb2dVertex
 10
-515.2995832129153
 20
7.971863035210745
 30
0.0
  0
SEQEND
  5
20C
330
206
100
AcDbEntity
  8
Vistas
  0
CIRCLE
  5
20E
330
1F
100
AcDbEntity
  8
Cara_sup (Fieltro_Rojo)
100
AcDbCircle
 10
-306.4382629549408
 20
54.90623441235693
 30
0.0
 40
9.213967665273978
  0
CIRCLE
  5
20F
330
1F
100
AcDbEntity
  8
Cara_sup (Fieltro_Rojo)
100
AcDbCircle
 10
-334.1597907451716
 20
54.90623441235693
 30
0.0
 40
9.213967665273978
  0
POLYLINE
  5
211
330
1F
100
AcDbEntity
  8
Ojos_Marco (Fieltro_Blanco)
100
AcDb2dPolyline
 66
     1
 10
0.0
 20
0.0
 30
0.0
  0
VERTEX
  5
212
330
211
100
AcDbEntity
  8
Ojos_Marco (Fieltro_Blanco)
100
AcDbVertex
100
AcDb2dVertex
 10
-217.044595650799
 20
51.89664692779578
 30
0.0
  0
VERTEX
  5
213
330
211
100
AcDbEntity
  8
Ojos_Marco (Fieltro_Blanco)
100
AcDbVertex
100
AcDb2dVertex
 10
-209.544595650799
 20
51.89664692779578
 30
0.0
  0
VERTEX
  5
214
330
211
100
AcDbEntity
  8
Ojos_Marco (Fieltro_Blanco)
100
AcDbVertex
100
AcDb2dVertex
 10
-209.544595650799
 20
59.39664692779578
 30
0.0
  0
VERTEX
  5
215
330
211
100
AcDbEntity
  8
Ojos_Marco (Fieltro_Blanco)
100
AcDbVertex
100
AcDb2dVertex
 10
-217.044595650799
 20
59.39664692779578
 30
0.0
  0
VERTEX
  5
216
330
211
100
AcDbEntity
  8
Ojos_Marco (Fieltro_Blanco)
100
AcDbVertex
100
AcDb2dVertex
 10
-217.044595650799
 20
51.89664692779578
 30
0.0
  0
SEQEND
  5
217
330
211
100
AcDbEntity
  8
Ojos_Marco (Fieltro_Blanco)
  0
POLYLINE
  5
218
330
1F
100
AcDbEntity
  8
Ojos_Marco (Fieltro_Blanco)
100
AcDb2dPolyline
 66
     1
 10
0.0
 20
0.0
 30
0.0
  0
VERTEX
  5
219
330
218
100
AcDbEntity
  8
Ojos_Marco (Fieltro_Blanco)
100
AcDbVertex
100
AcDb2dVertex
 10
-189.2815850928831
 20
51.89664692779578
 30
0.0
  0
VERTEX
  5
21A
330
218
100
AcDbEntity
  8
Ojos_Marco (Fieltro_Blanco)
100
AcDbVertex
100
AcDb2dVertex
 10
-181.7815850928831
 20
51.89664692779578
 30
0.0
  0
VERTEX
  5
21B
330
218
100
AcDbEntity
  8
Ojos_Marco (Fieltro_Blanco)
100
AcDbVertex
100
AcDb2dVertex
 10
-181.7815850928831
 20
59.39664692779578
 30
0.0
  0
VERTEX
  5
21C
330
218
100
AcDbEntity
  8
Ojos_Marco (Fieltro_Blanco)
100
AcDbVertex
100
AcDb2dVertex
 10
-189.2815850928831
 20
59.39664692779578
 30
0.0
  0
VERTEX
  5
21D
330
218
100
AcDbEntity
  8
Ojos_Marco (Fieltro_Blanco)
100
AcDbVertex
100
AcDb2dVertex
 10
-189.2815850928831
 20
51.89664692779578
 30
0.0
  0
SEQEND
  5
21E
330
218
100
AcDbEntity
  8
Ojos_Marco (Fieltro_Blanco)
  0
LINE
  5
21F
330
1F
100
AcDbEntity
  8
Ojos_Marco (Fieltro_Blanco)
100
AcDbLine
 10
-213.044595650799
 20
37.06261861939324
 30
0.0
 11
-176.9880277045116
 21
37.06261861939326
 31
0.0
  0
ARC
  5
220
330
1F
100
AcDbEntity
  8
Ojos_Marco (Fieltro_Blanco)
100
AcDbCircle
 10
-176.9880277045116
 20
47.06261861939326
 30
0.0
 40
10.0
100
AcDbArc
 50
270.0
 51
0.0000000000003257
  0
LINE
  5
221
330
1F
100
AcDbEntity
  8
Ojos_Marco (Fieltro_Blanco)
100
AcDbLine
 10
-166.9880277045116
 20
47.06261861939331
 30
0.0
 11
-166.9880277045116
 21
64.23067523619827
 31
0.0
  0
ARC
  5
222
330
1F
100
AcDbEntity
  8
Ojos_Marco (Fieltro_Blanco)
100
AcDbCircle
 10
-176.9880277045116
 20
64.23067523619827
 30
0.0
 40
10.0
100
AcDbArc
 50
0.0
 51
90.0
  0
LINE
  5
223
330
1F
100
AcDbEntity
  8
Ojos_Marco (Fieltro_Blanco)
100
AcDbLine
 10
-176.9880277045116
 20
74.23067523619827
 30
0.0
 11
-213.044595650799
 21
74.23067523619827
 31
0.0
  0
ARC
  5
224
330
1F
100
AcDbEntity
  8
Ojos_Marco (Fieltro_Blanco)
100
AcDbCircle
 10
-213.044595650799
 20
64.23067523619827
 30
0.0
 40
10.0
100
AcDbArc
 50
90.0
 51
180.0
  0
LINE
  5
225
330
1F
100
AcDbEntity
  8
Ojos_Marco (Fieltro_Blanco)
100
AcDbLine
 10
-223.044595650799
 20
64.23067523619827
 30
0.0
 11
-223.044595650799
 21
47.06261861939326
 31
0.0
  0
ARC
  5
226
330
1F
100
AcDbEntity
  8
Ojos_Marco (Fieltro_Blanco)
100
AcDbCircle
 10
-213.044595650799
 20
47.06261861939324
 30
0.0
 40
10.0
100
AcDbArc
 50
179.9999999999999
 51
270.0000000000002
  0
LINE
  5
228
330
1F
100
AcDbEntity
  8
Battery_holder (Fieltro_Rojo)
100
AcDbLine
 10
-244.8211500686876
 20
15.25910922236927
 30
0.0
 11
-266.8211500686876
 21
15.25910922236928
 31
0.0
  0
LINE
  5
229
330
1F
100
AcDbEntity
  8
Battery_holder (Fieltro_Rojo)
100
AcDbLine
 10
-266.8211500686876
 20
15.25910922236928
 30
0.0
 11
-266.8211500686876
 21
20.25910922236928
 31
0.0
  0
POLYLINE
  5
22A
330
1F
100
AcDbEntity
  8
Battery_holder (Fieltro_Rojo)
100
AcDb2dPolyline
 66
     1
 10
0.0
 20
0.0
 30
0.0
  0
VERTEX
  5
22B
330
22A
100
AcDbEntity
  8
Battery_holder (Fieltro_Rojo)
100
AcDbVertex
100
AcDb2dVertex
 10
-266.8211500686876
 20
20.25910922236928
 30
0.0
  0
VERTEX
  5
22C
330
22A
100
AcDbEntity
  8
Battery_holder (Fieltro_Rojo)
100
AcDbVertex
100
AcDb2dVertex
 10
-271.8211500686876
 20
20.25910922236928
 30
0.0
  0
VERTEX
  5
22D
330
22A
100
AcDbEntity
  8
Battery_holder (Fieltro_Rojo)
100
AcDbVertex
100
AcDb2dVertex
 10
-271.8211500686876
 20
64.25910922236932
 30
0.0
  0
SEQEND
  5
22E
330
22A
100
AcDbEntity
  8
Battery_holder (Fieltro_Rojo)
  0
LINE
  5
22F
330
1F
100
AcDbEntity
  8
Battery_holder (Fieltro_Rojo)
100
AcDbLine
 10
-271.8211500686876
 20
64.25910922236932
 30
0.0
 11
-266.8211500686876
 21
64.25910922236929
 31
0.0
  0
LINE
  5
230
330
1F
100
AcDbEntity
  8
Battery_holder (Fieltro_Rojo)
100
AcDbLine
 10
-266.8211500686876
 20
64.25910922236929
 30
0.0
 11
-266.8211500686876
 21
69.25910922236932
 31
0.0
  0
LINE
  5
231
330
1F
100
AcDbEntity
  8
Battery_holder (Fieltro_Rojo)
100
AcDbLine
 10
-266.8211500686876
 20
69.25910922236932
 30
0.0
 11
-244.8211500686876
 21
69.25910922236929
 31
0.0
  0
LINE
  5
232
330
1F
100
AcDbEntity
  8
Battery_holder (Fieltro_Rojo)
100
AcDbLine
 10
-244.8211500686876
 20
69.25910922236929
 30
0.0
 11
-244.8211500686876
 21
64.25910922236932
 31
0.0
  0
LINE
  5
233
330
1F
100
AcDbEntity
  8
Battery_holder (Fieltro_Rojo)
100
AcDbLine
 10
-244.8211500686876
 20
64.25910922236932
 30
0.0
 11
-239.8211500686876
 21
64.25910922236932
 31
0.0
  0
POLYLINE
  5
234
330
1F
100
AcDbEntity
  8
Battery_holder (Fieltro_Rojo)
100
AcDb2dPolyline
 66
     1
 10
0.0
 20
0.0
 30
0.0
  0
VERTEX
  5
235
330
234
100
AcDbEntity
  8
Battery_holder (Fieltro_Rojo)
100
AcDbVertex
100
AcDb2dVertex
 10
-239.8211500686876
 20
64.25910922236932
 30
0.0
  0
VERTEX
  5
236
330
234
100
AcDbEntity
  8
Battery_holder (Fieltro_Rojo)
100
AcDbVertex
100
AcDb2dVertex
 10
-239.8211500686876
 20
20.25910922236928
 30
0.0
  0
VERTEX
  5
237
330
234
100
AcDbEntity
  8
Battery_holder (Fieltro_Rojo)
100
AcDbVertex
100
AcDb2dVertex
 10
-244.8211500686876
 20
20.25910922236928
 30
0.0
  0
SEQEND
  5
238
330
234
100
AcDbEntity
  8
Battery_holder (Fieltro_Rojo)
  0
LINE
  5
239
330
1F
100
AcDbEntity
  8
Battery_holder (Fieltro_Rojo)
100
AcDbLine
 10
-244.8211500686876
 20
20.25910922236928
 30
0.0
 11
-244.8211500686876
 21
15.25910922236927
 31
0.0
  0
LINE
  5
23B
330
1F
100
AcDbEntity
  8
Cara_inf (Fieltro_Rojo)
100
AcDbLine
 10
-284.3187916614077
 20
-45.05820263808749
 30
0.0
 11
-326.3187069031906
 21
-45.14258085240308
 31
0.0
  0
LINE
  5
23C
330
1F
100
AcDbEntity
  8
Cara_sup (Fieltro_Rojo)
100
AcDbLine
 10
-280.1722475939779
 20
7.15244522534475
 30
0.0
 11
-280.1722475939779
 21
52.15244522534476
 31
0.0
  0
SPLINE
  5
23D
330
1F
100
AcDbEntity
  8
Cara_sup (Fieltro_Rojo)
100
AcDbSpline
210
0.0
220
0.0
230
1.0
 70
    12
 71
     2
 72
     8
 73
     5
 74
     0
 42
0.000000001
 43
0.0000000001
 40
45.00000000000001
 40
45.00000000000001
 40
45.00000000000001
 40
46.57079632679491
 40
46.57079632679491
 40
48.1415926535898
 40
48.1415926535898
 40
48.1415926535898
 10
-280.1722475939779
 20
52.15244522534476
 30
0.0
 41
1.0
 10
-280.1722475939779
 20
88.15244522534476
 30
0.0
 41
0.7071067811865475
 10
-315.1722475939779
 20
88.15244522534476
 30
0.0
 41
1.0
 10
-350.1722475939779
 20
88.15244522534474
 30
0.0
 41
0.7071067811865475
 10
-350.1722475939779
 20
52.15244522534474
 30
0.0
 41
1.0
  0
LINE
  5
23E
330
1F
100
AcDbEntity
  8
Cara_sup (Fieltro_Rojo)
100
AcDbLine
 10
-350.1722475939779
 20
52.15244522534474
 30
0.0
 11
-350.1722475939779
 21
12.15244522534475
 31
0.0
  0
LINE
  5
23F
330
1F
100
AcDbEntity
  8
Cara_sup (Fieltro_Rojo)
100
AcDbLine
 10
-350.1722475939779
 20
12.15244522534475
 30
0.0
 11
-350.1722475939779
 21
7.15244522534475
 31
0.0
  0
SPLINE
  5
240
330
1F
100
AcDbEntity
  8
Cara_sup (Fieltro_Rojo)
100
AcDbSpline
210
0.0
220
0.0
230
1.0
 70
     8
 71
     3
 72
     9
 73
     5
 74
     0
 42
0.000000001
 43
0.0000000001
 40
93.14159265358978
 40
93.14159265358978
 40
93.14159265358978
 40
93.14159265358978
 40
100.2126604654553
 40
107.2837282773208
 40
107.2837282773208
 40
107.2837282773208
 40
107.2837282773208
 10
-350.1722475939779
 20
7.15244522534475
 30
0.0
 10
-349.1827016788559
 20
4.492949165938281
 30
0.0
 10
-345.1722475939779
 20
-0.1880587152487858
 30
0.0
 10
-341.1617935090999
 20
4.492949165938284
 30
0.0
 10
-340.1722475939778
 20
7.152445225344748
 30
0.0
  0
SPLINE
  5
241
330
1F
100
AcDbEntity
  8
Cara_sup (Fieltro_Rojo)
100
AcDbSpline
210
0.0
220
0.0
230
1.0
 70
     8
 71
     3
 72
     9
 73
     5
 74
     0
 42
0.000000001
 43
0.0000000001
 40
107.2837282773208
 40
107.2837282773208
 40
107.2837282773208
 40
107.2837282773208
 40
114.3547960891863
 40
121.4258639010517
 40
121.4258639010517
 40
121.4258639010517
 40
121.4258639010517
 10
-340.1722475939778
 20
7.152445225344748
 30
0.0
 10
-339.1827016788557
 20
9.811941284751214
 30
0.0
 10
-335.1722475939778
 20
14.49294916593829
 30
0.0
 10
-331.1617935090998
 20
9.811941284751203
 30
0.0
 10
-330.1722475939778
 20
7.152445225344739
 30
0.0
  0
SPLINE
  5
242
330
1F
100
AcDbEntity
  8
Cara_sup (Fieltro_Rojo)
100
AcDbSpline
210
0.0
220
0.0
230
1.0
 70
     8
 71
     3
 72
     9
 73
     5
 74
     0
 42
0.000000001
 43
0.0000000001
 40
121.4258639010517
 40
121.4258639010517
 40
121.4258639010517
 40
121.4258639010517
 40
128.4969317129171
 40
135.5679995247826
 40
135.5679995247826
 40
135.5679995247826
 40
135.5679995247826
 10
-330.1722475939778
 20
7.152445225344739
 30
0.0
 10
-329.1827016788557
 20
4.492949165938303
 30
0.0
 10
-325.1722475939779
 20
-0.1880587152487974
 30
0.0
 10
-321.1617935090999
 20
4.492949165938285
 30
0.0
 10
-320.1722475939779
 20
7.152445225344748
 30
0.0
  0
SPLINE
  5
243
330
1F
100
AcDbEntity
  8
Cara_sup (Fieltro_Rojo)
100
AcDbSpline
210
0.0
220
0.0
230
1.0
 70
     8
 71
     3
 72
     8
 73
     4
 74
     0
 42
0.000000001
 43
0.0000000001
 40
135.5679995247826
 40
135.5679995247826
 40
135.5679995247826
 40
135.5679995247826
 40
142.6390673366481
 40
142.6390673366481
 40
142.6390673366481
 40
142.6390673366481
 10
-320.1722475939779
 20
7.152445225344748
 30
0.0
 10
-319.1827016788558
 20
9.81194128475121
 30
0.0
 10
-317.1774746364168
 20
12.15244522534475
 30
0.0
 10
-315.1722475939779
 20
12.15244522534475
 30
0.0
  0
SPLINE
  5
244
330
1F
100
AcDbEntity
  8
Cara_sup (Fieltro_Rojo)
100
AcDbSpline
210
0.0
220
0.0
230
1.0
 70
     8
 71
     3
 72
     8
 73
     4
 74
     0
 42
0.000000001
 43
0.0000000001
 40
142.6390673366481
 40
142.6390673366481
 40
142.6390673366481
 40
142.6390673366481
 40
149.7101351485135
 40
149.7101351485135
 40
149.7101351485135
 40
149.7101351485135
 10
-315.1722475939779
 20
12.15244522534475
 30
0.0
 10
-313.1670205515389
 20
12.15244522534475
 30
0.0
 10
-311.1617935091
 20
9.81194128475121
 30
0.0
 10
-310.1722475939779
 20
7.152445225344748
 30
0.0
  0
SPLINE
  5
245
330
1F
100
AcDbEntity
  8
Cara_sup (Fieltro_Rojo)
100
AcDbSpline
210
0.0
220
0.0
230
1.0
 70
     8
 71
     3
 72
     9
 73
     5
 74
     0
 42
0.000000001
 43
0.0000000001
 40
149.7101351485135
 40
149.7101351485135
 40
149.7101351485135
 40
149.7101351485135
 40
156.781202960379
 40
163.8522707722444
 40
163.8522707722444
 40
163.8522707722444
 40
163.8522707722444
 10
-310.1722475939779
 20
7.152445225344748
 30
0.0
 10
-309.1827016788558
 20
4.492949165938285
 30
0.0
 10
-305.1722475939778
 20
-0.1880587152487974
 30
0.0
 10
-301.1617935091001
 20
4.492949165938303
 30
0.0
 10
-300.172247593978
 20
7.152445225344739
 30
0.0
  0
SPLINE
  5
246
330
1F
100
AcDbEntity
  8
Cara_sup (Fieltro_Rojo)
100
AcDbSpline
210
0.0
220
0.0
230
1.0
 70
     8
 71
     3
 72
     9
 73
     5
 74
     0
 42
0.000000001
 43
0.0000000001
 40
163.8522707722444
 40
163.8522707722444
 40
163.8522707722444
 40
163.8522707722444
 40
170.9233385841098
 40
177.9944063959753
 40
177.9944063959753
 40
177.9944063959753
 40
177.9944063959753
 10
-300.172247593978
 20
7.152445225344739
 30
0.0
 10
-299.182701678856
 20
9.811941284751203
 30
0.0
 10
-295.1722475939779
 20
14.49294916593829
 30
0.0
 10
-291.1617935091001
 20
9.811941284751214
 30
0.0
 10
-290.172247593978
 20
7.152445225344748
 30
0.0
  0
SPLINE
  5
247
330
1F
100
AcDbEntity
  8
Cara_sup (Fieltro_Rojo)
100
AcDbSpline
210
0.0
220
0.0
230
1.0
 70
     8
 71
     3
 72
     9
 73
     5
 74
     0
 42
0.000000001
 43
0.0000000001
 40
177.9944063959753
 40
177.9944063959753
 40
177.9944063959753
 40
177.9944063959753
 40
185.0654742078409
 40
192.1365420197063
 40
192.1365420197063
 40
192.1365420197063
 40
192.1365420197063
 10
-290.172247593978
 20
7.152445225344748
 30
0.0
 10
-289.1827016788559
 20
4.492949165938284
 30
0.0
 10
-285.1722475939778
 20
-0.1880587152487858
 30
0.0
 10
-281.1617935090998
 20
4.492949165938281
 30
0.0
 10
-280.1722475939779
 20
7.15244522534475
 30
0.0
  0
LINE
  5
248
330
1F
100
AcDbEntity
  8
Cara_inf (Fieltro_Rojo)
100
AcDbLine
 10
-340.3325548017053
 20
3.429156409032248
 30
0.0
 11
-340.3325548017053
 21
-41.57084359096778
 31
0.0
  0
SPLINE
  5
249
330
1F
100
AcDbEntity
  8
Cara_inf (Fieltro_Rojo)
100
AcDbSpline
210
0.0
220
0.0
230
1.0
 70
    12
 71
     2
 72
     8
 73
     5
 74
     0
 42
0.000000001
 43
0.0000000001
 40
45.00000000000001
 40
45.00000000000001
 40
45.00000000000001
 40
46.57079632679491
 40
46.57079632679491
 40
48.1415926535898
 40
48.1415926535898
 40
48.1415926535898
 10
-340.3325548017053
 20
-41.57084359096778
 30
0.0
 41
1.0
 10
-340.3325548017053
 20
-77.57084359096778
 30
0.0
 41
0.7071067811865475
 10
-305.3325548017053
 20
-77.57084359096777
 30
0.0
 41
1.0
 10
-270.3325548017053
 20
-77.57084359096775
 30
0.0
 41
0.7071067811865475
 10
-270.3325548017053
 20
-41.57084359096775
 30
0.0
 41
1.0
  0
LINE
  5
24A
330
1F
100
AcDbEntity
  8
Cara_inf (Fieltro_Rojo)
100
AcDbLine
 10
-270.3325548017053
 20
-41.57084359096775
 30
0.0
 11
-270.3325548017053
 21
-1.570843590967752
 31
0.0
  0
LINE
  5
24B
330
1F
100
AcDbEntity
  8
Cara_inf (Fieltro_Rojo)
100
AcDbLine
 10
-270.3325548017053
 20
-1.570843590967752
 30
0.0
 11
-270.3325548017053
 21
3.429156409032248
 31
0.0
  0
SPLINE
  5
24C
330
1F
100
AcDbEntity
  8
Cara_inf (Fieltro_Rojo)
100
AcDbSpline
210
0.0
220
0.0
230
1.0
 70
     8
 71
     3
 72
     9
 73
     5
 74
     0
 42
0.000000001
 43
0.0000000001
 40
93.14159265358978
 40
93.14159265358978
 40
93.14159265358978
 40
93.14159265358978
 40
100.2126604654553
 40
107.2837282773208
 40
107.2837282773208
 40
107.2837282773208
 40
107.2837282773208
 10
-270.3325548017053
 20
3.429156409032248
 30
0.0
 10
-271.3221007168273
 20
6.088652468438698
 30
0.0
 10
-275.3325548017053
 20
10.76966034962577
 30
0.0
 10
-279.3430088865833
 20
6.088652468438698
 30
0.0
 10
-280.3325548017054
 20
3.429156409032248
 30
0.0
  0
SPLINE
  5
24D
330
1F
100
AcDbEntity
  8
Cara_inf (Fieltro_Rojo)
100
AcDbSpline
210
0.0
220
0.0
230
1.0
 70
     8
 71
     3
 72
     9
 73
     5
 74
     0
 42
0.000000001
 43
0.0000000001
 40
107.2837282773208
 40
107.2837282773208
 40
107.2837282773208
 40
107.2837282773208
 40
114.3547960891863
 40
121.4258639010517
 40
121.4258639010517
 40
121.4258639010517
 40
121.4258639010517
 10
-280.3325548017054
 20
3.429156409032248
 30
0.0
 10
-281.3221007168275
 20
0.7696603496257692
 30
0.0
 10
-285.3325548017054
 20
-3.911347531561302
 30
0.0
 10
-289.3430088865834
 20
0.7696603496257692
 30
0.0
 10
-290.3325548017054
 20
3.429156409032248
 30
0.0
  0
SPLINE
  5
24E
330
1F
100
AcDbEntity
  8
Cara_inf (Fieltro_Rojo)
100
AcDbSpline
210
0.0
220
0.0
230
1.0
 70
     8
 71
     3
 72
     9
 73
     5
 74
     0
 42
0.000000001
 43
0.0000000001
 40
121.4258639010517
 40
121.4258639010517
 40
121.4258639010517
 40
121.4258639010517
 40
128.4969317129171
 40
135.5679995247826
 40
135.5679995247826
 40
135.5679995247826
 40
135.5679995247826
 10
-290.3325548017054
 20
3.429156409032248
 30
0.0
 10
-291.3221007168275
 20
6.08865246843867
 30
0.0
 10
-295.3325548017053
 20
10.76966034962577
 30
0.0
 10
-299.3430088865833
 20
6.088652468438698
 30
0.0
 10
-300.3325548017053
 20
3.429156409032248
 30
0.0
  0
SPLINE
  5
24F
330
1F
100
AcDbEntity
  8
Cara_inf (Fieltro_Rojo)
100
AcDbSpline
210
0.0
220
0.0
230
1.0
 70
     8
 71
     3
 72
     8
 73
     4
 74
     0
 42
0.000000001
 43
0.0000000001
 40
135.5679995247826
 40
135.5679995247826
 40
135.5679995247826
 40
135.5679995247826
 40
142.6390673366481
 40
142.6390673366481
 40
142.6390673366481
 40
142.6390673366481
 10
-300.3325548017053
 20
3.429156409032248
 30
0.0
 10
-301.3221007168274
 20
0.7696603496257692
 30
0.0
 10
-303.3273277592664
 20
-1.570843590967752
 30
0.0
 10
-305.3325548017053
 20
-1.570843590967752
 30
0.0
  0
SPLINE
  5
250
330
1F
100
AcDbEntity
  8
Cara_inf (Fieltro_Rojo)
100
AcDbSpline
210
0.0
220
0.0
230
1.0
 70
     8
 71
     3
 72
     8
 73
     4
 74
     0
 42
0.000000001
 43
0.0000000001
 40
142.6390673366481
 40
142.6390673366481
 40
142.6390673366481
 40
142.6390673366481
 40
149.7101351485135
 40
149.7101351485135
 40
149.7101351485135
 40
149.7101351485135
 10
-305.3325548017053
 20
-1.570843590967752
 30
0.0
 10
-307.3377818441443
 20
-1.570843590967752
 30
0.0
 10
-309.3430088865832
 20
0.7696603496257692
 30
0.0
 10
-310.3325548017053
 20
3.429156409032248
 30
0.0
  0
SPLINE
  5
251
330
1F
100
AcDbEntity
  8
Cara_inf (Fieltro_Rojo)
100
AcDbSpline
210
0.0
220
0.0
230
1.0
 70
     8
 71
     3
 72
     9
 73
     5
 74
     0
 42
0.000000001
 43
0.0000000001
 40
149.7101351485135
 40
149.7101351485135
 40
149.7101351485135
 40
149.7101351485135
 40
156.781202960379
 40
163.8522707722444
 40
163.8522707722444
 40
163.8522707722444
 40
163.8522707722444
 10
-310.3325548017053
 20
3.429156409032248
 30
0.0
 10
-311.3221007168274
 20
6.088652468438698
 30
0.0
 10
-315.3325548017054
 20
10.76966034962577
 30
0.0
 10
-319.3430088865832
 20
6.08865246843867
 30
0.0
 10
-320.3325548017052
 20
3.429156409032248
 30
0.0
  0
SPLINE
  5
252
330
1F
100
AcDbEntity
  8
Cara_inf (Fieltro_Rojo)
100
AcDbSpline
210
0.0
220
0.0
230
1.0
 70
     8
 71
     3
 72
     9
 73
     5
 74
     0
 42
0.000000001
 43
0.0000000001
 40
163.8522707722444
 40
163.8522707722444
 40
163.8522707722444
 40
163.8522707722444
 40
170.9233385841098
 40
177.9944063959753
 40
177.9944063959753
 40
177.9944063959753
 40
177.9944063959753
 10
-320.3325548017052
 20
3.429156409032248
 30
0.0
 10
-321.3221007168272
 20
0.7696603496257692
 30
0.0
 10
-325.3325548017053
 20
-3.911347531561302
 30
0.0
 10
-329.3430088865832
 20
0.7696603496257692
 30
0.0
 10
-330.3325548017052
 20
3.429156409032248
 30
0.0
  0
SPLINE
  5
253
330
1F
100
AcDbEntity
  8
Cara_inf (Fieltro_Rojo)
100
AcDbSpline
210
0.0
220
0.0
230
1.0
 70
     8
 71
     3
 72
     9
 73
     5
 74
     0
 42
0.000000001
 43
0.0000000001
 40
177.9944063959753
 40
177.9944063959753
 40
177.9944063959753
 40
177.9944063959753
 40
185.0654742078409
 40
192.1365420197063
 40
192.1365420197063
 40
192.1365420197063
 40
192.1365420197063
 10
-330.3325548017052
 20
3.429156409032248
 30
0.0
 10
-331.3221007168273
 20
6.088652468438698
 30
0.0
 10
-335.3325548017054
 20
10.76966034962577
 30
0.0
 10
-339.3430088865834
 20
6.088652468438698
 30
0.0
 10
-340.3325548017053
 20
3.429156409032248
 30
0.0
  0
POLYLINE
  5
254
330
1F
100
AcDbEntity
  8
Vistas
100
AcDb2dPolyline
 66
     1
 10
0.0
 20
0.0
 30
0.0
  0
VERTEX
  5
255
330
254
100
AcDbEntity
  8
Vistas
100
AcDbVertex
100
AcDb2dVertex
 10
-581.9208755178606
 20
-69.3802582365116
 30
0.0
  0
VERTEX
  5
256
330
254
100
AcDbEntity
  8
Vistas
100
AcDbVertex
100
AcDb2dVertex
 10
-370.4776221746304
 20
-69.3802582365116
 30
0.0
  0
VERTEX
  5
257
330
254
100
AcDbEntity
  8
Vistas
100
AcDbVertex
100
AcDb2dVertex
 10
-370.4776221746304
 20
77.9914749235094
 30
0.0
  0
VERTEX
  5
258
330
254
100
AcDbEntity
  8
Vistas
100
AcDbVertex
100
AcDb2dVertex
 10
-581.9208755178606
 20
77.9914749235094
 30
0.0
  0
VERTEX
  5
259
330
254
100
AcDbEntity
  8
Vistas
100
AcDbVertex
100
AcDb2dVertex
 10
-581.9208755178606
 20
-69.3802582365116
 30
0.0
  0
SEQEND
  5
25A
330
254
100
AcDbEntity
  8
Vistas
  0
LINE
  5
25C
330
1F
100
AcDbEntity
  8
Lineas_de_costura
100
AcDbLine
 10
-283.3105154147633
 20
-49.05718150645368
 30
0.0
 11
-327.3104266204406
 21
-49.14557773097478
 31
0.0
  0
POLYLINE
  5
25D
330
1F
100
AcDbEntity
  8
Lineas_de_costura
100
AcDb2dPolyline
 66
     1
 10
0.0
 20
0.0
 30
0.0
  0
VERTEX
  5
25E
330
25D
100
AcDbEntity
  8
Lineas_de_costura
100
AcDbVertex
100
AcDb2dVertex
 10
-327.3104266204406
 20
-49.14557773097478
 30
0.0
  0
VERTEX
  5
25F
330
25D
100
AcDbEntity
  8
Lineas_de_costura
100
AcDbVertex
100
AcDb2dVertex
 10
-327.3546247327012
 20
-27.1456221281361
 30
0.0
  0
VERTEX
  5
260
330
25D
100
AcDbEntity
  8
Lineas_de_costura
100
AcDbVertex
100
AcDb2dVertex
 10
-305.3546691298625
 20
-27.10142401587555
 30
0.0
  0
SEQEND
  5
261
330
25D
100
AcDbEntity
  8
Lineas_de_costura
  0
POLYLINE
  5
262
330
1F
100
AcDbEntity
  8
Lineas_de_costura
100
AcDb2dPolyline
 66
     1
 10
0.0
 20
0.0
 30
0.0
  0
VERTEX
  5
263
330
262
100
AcDbEntity
  8
Lineas_de_costura
100
AcDbVertex
100
AcDb2dVertex
 10
-305.3546691298625
 20
-27.10142401587555
 30
0.0
  0
VERTEX
  5
264
330
262
100
AcDbEntity
  8
Lineas_de_costura
100
AcDbVertex
100
AcDb2dVertex
 10
-283.3547135270238
 20
-27.05722590361501
 30
0.0
  0
VERTEX
  5
265
330
262
100
AcDbEntity
  8
Lineas_de_costura
100
AcDbVertex
100
AcDb2dVertex
 10
-283.3105154147633
 20
-49.05718150645368
 30
0.0
  0
SEQEND
  5
266
330
262
100
AcDbEntity
  8
Lineas_de_costura
  0
LINE
  5
268
330
1F
100
AcDbEntity
  8
Circuito (Mica_Transparente)
100
AcDbLine
 10
-122.0969807424699
 20
53.15476024346082
 30
0.0
 11
-113.540356415446
 21
67.97526831915067
 31
0.0
  0
ARC
  5
269
330
1F
100
AcDbEntity
  8
Circuito (Mica_Transparente)
100
AcDbCircle
 10
-109.2102293965237
 20
65.47526831915087
 30
0.0
 40
5.0
100
AcDbArc
 50
90.00000000000146
 51
150.0000000000028
  0
POLYLINE
  5
26A
330
1F
100
AcDbEntity
  8
Circuito (Mica_Transparente)
100
AcDb2dPolyline
 66
     1
 10
0.0
 20
0.0
 30
0.0
  0
VERTEX
  5
26B
330
26A
100
AcDbEntity
  8
Circuito (Mica_Transparente)
100
AcDbVertex
100
AcDb2dVertex
 10
-109.2102293965238
 20
70.47526831915087
 30
0.0
  0
VERTEX
  5
26C
330
26A
100
AcDbEntity
  8
Circuito (Mica_Transparente)
100
AcDbVertex
100
AcDb2dVertex
 10
-80.09698074247132
 20
70.47526831915181
 30
0.0
  0
VERTEX
  5
26D
330
26A
100
AcDbEntity
  8
Circuito (Mica_Transparente)
100
AcDbVertex
100
AcDb2dVertex
 10
-80.09698074247041
 20
16.4752683191514
 30
0.0
  0
SEQEND
  5
26E
330
26A
100
AcDbEntity
  8
Circuito (Mica_Transparente)
  0
POLYLINE
  5
26F
330
1F
100
AcDbEntity
  8
Circuito (Mica_Transparente)
100
AcDb2dPolyline
 66
     1
 10
0.0
 20
0.0
 30
0.0
  0
VERTEX
  5
270
330
26F
100
AcDbEntity
  8
Circuito (Mica_Transparente)
100
AcDbVertex
100
AcDb2dVertex
 10
-80.09698074247041
 20
16.4752683191514
 30
0.0
  0
VERTEX
  5
271
330
26F
100
AcDbEntity
  8
Circuito (Mica_Transparente)
100
AcDbVertex
100
AcDb2dVertex
 10
-80.0969807424687
 20
-37.52473168084857
 30
0.0
  0
VERTEX
  5
272
330
26F
100
AcDbEntity
  8
Circuito (Mica_Transparente)
100
AcDbVertex
100
AcDb2dVertex
 10
-102.8890482947147
 20
-37.52473168084931
 30
0.0
  0
SEQEND
  5
273
330
26F
100
AcDbEntity
  8
Circuito (Mica_Transparente)
  0
LINE
  5
274
330
1F
100
AcDbEntity
  8
Circuito (Mica_Transparente)
100
AcDbLine
 10
-102.8890482947147
 20
-37.52473168084931
 30
0.0
 11
-103.0096056495823
 21
16.47526831915069
 31
0.0
  0
LINE
  5
275
330
1F
100
AcDbEntity
  8
Circuito (Mica_Transparente)
100
AcDbLine
 10
-103.0096056495823
 20
16.47526831915069
 30
0.0
 11
-109.210229396522
 21
16.47526831915049
 31
0.0
  0
ARC
  5
276
330
1F
100
AcDbEntity
  8
Circuito (Mica_Transparente)
100
AcDbCircle
 10
-109.2102293965222
 20
21.47526831915047
 30
0.0
 40
5.0
100
AcDbArc
 50
209.9999999999978
 51
270.0000000000018
  0
LINE
  5
277
330
1F
100
AcDbEntity
  8
Circuito (Mica_Transparente)
100
AcDbLine
 10
-113.5403564154444
 20
18.97526831915064
 30
0.0
 11
-122.0969807424699
 21
33.79577639483968
 31
0.0
  0
LINE
  5
278
330
1F
100
AcDbEntity
  8
Circuito (Mica_Transparente)
100
AcDbLine
 10
-122.0969807424699
 20
33.79577639483968
 30
0.0
 11
-133.1569514739613
 21
14.63934515766658
 31
0.0
  0
ARC
  5
279
330
1F
100
AcDbEntity
  8
Circuito (Mica_Transparente)
100
AcDbCircle
 10
-137.4870784928838
 20
17.13934515766604
 30
0.0
 40
5.0
100
AcDbArc
 50
270.1151075908426
 51
330.0000000000072
  0
LINE
  5
27A
330
1F
100
AcDbEntity
  8
Circuito (Mica_Transparente)
100
AcDbLine
 10
-137.4770334673697
 20
12.13935524792995
 30
0.0
 11
-151.4710619195087
 21
12.11124111662493
 31
0.0
  0
ARC
  5
27B
330
1F
100
AcDbEntity
  8
Circuito (Mica_Transparente)
100
AcDbCircle
 10
-151.4811069450228
 20
17.11123102636099
 30
0.0
 40
5.0
100
AcDbArc
 50
180.1151075908424
 51
270.1151075908423
  0
LINE
  5
27C
330
1F
100
AcDbEntity
  8
Circuito (Mica_Transparente)
100
AcDbLine
 10
-156.4810968547588
 20
17.10118600084694
 30
0.0
 11
-156.5868913197941
 21
69.76120731607412
 31
0.0
  0
ARC
  5
27D
330
1F
100
AcDbEntity
  8
Circuito (Mica_Transparente)
100
AcDbCircle
 10
-151.586901410058
 20
69.77125234158817
 30
0.0
 40
5.0
100
AcDbArc
 50
90.11510759084292
 51
180.1151075908424
  0
LINE
  5
27E
330
1F
100
AcDbEntity
  8
Circuito (Mica_Transparente)
100
AcDbLine
 10
-151.5969464355721
 20
74.77124225132422
 30
0.0
 11
-137.4904268257142
 21
74.79958237839523
 31
0.0
  0
ARC
  5
27F
330
1F
100
AcDbEntity
  8
Circuito (Mica_Transparente)
100
AcDbCircle
 10
-137.4803818002001
 20
69.79959246865923
 30
0.0
 40
5.0
100
AcDbArc
 50
29.99999999999902
 51
90.11510759084263
  0
LINE
  5
280
330
1F
100
AcDbEntity
  8
Circuito (Mica_Transparente)
100
AcDbLine
 10
-133.1502547812779
 20
72.29959246865911
 30
0.0
 11
-122.0969807424699
 21
53.15476024346082
 31
0.0
  0
ENDSEC
  0
SECTION
  2
OBJECTS
  0
DICTIONARY
  5
C
330
0
100
AcDbDictionary
281
     1
  3
ACAD_DETAILVIEWSTYLE
350
2BC
  3
ACAD_GROUP
350
D
  3
ACAD_LAYOUT
350
1A
  3
ACAD_MATERIAL
350
43
  3
ACAD_MLEADERSTYLE
350
2BB
  3
ACAD_MLINESTYLE
350
17
  3
ACAD_PLOTSETTINGS
350
19
  3
ACAD_PLOTSTYLENAME
350
E
  3
ACAD_SCALELIST
350
47
  3
ACAD_SECTIONVIEWSTYLE
350
2BD
  3
ACAD_TABLESTYLE
350
2BA
  3
ACAD_VISUALSTYLE
350
2A
  3
AcDbVariableDictionary
350
281
  0
DICTIONARY
  5
2BC
102
{ACAD_REACTORS
330
C
102
}
330
C
100
AcDbDictionary
281
     1
  0
DICTIONARY
  5
D
102
{ACAD_REACTORS
330
C
102
}
330
C
100
AcDbDictionary
281
     1
  0
DICTIONARY
  5
1A
102
{ACAD_REACTORS
330
C
102
}
330
C
100
AcDbDictionary
281
     1
  3
Layout1
350
1E
  3
Layout2
350
26
  3
Model
350
22
  0
DICTIONARY
  5
43
102
{ACAD_REACTORS
330
C
102
}
330
C
100
AcDbDictionary
281
     1
  3
ByBlock
350
45
  3
ByLayer
350
44
  3
Global
350
46
  0
DICTIONARY
  5
2BB
102
{ACAD_REACTORS
330
C
102
}
330
C
100
AcDbDictionary
281
     1
  0
DICTIONARY
  5
17
102
{ACAD_REACTORS
330
C
102
}
330
C
100
AcDbDictionary
281
     1
  3
Standard
350
18
  0
DICTIONARY
  5
19
102
{ACAD_REACTORS
330
C
102
}
330
C
100
AcDbDictionary
281
     1
  0
ACDBDICTIONARYWDFLT
  5
E
102
{ACAD_REACTORS
330
C
102
}
330
C
100
AcDbDictionary
281
     1
  3
Normal
350
F
100
AcDbDictionaryWithDefault
340
F
  0
DICTIONARY
  5
47
102
{ACAD_REACTORS
330
C
102
}
330
C
100
AcDbDictionary
281
     1
  3
A0
350
48
  3
A1
350
49
  3
A2
350
4A
  3
A3
350
4B
  3
A4
350
4C
  3
A5
350
4D
  3
A6
350
4E
  3
A7
350
4F
  3
A8
350
50
  3
A9
350
51
  3
B0
350
52
  3
B1
350
53
  3
B2
350
54
  3
B3
350
55
  3
B4
350
56
  3
B5
350
57
  3
B6
350
58
  3
B7
350
59
  3
B8
350
5A
  3
B9
350
5B
  3
C0
350
5C
  3
C1
350
5D
  3
C2
350
5E
  3
C3
350
5F
  3
C4
350
60
  3
C5
350
61
  3
C6
350
62
  3
C7
350
63
  3
C8
350
64
  3
C9
350
65
  3
D0
350
66
  3
D1
350
67
  3
D2
350
68
  0
DICTIONARY
  5
2BD
102
{ACAD_REACTORS
330
C
102
}
330
C
100
AcDbDictionary
281
     1
  0
DICTIONARY
  5
2BA
102
{ACAD_REACTORS
330
C
102
}
330
C
100
AcDbDictionary
281
     1
  0
DICTIONARY
  5
2A
102
{ACAD_REACTORS
330
C
102
}
330
C
100
AcDbDictionary
281
     1
  3
2dWireframe
350
2F
  3
Basic
350
32
  3
Brighten
350
36
  3
ColorChange
350
3A
  3
Conceptual
350
34
  3
Dim
350
35
  3
EdgeColorOff
350
3D
  3
Facepattern
350
39
  3
Flat
350
2B
  3
FlatWithEdges
350
2C
  3
Gouraud
350
2D
  3
GouraudWithEdges
350
2E
  3
Hidden
350
31
  3
JitterOff
350
3B
  3
Linepattern
350
38
  3
OverhangOff
350
3C
  3
Realistic
350
33
  3
Shaded
350
42
  3
Shaded with edges
350
41
  3
Shades of Gray
350
3E
  3
Sketchy
350
3F
  3
Thicken
350
37
  3
Wireframe
350
30
  3
X-Ray
350
40
  0
DICTIONARY
  5
281
102
{ACAD_REACTORS
330
C
102
}
330
C
100
AcDbDictionary
281
     1
  3
CANNOSCALE
350
282
  3
MSLTSCALE
350
283
  0
LAYOUT
  5
1E
102
{ACAD_REACTORS
330
1A
102
}
330
1A
100
AcDbPlotSettings
  1

  2
none_device
  4

  6

 40
0.0
 41
0.0
 42
0.0
 43
0.0
 44
0.0
 45
0.0
 46
0.0
 47
0.0
 48
0.0
 49
0.0
140
0.0
141
0.0
142
1.0
143
1.0
 70
   688
 72
     0
 73
     0
 74
     5
  7

 75
    16
 76
     0
 77
     2
 78
   300
147
1.0
148
0.0
149
0.0
100
AcDbLayout
  1
Layout1
 70
     1
 71
     1
 10
0.0
 20
0.0
 11
12.0
 21
9.0
 12
0.0
 22
0.0
 32
0.0
 14
1.000000000000000E+20
 24
1.000000000000000E+20
 34
1.000000000000000E+20
 15
-1.000000000000000E+20
 25
-1.000000000000000E+20
 35
-1.000000000000000E+20
146
0.0
 13
0.0
 23
0.0
 33
0.0
 16
1.0
 26
0.0
 36
0.0
 17
0.0
 27
1.0
 37
0.0
 76
     0
330
1B
  0
LAYOUT
  5
26
102
{ACAD_REACTORS
330
1A
102
}
330
1A
100
AcDbPlotSettings
  1

  2
none_device
  4

  6

 40
0.0
 41
0.0
 42
0.0
 43
0.0
 44
0.0
 45
0.0
 46
0.0
 47
0.0
 48
0.0
 49
0.0
140
0.0
141
0.0
142
1.0
143
1.0
 70
   688
 72
     0
 73
     0
 74
     5
  7

 75
    16
 76
     0
 77
     2
 78
   300
147
1.0
148
0.0
149
0.0
100
AcDbLayout
  1
Layout2
 70
     1
 71
     2
 10
0.0
 20
0.0
 11
0.0
 21
0.0
 12
0.0
 22
0.0
 32
0.0
 14
0.0
 24
0.0
 34
0.0
 15
0.0
 25
0.0
 35
0.0
146
0.0
 13
0.0
 23
0.0
 33
0.0
 16
1.0
 26
0.0
 36
0.0
 17
0.0
 27
1.0
 37
0.0
 76
     0
330
23
  0
LAYOUT
  5
22
102
{ACAD_REACTORS
330
1A
102
}
330
1A
100
AcDbPlotSettings
  1

  2
none_device
  4
Letter_(8.50_x_11.00_Inches)
  6

 40
6.35
 41
6.35
 42
6.35000508
 43
6.35000508
 44
215.9
 45
279.4
 46
0.0
 47
0.0
 48
0.0
 49
0.0
140
0.0
141
0.0
142
1.0
143
1.0
 70
  1712
 72
     0
 73
     0
 74
     0
  7

 75
     0
 76
     0
 77
     2
 78
   300
147
1.0
148
0.0
149
0.0
100
AcDbLayout
  1
Model
 70
     1
 71
     0
 10
0.0
 20
0.0
 11
12.0
 21
9.0
 12
0.0
 22
0.0
 32
0.0
 14
-581.9208755178606
 24
-77.57084359096778
 34
0.0
 15
-80.0969807424687
 25
88.15244522534478
 35
0.0
146
0.0
 13
0.0
 23
0.0
 33
0.0
 16
1.0
 26
0.0
 36
0.0
 17
0.0
 27
1.0
 37
0.0
 76
     0
330
1F
331
29
  0
MATERIAL
  5
45
102
{ACAD_REACTORS
330
43
102
}
102
{ACAD_XDICTIONARY
360
2B6
102
}
330
43
100
AcDbMaterial
  1
ByBlock
  0
MATERIAL
  5
44
102
{ACAD_REACTORS
330
43
102
}
102
{ACAD_XDICTIONARY
360
2B4
102
}
330
43
100
AcDbMaterial
  1
ByLayer
  0
MATERIAL
  5
46
102
{ACAD_REACTORS
330
43
102
}
102
{ACAD_XDICTIONARY
360
2B8
102
}
330
43
100
AcDbMaterial
  1
Global
  0
MLINESTYLE
  5
18
102
{ACAD_REACTORS
330
17
102
}
330
17
100
AcDbMlineStyle
  2
Standard
 70
     0
  3

 62
   256
 51
90.0
 52
90.0
 71
     2
 49
0.5
 62
   256
  6
BYLAYER
 49
-0.5
 62
   256
  6
BYLAYER
  0
ACDBPLACEHOLDER
  5
F
102
{ACAD_REACTORS
330
E
102
}
330
E
  0
SCALE
  5
48
102
{ACAD_REACTORS
330
47
102
}
330
47
100
AcDbScale
 70
     0
300
1:1
140
1.0
141
1.0
290
     1
  0
SCALE
  5
49
102
{ACAD_REACTORS
330
47
102
}
330
47
100
AcDbScale
 70
     0
300
1:2
140
1.0
141
2.0
290
     0
  0
SCALE
  5
4A
102
{ACAD_REACTORS
330
47
102
}
330
47
100
AcDbScale
 70
     0
300
1:4
140
1.0
141
4.0
290
     0
  0
SCALE
  5
4B
102
{ACAD_REACTORS
330
47
102
}
330
47
100
AcDbScale
 70
     0
300
1:5
140
1.0
141
5.0
290
     0
  0
SCALE
  5
4C
102
{ACAD_REACTORS
330
47
102
}
330
47
100
AcDbScale
 70
     0
300
1:8
140
1.0
141
8.0
290
     0
  0
SCALE
  5
4D
102
{ACAD_REACTORS
330
47
102
}
330
47
100
AcDbScale
 70
     0
300
1:10
140
1.0
141
10.0
290
     0
  0
SCALE
  5
4E
102
{ACAD_REACTORS
330
47
102
}
330
47
100
AcDbScale
 70
     0
300
1:16
140
1.0
141
16.0
290
     0
  0
SCALE
  5
4F
102
{ACAD_REACTORS
330
47
102
}
330
47
100
AcDbScale
 70
     0
300
1:20
140
1.0
141
20.0
290
     0
  0
SCALE
  5
50
102
{ACAD_REACTORS
330
47
102
}
330
47
100
AcDbScale
 70
     0
300
1:30
140
1.0
141
30.0
290
     0
  0
SCALE
  5
51
102
{ACAD_REACTORS
330
47
102
}
330
47
100
AcDbScale
 70
     0
300
1:40
140
1.0
141
40.0
290
     0
  0
SCALE
  5
52
102
{ACAD_REACTORS
330
47
102
}
330
47
100
AcDbScale
 70
     0
300
1:50
140
1.0
141
50.0
290
     0
  0
SCALE
  5
53
102
{ACAD_REACTORS
330
47
102
}
330
47
100
AcDbScale
 70
     0
300
1:100
140
1.0
141
100.0
290
     0
  0
SCALE
  5
54
102
{ACAD_REACTORS
330
47
102
}
330
47
100
AcDbScale
 70
     0
300
2:1
140
2.0
141
1.0
290
     0
  0
SCALE
  5
55
102
{ACAD_REACTORS
330
47
102
}
330
47
100
AcDbScale
 70
     0
300
4:1
140
4.0
141
1.0
290
     0
  0
SCALE
  5
56
102
{ACAD_REACTORS
330
47
102
}
330
47
100
AcDbScale
 70
     0
300
8:1
140
8.0
141
1.0
290
     0
  0
SCALE
  5
57
102
{ACAD_REACTORS
330
47
102
}
330
47
100
AcDbScale
 70
     0
300
10:1
140
10.0
141
1.0
290
     0
  0
SCALE
  5
58
102
{ACAD_REACTORS
330
47
102
}
330
47
100
AcDbScale
 70
     0
300
100:1
140
100.0
141
1.0
290
     0
  0
SCALE
  5
59
102
{ACAD_REACTORS
330
47
102
}
330
47
100
AcDbScale
 70
     0
300
1/128" = 1'-0"
140
0.0078125
141
12.0
290
     0
  0
SCALE
  5
5A
102
{ACAD_REACTORS
330
47
102
}
330
47
100
AcDbScale
 70
     0
300
1/64" = 1'-0"
140
0.015625
141
12.0
290
     0
  0
SCALE
  5
5B
102
{ACAD_REACTORS
330
47
102
}
330
47
100
AcDbScale
 70
     0
300
1/32" = 1'-0"
140
0.03125
141
12.0
290
     0
  0
SCALE
  5
5C
102
{ACAD_REACTORS
330
47
102
}
330
47
100
AcDbScale
 70
     0
300
1/16" = 1'-0"
140
0.0625
141
12.0
290
     0
  0
SCALE
  5
5D
102
{ACAD_REACTORS
330
47
102
}
330
47
100
AcDbScale
 70
     0
300
3/32" = 1'-0"
140
0.09375
141
12.0
290
     0
  0
SCALE
  5
5E
102
{ACAD_REACTORS
330
47
102
}
330
47
100
AcDbScale
 70
     0
300
1/8" = 1'-0"
140
0.125
141
12.0
290
     0
  0
SCALE
  5
5F
102
{ACAD_REACTORS
330
47
102
}
330
47
100
AcDbScale
 70
     0
300
3/16" = 1'-0"
140
0.1875
141
12.0
290
     0
  0
SCALE
  5
60
102
{ACAD_REACTORS
330
47
102
}
330
47
100
AcDbScale
 70
     0
300
1/4" = 1'-0"
140
0.25
141
12.0
290
     0
  0
SCALE
  5
61
102
{ACAD_REACTORS
330
47
102
}
330
47
100
AcDbScale
 70
     0
300
3/8" = 1'-0"
140
0.375
141
12.0
290
     0
  0
SCALE
  5
62
102
{ACAD_REACTORS
330
47
102
}
330
47
100
AcDbScale
 70
     0
300
1/2" = 1'-0"
140
0.5
141
12.0
290
     0
  0
SCALE
  5
63
102
{ACAD_REACTORS
330
47
102
}
330
47
100
AcDbScale
 70
     0
300
3/4" = 1'-0"
140
0.75
141
12.0
290
     0
  0
SCALE
  5
64
102
{ACAD_REACTORS
330
47
102
}
330
47
100
AcDbScale
 70
     0
300
1" = 1'-0"
140
1.0
141
12.0
290
     0
  0
SCALE
  5
65
102
{ACAD_REACTORS
330
47
102
}
330
47
100
AcDbScale
 70
     0
300
1-1/2" = 1'-0"
140
1.5
141
12.0
290
     0
  0
SCALE
  5
66
102
{ACAD_REACTORS
330
47
102
}
330
47
100
AcDbScale
 70
     0
300
3" = 1'-0"
140
3.0
141
12.0
290
     0
  0
SCALE
  5
67
102
{ACAD_REACTORS
330
47
102
}
330
47
100
AcDbScale
 70
     0
300
6" = 1'-0"
140
6.0
141
12.0
290
     0
  0
SCALE
  5
68
102
{ACAD_REACTORS
330
47
102
}
330
47
100
AcDbScale
 70
     0
300
1'-0" = 1'-0"
140
12.0
141
12.0
290
     0
  0
VISUALSTYLE
  5
2F
102
{ACAD_REACTORS
330
2A
102
}
102
{ACAD_XDICTIONARY
360
28C
102
}
330
2A
100
AcDbVisualStyle
  2
2dWireframe
 70
     4
 71
     0
 72
     2
 73
     0
 90
        0
 40
0.6
 41
30.0
 62
     5
 63
     7
421
 16777215
 74
     1
 91
        4
 64
     7
 65
   257
 75
     1
175
     1
 42
1.0
 92
        0
 66
   257
 43
1.0
 76
     1
 77
     6
 78
     2
 67
     7
 79
     5
170
     0
171
     0
290
     0
174
     0
 93
        1
 44
0.0
173
     0
291
     0
 45
0.0
1001
ACAD
1000
AcDbSavedByObjectVersion
1070
     0
  0
VISUALSTYLE
  5
32
102
{ACAD_REACTORS
330
2A
102
}
102
{ACAD_XDICTIONARY
360
292
102
}
330
2A
100
AcDbVisualStyle
  2
Basic
 70
     7
 71
     1
 72
     0
 73
     1
 90
        0
 40
0.6
 41
30.0
 62
     5
 63
     7
421
 16777215
 74
     0
 91
        4
 64
     7
 65
   257
 75
     1
175
     1
 42
1.0
 92
        8
 66
     7
 43
1.0
 76
     1
 77
     6
 78
     2
 67
     7
 79
     5
170
     0
171
     0
290
     0
174
     0
 93
        1
 44
0.0
173
     0
291
     1
 45
0.0
1001
ACAD
1000
AcDbSavedByObjectVersion
1070
     0
  0
VISUALSTYLE
  5
36
102
{ACAD_REACTORS
330
2A
102
}
102
{ACAD_XDICTIONARY
360
29A
102
}
330
2A
100
AcDbVisualStyle
  2
Brighten
 70
    12
 71
     2
 72
     2
 73
     0
 90
        0
 40
0.6
 41
30.0
 62
     5
 63
     7
421
 16777215
 74
     1
 91
        4
 64
     7
 65
   257
 75
     1
175
     1
 42
1.0
 92
        8
 66
     7
 43
1.0
 76
     1
 77
     6
 78
     2
 67
     7
 79
     5
170
     0
171
     0
290
     0
174
     0
 93
        1
 44
50.0
173
     0
291
     1
 45
0.0
1001
ACAD
1000
AcDbSavedByObjectVersion
1070
     0
  0
VISUALSTYLE
  5
3A
102
{ACAD_REACTORS
330
2A
102
}
102
{ACAD_XDICTIONARY
360
2A2
102
}
330
2A
100
AcDbVisualStyle
  2
ColorChange
 70
    16
 71
     2
 72
     2
 73
     3
 90
        0
 40
0.6
 41
30.0
 62
     5
 63
     8
421
  8421504
 74
     1
 91
        4
 64
     7
 65
   257
 75
     1
175
     1
 42
1.0
 92
        8
 66
     8
424
  8421504
 43
1.0
 76
     1
 77
     6
 78
     2
 67
     7
 79
     5
170
     0
171
     0
290
     0
174
     0
 93
        1
 44
0.0
173
     0
291
     1
 45
0.0
1001
ACAD
1000
AcDbSavedByObjectVersion
1070
     0
  0
VISUALSTYLE
  5
34
102
{ACAD_REACTORS
330
2A
102
}
102
{ACAD_XDICTIONARY
360
296
102
}
330
2A
100
AcDbVisualStyle
  2
Conceptual
 70
     9
 71
     3
 72
     2
 73
     0
 90
        0
 40
0.6
 41
30.0
 62
     5
 63
     7
421
 16777215
 74
     2
 91
        2
 64
     7
 65
   257
 75
     1
175
     1
 42
179.0
 92
        8
 66
     7
 43
1.0
 76
     1
 77
     6
 78
     2
 67
     7
 79
     3
170
     0
171
     0
290
     0
174
     0
 93
        1
 44
0.0
173
     0
291
     0
 45
0.0
1001
ACAD
1000
AcDbSavedByObjectVersion
1070
     0
  0
VISUALSTYLE
  5
35
102
{ACAD_REACTORS
330
2A
102
}
102
{ACAD_XDICTIONARY
360
298
102
}
330
2A
100
AcDbVisualStyle
  2
Dim
 70
    11
 71
     2
 72
     2
 73
     0
 90
        0
 40
0.6
 41
30.0
 62
     5
 63
     7
421
 16777215
 74
     1
 91
        4
 64
     7
 65
   257
 75
     1
175
     1
 42
1.0
 92
        8
 66
     7
 43
1.0
 76
     1
 77
     6
 78
     2
 67
     7
 79
     5
170
     0
171
     0
290
     0
174
     0
 93
        1
 44
-50.0
173
     0
291
     1
 45
0.0
1001
ACAD
1000
AcDbSavedByObjectVersion
1070
     0
  0
VISUALSTYLE
  5
3D
102
{ACAD_REACTORS
330
2A
102
}
102
{ACAD_XDICTIONARY
360
2A8
102
}
330
2A
100
AcDbVisualStyle
  2
EdgeColorOff
 70
    22
 71
     2
 72
     2
 73
     0
 90
        0
 40
0.6
 41
30.0
 62
     5
 63
     7
421
 16777215
 74
     1
 91
        4
 64
     7
 65
   257
 75
     1
175
     1
 42
1.0
 92
        8
 66
     7
 43
1.0
 76
     1
 77
     6
 78
     2
 67
     7
 79
     5
170
     0
171
     0
290
     0
174
     0
 93
        1
 44
0.0
173
     0
291
     1
 45
0.0
1001
ACAD
1000
AcDbSavedByObjectVersion
1070
     0
  0
VISUALSTYLE
  5
39
102
{ACAD_REACTORS
330
2A
102
}
102
{ACAD_XDICTIONARY
360
2A0
102
}
330
2A
100
AcDbVisualStyle
  2
Facepattern
 70
    15
 71
     2
 72
     2
 73
     0
 90
        0
 40
0.6
 41
30.0
 62
     5
 63
     7
421
 16777215
 74
     1
 91
        4
 64
     7
 65
   257
 75
     1
175
     1
 42
1.0
 92
        8
 66
     7
 43
1.0
 76
     1
 77
     6
 78
     2
 67
     7
 79
     5
170
     0
171
     0
290
     0
174
     0
 93
        1
 44
0.0
173
     0
291
     1
 45
0.0
1001
ACAD
1000
AcDbSavedByObjectVersion
1070
     0
  0
VISUALSTYLE
  5
2B
102
{ACAD_REACTORS
330
2A
102
}
102
{ACAD_XDICTIONARY
360
284
102
}
330
2A
100
AcDbVisualStyle
  2
Flat
 70
     0
 71
     2
 72
     1
 73
     1
 90
        2
 40
0.6
 41
30.0
 62
     5
 63
     7
421
 16777215
 74
     0
 91
        0
 64
     7
 65
   257
 75
     1
175
     1
 42
1.0
 92
        8
 66
     7
 43
1.0
 76
     1
 77
     6
 78
     2
 67
     7
 79
     5
170
     0
171
     0
290
     0
174
     0
 93
       13
 44
0.0
173
     0
291
     1
 45
0.0
1001
ACAD
1000
AcDbSavedByObjectVersion
1070
     0
  0
VISUALSTYLE
  5
2C
102
{ACAD_REACTORS
330
2A
102
}
102
{ACAD_XDICTIONARY
360
286
102
}
330
2A
100
AcDbVisualStyle
  2
FlatWithEdges
 70
     1
 71
     2
 72
     1
 73
     1
 90
        2
 40
0.6
 41
30.0
 62
     5
 63
     7
421
 16777215
 74
     1
 91
        0
 64
     7
 65
   257
 75
     1
175
     1
 42
1.0
 92
        0
 66
   257
 43
1.0
 76
     1
 77
     6
 78
     2
 67
     7
 79
     5
170
     0
171
     0
290
     0
174
     0
 93
       13
 44
0.0
173
     0
291
     1
 45
0.0
1001
ACAD
1000
AcDbSavedByObjectVersion
1070
     0
  0
VISUALSTYLE
  5
2D
102
{ACAD_REACTORS
330
2A
102
}
102
{ACAD_XDICTIONARY
360
288
102
}
330
2A
100
AcDbVisualStyle
  2
Gouraud
 70
     2
 71
     2
 72
     2
 73
     1
 90
        2
 40
0.6
 41
30.0
 62
     5
 63
     7
421
 16777215
 74
     0
 91
        0
 64
     7
 65
   257
 75
     1
175
     1
 42
1.0
 92
        0
 66
     7
 43
1.0
 76
     1
 77
     6
 78
     2
 67
     7
 79
     5
170
     0
171
     0
290
     0
174
     0
 93
       13
 44
0.0
173
     0
291
     1
 45
0.0
1001
ACAD
1000
AcDbSavedByObjectVersion
1070
     0
  0
VISUALSTYLE
  5
2E
102
{ACAD_REACTORS
330
2A
102
}
102
{ACAD_XDICTIONARY
360
28A
102
}
330
2A
100
AcDbVisualStyle
  2
GouraudWithEdges
 70
     3
 71
     2
 72
     2
 73
     1
 90
        2
 40
0.6
 41
30.0
 62
     5
 63
     7
421
 16777215
 74
     1
 91
        0
 64
     7
 65
   257
 75
     1
175
     1
 42
1.0
 92
        0
 66
   257
 43
1.0
 76
     1
 77
     6
 78
     2
 67
     7
 79
     5
170
     0
171
     0
290
     0
174
     0
 93
       13
 44
0.0
173
     0
291
     1
 45
0.0
1001
ACAD
1000
AcDbSavedByObjectVersion
1070
     0
  0
VISUALSTYLE
  5
31
102
{ACAD_REACTORS
330
2A
102
}
102
{ACAD_XDICTIONARY
360
290
102
}
330
2A
100
AcDbVisualStyle
  2
Hidden
 70
     6
 71
     1
 72
     2
 73
     2
 90
        0
 40
0.6
 41
30.0
 62
     5
 63
     7
421
 16777215
 74
     2
 91
        2
 64
     7
 65
   257
 75
     2
175
     1
 42
40.0
 92
        0
 66
   257
 43
1.0
 76
     1
 77
     6
 78
     2
 67
     7
 79
     3
170
     0
171
     0
290
     0
174
     0
 93
        1
 44
0.0
173
     0
291
     0
 45
0.0
1001
ACAD
1000
AcDbSavedByObjectVersion
1070
     0
  0
VISUALSTYLE
  5
3B
102
{ACAD_REACTORS
330
2A
102
}
102
{ACAD_XDICTIONARY
360
2A4
102
}
330
2A
100
AcDbVisualStyle
  2
JitterOff
 70
    20
 71
     2
 72
     2
 73
     0
 90
        0
 40
0.6
 41
30.0
 62
     5
 63
     7
421
 16777215
 74
     1
 91
        4
 64
     7
 65
   257
 75
     1
175
     1
 42
1.0
 92
       10
 66
     7
 43
1.0
 76
     1
 77
     6
 78
     2
 67
     7
 79
     5
170
     0
171
     0
290
     0
174
     0
 93
        1
 44
0.0
173
     0
291
     1
 45
0.0
1001
ACAD
1000
AcDbSavedByObjectVersion
1070
     0
  0
VISUALSTYLE
  5
38
102
{ACAD_REACTORS
330
2A
102
}
102
{ACAD_XDICTIONARY
360
29E
102
}
330
2A
100
AcDbVisualStyle
  2
Linepattern
 70
    14
 71
     2
 72
     2
 73
     0
 90
        0
 40
0.6
 41
30.0
 62
     5
 63
     7
421
 16777215
 74
     1
 91
        4
 64
     7
 65
   257
 75
     7
175
     7
 42
1.0
 92
        8
 66
     7
 43
1.0
 76
     1
 77
     6
 78
     2
 67
     7
 79
     5
170
     0
171
     0
290
     0
174
     0
 93
        1
 44
0.0
173
     0
291
     1
 45
0.0
1001
ACAD
1000
AcDbSavedByObjectVersion
1070
     0
  0
VISUALSTYLE
  5
3C
102
{ACAD_REACTORS
330
2A
102
}
102
{ACAD_XDICTIONARY
360
2A6
102
}
330
2A
100
AcDbVisualStyle
  2
OverhangOff
 70
    21
 71
     2
 72
     2
 73
     0
 90
        0
 40
0.6
 41
30.0
 62
     5
 63
     7
421
 16777215
 74
     1
 91
        4
 64
     7
 65
   257
 75
     1
175
     1
 42
1.0
 92
        9
 66
     7
 43
1.0
 76
     1
 77
     6
 78
     2
 67
     7
 79
     5
170
     0
171
     0
290
     0
174
     0
 93
        1
 44
0.0
173
     0
291
     1
 45
0.0
1001
ACAD
1000
AcDbSavedByObjectVersion
1070
     0
  0
VISUALSTYLE
  5
33
102
{ACAD_REACTORS
330
2A
102
}
102
{ACAD_XDICTIONARY
360
294
102
}
330
2A
100
AcDbVisualStyle
  2
Realistic
 70
     8
 71
     2
 72
     3
 73
     0
 90
        2
 40
0.6
 41
30.0
 62
     5
 63
     7
421
 16777215
 74
     0
 91
        0
 64
     7
 65
   257
 75
     1
175
     1
 42
1.0
 92
        8
 66
   257
 43
1.0
 76
     1
 77
     6
 78
     2
 67
     7
 79
     3
170
     0
171
     0
290
     0
174
     0
 93
       13
 44
0.0
173
     0
291
     0
 45
0.0
1001
ACAD
1000
AcDbSavedByObjectVersion
1070
     0
  0
VISUALSTYLE
  5
42
102
{ACAD_REACTORS
330
2A
102
}
102
{ACAD_XDICTIONARY
360
2B2
102
}
330
2A
100
AcDbVisualStyle
  2
Shaded
 70
    27
 71
     2
 72
     2
 73
     1
 90
        2
 40
0.6
 41
30.0
 62
     5
 63
     7
421
 16777215
 74
     0
 91
        4
 64
     7
 65
   257
 75
     1
175
     1
 42
1.0
 92
        8
 66
   257
 43
1.0
 76
     1
 77
     6
 78
     2
 67
     8
425
  7895160
 79
     3
170
     0
171
     0
290
     0
174
     0
 93
        5
 44
0.0
173
     0
291
     0
 45
0.0
1001
ACAD
1000
AcDbSavedByObjectVersion
1070
     0
  0
VISUALSTYLE
  5
41
102
{ACAD_REACTORS
330
2A
102
}
102
{ACAD_XDICTIONARY
360
2B0
102
}
330
2A
100
AcDbVisualStyle
  2
Shaded with edges
 70
    26
 71
     2
 72
     2
 73
     1
 90
        2
 40
0.6
 41
30.0
 62
     5
 63
     7
421
 16777215
 74
     1
 91
       10
 64
     7
 65
   257
 75
     2
175
     1
 42
1.0
 92
        8
 66
   257
 43
1.0
 76
     1
 77
     6
 78
     2
 67
     7
 79
     3
170
     0
171
     0
290
     0
174
     0
 93
        5
 44
0.0
173
     0
291
     0
 45
0.0
1001
ACAD
1000
AcDbSavedByObjectVersion
1070
     0
  0
VISUALSTYLE
  5
3E
102
{ACAD_REACTORS
330
2A
102
}
102
{ACAD_XDICTIONARY
360
2AA
102
}
330
2A
100
AcDbVisualStyle
  2
Shades of Gray
 70
    23
 71
     2
 72
     2
 73
     3
 90
        0
 40
0.6
 41
30.0
 62
     5
 63
     7
421
 16777215
 74
     2
 91
        2
 64
     7
 65
     7
 75
     1
175
     1
 42
40.0
 92
        8
 66
     7
 43
1.0
 76
     1
 77
     6
 78
     2
 67
     7
 79
     3
170
     0
171
     0
290
     0
174
     0
 93
        1
 44
0.0
173
     0
291
     0
 45
0.0
1001
ACAD
1000
AcDbSavedByObjectVersion
1070
     0
  0
VISUALSTYLE
  5
3F
102
{ACAD_REACTORS
330
2A
102
}
102
{ACAD_XDICTIONARY
360
2AC
102
}
330
2A
100
AcDbVisualStyle
  2
Sketchy
 70
    24
 71
     1
 72
     2
 73
     2
 90
        0
 40
0.6
 41
30.0
 62
     5
 63
     7
421
 16777215
 74
     2
 91
        2
 64
     7
 65
     7
 75
     1
175
     1
 42
40.0
 92
       11
 66
     7
 43
1.0
 76
     1
 77
     6
 78
     2
 67
     7
 79
     6
170
     0
171
     0
290
     0
174
     0
 93
        1
 44
0.0
173
     0
291
     0
 45
0.0
1001
ACAD
1000
AcDbSavedByObjectVersion
1070
     0
  0
VISUALSTYLE
  5
37
102
{ACAD_REACTORS
330
2A
102
}
102
{ACAD_XDICTIONARY
360
29C
102
}
330
2A
100
AcDbVisualStyle
  2
Thicken
 70
    13
 71
     2
 72
     2
 73
     0
 90
        0
 40
0.6
 41
30.0
 62
     5
 63
     7
421
 16777215
 74
     1
 91
        4
 64
     7
 65
   257
 75
     1
175
     1
 42
1.0
 92
       12
 66
     7
 43
1.0
 76
     1
 77
     6
 78
     2
 67
     7
 79
     5
170
     0
171
     0
290
     0
174
     0
 93
        1
 44
0.0
173
     0
291
     1
 45
0.0
1001
ACAD
1000
AcDbSavedByObjectVersion
1070
     0
  0
VISUALSTYLE
  5
30
102
{ACAD_REACTORS
330
2A
102
}
102
{ACAD_XDICTIONARY
360
28E
102
}
330
2A
100
AcDbVisualStyle
  2
Wireframe
 70
     5
 71
     0
 72
     2
 73
     0
 90
        0
 40
0.6
 41
30.0
 62
     5
 63
     7
421
 16777215
 74
     1
 91
        4
 64
     7
 65
   257
 75
     1
175
     1
 42
1.0
 92
        0
 66
   257
 43
1.0
 76
     1
 77
     6
 78
     2
 67
     7
 79
     3
170
     0
171
     0
290
     0
174
     0
 93
        1
 44
0.0
173
     0
291
     0
 45
0.0
1001
ACAD
1000
AcDbSavedByObjectVersion
1070
     0
  0
VISUALSTYLE
  5
40
102
{ACAD_REACTORS
330
2A
102
}
102
{ACAD_XDICTIONARY
360
2AE
102
}
330
2A
100
AcDbVisualStyle
  2
X-Ray
 70
    25
 71
     2
 72
     2
 73
     1
 90
        1
 40
0.5
 41
30.0
 62
     5
 63
     7
421
 16777215
 74
     1
 91
        0
 64
     7
 65
   257
 75
     1
175
     1
 42
1.0
 92
        8
 66
     7
 43
1.0
 76
     1
 77
     6
 78
     2
 67
     7
 79
     3
170
     0
171
     0
290
     0
174
     0
 93
       13
 44
0.0
173
     0
291
     0
 45
0.0
1001
ACAD
1000
AcDbSavedByObjectVersion
1070
     0
  0
DICTIONARYVAR
  5
282
102
{ACAD_REACTORS
330
281
102
}
330
281
100
DictionaryVariables
280
     0
  1
1:1
  0
DICTIONARYVAR
  5
283
102
{ACAD_REACTORS
330
281
102
}
330
281
100
DictionaryVariables
280
     0
  1
1
  0
DICTIONARY
  5
2B6
330
45
100
AcDbDictionary
280
     1
281
     1
  3
ACAD_XREC_ROUNDTRIP
360
2B7
  0
DICTIONARY
  5
2B4
330
44
100
AcDbDictionary
280
     1
281
     1
  3
ACAD_XREC_ROUNDTRIP
360
2B5
  0
DICTIONARY
  5
2B8
330
46
100
AcDbDictionary
280
     1
281
     1
  3
ACAD_XREC_ROUNDTRIP
360
2B9
  0
DICTIONARY
  5
28C
330
2F
100
AcDbDictionary
280
     1
281
     1
  3
ACAD_XREC_ROUNDTRIP
360
28D
  0
DICTIONARY
  5
292
330
32
100
AcDbDictionary
280
     1
281
     1
  3
ACAD_XREC_ROUNDTRIP
360
293
  0
DICTIONARY
  5
29A
330
36
100
AcDbDictionary
280
     1
281
     1
  3
ACAD_XREC_ROUNDTRIP
360
29B
  0
DICTIONARY
  5
2A2
330
3A
100
AcDbDictionary
280
     1
281
     1
  3
ACAD_XREC_ROUNDTRIP
360
2A3
  0
DICTIONARY
  5
296
330
34
100
AcDbDictionary
280
     1
281
     1
  3
ACAD_XREC_ROUNDTRIP
360
297
  0
DICTIONARY
  5
298
330
35
100
AcDbDictionary
280
     1
281
     1
  3
ACAD_XREC_ROUNDTRIP
360
299
  0
DICTIONARY
  5
2A8
330
3D
100
AcDbDictionary
280
     1
281
     1
  3
ACAD_XREC_ROUNDTRIP
360
2A9
  0
DICTIONARY
  5
2A0
330
39
100
AcDbDictionary
280
     1
281
     1
  3
ACAD_XREC_ROUNDTRIP
360
2A1
  0
DICTIONARY
  5
284
330
2B
100
AcDbDictionary
280
     1
281
     1
  3
ACAD_XREC_ROUNDTRIP
360
285
  0
DICTIONARY
  5
286
330
2C
100
AcDbDictionary
280
     1
281
     1
  3
ACAD_XREC_ROUNDTRIP
360
287
  0
DICTIONARY
  5
288
330
2D
100
AcDbDictionary
280
     1
281
     1
  3
ACAD_XREC_ROUNDTRIP
360
289
  0
DICTIONARY
  5
28A
330
2E
100
AcDbDictionary
280
     1
281
     1
  3
ACAD_XREC_ROUNDTRIP
360
28B
  0
DICTIONARY
  5
290
330
31
100
AcDbDictionary
280
     1
281
     1
  3
ACAD_XREC_ROUNDTRIP
360
291
  0
DICTIONARY
  5
2A4
330
3B
100
AcDbDictionary
280
     1
281
     1
  3
ACAD_XREC_ROUNDTRIP
360
2A5
  0
DICTIONARY
  5
29E
330
38
100
AcDbDictionary
280
     1
281
     1
  3
ACAD_XREC_ROUNDTRIP
360
29F
  0
DICTIONARY
  5
2A6
330
3C
100
AcDbDictionary
280
     1
281
     1
  3
ACAD_XREC_ROUNDTRIP
360
2A7
  0
DICTIONARY
  5
294
330
33
100
AcDbDictionary
280
     1
281
     1
  3
ACAD_XREC_ROUNDTRIP
360
295
  0
DICTIONARY
  5
2B2
330
42
100
AcDbDictionary
280
     1
281
     1
  3
ACAD_XREC_ROUNDTRIP
360
2B3
  0
DICTIONARY
  5
2B0
330
41
100
AcDbDictionary
280
     1
281
     1
  3
ACAD_XREC_ROUNDTRIP
360
2B1
  0
DICTIONARY
  5
2AA
330
3E
100
AcDbDictionary
280
     1
281
     1
  3
ACAD_XREC_ROUNDTRIP
360
2AB
  0
DICTIONARY
  5
2AC
330
3F
100
AcDbDictionary
280
     1
281
     1
  3
ACAD_XREC_ROUNDTRIP
360
2AD
  0
DICTIONARY
  5
29C
330
37
100
AcDbDictionary
280
     1
281
     1
  3
ACAD_XREC_ROUNDTRIP
360
29D
  0
DICTIONARY
  5
28E
330
30
100
AcDbDictionary
280
     1
281
     1
  3
ACAD_XREC_ROUNDTRIP
360
28F
  0
DICTIONARY
  5
2AE
330
40
100
AcDbDictionary
280
     1
281
     1
  3
ACAD_XREC_ROUNDTRIP
360
2AF
  0
XRECORD
  5
2B7
102
{ACAD_REACTORS
330
2B6
102
}
330
2B6
100
AcDbXrecord
280
     1
102
MATERIAL
148
0.0
149
0.0
149
0.0
 93
        0
 94
      127
282
     0
 72
     1
 77
     1
171
     1
175
     1
179
     1
273
     0
  0
XRECORD
  5
2B5
102
{ACAD_REACTORS
330
2B4
102
}
330
2B4
100
AcDbXrecord
280
     1
102
MATERIAL
148
0.0
149
0.0
149
0.0
 93
        0
 94
      127
282
     0
 72
     1
 77
     1
171
     1
175
     1
179
     1
273
     0
  0
XRECORD
  5
2B9
102
{ACAD_REACTORS
330
2B8
102
}
330
2B8
100
AcDbXrecord
280
     1
102
MATERIAL
148
0.0
149
0.0
149
0.0
 93
        0
 94
      127
282
     0
 72
     1
 77
     1
171
     1
175
     1
179
     1
273
     0
  0
XRECORD
  5
28D
102
{ACAD_REACTORS
330
28C
102
}
330
28C
100
AcDbXrecord
280
     1
102
RTVSPropertyOp0
 70
     1
102
RTVSPropertyOp1
 70
     1
102
RTVSPropertyOp2
 70
     1
102
RTVSPropertyOp3
 70
     1
102
RTVSPropertyOp4
 70
     1
102
RTVSPropertyOp5
 70
     1
102
RTVSPropertyOp6
 70
     1
102
RTVSPropertyOp7
 70
     1
102
RTVSPropertyOp8
 70
     1
102
RTVSPropertyOp9
 70
     1
102
RTVSPropertyOp10
 70
     1
102
RTVSPropertyOp11
 70
     1
102
RTVSPropertyOp12
 70
     1
102
RTVSPropertyOp13
 70
     1
102
RTVSPropertyOp14
 70
     1
102
RTVSPropertyOp15
 70
     1
102
RTVSPropertyOp16
 70
     1
102
RTVSPropertyOp17
 70
     1
102
RTVSPropertyOp18
 70
     1
102
RTVSPropertyOp19
 70
     1
102
RTVSPropertyOp20
 70
     1
102
RTVSPropertyOp21
 70
     1
102
RTVSPropertyOp22
 70
     1
102
RTVSPropertyOp23
 70
     1
102
RTVSPropertyOp24
 70
     1
102
RTVSPropertyOp25
 70
     1
102
RTVSPropertyOp26
 70
     1
102
RTVSPropertyOp27
 70
     1
102
RTVSPropertyOp28
 70
     1
102
RTVSPropertyOp29
 70
     1
102
RTVSPropertyOp30
 70
     1
102
RTVSPropertyOp31
 70
     1
102
RTVSPropertyOp32
 70
     1
102
RTVSPropertyOp33
 70
     1
102
RTVSPropertyOp34
 70
     1
102
RTVSPropertyOp35
 70
     1
102
RTVSPropertyOp36
 70
     1
102
RTVSPropertyOp37
 70
     1
102
RTVSPropertyOp38
 70
     1
102
RTVSPropertyOp39
 70
     1
102
RTVSPropertyOp40
 70
     1
102
RTVSPropertyOp41
 70
     1
102
RTVSPropertyOp42
 70
     1
102
RTVSPropertyOp43
 70
     1
102
RTVSPropertyOp44
 70
     1
102
RTVSPropertyOp45
 70
     1
102
RTVSPropertyOp46
 70
     1
102
RTVSPropertyOp47
 70
     1
102
RTVSPropertyOp48
 70
     1
102
RTVSPropertyOp49
 70
     1
102
RTVSPropertyOp50
 70
     1
102
RTVSPropertyOp51
 70
     0
102
RTVSPropertyOp52
 70
     0
102
RTVSPropertyOp53
 70
     1
102
RTVSPropertyOp54
 70
     1
102
RTVSPropertyOp55
 70
     1
102
RTVSPropertyOp56
 70
     1
102
RTVSPropertyOp57
 70
     1
102
RTVSPost2010Prop28
280
     1
102
RTVSPost2010PropOp28
 70
     1
102
RTVSPost2010Prop29
280
     1
102
RTVSPost2010PropOp29
 70
     1
102
RTVSPost2010Prop30
280
     0
102
RTVSPost2010PropOp30
 70
     1
102
RTVSPost2010Prop31
280
     0
102
RTVSPost2010PropOp31
 70
     1
102
RTVSPost2010Prop32
280
     0
102
RTVSPost2010PropOp32
 70
     1
102
RTVSPost2010Prop33
280
     0
102
RTVSPost2010PropOp33
 70
     1
102
RTVSPost2010Prop34
280
     0
102
RTVSPost2010PropOp34
 70
     1
102
RTVSPost2010Prop35
280
     0
102
RTVSPost2010PropOp35
 70
     1
102
RTVSPost2010Prop36
280
     0
102
RTVSPost2010PropOp36
 70
     1
102
RTVSPost2010Prop37
 90
       50
102
RTVSPost2010PropOp37
 70
     1
102
RTVSPost2010Prop38
140
0.0
102
RTVSPost2010PropOp38
 70
     1
102
RTVSPost2010Prop39
140
1.0
102
RTVSPost2010PropOp39
 70
     1
102
RTVSPost2010Prop40
 90
        0
102
RTVSPost2010PropOp40
 70
     1
102
RTVSPost2010Prop41ColorIndex
 90
       18
102
RTVSPost2010Prop41ColorRGB
 90
        0
102
RTVSPost2010PropOp41
 70
     1
102
RTVSPost2010Prop42
 90
       50
102
RTVSPost2010PropOp42
 70
     1
102
RTVSPost2010Prop43
 90
        3
102
RTVSPost2010PropOp43
 70
     1
102
RTVSPost2010Prop44ColorIndex
 90
        5
102
RTVSPost2010Prop44ColorRGB
 90
      255
102
RTVSPost2010PropOp44
 70
     1
102
RTVSPost2010Prop45
280
     0
102
RTVSPost2010PropOp45
 70
     1
102
RTVSPost2010Prop46
 90
       50
102
RTVSPost2010PropOp46
 70
     1
102
RTVSPost2010Prop47
 90
       50
102
RTVSPost2010PropOp47
 70
     1
102
RTVSPost2010Prop48
 90
       50
102
RTVSPost2010PropOp48
 70
     1
102
RTVSPost2010Prop49
280
     0
102
RTVSPost2010PropOp49
 70
     1
102
RTVSPost2010Prop50
 90
       50
102
RTVSPost2010PropOp50
 70
     1
102
RTVSPost2010Prop51ColorIndex
 90
      256
102
RTVSPost2010Prop51ColorRGB
 90
-16777216
102
RTVSPost2010PropOp51
 70
     0
102
RTVSPost2010Prop52
140
1.0
102
RTVSPost2010PropOp52
 70
     0
102
RTVSPost2010Prop53
 90
        2
102
RTVSPost2010PropOp53
 70
     1
102
RTVSPost2010Prop54
  1
strokes_ogs.tif
102
RTVSPost2010PropOp54
 70
     1
102
RTVSPost2010Prop55
280
     0
102
RTVSPost2010PropOp55
 70
     1
102
RTVSPost2010Prop56
140
1.0
102
RTVSPost2010PropOp56
 70
     1
102
RTVSPost2010Prop57
140
1.0
102
RTVSPost2010PropOp57
 70
     1
  0
XRECORD
  5
293
102
{ACAD_REACTORS
330
292
102
}
330
292
100
AcDbXrecord
280
     1
102
RTVSPropertyOp0
 70
     1
102
RTVSPropertyOp1
 70
     1
102
RTVSPropertyOp2
 70
     1
102
RTVSPropertyOp3
 70
     1
102
RTVSPropertyOp4
 70
     1
102
RTVSPropertyOp5
 70
     1
102
RTVSPropertyOp6
 70
     1
102
RTVSPropertyOp7
 70
     1
102
RTVSPropertyOp8
 70
     1
102
RTVSPropertyOp9
 70
     1
102
RTVSPropertyOp10
 70
     1
102
RTVSPropertyOp11
 70
     1
102
RTVSPropertyOp12
 70
     1
102
RTVSPropertyOp13
 70
     1
102
RTVSPropertyOp14
 70
     1
102
RTVSPropertyOp15
 70
     1
102
RTVSPropertyOp16
 70
     1
102
RTVSPropertyOp17
 70
     1
102
RTVSPropertyOp18
 70
     1
102
RTVSPropertyOp19
 70
     1
102
RTVSPropertyOp20
 70
     1
102
RTVSPropertyOp21
 70
     1
102
RTVSPropertyOp22
 70
     1
102
RTVSPropertyOp23
 70
     1
102
RTVSPropertyOp24
 70
     1
102
RTVSPropertyOp25
 70
     1
102
RTVSPropertyOp26
 70
     1
102
RTVSPropertyOp27
 70
     1
102
RTVSPropertyOp28
 70
     1
102
RTVSPropertyOp29
 70
     1
102
RTVSPropertyOp30
 70
     1
102
RTVSPropertyOp31
 70
     1
102
RTVSPropertyOp32
 70
     1
102
RTVSPropertyOp33
 70
     1
102
RTVSPropertyOp34
 70
     1
102
RTVSPropertyOp35
 70
     1
102
RTVSPropertyOp36
 70
     1
102
RTVSPropertyOp37
 70
     1
102
RTVSPropertyOp38
 70
     1
102
RTVSPropertyOp39
 70
     1
102
RTVSPropertyOp40
 70
     1
102
RTVSPropertyOp41
 70
     1
102
RTVSPropertyOp42
 70
     1
102
RTVSPropertyOp43
 70
     1
102
RTVSPropertyOp44
 70
     1
102
RTVSPropertyOp45
 70
     1
102
RTVSPropertyOp46
 70
     1
102
RTVSPropertyOp47
 70
     1
102
RTVSPropertyOp48
 70
     1
102
RTVSPropertyOp49
 70
     1
102
RTVSPropertyOp50
 70
     1
102
RTVSPropertyOp51
 70
     0
102
RTVSPropertyOp52
 70
     0
102
RTVSPropertyOp53
 70
     1
102
RTVSPropertyOp54
 70
     1
102
RTVSPropertyOp55
 70
     1
102
RTVSPropertyOp56
 70
     1
102
RTVSPropertyOp57
 70
     1
102
RTVSPost2010Prop28
280
     0
102
RTVSPost2010PropOp28
 70
     1
102
RTVSPost2010Prop29
280
     1
102
RTVSPost2010PropOp29
 70
     1
102
RTVSPost2010Prop30
280
     1
102
RTVSPost2010PropOp30
 70
     1
102
RTVSPost2010Prop31
280
     0
102
RTVSPost2010PropOp31
 70
     1
102
RTVSPost2010Prop32
280
     0
102
RTVSPost2010PropOp32
 70
     1
102
RTVSPost2010Prop33
280
     0
102
RTVSPost2010PropOp33
 70
     1
102
RTVSPost2010Prop34
280
     0
102
RTVSPost2010PropOp34
 70
     1
102
RTVSPost2010Prop35
280
     0
102
RTVSPost2010PropOp35
 70
     1
102
RTVSPost2010Prop36
280
     0
102
RTVSPost2010PropOp36
 70
     1
102
RTVSPost2010Prop37
 90
       50
102
RTVSPost2010PropOp37
 70
     1
102
RTVSPost2010Prop38
140
0.0
102
RTVSPost2010PropOp38
 70
     1
102
RTVSPost2010Prop39
140
1.0
102
RTVSPost2010PropOp39
 70
     1
102
RTVSPost2010Prop40
 90
        0
102
RTVSPost2010PropOp40
 70
     1
102
RTVSPost2010Prop41ColorIndex
 90
       18
102
RTVSPost2010Prop41ColorRGB
 90
        0
102
RTVSPost2010PropOp41
 70
     1
102
RTVSPost2010Prop42
 90
       50
102
RTVSPost2010PropOp42
 70
     1
102
RTVSPost2010Prop43
 90
        3
102
RTVSPost2010PropOp43
 70
     1
102
RTVSPost2010Prop44ColorIndex
 90
        5
102
RTVSPost2010Prop44ColorRGB
 90
      255
102
RTVSPost2010PropOp44
 70
     1
102
RTVSPost2010Prop45
280
     0
102
RTVSPost2010PropOp45
 70
     1
102
RTVSPost2010Prop46
 90
       50
102
RTVSPost2010PropOp46
 70
     1
102
RTVSPost2010Prop47
 90
       50
102
RTVSPost2010PropOp47
 70
     1
102
RTVSPost2010Prop48
 90
       50
102
RTVSPost2010PropOp48
 70
     1
102
RTVSPost2010Prop49
280
     0
102
RTVSPost2010PropOp49
 70
     1
102
RTVSPost2010Prop50
 90
       50
102
RTVSPost2010PropOp50
 70
     1
102
RTVSPost2010Prop51ColorIndex
 90
      256
102
RTVSPost2010Prop51ColorRGB
 90
-16777216
102
RTVSPost2010PropOp51
 70
     0
102
RTVSPost2010Prop52
140
1.0
102
RTVSPost2010PropOp52
 70
     0
102
RTVSPost2010Prop53
 90
        2
102
RTVSPost2010PropOp53
 70
     1
102
RTVSPost2010Prop54
  1
strokes_ogs.tif
102
RTVSPost2010PropOp54
 70
     1
102
RTVSPost2010Prop55
280
     0
102
RTVSPost2010PropOp55
 70
     1
102
RTVSPost2010Prop56
140
1.0
102
RTVSPost2010PropOp56
 70
     1
102
RTVSPost2010Prop57
140
1.0
102
RTVSPost2010PropOp57
 70
     1
  0
XRECORD
  5
29B
102
{ACAD_REACTORS
330
29A
102
}
330
29A
100
AcDbXrecord
280
     1
102
RTVSPropertyOp0
 70
     1
102
RTVSPropertyOp1
 70
     1
102
RTVSPropertyOp2
 70
     1
102
RTVSPropertyOp3
 70
     1
102
RTVSPropertyOp4
 70
     1
102
RTVSPropertyOp5
 70
     1
102
RTVSPropertyOp6
 70
     1
102
RTVSPropertyOp7
 70
     1
102
RTVSPropertyOp8
 70
     1
102
RTVSPropertyOp9
 70
     1
102
RTVSPropertyOp10
 70
     1
102
RTVSPropertyOp11
 70
     1
102
RTVSPropertyOp12
 70
     1
102
RTVSPropertyOp13
 70
     1
102
RTVSPropertyOp14
 70
     1
102
RTVSPropertyOp15
 70
     1
102
RTVSPropertyOp16
 70
     1
102
RTVSPropertyOp17
 70
     1
102
RTVSPropertyOp18
 70
     1
102
RTVSPropertyOp19
 70
     1
102
RTVSPropertyOp20
 70
     1
102
RTVSPropertyOp21
 70
     1
102
RTVSPropertyOp22
 70
     1
102
RTVSPropertyOp23
 70
     1
102
RTVSPropertyOp24
 70
     1
102
RTVSPropertyOp25
 70
     1
102
RTVSPropertyOp26
 70
     1
102
RTVSPropertyOp27
 70
     1
102
RTVSPropertyOp28
 70
     1
102
RTVSPropertyOp29
 70
     1
102
RTVSPropertyOp30
 70
     1
102
RTVSPropertyOp31
 70
     1
102
RTVSPropertyOp32
 70
     1
102
RTVSPropertyOp33
 70
     1
102
RTVSPropertyOp34
 70
     1
102
RTVSPropertyOp35
 70
     1
102
RTVSPropertyOp36
 70
     1
102
RTVSPropertyOp37
 70
     1
102
RTVSPropertyOp38
 70
     1
102
RTVSPropertyOp39
 70
     1
102
RTVSPropertyOp40
 70
     1
102
RTVSPropertyOp41
 70
     1
102
RTVSPropertyOp42
 70
     1
102
RTVSPropertyOp43
 70
     1
102
RTVSPropertyOp44
 70
     1
102
RTVSPropertyOp45
 70
     1
102
RTVSPropertyOp46
 70
     1
102
RTVSPropertyOp47
 70
     1
102
RTVSPropertyOp48
 70
     1
102
RTVSPropertyOp49
 70
     1
102
RTVSPropertyOp50
 70
     1
102
RTVSPropertyOp51
 70
     0
102
RTVSPropertyOp52
 70
     0
102
RTVSPropertyOp53
 70
     1
102
RTVSPropertyOp54
 70
     1
102
RTVSPropertyOp55
 70
     1
102
RTVSPropertyOp56
 70
     1
102
RTVSPropertyOp57
 70
     1
102
RTVSPost2010Prop28
280
     0
102
RTVSPost2010PropOp28
 70
     1
102
RTVSPost2010Prop29
280
     1
102
RTVSPost2010PropOp29
 70
     1
102
RTVSPost2010Prop30
280
     1
102
RTVSPost2010PropOp30
 70
     1
102
RTVSPost2010Prop31
280
     0
102
RTVSPost2010PropOp31
 70
     1
102
RTVSPost2010Prop32
280
     0
102
RTVSPost2010PropOp32
 70
     1
102
RTVSPost2010Prop33
280
     0
102
RTVSPost2010PropOp33
 70
     1
102
RTVSPost2010Prop34
280
     0
102
RTVSPost2010PropOp34
 70
     1
102
RTVSPost2010Prop35
280
     0
102
RTVSPost2010PropOp35
 70
     1
102
RTVSPost2010Prop36
280
     0
102
RTVSPost2010PropOp36
 70
     1
102
RTVSPost2010Prop37
 90
       50
102
RTVSPost2010PropOp37
 70
     1
102
RTVSPost2010Prop38
140
0.0
102
RTVSPost2010PropOp38
 70
     1
102
RTVSPost2010Prop39
140
1.0
102
RTVSPost2010PropOp39
 70
     1
102
RTVSPost2010Prop40
 90
        0
102
RTVSPost2010PropOp40
 70
     1
102
RTVSPost2010Prop41ColorIndex
 90
       18
102
RTVSPost2010Prop41ColorRGB
 90
        0
102
RTVSPost2010PropOp41
 70
     1
102
RTVSPost2010Prop42
 90
       50
102
RTVSPost2010PropOp42
 70
     1
102
RTVSPost2010Prop43
 90
        3
102
RTVSPost2010PropOp43
 70
     1
102
RTVSPost2010Prop44ColorIndex
 90
        5
102
RTVSPost2010Prop44ColorRGB
 90
      255
102
RTVSPost2010PropOp44
 70
     1
102
RTVSPost2010Prop45
280
     0
102
RTVSPost2010PropOp45
 70
     1
102
RTVSPost2010Prop46
 90
       50
102
RTVSPost2010PropOp46
 70
     1
102
RTVSPost2010Prop47
 90
       50
102
RTVSPost2010PropOp47
 70
     1
102
RTVSPost2010Prop48
 90
       50
102
RTVSPost2010PropOp48
 70
     1
102
RTVSPost2010Prop49
280
     0
102
RTVSPost2010PropOp49
 70
     1
102
RTVSPost2010Prop50
 90
       50
102
RTVSPost2010PropOp50
 70
     1
102
RTVSPost2010Prop51ColorIndex
 90
      256
102
RTVSPost2010Prop51ColorRGB
 90
-16777216
102
RTVSPost2010PropOp51
 70
     0
102
RTVSPost2010Prop52
140
1.0
102
RTVSPost2010PropOp52
 70
     0
102
RTVSPost2010Prop53
 90
        2
102
RTVSPost2010PropOp53
 70
     1
102
RTVSPost2010Prop54
  1
strokes_ogs.tif
102
RTVSPost2010PropOp54
 70
     1
102
RTVSPost2010Prop55
280
     0
102
RTVSPost2010PropOp55
 70
     1
102
RTVSPost2010Prop56
140
1.0
102
RTVSPost2010PropOp56
 70
     1
102
RTVSPost2010Prop57
140
1.0
102
RTVSPost2010PropOp57
 70
     1
  0
XRECORD
  5
2A3
102
{ACAD_REACTORS
330
2A2
102
}
330
2A2
100
AcDbXrecord
280
     1
102
RTVSPropertyOp0
 70
     1
102
RTVSPropertyOp1
 70
     1
102
RTVSPropertyOp2
 70
     1
102
RTVSPropertyOp3
 70
     1
102
RTVSPropertyOp4
 70
     1
102
RTVSPropertyOp5
 70
     1
102
RTVSPropertyOp6
 70
     1
102
RTVSPropertyOp7
 70
     1
102
RTVSPropertyOp8
 70
     1
102
RTVSPropertyOp9
 70
     1
102
RTVSPropertyOp10
 70
     1
102
RTVSPropertyOp11
 70
     1
102
RTVSPropertyOp12
 70
     1
102
RTVSPropertyOp13
 70
     1
102
RTVSPropertyOp14
 70
     1
102
RTVSPropertyOp15
 70
     1
102
RTVSPropertyOp16
 70
     1
102
RTVSPropertyOp17
 70
     1
102
RTVSPropertyOp18
 70
     1
102
RTVSPropertyOp19
 70
     1
102
RTVSPropertyOp20
 70
     1
102
RTVSPropertyOp21
 70
     1
102
RTVSPropertyOp22
 70
     1
102
RTVSPropertyOp23
 70
     1
102
RTVSPropertyOp24
 70
     1
102
RTVSPropertyOp25
 70
     1
102
RTVSPropertyOp26
 70
     1
102
RTVSPropertyOp27
 70
     1
102
RTVSPropertyOp28
 70
     1
102
RTVSPropertyOp29
 70
     1
102
RTVSPropertyOp30
 70
     1
102
RTVSPropertyOp31
 70
     1
102
RTVSPropertyOp32
 70
     1
102
RTVSPropertyOp33
 70
     1
102
RTVSPropertyOp34
 70
     1
102
RTVSPropertyOp35
 70
     1
102
RTVSPropertyOp36
 70
     1
102
RTVSPropertyOp37
 70
     1
102
RTVSPropertyOp38
 70
     1
102
RTVSPropertyOp39
 70
     1
102
RTVSPropertyOp40
 70
     1
102
RTVSPropertyOp41
 70
     1
102
RTVSPropertyOp42
 70
     1
102
RTVSPropertyOp43
 70
     1
102
RTVSPropertyOp44
 70
     1
102
RTVSPropertyOp45
 70
     1
102
RTVSPropertyOp46
 70
     1
102
RTVSPropertyOp47
 70
     1
102
RTVSPropertyOp48
 70
     1
102
RTVSPropertyOp49
 70
     1
102
RTVSPropertyOp50
 70
     1
102
RTVSPropertyOp51
 70
     0
102
RTVSPropertyOp52
 70
     0
102
RTVSPropertyOp53
 70
     1
102
RTVSPropertyOp54
 70
     1
102
RTVSPropertyOp55
 70
     1
102
RTVSPropertyOp56
 70
     1
102
RTVSPropertyOp57
 70
     1
102
RTVSPost2010Prop28
280
     0
102
RTVSPost2010PropOp28
 70
     1
102
RTVSPost2010Prop29
280
     1
102
RTVSPost2010PropOp29
 70
     1
102
RTVSPost2010Prop30
280
     1
102
RTVSPost2010PropOp30
 70
     1
102
RTVSPost2010Prop31
280
     0
102
RTVSPost2010PropOp31
 70
     1
102
RTVSPost2010Prop32
280
     0
102
RTVSPost2010PropOp32
 70
     1
102
RTVSPost2010Prop33
280
     0
102
RTVSPost2010PropOp33
 70
     1
102
RTVSPost2010Prop34
280
     0
102
RTVSPost2010PropOp34
 70
     1
102
RTVSPost2010Prop35
280
     0
102
RTVSPost2010PropOp35
 70
     1
102
RTVSPost2010Prop36
280
     0
102
RTVSPost2010PropOp36
 70
     1
102
RTVSPost2010Prop37
 90
       50
102
RTVSPost2010PropOp37
 70
     1
102
RTVSPost2010Prop38
140
0.0
102
RTVSPost2010PropOp38
 70
     1
102
RTVSPost2010Prop39
140
1.0
102
RTVSPost2010PropOp39
 70
     1
102
RTVSPost2010Prop40
 90
        0
102
RTVSPost2010PropOp40
 70
     1
102
RTVSPost2010Prop41ColorIndex
 90
       18
102
RTVSPost2010Prop41ColorRGB
 90
        0
102
RTVSPost2010PropOp41
 70
     1
102
RTVSPost2010Prop42
 90
       50
102
RTVSPost2010PropOp42
 70
     1
102
RTVSPost2010Prop43
 90
        3
102
RTVSPost2010PropOp43
 70
     1
102
RTVSPost2010Prop44ColorIndex
 90
        5
102
RTVSPost2010Prop44ColorRGB
 90
      255
102
RTVSPost2010PropOp44
 70
     1
102
RTVSPost2010Prop45
280
     0
102
RTVSPost2010PropOp45
 70
     1
102
RTVSPost2010Prop46
 90
       50
102
RTVSPost2010PropOp46
 70
     1
102
RTVSPost2010Prop47
 90
       50
102
RTVSPost2010PropOp47
 70
     1
102
RTVSPost2010Prop48
 90
       50
102
RTVSPost2010PropOp48
 70
     1
102
RTVSPost2010Prop49
280
     0
102
RTVSPost2010PropOp49
 70
     1
102
RTVSPost2010Prop50
 90
       50
102
RTVSPost2010PropOp50
 70
     1
102
RTVSPost2010Prop51ColorIndex
 90
      256
102
RTVSPost2010Prop51ColorRGB
 90
-16777216
102
RTVSPost2010PropOp51
 70
     0
102
RTVSPost2010Prop52
140
1.0
102
RTVSPost2010PropOp52
 70
     0
102
RTVSPost2010Prop53
 90
        2
102
RTVSPost2010PropOp53
 70
     1
102
RTVSPost2010Prop54
  1
strokes_ogs.tif
102
RTVSPost2010PropOp54
 70
     1
102
RTVSPost2010Prop55
280
     0
102
RTVSPost2010PropOp55
 70
     1
102
RTVSPost2010Prop56
140
1.0
102
RTVSPost2010PropOp56
 70
     1
102
RTVSPost2010Prop57
140
1.0
102
RTVSPost2010PropOp57
 70
     1
  0
XRECORD
  5
297
102
{ACAD_REACTORS
330
296
102
}
330
296
100
AcDbXrecord
280
     1
102
RTVSPropertyOp0
 70
     1
102
RTVSPropertyOp1
 70
     1
102
RTVSPropertyOp2
 70
     1
102
RTVSPropertyOp3
 70
     1
102
RTVSPropertyOp4
 70
     1
102
RTVSPropertyOp5
 70
     1
102
RTVSPropertyOp6
 70
     1
102
RTVSPropertyOp7
 70
     1
102
RTVSPropertyOp8
 70
     1
102
RTVSPropertyOp9
 70
     1
102
RTVSPropertyOp10
 70
     1
102
RTVSPropertyOp11
 70
     1
102
RTVSPropertyOp12
 70
     1
102
RTVSPropertyOp13
 70
     1
102
RTVSPropertyOp14
 70
     1
102
RTVSPropertyOp15
 70
     1
102
RTVSPropertyOp16
 70
     1
102
RTVSPropertyOp17
 70
     1
102
RTVSPropertyOp18
 70
     1
102
RTVSPropertyOp19
 70
     1
102
RTVSPropertyOp20
 70
     1
102
RTVSPropertyOp21
 70
     1
102
RTVSPropertyOp22
 70
     1
102
RTVSPropertyOp23
 70
     1
102
RTVSPropertyOp24
 70
     1
102
RTVSPropertyOp25
 70
     1
102
RTVSPropertyOp26
 70
     1
102
RTVSPropertyOp27
 70
     1
102
RTVSPropertyOp28
 70
     1
102
RTVSPropertyOp29
 70
     1
102
RTVSPropertyOp30
 70
     1
102
RTVSPropertyOp31
 70
     1
102
RTVSPropertyOp32
 70
     1
102
RTVSPropertyOp33
 70
     1
102
RTVSPropertyOp34
 70
     1
102
RTVSPropertyOp35
 70
     1
102
RTVSPropertyOp36
 70
     1
102
RTVSPropertyOp37
 70
     1
102
RTVSPropertyOp38
 70
     1
102
RTVSPropertyOp39
 70
     1
102
RTVSPropertyOp40
 70
     1
102
RTVSPropertyOp41
 70
     1
102
RTVSPropertyOp42
 70
     1
102
RTVSPropertyOp43
 70
     1
102
RTVSPropertyOp44
 70
     1
102
RTVSPropertyOp45
 70
     1
102
RTVSPropertyOp46
 70
     1
102
RTVSPropertyOp47
 70
     1
102
RTVSPropertyOp48
 70
     1
102
RTVSPropertyOp49
 70
     1
102
RTVSPropertyOp50
 70
     1
102
RTVSPropertyOp51
 70
     0
102
RTVSPropertyOp52
 70
     0
102
RTVSPropertyOp53
 70
     1
102
RTVSPropertyOp54
 70
     1
102
RTVSPropertyOp55
 70
     1
102
RTVSPropertyOp56
 70
     1
102
RTVSPropertyOp57
 70
     1
102
RTVSPost2010Prop28
280
     0
102
RTVSPost2010PropOp28
 70
     1
102
RTVSPost2010Prop29
280
     1
102
RTVSPost2010PropOp29
 70
     1
102
RTVSPost2010Prop30
280
     1
102
RTVSPost2010PropOp30
 70
     1
102
RTVSPost2010Prop31
280
     0
102
RTVSPost2010PropOp31
 70
     1
102
RTVSPost2010Prop32
280
     0
102
RTVSPost2010PropOp32
 70
     1
102
RTVSPost2010Prop33
280
     0
102
RTVSPost2010PropOp33
 70
     1
102
RTVSPost2010Prop34
280
     0
102
RTVSPost2010PropOp34
 70
     1
102
RTVSPost2010Prop35
280
     0
102
RTVSPost2010PropOp35
 70
     1
102
RTVSPost2010Prop36
280
     0
102
RTVSPost2010PropOp36
 70
     1
102
RTVSPost2010Prop37
 90
       50
102
RTVSPost2010PropOp37
 70
     1
102
RTVSPost2010Prop38
140
0.0
102
RTVSPost2010PropOp38
 70
     1
102
RTVSPost2010Prop39
140
1.0
102
RTVSPost2010PropOp39
 70
     1
102
RTVSPost2010Prop40
 90
        0
102
RTVSPost2010PropOp40
 70
     1
102
RTVSPost2010Prop41ColorIndex
 90
       18
102
RTVSPost2010Prop41ColorRGB
 90
        0
102
RTVSPost2010PropOp41
 70
     1
102
RTVSPost2010Prop42
 90
       50
102
RTVSPost2010PropOp42
 70
     1
102
RTVSPost2010Prop43
 90
        3
102
RTVSPost2010PropOp43
 70
     1
102
RTVSPost2010Prop44ColorIndex
 90
        5
102
RTVSPost2010Prop44ColorRGB
 90
      255
102
RTVSPost2010PropOp44
 70
     1
102
RTVSPost2010Prop45
280
     0
102
RTVSPost2010PropOp45
 70
     1
102
RTVSPost2010Prop46
 90
       50
102
RTVSPost2010PropOp46
 70
     1
102
RTVSPost2010Prop47
 90
       50
102
RTVSPost2010PropOp47
 70
     1
102
RTVSPost2010Prop48
 90
       50
102
RTVSPost2010PropOp48
 70
     1
102
RTVSPost2010Prop49
280
     0
102
RTVSPost2010PropOp49
 70
     1
102
RTVSPost2010Prop50
 90
       50
102
RTVSPost2010PropOp50
 70
     1
102
RTVSPost2010Prop51ColorIndex
 90
      256
102
RTVSPost2010Prop51ColorRGB
 90
-16777216
102
RTVSPost2010PropOp51
 70
     0
102
RTVSPost2010Prop52
140
1.0
102
RTVSPost2010PropOp52
 70
     0
102
RTVSPost2010Prop53
 90
        2
102
RTVSPost2010PropOp53
 70
     1
102
RTVSPost2010Prop54
  1
strokes_ogs.tif
102
RTVSPost2010PropOp54
 70
     1
102
RTVSPost2010Prop55
280
     0
102
RTVSPost2010PropOp55
 70
     1
102
RTVSPost2010Prop56
140
1.0
102
RTVSPost2010PropOp56
 70
     1
102
RTVSPost2010Prop57
140
1.0
102
RTVSPost2010PropOp57
 70
     1
  0
XRECORD
  5
299
102
{ACAD_REACTORS
330
298
102
}
330
298
100
AcDbXrecord
280
     1
102
RTVSPropertyOp0
 70
     1
102
RTVSPropertyOp1
 70
     1
102
RTVSPropertyOp2
 70
     1
102
RTVSPropertyOp3
 70
     1
102
RTVSPropertyOp4
 70
     1
102
RTVSPropertyOp5
 70
     1
102
RTVSPropertyOp6
 70
     1
102
RTVSPropertyOp7
 70
     1
102
RTVSPropertyOp8
 70
     1
102
RTVSPropertyOp9
 70
     1
102
RTVSPropertyOp10
 70
     1
102
RTVSPropertyOp11
 70
     1
102
RTVSPropertyOp12
 70
     1
102
RTVSPropertyOp13
 70
     1
102
RTVSPropertyOp14
 70
     1
102
RTVSPropertyOp15
 70
     1
102
RTVSPropertyOp16
 70
     1
102
RTVSPropertyOp17
 70
     1
102
RTVSPropertyOp18
 70
     1
102
RTVSPropertyOp19
 70
     1
102
RTVSPropertyOp20
 70
     1
102
RTVSPropertyOp21
 70
     1
102
RTVSPropertyOp22
 70
     1
102
RTVSPropertyOp23
 70
     1
102
RTVSPropertyOp24
 70
     1
102
RTVSPropertyOp25
 70
     1
102
RTVSPropertyOp26
 70
     1
102
RTVSPropertyOp27
 70
     1
102
RTVSPropertyOp28
 70
     1
102
RTVSPropertyOp29
 70
     1
102
RTVSPropertyOp30
 70
     1
102
RTVSPropertyOp31
 70
     1
102
RTVSPropertyOp32
 70
     1
102
RTVSPropertyOp33
 70
     1
102
RTVSPropertyOp34
 70
     1
102
RTVSPropertyOp35
 70
     1
102
RTVSPropertyOp36
 70
     1
102
RTVSPropertyOp37
 70
     1
102
RTVSPropertyOp38
 70
     1
102
RTVSPropertyOp39
 70
     1
102
RTVSPropertyOp40
 70
     1
102
RTVSPropertyOp41
 70
     1
102
RTVSPropertyOp42
 70
     1
102
RTVSPropertyOp43
 70
     1
102
RTVSPropertyOp44
 70
     1
102
RTVSPropertyOp45
 70
     1
102
RTVSPropertyOp46
 70
     1
102
RTVSPropertyOp47
 70
     1
102
RTVSPropertyOp48
 70
     1
102
RTVSPropertyOp49
 70
     1
102
RTVSPropertyOp50
 70
     1
102
RTVSPropertyOp51
 70
     0
102
RTVSPropertyOp52
 70
     0
102
RTVSPropertyOp53
 70
     1
102
RTVSPropertyOp54
 70
     1
102
RTVSPropertyOp55
 70
     1
102
RTVSPropertyOp56
 70
     1
102
RTVSPropertyOp57
 70
     1
102
RTVSPost2010Prop28
280
     0
102
RTVSPost2010PropOp28
 70
     1
102
RTVSPost2010Prop29
280
     1
102
RTVSPost2010PropOp29
 70
     1
102
RTVSPost2010Prop30
280
     1
102
RTVSPost2010PropOp30
 70
     1
102
RTVSPost2010Prop31
280
     0
102
RTVSPost2010PropOp31
 70
     1
102
RTVSPost2010Prop32
280
     0
102
RTVSPost2010PropOp32
 70
     1
102
RTVSPost2010Prop33
280
     0
102
RTVSPost2010PropOp33
 70
     1
102
RTVSPost2010Prop34
280
     0
102
RTVSPost2010PropOp34
 70
     1
102
RTVSPost2010Prop35
280
     0
102
RTVSPost2010PropOp35
 70
     1
102
RTVSPost2010Prop36
280
     0
102
RTVSPost2010PropOp36
 70
     1
102
RTVSPost2010Prop37
 90
       50
102
RTVSPost2010PropOp37
 70
     1
102
RTVSPost2010Prop38
140
0.0
102
RTVSPost2010PropOp38
 70
     1
102
RTVSPost2010Prop39
140
1.0
102
RTVSPost2010PropOp39
 70
     1
102
RTVSPost2010Prop40
 90
        0
102
RTVSPost2010PropOp40
 70
     1
102
RTVSPost2010Prop41ColorIndex
 90
       18
102
RTVSPost2010Prop41ColorRGB
 90
        0
102
RTVSPost2010PropOp41
 70
     1
102
RTVSPost2010Prop42
 90
       50
102
RTVSPost2010PropOp42
 70
     1
102
RTVSPost2010Prop43
 90
        3
102
RTVSPost2010PropOp43
 70
     1
102
RTVSPost2010Prop44ColorIndex
 90
        5
102
RTVSPost2010Prop44ColorRGB
 90
      255
102
RTVSPost2010PropOp44
 70
     1
102
RTVSPost2010Prop45
280
     0
102
RTVSPost2010PropOp45
 70
     1
102
RTVSPost2010Prop46
 90
       50
102
RTVSPost2010PropOp46
 70
     1
102
RTVSPost2010Prop47
 90
       50
102
RTVSPost2010PropOp47
 70
     1
102
RTVSPost2010Prop48
 90
       50
102
RTVSPost2010PropOp48
 70
     1
102
RTVSPost2010Prop49
280
     0
102
RTVSPost2010PropOp49
 70
     1
102
RTVSPost2010Prop50
 90
       50
102
RTVSPost2010PropOp50
 70
     1
102
RTVSPost2010Prop51ColorIndex
 90
      256
102
RTVSPost2010Prop51ColorRGB
 90
-16777216
102
RTVSPost2010PropOp51
 70
     0
102
RTVSPost2010Prop52
140
1.0
102
RTVSPost2010PropOp52
 70
     0
102
RTVSPost2010Prop53
 90
        2
102
RTVSPost2010PropOp53
 70
     1
102
RTVSPost2010Prop54
  1
strokes_ogs.tif
102
RTVSPost2010PropOp54
 70
     1
102
RTVSPost2010Prop55
280
     0
102
RTVSPost2010PropOp55
 70
     1
102
RTVSPost2010Prop56
140
1.0
102
RTVSPost2010PropOp56
 70
     1
102
RTVSPost2010Prop57
140
1.0
102
RTVSPost2010PropOp57
 70
     1
  0
XRECORD
  5
2A9
102
{ACAD_REACTORS
330
2A8
102
}
330
2A8
100
AcDbXrecord
280
     1
102
RTVSPropertyOp0
 70
     0
102
RTVSPropertyOp1
 70
     0
102
RTVSPropertyOp2
 70
     0
102
RTVSPropertyOp3
 70
     0
102
RTVSPropertyOp4
 70
     0
102
RTVSPropertyOp5
 70
     0
102
RTVSPropertyOp6
 70
     0
102
RTVSPropertyOp7
 70
     0
102
RTVSPropertyOp8
 70
     0
102
RTVSPropertyOp9
 70
     0
102
RTVSPropertyOp10
 70
     0
102
RTVSPropertyOp11
 70
     0
102
RTVSPropertyOp12
 70
     0
102
RTVSPropertyOp13
 70
     0
102
RTVSPropertyOp14
 70
     2
102
RTVSPropertyOp15
 70
     0
102
RTVSPropertyOp16
 70
     0
102
RTVSPropertyOp17
 70
     0
102
RTVSPropertyOp18
 70
     0
102
RTVSPropertyOp19
 70
     0
102
RTVSPropertyOp20
 70
     0
102
RTVSPropertyOp21
 70
     0
102
RTVSPropertyOp22
 70
     0
102
RTVSPropertyOp23
 70
     0
102
RTVSPropertyOp24
 70
     0
102
RTVSPropertyOp25
 70
     0
102
RTVSPropertyOp26
 70
     0
102
RTVSPropertyOp27
 70
     0
102
RTVSPropertyOp28
 70
     0
102
RTVSPropertyOp29
 70
     0
102
RTVSPropertyOp30
 70
     0
102
RTVSPropertyOp31
 70
     0
102
RTVSPropertyOp32
 70
     0
102
RTVSPropertyOp33
 70
     0
102
RTVSPropertyOp34
 70
     0
102
RTVSPropertyOp35
 70
     0
102
RTVSPropertyOp36
 70
     0
102
RTVSPropertyOp37
 70
     0
102
RTVSPropertyOp38
 70
     0
102
RTVSPropertyOp39
 70
     0
102
RTVSPropertyOp40
 70
     0
102
RTVSPropertyOp41
 70
     0
102
RTVSPropertyOp42
 70
     0
102
RTVSPropertyOp43
 70
     0
102
RTVSPropertyOp44
 70
     0
102
RTVSPropertyOp45
 70
     0
102
RTVSPropertyOp46
 70
     0
102
RTVSPropertyOp47
 70
     0
102
RTVSPropertyOp48
 70
     0
102
RTVSPropertyOp49
 70
     0
102
RTVSPropertyOp50
 70
     0
102
RTVSPropertyOp51
 70
     0
102
RTVSPropertyOp52
 70
     0
102
RTVSPropertyOp53
 70
     0
102
RTVSPropertyOp54
 70
     0
102
RTVSPropertyOp55
 70
     0
102
RTVSPropertyOp56
 70
     0
102
RTVSPropertyOp57
 70
     0
102
RTVSPost2010Prop28
280
     0
102
RTVSPost2010PropOp28
 70
     0
102
RTVSPost2010Prop29
280
     1
102
RTVSPost2010PropOp29
 70
     0
102
RTVSPost2010Prop30
280
     1
102
RTVSPost2010PropOp30
 70
     0
102
RTVSPost2010Prop31
280
     0
102
RTVSPost2010PropOp31
 70
     0
102
RTVSPost2010Prop32
280
     0
102
RTVSPost2010PropOp32
 70
     0
102
RTVSPost2010Prop33
280
     0
102
RTVSPost2010PropOp33
 70
     0
102
RTVSPost2010Prop34
280
     0
102
RTVSPost2010PropOp34
 70
     0
102
RTVSPost2010Prop35
280
     0
102
RTVSPost2010PropOp35
 70
     0
102
RTVSPost2010Prop36
280
     0
102
RTVSPost2010PropOp36
 70
     0
102
RTVSPost2010Prop37
 90
       50
102
RTVSPost2010PropOp37
 70
     0
102
RTVSPost2010Prop38
140
0.0
102
RTVSPost2010PropOp38
 70
     0
102
RTVSPost2010Prop39
140
1.0
102
RTVSPost2010PropOp39
 70
     0
102
RTVSPost2010Prop40
 90
        0
102
RTVSPost2010PropOp40
 70
     0
102
RTVSPost2010Prop41ColorIndex
 90
       18
102
RTVSPost2010Prop41ColorRGB
 90
        0
102
RTVSPost2010PropOp41
 70
     0
102
RTVSPost2010Prop42
 90
       50
102
RTVSPost2010PropOp42
 70
     0
102
RTVSPost2010Prop43
 90
        3
102
RTVSPost2010PropOp43
 70
     0
102
RTVSPost2010Prop44ColorIndex
 90
        5
102
RTVSPost2010Prop44ColorRGB
 90
      255
102
RTVSPost2010PropOp44
 70
     0
102
RTVSPost2010Prop45
280
     0
102
RTVSPost2010PropOp45
 70
     0
102
RTVSPost2010Prop46
 90
       50
102
RTVSPost2010PropOp46
 70
     0
102
RTVSPost2010Prop47
 90
       50
102
RTVSPost2010PropOp47
 70
     0
102
RTVSPost2010Prop48
 90
       50
102
RTVSPost2010PropOp48
 70
     0
102
RTVSPost2010Prop49
280
     0
102
RTVSPost2010PropOp49
 70
     0
102
RTVSPost2010Prop50
 90
       50
102
RTVSPost2010PropOp50
 70
     0
102
RTVSPost2010Prop51ColorIndex
 90
      256
102
RTVSPost2010Prop51ColorRGB
 90
-16777216
102
RTVSPost2010PropOp51
 70
     0
102
RTVSPost2010Prop52
140
1.0
102
RTVSPost2010PropOp52
 70
     0
102
RTVSPost2010Prop53
 90
        2
102
RTVSPost2010PropOp53
 70
     0
102
RTVSPost2010Prop54
  1
strokes_ogs.tif
102
RTVSPost2010PropOp54
 70
     0
102
RTVSPost2010Prop55
280
     0
102
RTVSPost2010PropOp55
 70
     0
102
RTVSPost2010Prop56
140
1.0
102
RTVSPost2010PropOp56
 70
     0
102
RTVSPost2010Prop57
140
1.0
102
RTVSPost2010PropOp57
 70
     0
  0
XRECORD
  5
2A1
102
{ACAD_REACTORS
330
2A0
102
}
330
2A0
100
AcDbXrecord
280
     1
102
RTVSPropertyOp0
 70
     1
102
RTVSPropertyOp1
 70
     1
102
RTVSPropertyOp2
 70
     1
102
RTVSPropertyOp3
 70
     1
102
RTVSPropertyOp4
 70
     1
102
RTVSPropertyOp5
 70
     1
102
RTVSPropertyOp6
 70
     1
102
RTVSPropertyOp7
 70
     1
102
RTVSPropertyOp8
 70
     1
102
RTVSPropertyOp9
 70
     1
102
RTVSPropertyOp10
 70
     1
102
RTVSPropertyOp11
 70
     1
102
RTVSPropertyOp12
 70
     1
102
RTVSPropertyOp13
 70
     1
102
RTVSPropertyOp14
 70
     1
102
RTVSPropertyOp15
 70
     1
102
RTVSPropertyOp16
 70
     1
102
RTVSPropertyOp17
 70
     1
102
RTVSPropertyOp18
 70
     1
102
RTVSPropertyOp19
 70
     1
102
RTVSPropertyOp20
 70
     1
102
RTVSPropertyOp21
 70
     1
102
RTVSPropertyOp22
 70
     1
102
RTVSPropertyOp23
 70
     1
102
RTVSPropertyOp24
 70
     1
102
RTVSPropertyOp25
 70
     1
102
RTVSPropertyOp26
 70
     1
102
RTVSPropertyOp27
 70
     1
102
RTVSPropertyOp28
 70
     1
102
RTVSPropertyOp29
 70
     1
102
RTVSPropertyOp30
 70
     1
102
RTVSPropertyOp31
 70
     1
102
RTVSPropertyOp32
 70
     1
102
RTVSPropertyOp33
 70
     1
102
RTVSPropertyOp34
 70
     1
102
RTVSPropertyOp35
 70
     1
102
RTVSPropertyOp36
 70
     1
102
RTVSPropertyOp37
 70
     1
102
RTVSPropertyOp38
 70
     1
102
RTVSPropertyOp39
 70
     1
102
RTVSPropertyOp40
 70
     1
102
RTVSPropertyOp41
 70
     1
102
RTVSPropertyOp42
 70
     1
102
RTVSPropertyOp43
 70
     1
102
RTVSPropertyOp44
 70
     1
102
RTVSPropertyOp45
 70
     1
102
RTVSPropertyOp46
 70
     1
102
RTVSPropertyOp47
 70
     1
102
RTVSPropertyOp48
 70
     1
102
RTVSPropertyOp49
 70
     1
102
RTVSPropertyOp50
 70
     1
102
RTVSPropertyOp51
 70
     0
102
RTVSPropertyOp52
 70
     0
102
RTVSPropertyOp53
 70
     1
102
RTVSPropertyOp54
 70
     1
102
RTVSPropertyOp55
 70
     1
102
RTVSPropertyOp56
 70
     1
102
RTVSPropertyOp57
 70
     1
102
RTVSPost2010Prop28
280
     0
102
RTVSPost2010PropOp28
 70
     1
102
RTVSPost2010Prop29
280
     1
102
RTVSPost2010PropOp29
 70
     1
102
RTVSPost2010Prop30
280
     1
102
RTVSPost2010PropOp30
 70
     1
102
RTVSPost2010Prop31
280
     0
102
RTVSPost2010PropOp31
 70
     1
102
RTVSPost2010Prop32
280
     0
102
RTVSPost2010PropOp32
 70
     1
102
RTVSPost2010Prop33
280
     0
102
RTVSPost2010PropOp33
 70
     1
102
RTVSPost2010Prop34
280
     0
102
RTVSPost2010PropOp34
 70
     1
102
RTVSPost2010Prop35
280
     0
102
RTVSPost2010PropOp35
 70
     1
102
RTVSPost2010Prop36
280
     0
102
RTVSPost2010PropOp36
 70
     1
102
RTVSPost2010Prop37
 90
       50
102
RTVSPost2010PropOp37
 70
     1
102
RTVSPost2010Prop38
140
0.0
102
RTVSPost2010PropOp38
 70
     1
102
RTVSPost2010Prop39
140
1.0
102
RTVSPost2010PropOp39
 70
     1
102
RTVSPost2010Prop40
 90
        0
102
RTVSPost2010PropOp40
 70
     1
102
RTVSPost2010Prop41ColorIndex
 90
       18
102
RTVSPost2010Prop41ColorRGB
 90
        0
102
RTVSPost2010PropOp41
 70
     1
102
RTVSPost2010Prop42
 90
       50
102
RTVSPost2010PropOp42
 70
     1
102
RTVSPost2010Prop43
 90
        3
102
RTVSPost2010PropOp43
 70
     1
102
RTVSPost2010Prop44ColorIndex
 90
        5
102
RTVSPost2010Prop44ColorRGB
 90
      255
102
RTVSPost2010PropOp44
 70
     1
102
RTVSPost2010Prop45
280
     0
102
RTVSPost2010PropOp45
 70
     1
102
RTVSPost2010Prop46
 90
       50
102
RTVSPost2010PropOp46
 70
     1
102
RTVSPost2010Prop47
 90
       50
102
RTVSPost2010PropOp47
 70
     1
102
RTVSPost2010Prop48
 90
       50
102
RTVSPost2010PropOp48
 70
     1
102
RTVSPost2010Prop49
280
     0
102
RTVSPost2010PropOp49
 70
     1
102
RTVSPost2010Prop50
 90
       50
102
RTVSPost2010PropOp50
 70
     1
102
RTVSPost2010Prop51ColorIndex
 90
      256
102
RTVSPost2010Prop51ColorRGB
 90
-16777216
102
RTVSPost2010PropOp51
 70
     0
102
RTVSPost2010Prop52
140
1.0
102
RTVSPost2010PropOp52
 70
     0
102
RTVSPost2010Prop53
 90
        2
102
RTVSPost2010PropOp53
 70
     1
102
RTVSPost2010Prop54
  1
strokes_ogs.tif
102
RTVSPost2010PropOp54
 70
     1
102
RTVSPost2010Prop55
280
     0
102
RTVSPost2010PropOp55
 70
     1
102
RTVSPost2010Prop56
140
1.0
102
RTVSPost2010PropOp56
 70
     1
102
RTVSPost2010Prop57
140
1.0
102
RTVSPost2010PropOp57
 70
     1
  0
XRECORD
  5
285
102
{ACAD_REACTORS
330
284
102
}
330
284
100
AcDbXrecord
280
     1
102
RTVSPropertyOp0
 70
     1
102
RTVSPropertyOp1
 70
     1
102
RTVSPropertyOp2
 70
     1
102
RTVSPropertyOp3
 70
     1
102
RTVSPropertyOp4
 70
     1
102
RTVSPropertyOp5
 70
     1
102
RTVSPropertyOp6
 70
     1
102
RTVSPropertyOp7
 70
     1
102
RTVSPropertyOp8
 70
     1
102
RTVSPropertyOp9
 70
     1
102
RTVSPropertyOp10
 70
     1
102
RTVSPropertyOp11
 70
     1
102
RTVSPropertyOp12
 70
     1
102
RTVSPropertyOp13
 70
     1
102
RTVSPropertyOp14
 70
     1
102
RTVSPropertyOp15
 70
     1
102
RTVSPropertyOp16
 70
     1
102
RTVSPropertyOp17
 70
     1
102
RTVSPropertyOp18
 70
     1
102
RTVSPropertyOp19
 70
     1
102
RTVSPropertyOp20
 70
     1
102
RTVSPropertyOp21
 70
     1
102
RTVSPropertyOp22
 70
     1
102
RTVSPropertyOp23
 70
     1
102
RTVSPropertyOp24
 70
     1
102
RTVSPropertyOp25
 70
     1
102
RTVSPropertyOp26
 70
     1
102
RTVSPropertyOp27
 70
     1
102
RTVSPropertyOp28
 70
     1
102
RTVSPropertyOp29
 70
     1
102
RTVSPropertyOp30
 70
     1
102
RTVSPropertyOp31
 70
     1
102
RTVSPropertyOp32
 70
     1
102
RTVSPropertyOp33
 70
     1
102
RTVSPropertyOp34
 70
     1
102
RTVSPropertyOp35
 70
     1
102
RTVSPropertyOp36
 70
     1
102
RTVSPropertyOp37
 70
     1
102
RTVSPropertyOp38
 70
     1
102
RTVSPropertyOp39
 70
     1
102
RTVSPropertyOp40
 70
     1
102
RTVSPropertyOp41
 70
     1
102
RTVSPropertyOp42
 70
     1
102
RTVSPropertyOp43
 70
     1
102
RTVSPropertyOp44
 70
     1
102
RTVSPropertyOp45
 70
     1
102
RTVSPropertyOp46
 70
     1
102
RTVSPropertyOp47
 70
     1
102
RTVSPropertyOp48
 70
     1
102
RTVSPropertyOp49
 70
     1
102
RTVSPropertyOp50
 70
     1
102
RTVSPropertyOp51
 70
     0
102
RTVSPropertyOp52
 70
     0
102
RTVSPropertyOp53
 70
     1
102
RTVSPropertyOp54
 70
     1
102
RTVSPropertyOp55
 70
     1
102
RTVSPropertyOp56
 70
     1
102
RTVSPropertyOp57
 70
     1
102
RTVSPost2010Prop28
280
     0
102
RTVSPost2010PropOp28
 70
     1
102
RTVSPost2010Prop29
280
     1
102
RTVSPost2010PropOp29
 70
     1
102
RTVSPost2010Prop30
280
     1
102
RTVSPost2010PropOp30
 70
     1
102
RTVSPost2010Prop31
280
     0
102
RTVSPost2010PropOp31
 70
     1
102
RTVSPost2010Prop32
280
     0
102
RTVSPost2010PropOp32
 70
     1
102
RTVSPost2010Prop33
280
     0
102
RTVSPost2010PropOp33
 70
     1
102
RTVSPost2010Prop34
280
     0
102
RTVSPost2010PropOp34
 70
     1
102
RTVSPost2010Prop35
280
     0
102
RTVSPost2010PropOp35
 70
     1
102
RTVSPost2010Prop36
280
     0
102
RTVSPost2010PropOp36
 70
     1
102
RTVSPost2010Prop37
 90
       50
102
RTVSPost2010PropOp37
 70
     1
102
RTVSPost2010Prop38
140
0.0
102
RTVSPost2010PropOp38
 70
     1
102
RTVSPost2010Prop39
140
1.0
102
RTVSPost2010PropOp39
 70
     1
102
RTVSPost2010Prop40
 90
        0
102
RTVSPost2010PropOp40
 70
     1
102
RTVSPost2010Prop41ColorIndex
 90
       18
102
RTVSPost2010Prop41ColorRGB
 90
        0
102
RTVSPost2010PropOp41
 70
     1
102
RTVSPost2010Prop42
 90
       50
102
RTVSPost2010PropOp42
 70
     1
102
RTVSPost2010Prop43
 90
        3
102
RTVSPost2010PropOp43
 70
     1
102
RTVSPost2010Prop44ColorIndex
 90
        5
102
RTVSPost2010Prop44ColorRGB
 90
      255
102
RTVSPost2010PropOp44
 70
     1
102
RTVSPost2010Prop45
280
     0
102
RTVSPost2010PropOp45
 70
     1
102
RTVSPost2010Prop46
 90
       50
102
RTVSPost2010PropOp46
 70
     1
102
RTVSPost2010Prop47
 90
       50
102
RTVSPost2010PropOp47
 70
     1
102
RTVSPost2010Prop48
 90
       50
102
RTVSPost2010PropOp48
 70
     1
102
RTVSPost2010Prop49
280
     0
102
RTVSPost2010PropOp49
 70
     1
102
RTVSPost2010Prop50
 90
       50
102
RTVSPost2010PropOp50
 70
     1
102
RTVSPost2010Prop51ColorIndex
 90
      256
102
RTVSPost2010Prop51ColorRGB
 90
-16777216
102
RTVSPost2010PropOp51
 70
     0
102
RTVSPost2010Prop52
140
1.0
102
RTVSPost2010PropOp52
 70
     0
102
RTVSPost2010Prop53
 90
        2
102
RTVSPost2010PropOp53
 70
     1
102
RTVSPost2010Prop54
  1
strokes_ogs.tif
102
RTVSPost2010PropOp54
 70
     1
102
RTVSPost2010Prop55
280
     0
102
RTVSPost2010PropOp55
 70
     1
102
RTVSPost2010Prop56
140
1.0
102
RTVSPost2010PropOp56
 70
     1
102
RTVSPost2010Prop57
140
1.0
102
RTVSPost2010PropOp57
 70
     1
  0
XRECORD
  5
287
102
{ACAD_REACTORS
330
286
102
}
330
286
100
AcDbXrecord
280
     1
102
RTVSPropertyOp0
 70
     1
102
RTVSPropertyOp1
 70
     1
102
RTVSPropertyOp2
 70
     1
102
RTVSPropertyOp3
 70
     1
102
RTVSPropertyOp4
 70
     1
102
RTVSPropertyOp5
 70
     1
102
RTVSPropertyOp6
 70
     1
102
RTVSPropertyOp7
 70
     1
102
RTVSPropertyOp8
 70
     1
102
RTVSPropertyOp9
 70
     1
102
RTVSPropertyOp10
 70
     1
102
RTVSPropertyOp11
 70
     1
102
RTVSPropertyOp12
 70
     1
102
RTVSPropertyOp13
 70
     1
102
RTVSPropertyOp14
 70
     1
102
RTVSPropertyOp15
 70
     1
102
RTVSPropertyOp16
 70
     1
102
RTVSPropertyOp17
 70
     1
102
RTVSPropertyOp18
 70
     1
102
RTVSPropertyOp19
 70
     1
102
RTVSPropertyOp20
 70
     1
102
RTVSPropertyOp21
 70
     1
102
RTVSPropertyOp22
 70
     1
102
RTVSPropertyOp23
 70
     1
102
RTVSPropertyOp24
 70
     1
102
RTVSPropertyOp25
 70
     1
102
RTVSPropertyOp26
 70
     1
102
RTVSPropertyOp27
 70
     1
102
RTVSPropertyOp28
 70
     1
102
RTVSPropertyOp29
 70
     1
102
RTVSPropertyOp30
 70
     1
102
RTVSPropertyOp31
 70
     1
102
RTVSPropertyOp32
 70
     1
102
RTVSPropertyOp33
 70
     1
102
RTVSPropertyOp34
 70
     1
102
RTVSPropertyOp35
 70
     1
102
RTVSPropertyOp36
 70
     1
102
RTVSPropertyOp37
 70
     1
102
RTVSPropertyOp38
 70
     1
102
RTVSPropertyOp39
 70
     1
102
RTVSPropertyOp40
 70
     1
102
RTVSPropertyOp41
 70
     1
102
RTVSPropertyOp42
 70
     1
102
RTVSPropertyOp43
 70
     1
102
RTVSPropertyOp44
 70
     1
102
RTVSPropertyOp45
 70
     1
102
RTVSPropertyOp46
 70
     1
102
RTVSPropertyOp47
 70
     1
102
RTVSPropertyOp48
 70
     1
102
RTVSPropertyOp49
 70
     1
102
RTVSPropertyOp50
 70
     1
102
RTVSPropertyOp51
 70
     0
102
RTVSPropertyOp52
 70
     0
102
RTVSPropertyOp53
 70
     1
102
RTVSPropertyOp54
 70
     1
102
RTVSPropertyOp55
 70
     1
102
RTVSPropertyOp56
 70
     1
102
RTVSPropertyOp57
 70
     1
102
RTVSPost2010Prop28
280
     0
102
RTVSPost2010PropOp28
 70
     1
102
RTVSPost2010Prop29
280
     1
102
RTVSPost2010PropOp29
 70
     1
102
RTVSPost2010Prop30
280
     1
102
RTVSPost2010PropOp30
 70
     1
102
RTVSPost2010Prop31
280
     0
102
RTVSPost2010PropOp31
 70
     1
102
RTVSPost2010Prop32
280
     0
102
RTVSPost2010PropOp32
 70
     1
102
RTVSPost2010Prop33
280
     0
102
RTVSPost2010PropOp33
 70
     1
102
RTVSPost2010Prop34
280
     0
102
RTVSPost2010PropOp34
 70
     1
102
RTVSPost2010Prop35
280
     0
102
RTVSPost2010PropOp35
 70
     1
102
RTVSPost2010Prop36
280
     0
102
RTVSPost2010PropOp36
 70
     1
102
RTVSPost2010Prop37
 90
       50
102
RTVSPost2010PropOp37
 70
     1
102
RTVSPost2010Prop38
140
0.0
102
RTVSPost2010PropOp38
 70
     1
102
RTVSPost2010Prop39
140
1.0
102
RTVSPost2010PropOp39
 70
     1
102
RTVSPost2010Prop40
 90
        0
102
RTVSPost2010PropOp40
 70
     1
102
RTVSPost2010Prop41ColorIndex
 90
       18
102
RTVSPost2010Prop41ColorRGB
 90
        0
102
RTVSPost2010PropOp41
 70
     1
102
RTVSPost2010Prop42
 90
       50
102
RTVSPost2010PropOp42
 70
     1
102
RTVSPost2010Prop43
 90
        3
102
RTVSPost2010PropOp43
 70
     1
102
RTVSPost2010Prop44ColorIndex
 90
        5
102
RTVSPost2010Prop44ColorRGB
 90
      255
102
RTVSPost2010PropOp44
 70
     1
102
RTVSPost2010Prop45
280
     0
102
RTVSPost2010PropOp45
 70
     1
102
RTVSPost2010Prop46
 90
       50
102
RTVSPost2010PropOp46
 70
     1
102
RTVSPost2010Prop47
 90
       50
102
RTVSPost2010PropOp47
 70
     1
102
RTVSPost2010Prop48
 90
       50
102
RTVSPost2010PropOp48
 70
     1
102
RTVSPost2010Prop49
280
     0
102
RTVSPost2010PropOp49
 70
     1
102
RTVSPost2010Prop50
 90
       50
102
RTVSPost2010PropOp50
 70
     1
102
RTVSPost2010Prop51ColorIndex
 90
      256
102
RTVSPost2010Prop51ColorRGB
 90
-16777216
102
RTVSPost2010PropOp51
 70
     0
102
RTVSPost2010Prop52
140
1.0
102
RTVSPost2010PropOp52
 70
     0
102
RTVSPost2010Prop53
 90
        2
102
RTVSPost2010PropOp53
 70
     1
102
RTVSPost2010Prop54
  1
strokes_ogs.tif
102
RTVSPost2010PropOp54
 70
     1
102
RTVSPost2010Prop55
280
     0
102
RTVSPost2010PropOp55
 70
     1
102
RTVSPost2010Prop56
140
1.0
102
RTVSPost2010PropOp56
 70
     1
102
RTVSPost2010Prop57
140
1.0
102
RTVSPost2010PropOp57
 70
     1
  0
XRECORD
  5
289
102
{ACAD_REACTORS
330
288
102
}
330
288
100
AcDbXrecord
280
     1
102
RTVSPropertyOp0
 70
     1
102
RTVSPropertyOp1
 70
     1
102
RTVSPropertyOp2
 70
     1
102
RTVSPropertyOp3
 70
     1
102
RTVSPropertyOp4
 70
     1
102
RTVSPropertyOp5
 70
     1
102
RTVSPropertyOp6
 70
     1
102
RTVSPropertyOp7
 70
     1
102
RTVSPropertyOp8
 70
     1
102
RTVSPropertyOp9
 70
     1
102
RTVSPropertyOp10
 70
     1
102
RTVSPropertyOp11
 70
     1
102
RTVSPropertyOp12
 70
     1
102
RTVSPropertyOp13
 70
     1
102
RTVSPropertyOp14
 70
     1
102
RTVSPropertyOp15
 70
     1
102
RTVSPropertyOp16
 70
     1
102
RTVSPropertyOp17
 70
     1
102
RTVSPropertyOp18
 70
     1
102
RTVSPropertyOp19
 70
     1
102
RTVSPropertyOp20
 70
     1
102
RTVSPropertyOp21
 70
     1
102
RTVSPropertyOp22
 70
     1
102
RTVSPropertyOp23
 70
     1
102
RTVSPropertyOp24
 70
     1
102
RTVSPropertyOp25
 70
     1
102
RTVSPropertyOp26
 70
     1
102
RTVSPropertyOp27
 70
     1
102
RTVSPropertyOp28
 70
     1
102
RTVSPropertyOp29
 70
     1
102
RTVSPropertyOp30
 70
     1
102
RTVSPropertyOp31
 70
     1
102
RTVSPropertyOp32
 70
     1
102
RTVSPropertyOp33
 70
     1
102
RTVSPropertyOp34
 70
     1
102
RTVSPropertyOp35
 70
     1
102
RTVSPropertyOp36
 70
     1
102
RTVSPropertyOp37
 70
     1
102
RTVSPropertyOp38
 70
     1
102
RTVSPropertyOp39
 70
     1
102
RTVSPropertyOp40
 70
     1
102
RTVSPropertyOp41
 70
     1
102
RTVSPropertyOp42
 70
     1
102
RTVSPropertyOp43
 70
     1
102
RTVSPropertyOp44
 70
     1
102
RTVSPropertyOp45
 70
     1
102
RTVSPropertyOp46
 70
     1
102
RTVSPropertyOp47
 70
     1
102
RTVSPropertyOp48
 70
     1
102
RTVSPropertyOp49
 70
     1
102
RTVSPropertyOp50
 70
     1
102
RTVSPropertyOp51
 70
     0
102
RTVSPropertyOp52
 70
     0
102
RTVSPropertyOp53
 70
     1
102
RTVSPropertyOp54
 70
     1
102
RTVSPropertyOp55
 70
     1
102
RTVSPropertyOp56
 70
     1
102
RTVSPropertyOp57
 70
     1
102
RTVSPost2010Prop28
280
     0
102
RTVSPost2010PropOp28
 70
     1
102
RTVSPost2010Prop29
280
     1
102
RTVSPost2010PropOp29
 70
     1
102
RTVSPost2010Prop30
280
     1
102
RTVSPost2010PropOp30
 70
     1
102
RTVSPost2010Prop31
280
     0
102
RTVSPost2010PropOp31
 70
     1
102
RTVSPost2010Prop32
280
     0
102
RTVSPost2010PropOp32
 70
     1
102
RTVSPost2010Prop33
280
     0
102
RTVSPost2010PropOp33
 70
     1
102
RTVSPost2010Prop34
280
     0
102
RTVSPost2010PropOp34
 70
     1
102
RTVSPost2010Prop35
280
     0
102
RTVSPost2010PropOp35
 70
     1
102
RTVSPost2010Prop36
280
     0
102
RTVSPost2010PropOp36
 70
     1
102
RTVSPost2010Prop37
 90
       50
102
RTVSPost2010PropOp37
 70
     1
102
RTVSPost2010Prop38
140
0.0
102
RTVSPost2010PropOp38
 70
     1
102
RTVSPost2010Prop39
140
1.0
102
RTVSPost2010PropOp39
 70
     1
102
RTVSPost2010Prop40
 90
        0
102
RTVSPost2010PropOp40
 70
     1
102
RTVSPost2010Prop41ColorIndex
 90
       18
102
RTVSPost2010Prop41ColorRGB
 90
        0
102
RTVSPost2010PropOp41
 70
     1
102
RTVSPost2010Prop42
 90
       50
102
RTVSPost2010PropOp42
 70
     1
102
RTVSPost2010Prop43
 90
        3
102
RTVSPost2010PropOp43
 70
     1
102
RTVSPost2010Prop44ColorIndex
 90
        5
102
RTVSPost2010Prop44ColorRGB
 90
      255
102
RTVSPost2010PropOp44
 70
     1
102
RTVSPost2010Prop45
280
     0
102
RTVSPost2010PropOp45
 70
     1
102
RTVSPost2010Prop46
 90
       50
102
RTVSPost2010PropOp46
 70
     1
102
RTVSPost2010Prop47
 90
       50
102
RTVSPost2010PropOp47
 70
     1
102
RTVSPost2010Prop48
 90
       50
102
RTVSPost2010PropOp48
 70
     1
102
RTVSPost2010Prop49
280
     0
102
RTVSPost2010PropOp49
 70
     1
102
RTVSPost2010Prop50
 90
       50
102
RTVSPost2010PropOp50
 70
     1
102
RTVSPost2010Prop51ColorIndex
 90
      256
102
RTVSPost2010Prop51ColorRGB
 90
-16777216
102
RTVSPost2010PropOp51
 70
     0
102
RTVSPost2010Prop52
140
1.0
102
RTVSPost2010PropOp52
 70
     0
102
RTVSPost2010Prop53
 90
        2
102
RTVSPost2010PropOp53
 70
     1
102
RTVSPost2010Prop54
  1
strokes_ogs.tif
102
RTVSPost2010PropOp54
 70
     1
102
RTVSPost2010Prop55
280
     0
102
RTVSPost2010PropOp55
 70
     1
102
RTVSPost2010Prop56
140
1.0
102
RTVSPost2010PropOp56
 70
     1
102
RTVSPost2010Prop57
140
1.0
102
RTVSPost2010PropOp57
 70
     1
  0
XRECORD
  5
28B
102
{ACAD_REACTORS
330
28A
102
}
330
28A
100
AcDbXrecord
280
     1
102
RTVSPropertyOp0
 70
     1
102
RTVSPropertyOp1
 70
     1
102
RTVSPropertyOp2
 70
     1
102
RTVSPropertyOp3
 70
     1
102
RTVSPropertyOp4
 70
     1
102
RTVSPropertyOp5
 70
     1
102
RTVSPropertyOp6
 70
     1
102
RTVSPropertyOp7
 70
     1
102
RTVSPropertyOp8
 70
     1
102
RTVSPropertyOp9
 70
     1
102
RTVSPropertyOp10
 70
     1
102
RTVSPropertyOp11
 70
     1
102
RTVSPropertyOp12
 70
     1
102
RTVSPropertyOp13
 70
     1
102
RTVSPropertyOp14
 70
     1
102
RTVSPropertyOp15
 70
     1
102
RTVSPropertyOp16
 70
     1
102
RTVSPropertyOp17
 70
     1
102
RTVSPropertyOp18
 70
     1
102
RTVSPropertyOp19
 70
     1
102
RTVSPropertyOp20
 70
     1
102
RTVSPropertyOp21
 70
     1
102
RTVSPropertyOp22
 70
     1
102
RTVSPropertyOp23
 70
     1
102
RTVSPropertyOp24
 70
     1
102
RTVSPropertyOp25
 70
     1
102
RTVSPropertyOp26
 70
     1
102
RTVSPropertyOp27
 70
     1
102
RTVSPropertyOp28
 70
     1
102
RTVSPropertyOp29
 70
     1
102
RTVSPropertyOp30
 70
     1
102
RTVSPropertyOp31
 70
     1
102
RTVSPropertyOp32
 70
     1
102
RTVSPropertyOp33
 70
     1
102
RTVSPropertyOp34
 70
     1
102
RTVSPropertyOp35
 70
     1
102
RTVSPropertyOp36
 70
     1
102
RTVSPropertyOp37
 70
     1
102
RTVSPropertyOp38
 70
     1
102
RTVSPropertyOp39
 70
     1
102
RTVSPropertyOp40
 70
     1
102
RTVSPropertyOp41
 70
     1
102
RTVSPropertyOp42
 70
     1
102
RTVSPropertyOp43
 70
     1
102
RTVSPropertyOp44
 70
     1
102
RTVSPropertyOp45
 70
     1
102
RTVSPropertyOp46
 70
     1
102
RTVSPropertyOp47
 70
     1
102
RTVSPropertyOp48
 70
     1
102
RTVSPropertyOp49
 70
     1
102
RTVSPropertyOp50
 70
     1
102
RTVSPropertyOp51
 70
     0
102
RTVSPropertyOp52
 70
     0
102
RTVSPropertyOp53
 70
     1
102
RTVSPropertyOp54
 70
     1
102
RTVSPropertyOp55
 70
     1
102
RTVSPropertyOp56
 70
     1
102
RTVSPropertyOp57
 70
     1
102
RTVSPost2010Prop28
280
     0
102
RTVSPost2010PropOp28
 70
     1
102
RTVSPost2010Prop29
280
     1
102
RTVSPost2010PropOp29
 70
     1
102
RTVSPost2010Prop30
280
     1
102
RTVSPost2010PropOp30
 70
     1
102
RTVSPost2010Prop31
280
     0
102
RTVSPost2010PropOp31
 70
     1
102
RTVSPost2010Prop32
280
     0
102
RTVSPost2010PropOp32
 70
     1
102
RTVSPost2010Prop33
280
     0
102
RTVSPost2010PropOp33
 70
     1
102
RTVSPost2010Prop34
280
     0
102
RTVSPost2010PropOp34
 70
     1
102
RTVSPost2010Prop35
280
     0
102
RTVSPost2010PropOp35
 70
     1
102
RTVSPost2010Prop36
280
     0
102
RTVSPost2010PropOp36
 70
     1
102
RTVSPost2010Prop37
 90
       50
102
RTVSPost2010PropOp37
 70
     1
102
RTVSPost2010Prop38
140
0.0
102
RTVSPost2010PropOp38
 70
     1
102
RTVSPost2010Prop39
140
1.0
102
RTVSPost2010PropOp39
 70
     1
102
RTVSPost2010Prop40
 90
        0
102
RTVSPost2010PropOp40
 70
     1
102
RTVSPost2010Prop41ColorIndex
 90
       18
102
RTVSPost2010Prop41ColorRGB
 90
        0
102
RTVSPost2010PropOp41
 70
     1
102
RTVSPost2010Prop42
 90
       50
102
RTVSPost2010PropOp42
 70
     1
102
RTVSPost2010Prop43
 90
        3
102
RTVSPost2010PropOp43
 70
     1
102
RTVSPost2010Prop44ColorIndex
 90
        5
102
RTVSPost2010Prop44ColorRGB
 90
      255
102
RTVSPost2010PropOp44
 70
     1
102
RTVSPost2010Prop45
280
     0
102
RTVSPost2010PropOp45
 70
     1
102
RTVSPost2010Prop46
 90
       50
102
RTVSPost2010PropOp46
 70
     1
102
RTVSPost2010Prop47
 90
       50
102
RTVSPost2010PropOp47
 70
     1
102
RTVSPost2010Prop48
 90
       50
102
RTVSPost2010PropOp48
 70
     1
102
RTVSPost2010Prop49
280
     0
102
RTVSPost2010PropOp49
 70
     1
102
RTVSPost2010Prop50
 90
       50
102
RTVSPost2010PropOp50
 70
     1
102
RTVSPost2010Prop51ColorIndex
 90
      256
102
RTVSPost2010Prop51ColorRGB
 90
-16777216
102
RTVSPost2010PropOp51
 70
     0
102
RTVSPost2010Prop52
140
1.0
102
RTVSPost2010PropOp52
 70
     0
102
RTVSPost2010Prop53
 90
        2
102
RTVSPost2010PropOp53
 70
     1
102
RTVSPost2010Prop54
  1
strokes_ogs.tif
102
RTVSPost2010PropOp54
 70
     1
102
RTVSPost2010Prop55
280
     0
102
RTVSPost2010PropOp55
 70
     1
102
RTVSPost2010Prop56
140
1.0
102
RTVSPost2010PropOp56
 70
     1
102
RTVSPost2010Prop57
140
1.0
102
RTVSPost2010PropOp57
 70
     1
  0
XRECORD
  5
291
102
{ACAD_REACTORS
330
290
102
}
330
290
100
AcDbXrecord
280
     1
102
RTVSPropertyOp0
 70
     1
102
RTVSPropertyOp1
 70
     1
102
RTVSPropertyOp2
 70
     1
102
RTVSPropertyOp3
 70
     1
102
RTVSPropertyOp4
 70
     1
102
RTVSPropertyOp5
 70
     1
102
RTVSPropertyOp6
 70
     1
102
RTVSPropertyOp7
 70
     1
102
RTVSPropertyOp8
 70
     1
102
RTVSPropertyOp9
 70
     1
102
RTVSPropertyOp10
 70
     1
102
RTVSPropertyOp11
 70
     1
102
RTVSPropertyOp12
 70
     1
102
RTVSPropertyOp13
 70
     1
102
RTVSPropertyOp14
 70
     1
102
RTVSPropertyOp15
 70
     1
102
RTVSPropertyOp16
 70
     1
102
RTVSPropertyOp17
 70
     1
102
RTVSPropertyOp18
 70
     1
102
RTVSPropertyOp19
 70
     1
102
RTVSPropertyOp20
 70
     1
102
RTVSPropertyOp21
 70
     1
102
RTVSPropertyOp22
 70
     1
102
RTVSPropertyOp23
 70
     1
102
RTVSPropertyOp24
 70
     1
102
RTVSPropertyOp25
 70
     1
102
RTVSPropertyOp26
 70
     1
102
RTVSPropertyOp27
 70
     1
102
RTVSPropertyOp28
 70
     1
102
RTVSPropertyOp29
 70
     1
102
RTVSPropertyOp30
 70
     1
102
RTVSPropertyOp31
 70
     1
102
RTVSPropertyOp32
 70
     1
102
RTVSPropertyOp33
 70
     1
102
RTVSPropertyOp34
 70
     1
102
RTVSPropertyOp35
 70
     1
102
RTVSPropertyOp36
 70
     1
102
RTVSPropertyOp37
 70
     1
102
RTVSPropertyOp38
 70
     1
102
RTVSPropertyOp39
 70
     1
102
RTVSPropertyOp40
 70
     1
102
RTVSPropertyOp41
 70
     1
102
RTVSPropertyOp42
 70
     1
102
RTVSPropertyOp43
 70
     1
102
RTVSPropertyOp44
 70
     1
102
RTVSPropertyOp45
 70
     1
102
RTVSPropertyOp46
 70
     1
102
RTVSPropertyOp47
 70
     1
102
RTVSPropertyOp48
 70
     1
102
RTVSPropertyOp49
 70
     1
102
RTVSPropertyOp50
 70
     1
102
RTVSPropertyOp51
 70
     0
102
RTVSPropertyOp52
 70
     0
102
RTVSPropertyOp53
 70
     1
102
RTVSPropertyOp54
 70
     1
102
RTVSPropertyOp55
 70
     1
102
RTVSPropertyOp56
 70
     1
102
RTVSPropertyOp57
 70
     1
102
RTVSPost2010Prop28
280
     0
102
RTVSPost2010PropOp28
 70
     1
102
RTVSPost2010Prop29
280
     1
102
RTVSPost2010PropOp29
 70
     1
102
RTVSPost2010Prop30
280
     1
102
RTVSPost2010PropOp30
 70
     1
102
RTVSPost2010Prop31
280
     0
102
RTVSPost2010PropOp31
 70
     1
102
RTVSPost2010Prop32
280
     0
102
RTVSPost2010PropOp32
 70
     1
102
RTVSPost2010Prop33
280
     0
102
RTVSPost2010PropOp33
 70
     1
102
RTVSPost2010Prop34
280
     0
102
RTVSPost2010PropOp34
 70
     1
102
RTVSPost2010Prop35
280
     0
102
RTVSPost2010PropOp35
 70
     1
102
RTVSPost2010Prop36
280
     0
102
RTVSPost2010PropOp36
 70
     1
102
RTVSPost2010Prop37
 90
       50
102
RTVSPost2010PropOp37
 70
     1
102
RTVSPost2010Prop38
140
0.0
102
RTVSPost2010PropOp38
 70
     1
102
RTVSPost2010Prop39
140
1.0
102
RTVSPost2010PropOp39
 70
     1
102
RTVSPost2010Prop40
 90
        0
102
RTVSPost2010PropOp40
 70
     1
102
RTVSPost2010Prop41ColorIndex
 90
       18
102
RTVSPost2010Prop41ColorRGB
 90
        0
102
RTVSPost2010PropOp41
 70
     1
102
RTVSPost2010Prop42
 90
       50
102
RTVSPost2010PropOp42
 70
     1
102
RTVSPost2010Prop43
 90
        3
102
RTVSPost2010PropOp43
 70
     1
102
RTVSPost2010Prop44ColorIndex
 90
        5
102
RTVSPost2010Prop44ColorRGB
 90
      255
102
RTVSPost2010PropOp44
 70
     1
102
RTVSPost2010Prop45
280
     0
102
RTVSPost2010PropOp45
 70
     1
102
RTVSPost2010Prop46
 90
       50
102
RTVSPost2010PropOp46
 70
     1
102
RTVSPost2010Prop47
 90
       50
102
RTVSPost2010PropOp47
 70
     1
102
RTVSPost2010Prop48
 90
       50
102
RTVSPost2010PropOp48
 70
     1
102
RTVSPost2010Prop49
280
     0
102
RTVSPost2010PropOp49
 70
     1
102
RTVSPost2010Prop50
 90
       50
102
RTVSPost2010PropOp50
 70
     1
102
RTVSPost2010Prop51ColorIndex
 90
      256
102
RTVSPost2010Prop51ColorRGB
 90
-16777216
102
RTVSPost2010PropOp51
 70
     0
102
RTVSPost2010Prop52
140
1.0
102
RTVSPost2010PropOp52
 70
     0
102
RTVSPost2010Prop53
 90
        2
102
RTVSPost2010PropOp53
 70
     1
102
RTVSPost2010Prop54
  1
strokes_ogs.tif
102
RTVSPost2010PropOp54
 70
     1
102
RTVSPost2010Prop55
280
     0
102
RTVSPost2010PropOp55
 70
     1
102
RTVSPost2010Prop56
140
1.0
102
RTVSPost2010PropOp56
 70
     1
102
RTVSPost2010Prop57
140
1.0
102
RTVSPost2010PropOp57
 70
     1
  0
XRECORD
  5
2A5
102
{ACAD_REACTORS
330
2A4
102
}
330
2A4
100
AcDbXrecord
280
     1
102
RTVSPropertyOp0
 70
     0
102
RTVSPropertyOp1
 70
     0
102
RTVSPropertyOp2
 70
     0
102
RTVSPropertyOp3
 70
     0
102
RTVSPropertyOp4
 70
     0
102
RTVSPropertyOp5
 70
     0
102
RTVSPropertyOp6
 70
     0
102
RTVSPropertyOp7
 70
     0
102
RTVSPropertyOp8
 70
     0
102
RTVSPropertyOp9
 70
     0
102
RTVSPropertyOp10
 70
     0
102
RTVSPropertyOp11
 70
     0
102
RTVSPropertyOp12
 70
     0
102
RTVSPropertyOp13
 70
     0
102
RTVSPropertyOp14
 70
     2
102
RTVSPropertyOp15
 70
     0
102
RTVSPropertyOp16
 70
     0
102
RTVSPropertyOp17
 70
     0
102
RTVSPropertyOp18
 70
     0
102
RTVSPropertyOp19
 70
     0
102
RTVSPropertyOp20
 70
     0
102
RTVSPropertyOp21
 70
     0
102
RTVSPropertyOp22
 70
     0
102
RTVSPropertyOp23
 70
     0
102
RTVSPropertyOp24
 70
     0
102
RTVSPropertyOp25
 70
     0
102
RTVSPropertyOp26
 70
     0
102
RTVSPropertyOp27
 70
     0
102
RTVSPropertyOp28
 70
     0
102
RTVSPropertyOp29
 70
     0
102
RTVSPropertyOp30
 70
     0
102
RTVSPropertyOp31
 70
     0
102
RTVSPropertyOp32
 70
     0
102
RTVSPropertyOp33
 70
     0
102
RTVSPropertyOp34
 70
     0
102
RTVSPropertyOp35
 70
     0
102
RTVSPropertyOp36
 70
     0
102
RTVSPropertyOp37
 70
     0
102
RTVSPropertyOp38
 70
     0
102
RTVSPropertyOp39
 70
     0
102
RTVSPropertyOp40
 70
     0
102
RTVSPropertyOp41
 70
     0
102
RTVSPropertyOp42
 70
     0
102
RTVSPropertyOp43
 70
     0
102
RTVSPropertyOp44
 70
     0
102
RTVSPropertyOp45
 70
     0
102
RTVSPropertyOp46
 70
     0
102
RTVSPropertyOp47
 70
     0
102
RTVSPropertyOp48
 70
     0
102
RTVSPropertyOp49
 70
     0
102
RTVSPropertyOp50
 70
     0
102
RTVSPropertyOp51
 70
     0
102
RTVSPropertyOp52
 70
     0
102
RTVSPropertyOp53
 70
     0
102
RTVSPropertyOp54
 70
     0
102
RTVSPropertyOp55
 70
     0
102
RTVSPropertyOp56
 70
     0
102
RTVSPropertyOp57
 70
     0
102
RTVSPost2010Prop28
280
     0
102
RTVSPost2010PropOp28
 70
     0
102
RTVSPost2010Prop29
280
     1
102
RTVSPost2010PropOp29
 70
     0
102
RTVSPost2010Prop30
280
     1
102
RTVSPost2010PropOp30
 70
     0
102
RTVSPost2010Prop31
280
     0
102
RTVSPost2010PropOp31
 70
     0
102
RTVSPost2010Prop32
280
     0
102
RTVSPost2010PropOp32
 70
     0
102
RTVSPost2010Prop33
280
     0
102
RTVSPost2010PropOp33
 70
     0
102
RTVSPost2010Prop34
280
     0
102
RTVSPost2010PropOp34
 70
     0
102
RTVSPost2010Prop35
280
     0
102
RTVSPost2010PropOp35
 70
     0
102
RTVSPost2010Prop36
280
     0
102
RTVSPost2010PropOp36
 70
     0
102
RTVSPost2010Prop37
 90
       50
102
RTVSPost2010PropOp37
 70
     0
102
RTVSPost2010Prop38
140
0.0
102
RTVSPost2010PropOp38
 70
     0
102
RTVSPost2010Prop39
140
1.0
102
RTVSPost2010PropOp39
 70
     0
102
RTVSPost2010Prop40
 90
        0
102
RTVSPost2010PropOp40
 70
     0
102
RTVSPost2010Prop41ColorIndex
 90
       18
102
RTVSPost2010Prop41ColorRGB
 90
        0
102
RTVSPost2010PropOp41
 70
     0
102
RTVSPost2010Prop42
 90
       50
102
RTVSPost2010PropOp42
 70
     0
102
RTVSPost2010Prop43
 90
        3
102
RTVSPost2010PropOp43
 70
     0
102
RTVSPost2010Prop44ColorIndex
 90
        5
102
RTVSPost2010Prop44ColorRGB
 90
      255
102
RTVSPost2010PropOp44
 70
     0
102
RTVSPost2010Prop45
280
     0
102
RTVSPost2010PropOp45
 70
     0
102
RTVSPost2010Prop46
 90
       50
102
RTVSPost2010PropOp46
 70
     0
102
RTVSPost2010Prop47
 90
       50
102
RTVSPost2010PropOp47
 70
     0
102
RTVSPost2010Prop48
 90
       50
102
RTVSPost2010PropOp48
 70
     0
102
RTVSPost2010Prop49
280
     0
102
RTVSPost2010PropOp49
 70
     0
102
RTVSPost2010Prop50
 90
       50
102
RTVSPost2010PropOp50
 70
     0
102
RTVSPost2010Prop51ColorIndex
 90
      256
102
RTVSPost2010Prop51ColorRGB
 90
-16777216
102
RTVSPost2010PropOp51
 70
     0
102
RTVSPost2010Prop52
140
1.0
102
RTVSPost2010PropOp52
 70
     0
102
RTVSPost2010Prop53
 90
        2
102
RTVSPost2010PropOp53
 70
     0
102
RTVSPost2010Prop54
  1
strokes_ogs.tif
102
RTVSPost2010PropOp54
 70
     0
102
RTVSPost2010Prop55
280
     0
102
RTVSPost2010PropOp55
 70
     0
102
RTVSPost2010Prop56
140
1.0
102
RTVSPost2010PropOp56
 70
     0
102
RTVSPost2010Prop57
140
1.0
102
RTVSPost2010PropOp57
 70
     0
  0
XRECORD
  5
29F
102
{ACAD_REACTORS
330
29E
102
}
330
29E
100
AcDbXrecord
280
     1
102
RTVSPropertyOp0
 70
     1
102
RTVSPropertyOp1
 70
     1
102
RTVSPropertyOp2
 70
     1
102
RTVSPropertyOp3
 70
     1
102
RTVSPropertyOp4
 70
     1
102
RTVSPropertyOp5
 70
     1
102
RTVSPropertyOp6
 70
     1
102
RTVSPropertyOp7
 70
     1
102
RTVSPropertyOp8
 70
     1
102
RTVSPropertyOp9
 70
     1
102
RTVSPropertyOp10
 70
     1
102
RTVSPropertyOp11
 70
     1
102
RTVSPropertyOp12
 70
     1
102
RTVSPropertyOp13
 70
     1
102
RTVSPropertyOp14
 70
     1
102
RTVSPropertyOp15
 70
     1
102
RTVSPropertyOp16
 70
     1
102
RTVSPropertyOp17
 70
     1
102
RTVSPropertyOp18
 70
     1
102
RTVSPropertyOp19
 70
     1
102
RTVSPropertyOp20
 70
     1
102
RTVSPropertyOp21
 70
     1
102
RTVSPropertyOp22
 70
     1
102
RTVSPropertyOp23
 70
     1
102
RTVSPropertyOp24
 70
     1
102
RTVSPropertyOp25
 70
     1
102
RTVSPropertyOp26
 70
     1
102
RTVSPropertyOp27
 70
     1
102
RTVSPropertyOp28
 70
     1
102
RTVSPropertyOp29
 70
     1
102
RTVSPropertyOp30
 70
     1
102
RTVSPropertyOp31
 70
     1
102
RTVSPropertyOp32
 70
     1
102
RTVSPropertyOp33
 70
     1
102
RTVSPropertyOp34
 70
     1
102
RTVSPropertyOp35
 70
     1
102
RTVSPropertyOp36
 70
     1
102
RTVSPropertyOp37
 70
     1
102
RTVSPropertyOp38
 70
     1
102
RTVSPropertyOp39
 70
     1
102
RTVSPropertyOp40
 70
     1
102
RTVSPropertyOp41
 70
     1
102
RTVSPropertyOp42
 70
     1
102
RTVSPropertyOp43
 70
     1
102
RTVSPropertyOp44
 70
     1
102
RTVSPropertyOp45
 70
     1
102
RTVSPropertyOp46
 70
     1
102
RTVSPropertyOp47
 70
     1
102
RTVSPropertyOp48
 70
     1
102
RTVSPropertyOp49
 70
     1
102
RTVSPropertyOp50
 70
     1
102
RTVSPropertyOp51
 70
     0
102
RTVSPropertyOp52
 70
     0
102
RTVSPropertyOp53
 70
     1
102
RTVSPropertyOp54
 70
     1
102
RTVSPropertyOp55
 70
     1
102
RTVSPropertyOp56
 70
     1
102
RTVSPropertyOp57
 70
     1
102
RTVSPost2010Prop28
280
     0
102
RTVSPost2010PropOp28
 70
     1
102
RTVSPost2010Prop29
280
     1
102
RTVSPost2010PropOp29
 70
     1
102
RTVSPost2010Prop30
280
     1
102
RTVSPost2010PropOp30
 70
     1
102
RTVSPost2010Prop31
280
     0
102
RTVSPost2010PropOp31
 70
     1
102
RTVSPost2010Prop32
280
     0
102
RTVSPost2010PropOp32
 70
     1
102
RTVSPost2010Prop33
280
     0
102
RTVSPost2010PropOp33
 70
     1
102
RTVSPost2010Prop34
280
     0
102
RTVSPost2010PropOp34
 70
     1
102
RTVSPost2010Prop35
280
     0
102
RTVSPost2010PropOp35
 70
     1
102
RTVSPost2010Prop36
280
     0
102
RTVSPost2010PropOp36
 70
     1
102
RTVSPost2010Prop37
 90
       50
102
RTVSPost2010PropOp37
 70
     1
102
RTVSPost2010Prop38
140
0.0
102
RTVSPost2010PropOp38
 70
     1
102
RTVSPost2010Prop39
140
1.0
102
RTVSPost2010PropOp39
 70
     1
102
RTVSPost2010Prop40
 90
        0
102
RTVSPost2010PropOp40
 70
     1
102
RTVSPost2010Prop41ColorIndex
 90
       18
102
RTVSPost2010Prop41ColorRGB
 90
        0
102
RTVSPost2010PropOp41
 70
     1
102
RTVSPost2010Prop42
 90
       50
102
RTVSPost2010PropOp42
 70
     1
102
RTVSPost2010Prop43
 90
        3
102
RTVSPost2010PropOp43
 70
     1
102
RTVSPost2010Prop44ColorIndex
 90
        5
102
RTVSPost2010Prop44ColorRGB
 90
      255
102
RTVSPost2010PropOp44
 70
     1
102
RTVSPost2010Prop45
280
     0
102
RTVSPost2010PropOp45
 70
     1
102
RTVSPost2010Prop46
 90
       50
102
RTVSPost2010PropOp46
 70
     1
102
RTVSPost2010Prop47
 90
       50
102
RTVSPost2010PropOp47
 70
     1
102
RTVSPost2010Prop48
 90
       50
102
RTVSPost2010PropOp48
 70
     1
102
RTVSPost2010Prop49
280
     0
102
RTVSPost2010PropOp49
 70
     1
102
RTVSPost2010Prop50
 90
       50
102
RTVSPost2010PropOp50
 70
     1
102
RTVSPost2010Prop51ColorIndex
 90
      256
102
RTVSPost2010Prop51ColorRGB
 90
-16777216
102
RTVSPost2010PropOp51
 70
     0
102
RTVSPost2010Prop52
140
1.0
102
RTVSPost2010PropOp52
 70
     0
102
RTVSPost2010Prop53
 90
        2
102
RTVSPost2010PropOp53
 70
     1
102
RTVSPost2010Prop54
  1
strokes_ogs.tif
102
RTVSPost2010PropOp54
 70
     1
102
RTVSPost2010Prop55
280
     0
102
RTVSPost2010PropOp55
 70
     1
102
RTVSPost2010Prop56
140
1.0
102
RTVSPost2010PropOp56
 70
     1
102
RTVSPost2010Prop57
140
1.0
102
RTVSPost2010PropOp57
 70
     1
  0
XRECORD
  5
2A7
102
{ACAD_REACTORS
330
2A6
102
}
330
2A6
100
AcDbXrecord
280
     1
102
RTVSPropertyOp0
 70
     0
102
RTVSPropertyOp1
 70
     0
102
RTVSPropertyOp2
 70
     0
102
RTVSPropertyOp3
 70
     0
102
RTVSPropertyOp4
 70
     0
102
RTVSPropertyOp5
 70
     0
102
RTVSPropertyOp6
 70
     0
102
RTVSPropertyOp7
 70
     0
102
RTVSPropertyOp8
 70
     0
102
RTVSPropertyOp9
 70
     0
102
RTVSPropertyOp10
 70
     0
102
RTVSPropertyOp11
 70
     0
102
RTVSPropertyOp12
 70
     0
102
RTVSPropertyOp13
 70
     0
102
RTVSPropertyOp14
 70
     2
102
RTVSPropertyOp15
 70
     0
102
RTVSPropertyOp16
 70
     0
102
RTVSPropertyOp17
 70
     0
102
RTVSPropertyOp18
 70
     0
102
RTVSPropertyOp19
 70
     0
102
RTVSPropertyOp20
 70
     0
102
RTVSPropertyOp21
 70
     0
102
RTVSPropertyOp22
 70
     0
102
RTVSPropertyOp23
 70
     0
102
RTVSPropertyOp24
 70
     0
102
RTVSPropertyOp25
 70
     0
102
RTVSPropertyOp26
 70
     0
102
RTVSPropertyOp27
 70
     0
102
RTVSPropertyOp28
 70
     0
102
RTVSPropertyOp29
 70
     0
102
RTVSPropertyOp30
 70
     0
102
RTVSPropertyOp31
 70
     0
102
RTVSPropertyOp32
 70
     0
102
RTVSPropertyOp33
 70
     0
102
RTVSPropertyOp34
 70
     0
102
RTVSPropertyOp35
 70
     0
102
RTVSPropertyOp36
 70
     0
102
RTVSPropertyOp37
 70
     0
102
RTVSPropertyOp38
 70
     0
102
RTVSPropertyOp39
 70
     0
102
RTVSPropertyOp40
 70
     0
102
RTVSPropertyOp41
 70
     0
102
RTVSPropertyOp42
 70
     0
102
RTVSPropertyOp43
 70
     0
102
RTVSPropertyOp44
 70
     0
102
RTVSPropertyOp45
 70
     0
102
RTVSPropertyOp46
 70
     0
102
RTVSPropertyOp47
 70
     0
102
RTVSPropertyOp48
 70
     0
102
RTVSPropertyOp49
 70
     0
102
RTVSPropertyOp50
 70
     0
102
RTVSPropertyOp51
 70
     0
102
RTVSPropertyOp52
 70
     0
102
RTVSPropertyOp53
 70
     0
102
RTVSPropertyOp54
 70
     0
102
RTVSPropertyOp55
 70
     0
102
RTVSPropertyOp56
 70
     0
102
RTVSPropertyOp57
 70
     0
102
RTVSPost2010Prop28
280
     0
102
RTVSPost2010PropOp28
 70
     0
102
RTVSPost2010Prop29
280
     1
102
RTVSPost2010PropOp29
 70
     0
102
RTVSPost2010Prop30
280
     1
102
RTVSPost2010PropOp30
 70
     0
102
RTVSPost2010Prop31
280
     0
102
RTVSPost2010PropOp31
 70
     0
102
RTVSPost2010Prop32
280
     0
102
RTVSPost2010PropOp32
 70
     0
102
RTVSPost2010Prop33
280
     0
102
RTVSPost2010PropOp33
 70
     0
102
RTVSPost2010Prop34
280
     0
102
RTVSPost2010PropOp34
 70
     0
102
RTVSPost2010Prop35
280
     0
102
RTVSPost2010PropOp35
 70
     0
102
RTVSPost2010Prop36
280
     0
102
RTVSPost2010PropOp36
 70
     0
102
RTVSPost2010Prop37
 90
       50
102
RTVSPost2010PropOp37
 70
     0
102
RTVSPost2010Prop38
140
0.0
102
RTVSPost2010PropOp38
 70
     0
102
RTVSPost2010Prop39
140
1.0
102
RTVSPost2010PropOp39
 70
     0
102
RTVSPost2010Prop40
 90
        0
102
RTVSPost2010PropOp40
 70
     0
102
RTVSPost2010Prop41ColorIndex
 90
       18
102
RTVSPost2010Prop41ColorRGB
 90
        0
102
RTVSPost2010PropOp41
 70
     0
102
RTVSPost2010Prop42
 90
       50
102
RTVSPost2010PropOp42
 70
     0
102
RTVSPost2010Prop43
 90
        3
102
RTVSPost2010PropOp43
 70
     0
102
RTVSPost2010Prop44ColorIndex
 90
        5
102
RTVSPost2010Prop44ColorRGB
 90
      255
102
RTVSPost2010PropOp44
 70
     0
102
RTVSPost2010Prop45
280
     0
102
RTVSPost2010PropOp45
 70
     0
102
RTVSPost2010Prop46
 90
       50
102
RTVSPost2010PropOp46
 70
     0
102
RTVSPost2010Prop47
 90
       50
102
RTVSPost2010PropOp47
 70
     0
102
RTVSPost2010Prop48
 90
       50
102
RTVSPost2010PropOp48
 70
     0
102
RTVSPost2010Prop49
280
     0
102
RTVSPost2010PropOp49
 70
     0
102
RTVSPost2010Prop50
 90
       50
102
RTVSPost2010PropOp50
 70
     0
102
RTVSPost2010Prop51ColorIndex
 90
      256
102
RTVSPost2010Prop51ColorRGB
 90
-16777216
102
RTVSPost2010PropOp51
 70
     0
102
RTVSPost2010Prop52
140
1.0
102
RTVSPost2010PropOp52
 70
     0
102
RTVSPost2010Prop53
 90
        2
102
RTVSPost2010PropOp53
 70
     0
102
RTVSPost2010Prop54
  1
strokes_ogs.tif
102
RTVSPost2010PropOp54
 70
     0
102
RTVSPost2010Prop55
280
     0
102
RTVSPost2010PropOp55
 70
     0
102
RTVSPost2010Prop56
140
1.0
102
RTVSPost2010PropOp56
 70
     0
102
RTVSPost2010Prop57
140
1.0
102
RTVSPost2010PropOp57
 70
     0
  0
XRECORD
  5
295
102
{ACAD_REACTORS
330
294
102
}
330
294
100
AcDbXrecord
280
     1
102
RTVSPropertyOp0
 70
     1
102
RTVSPropertyOp1
 70
     1
102
RTVSPropertyOp2
 70
     1
102
RTVSPropertyOp3
 70
     1
102
RTVSPropertyOp4
 70
     1
102
RTVSPropertyOp5
 70
     1
102
RTVSPropertyOp6
 70
     1
102
RTVSPropertyOp7
 70
     1
102
RTVSPropertyOp8
 70
     1
102
RTVSPropertyOp9
 70
     1
102
RTVSPropertyOp10
 70
     1
102
RTVSPropertyOp11
 70
     1
102
RTVSPropertyOp12
 70
     1
102
RTVSPropertyOp13
 70
     1
102
RTVSPropertyOp14
 70
     1
102
RTVSPropertyOp15
 70
     1
102
RTVSPropertyOp16
 70
     1
102
RTVSPropertyOp17
 70
     1
102
RTVSPropertyOp18
 70
     1
102
RTVSPropertyOp19
 70
     1
102
RTVSPropertyOp20
 70
     1
102
RTVSPropertyOp21
 70
     1
102
RTVSPropertyOp22
 70
     1
102
RTVSPropertyOp23
 70
     1
102
RTVSPropertyOp24
 70
     1
102
RTVSPropertyOp25
 70
     1
102
RTVSPropertyOp26
 70
     1
102
RTVSPropertyOp27
 70
     1
102
RTVSPropertyOp28
 70
     1
102
RTVSPropertyOp29
 70
     1
102
RTVSPropertyOp30
 70
     1
102
RTVSPropertyOp31
 70
     1
102
RTVSPropertyOp32
 70
     1
102
RTVSPropertyOp33
 70
     1
102
RTVSPropertyOp34
 70
     1
102
RTVSPropertyOp35
 70
     1
102
RTVSPropertyOp36
 70
     1
102
RTVSPropertyOp37
 70
     1
102
RTVSPropertyOp38
 70
     1
102
RTVSPropertyOp39
 70
     1
102
RTVSPropertyOp40
 70
     1
102
RTVSPropertyOp41
 70
     1
102
RTVSPropertyOp42
 70
     1
102
RTVSPropertyOp43
 70
     1
102
RTVSPropertyOp44
 70
     1
102
RTVSPropertyOp45
 70
     1
102
RTVSPropertyOp46
 70
     1
102
RTVSPropertyOp47
 70
     1
102
RTVSPropertyOp48
 70
     1
102
RTVSPropertyOp49
 70
     1
102
RTVSPropertyOp50
 70
     1
102
RTVSPropertyOp51
 70
     0
102
RTVSPropertyOp52
 70
     0
102
RTVSPropertyOp53
 70
     1
102
RTVSPropertyOp54
 70
     1
102
RTVSPropertyOp55
 70
     1
102
RTVSPropertyOp56
 70
     1
102
RTVSPropertyOp57
 70
     1
102
RTVSPost2010Prop28
280
     0
102
RTVSPost2010PropOp28
 70
     1
102
RTVSPost2010Prop29
280
     1
102
RTVSPost2010PropOp29
 70
     1
102
RTVSPost2010Prop30
280
     1
102
RTVSPost2010PropOp30
 70
     1
102
RTVSPost2010Prop31
280
     0
102
RTVSPost2010PropOp31
 70
     1
102
RTVSPost2010Prop32
280
     0
102
RTVSPost2010PropOp32
 70
     1
102
RTVSPost2010Prop33
280
     0
102
RTVSPost2010PropOp33
 70
     1
102
RTVSPost2010Prop34
280
     0
102
RTVSPost2010PropOp34
 70
     1
102
RTVSPost2010Prop35
280
     0
102
RTVSPost2010PropOp35
 70
     1
102
RTVSPost2010Prop36
280
     0
102
RTVSPost2010PropOp36
 70
     1
102
RTVSPost2010Prop37
 90
       50
102
RTVSPost2010PropOp37
 70
     1
102
RTVSPost2010Prop38
140
0.0
102
RTVSPost2010PropOp38
 70
     1
102
RTVSPost2010Prop39
140
1.0
102
RTVSPost2010PropOp39
 70
     1
102
RTVSPost2010Prop40
 90
        0
102
RTVSPost2010PropOp40
 70
     1
102
RTVSPost2010Prop41ColorIndex
 90
       18
102
RTVSPost2010Prop41ColorRGB
 90
        0
102
RTVSPost2010PropOp41
 70
     1
102
RTVSPost2010Prop42
 90
       50
102
RTVSPost2010PropOp42
 70
     1
102
RTVSPost2010Prop43
 90
        3
102
RTVSPost2010PropOp43
 70
     1
102
RTVSPost2010Prop44ColorIndex
 90
        5
102
RTVSPost2010Prop44ColorRGB
 90
      255
102
RTVSPost2010PropOp44
 70
     1
102
RTVSPost2010Prop45
280
     0
102
RTVSPost2010PropOp45
 70
     1
102
RTVSPost2010Prop46
 90
       50
102
RTVSPost2010PropOp46
 70
     1
102
RTVSPost2010Prop47
 90
       50
102
RTVSPost2010PropOp47
 70
     1
102
RTVSPost2010Prop48
 90
       50
102
RTVSPost2010PropOp48
 70
     1
102
RTVSPost2010Prop49
280
     0
102
RTVSPost2010PropOp49
 70
     1
102
RTVSPost2010Prop50
 90
       50
102
RTVSPost2010PropOp50
 70
     1
102
RTVSPost2010Prop51ColorIndex
 90
      256
102
RTVSPost2010Prop51ColorRGB
 90
-16777216
102
RTVSPost2010PropOp51
 70
     0
102
RTVSPost2010Prop52
140
1.0
102
RTVSPost2010PropOp52
 70
     0
102
RTVSPost2010Prop53
 90
        2
102
RTVSPost2010PropOp53
 70
     1
102
RTVSPost2010Prop54
  1
strokes_ogs.tif
102
RTVSPost2010PropOp54
 70
     1
102
RTVSPost2010Prop55
280
     0
102
RTVSPost2010PropOp55
 70
     1
102
RTVSPost2010Prop56
140
1.0
102
RTVSPost2010PropOp56
 70
     1
102
RTVSPost2010Prop57
140
1.0
102
RTVSPost2010PropOp57
 70
     1
  0
XRECORD
  5
2B3
102
{ACAD_REACTORS
330
2B2
102
}
330
2B2
100
AcDbXrecord
280
     1
102
RTVSPropertyOp0
 70
     1
102
RTVSPropertyOp1
 70
     1
102
RTVSPropertyOp2
 70
     1
102
RTVSPropertyOp3
 70
     1
102
RTVSPropertyOp4
 70
     1
102
RTVSPropertyOp5
 70
     1
102
RTVSPropertyOp6
 70
     1
102
RTVSPropertyOp7
 70
     1
102
RTVSPropertyOp8
 70
     1
102
RTVSPropertyOp9
 70
     1
102
RTVSPropertyOp10
 70
     1
102
RTVSPropertyOp11
 70
     1
102
RTVSPropertyOp12
 70
     1
102
RTVSPropertyOp13
 70
     1
102
RTVSPropertyOp14
 70
     1
102
RTVSPropertyOp15
 70
     1
102
RTVSPropertyOp16
 70
     1
102
RTVSPropertyOp17
 70
     1
102
RTVSPropertyOp18
 70
     1
102
RTVSPropertyOp19
 70
     1
102
RTVSPropertyOp20
 70
     1
102
RTVSPropertyOp21
 70
     1
102
RTVSPropertyOp22
 70
     1
102
RTVSPropertyOp23
 70
     1
102
RTVSPropertyOp24
 70
     1
102
RTVSPropertyOp25
 70
     1
102
RTVSPropertyOp26
 70
     1
102
RTVSPropertyOp27
 70
     1
102
RTVSPropertyOp28
 70
     1
102
RTVSPropertyOp29
 70
     1
102
RTVSPropertyOp30
 70
     1
102
RTVSPropertyOp31
 70
     1
102
RTVSPropertyOp32
 70
     1
102
RTVSPropertyOp33
 70
     1
102
RTVSPropertyOp34
 70
     1
102
RTVSPropertyOp35
 70
     1
102
RTVSPropertyOp36
 70
     1
102
RTVSPropertyOp37
 70
     1
102
RTVSPropertyOp38
 70
     1
102
RTVSPropertyOp39
 70
     1
102
RTVSPropertyOp40
 70
     1
102
RTVSPropertyOp41
 70
     1
102
RTVSPropertyOp42
 70
     1
102
RTVSPropertyOp43
 70
     1
102
RTVSPropertyOp44
 70
     1
102
RTVSPropertyOp45
 70
     1
102
RTVSPropertyOp46
 70
     1
102
RTVSPropertyOp47
 70
     1
102
RTVSPropertyOp48
 70
     1
102
RTVSPropertyOp49
 70
     1
102
RTVSPropertyOp50
 70
     1
102
RTVSPropertyOp51
 70
     0
102
RTVSPropertyOp52
 70
     0
102
RTVSPropertyOp53
 70
     1
102
RTVSPropertyOp54
 70
     1
102
RTVSPropertyOp55
 70
     1
102
RTVSPropertyOp56
 70
     1
102
RTVSPropertyOp57
 70
     1
102
RTVSPost2010Prop28
280
     0
102
RTVSPost2010PropOp28
 70
     1
102
RTVSPost2010Prop29
280
     1
102
RTVSPost2010PropOp29
 70
     1
102
RTVSPost2010Prop30
280
     1
102
RTVSPost2010PropOp30
 70
     1
102
RTVSPost2010Prop31
280
     0
102
RTVSPost2010PropOp31
 70
     1
102
RTVSPost2010Prop32
280
     0
102
RTVSPost2010PropOp32
 70
     1
102
RTVSPost2010Prop33
280
     0
102
RTVSPost2010PropOp33
 70
     1
102
RTVSPost2010Prop34
280
     0
102
RTVSPost2010PropOp34
 70
     1
102
RTVSPost2010Prop35
280
     0
102
RTVSPost2010PropOp35
 70
     1
102
RTVSPost2010Prop36
280
     0
102
RTVSPost2010PropOp36
 70
     1
102
RTVSPost2010Prop37
 90
       50
102
RTVSPost2010PropOp37
 70
     1
102
RTVSPost2010Prop38
140
0.0
102
RTVSPost2010PropOp38
 70
     1
102
RTVSPost2010Prop39
140
1.0
102
RTVSPost2010PropOp39
 70
     1
102
RTVSPost2010Prop40
 90
        0
102
RTVSPost2010PropOp40
 70
     1
102
RTVSPost2010Prop41ColorIndex
 90
       18
102
RTVSPost2010Prop41ColorRGB
 90
        0
102
RTVSPost2010PropOp41
 70
     1
102
RTVSPost2010Prop42
 90
       50
102
RTVSPost2010PropOp42
 70
     1
102
RTVSPost2010Prop43
 90
        3
102
RTVSPost2010PropOp43
 70
     1
102
RTVSPost2010Prop44ColorIndex
 90
        5
102
RTVSPost2010Prop44ColorRGB
 90
      255
102
RTVSPost2010PropOp44
 70
     1
102
RTVSPost2010Prop45
280
     0
102
RTVSPost2010PropOp45
 70
     1
102
RTVSPost2010Prop46
 90
       50
102
RTVSPost2010PropOp46
 70
     1
102
RTVSPost2010Prop47
 90
       50
102
RTVSPost2010PropOp47
 70
     1
102
RTVSPost2010Prop48
 90
       50
102
RTVSPost2010PropOp48
 70
     1
102
RTVSPost2010Prop49
280
     0
102
RTVSPost2010PropOp49
 70
     1
102
RTVSPost2010Prop50
 90
       50
102
RTVSPost2010PropOp50
 70
     1
102
RTVSPost2010Prop51ColorIndex
 90
      256
102
RTVSPost2010Prop51ColorRGB
 90
-16777216
102
RTVSPost2010PropOp51
 70
     0
102
RTVSPost2010Prop52
140
1.0
102
RTVSPost2010PropOp52
 70
     0
102
RTVSPost2010Prop53
 90
        2
102
RTVSPost2010PropOp53
 70
     1
102
RTVSPost2010Prop54
  1
strokes_ogs.tif
102
RTVSPost2010PropOp54
 70
     1
102
RTVSPost2010Prop55
280
     0
102
RTVSPost2010PropOp55
 70
     1
102
RTVSPost2010Prop56
140
1.0
102
RTVSPost2010PropOp56
 70
     1
102
RTVSPost2010Prop57
140
1.0
102
RTVSPost2010PropOp57
 70
     1
  0
XRECORD
  5
2B1
102
{ACAD_REACTORS
330
2B0
102
}
330
2B0
100
AcDbXrecord
280
     1
102
RTVSPropertyOp0
 70
     1
102
RTVSPropertyOp1
 70
     1
102
RTVSPropertyOp2
 70
     1
102
RTVSPropertyOp3
 70
     1
102
RTVSPropertyOp4
 70
     1
102
RTVSPropertyOp5
 70
     1
102
RTVSPropertyOp6
 70
     1
102
RTVSPropertyOp7
 70
     1
102
RTVSPropertyOp8
 70
     1
102
RTVSPropertyOp9
 70
     1
102
RTVSPropertyOp10
 70
     1
102
RTVSPropertyOp11
 70
     1
102
RTVSPropertyOp12
 70
     1
102
RTVSPropertyOp13
 70
     1
102
RTVSPropertyOp14
 70
     1
102
RTVSPropertyOp15
 70
     1
102
RTVSPropertyOp16
 70
     1
102
RTVSPropertyOp17
 70
     1
102
RTVSPropertyOp18
 70
     1
102
RTVSPropertyOp19
 70
     1
102
RTVSPropertyOp20
 70
     1
102
RTVSPropertyOp21
 70
     1
102
RTVSPropertyOp22
 70
     1
102
RTVSPropertyOp23
 70
     1
102
RTVSPropertyOp24
 70
     1
102
RTVSPropertyOp25
 70
     1
102
RTVSPropertyOp26
 70
     1
102
RTVSPropertyOp27
 70
     1
102
RTVSPropertyOp28
 70
     1
102
RTVSPropertyOp29
 70
     1
102
RTVSPropertyOp30
 70
     1
102
RTVSPropertyOp31
 70
     1
102
RTVSPropertyOp32
 70
     1
102
RTVSPropertyOp33
 70
     1
102
RTVSPropertyOp34
 70
     1
102
RTVSPropertyOp35
 70
     1
102
RTVSPropertyOp36
 70
     1
102
RTVSPropertyOp37
 70
     1
102
RTVSPropertyOp38
 70
     1
102
RTVSPropertyOp39
 70
     1
102
RTVSPropertyOp40
 70
     1
102
RTVSPropertyOp41
 70
     1
102
RTVSPropertyOp42
 70
     1
102
RTVSPropertyOp43
 70
     1
102
RTVSPropertyOp44
 70
     1
102
RTVSPropertyOp45
 70
     1
102
RTVSPropertyOp46
 70
     1
102
RTVSPropertyOp47
 70
     1
102
RTVSPropertyOp48
 70
     1
102
RTVSPropertyOp49
 70
     1
102
RTVSPropertyOp50
 70
     1
102
RTVSPropertyOp51
 70
     0
102
RTVSPropertyOp52
 70
     0
102
RTVSPropertyOp53
 70
     1
102
RTVSPropertyOp54
 70
     1
102
RTVSPropertyOp55
 70
     1
102
RTVSPropertyOp56
 70
     1
102
RTVSPropertyOp57
 70
     1
102
RTVSPost2010Prop28
280
     0
102
RTVSPost2010PropOp28
 70
     1
102
RTVSPost2010Prop29
280
     1
102
RTVSPost2010PropOp29
 70
     1
102
RTVSPost2010Prop30
280
     1
102
RTVSPost2010PropOp30
 70
     1
102
RTVSPost2010Prop31
280
     0
102
RTVSPost2010PropOp31
 70
     1
102
RTVSPost2010Prop32
280
     0
102
RTVSPost2010PropOp32
 70
     1
102
RTVSPost2010Prop33
280
     0
102
RTVSPost2010PropOp33
 70
     1
102
RTVSPost2010Prop34
280
     0
102
RTVSPost2010PropOp34
 70
     1
102
RTVSPost2010Prop35
280
     0
102
RTVSPost2010PropOp35
 70
     1
102
RTVSPost2010Prop36
280
     0
102
RTVSPost2010PropOp36
 70
     1
102
RTVSPost2010Prop37
 90
       50
102
RTVSPost2010PropOp37
 70
     1
102
RTVSPost2010Prop38
140
0.0
102
RTVSPost2010PropOp38
 70
     1
102
RTVSPost2010Prop39
140
1.0
102
RTVSPost2010PropOp39
 70
     1
102
RTVSPost2010Prop40
 90
        0
102
RTVSPost2010PropOp40
 70
     1
102
RTVSPost2010Prop41ColorIndex
 90
       18
102
RTVSPost2010Prop41ColorRGB
 90
        0
102
RTVSPost2010PropOp41
 70
     1
102
RTVSPost2010Prop42
 90
       50
102
RTVSPost2010PropOp42
 70
     1
102
RTVSPost2010Prop43
 90
        3
102
RTVSPost2010PropOp43
 70
     1
102
RTVSPost2010Prop44ColorIndex
 90
        5
102
RTVSPost2010Prop44ColorRGB
 90
      255
102
RTVSPost2010PropOp44
 70
     1
102
RTVSPost2010Prop45
280
     0
102
RTVSPost2010PropOp45
 70
     1
102
RTVSPost2010Prop46
 90
       50
102
RTVSPost2010PropOp46
 70
     1
102
RTVSPost2010Prop47
 90
       50
102
RTVSPost2010PropOp47
 70
     1
102
RTVSPost2010Prop48
 90
       50
102
RTVSPost2010PropOp48
 70
     1
102
RTVSPost2010Prop49
280
     0
102
RTVSPost2010PropOp49
 70
     1
102
RTVSPost2010Prop50
 90
       50
102
RTVSPost2010PropOp50
 70
     1
102
RTVSPost2010Prop51ColorIndex
 90
      256
102
RTVSPost2010Prop51ColorRGB
 90
-16777216
102
RTVSPost2010PropOp51
 70
     0
102
RTVSPost2010Prop52
140
1.0
102
RTVSPost2010PropOp52
 70
     0
102
RTVSPost2010Prop53
 90
        2
102
RTVSPost2010PropOp53
 70
     1
102
RTVSPost2010Prop54
  1
strokes_ogs.tif
102
RTVSPost2010PropOp54
 70
     1
102
RTVSPost2010Prop55
280
     0
102
RTVSPost2010PropOp55
 70
     1
102
RTVSPost2010Prop56
140
1.0
102
RTVSPost2010PropOp56
 70
     1
102
RTVSPost2010Prop57
140
1.0
102
RTVSPost2010PropOp57
 70
     1
  0
XRECORD
  5
2AB
102
{ACAD_REACTORS
330
2AA
102
}
330
2AA
100
AcDbXrecord
280
     1
102
RTVSPropertyOp0
 70
     1
102
RTVSPropertyOp1
 70
     1
102
RTVSPropertyOp2
 70
     1
102
RTVSPropertyOp3
 70
     1
102
RTVSPropertyOp4
 70
     1
102
RTVSPropertyOp5
 70
     1
102
RTVSPropertyOp6
 70
     1
102
RTVSPropertyOp7
 70
     1
102
RTVSPropertyOp8
 70
     1
102
RTVSPropertyOp9
 70
     1
102
RTVSPropertyOp10
 70
     1
102
RTVSPropertyOp11
 70
     1
102
RTVSPropertyOp12
 70
     1
102
RTVSPropertyOp13
 70
     1
102
RTVSPropertyOp14
 70
     1
102
RTVSPropertyOp15
 70
     1
102
RTVSPropertyOp16
 70
     1
102
RTVSPropertyOp17
 70
     1
102
RTVSPropertyOp18
 70
     1
102
RTVSPropertyOp19
 70
     1
102
RTVSPropertyOp20
 70
     1
102
RTVSPropertyOp21
 70
     1
102
RTVSPropertyOp22
 70
     1
102
RTVSPropertyOp23
 70
     1
102
RTVSPropertyOp24
 70
     1
102
RTVSPropertyOp25
 70
     1
102
RTVSPropertyOp26
 70
     1
102
RTVSPropertyOp27
 70
     1
102
RTVSPropertyOp28
 70
     1
102
RTVSPropertyOp29
 70
     1
102
RTVSPropertyOp30
 70
     1
102
RTVSPropertyOp31
 70
     1
102
RTVSPropertyOp32
 70
     1
102
RTVSPropertyOp33
 70
     1
102
RTVSPropertyOp34
 70
     1
102
RTVSPropertyOp35
 70
     1
102
RTVSPropertyOp36
 70
     1
102
RTVSPropertyOp37
 70
     1
102
RTVSPropertyOp38
 70
     1
102
RTVSPropertyOp39
 70
     1
102
RTVSPropertyOp40
 70
     1
102
RTVSPropertyOp41
 70
     1
102
RTVSPropertyOp42
 70
     1
102
RTVSPropertyOp43
 70
     1
102
RTVSPropertyOp44
 70
     1
102
RTVSPropertyOp45
 70
     1
102
RTVSPropertyOp46
 70
     1
102
RTVSPropertyOp47
 70
     1
102
RTVSPropertyOp48
 70
     1
102
RTVSPropertyOp49
 70
     1
102
RTVSPropertyOp50
 70
     1
102
RTVSPropertyOp51
 70
     0
102
RTVSPropertyOp52
 70
     0
102
RTVSPropertyOp53
 70
     1
102
RTVSPropertyOp54
 70
     1
102
RTVSPropertyOp55
 70
     1
102
RTVSPropertyOp56
 70
     1
102
RTVSPropertyOp57
 70
     1
102
RTVSPost2010Prop28
280
     0
102
RTVSPost2010PropOp28
 70
     1
102
RTVSPost2010Prop29
280
     1
102
RTVSPost2010PropOp29
 70
     1
102
RTVSPost2010Prop30
280
     1
102
RTVSPost2010PropOp30
 70
     1
102
RTVSPost2010Prop31
280
     0
102
RTVSPost2010PropOp31
 70
     1
102
RTVSPost2010Prop32
280
     0
102
RTVSPost2010PropOp32
 70
     1
102
RTVSPost2010Prop33
280
     0
102
RTVSPost2010PropOp33
 70
     1
102
RTVSPost2010Prop34
280
     0
102
RTVSPost2010PropOp34
 70
     1
102
RTVSPost2010Prop35
280
     0
102
RTVSPost2010PropOp35
 70
     1
102
RTVSPost2010Prop36
280
     0
102
RTVSPost2010PropOp36
 70
     1
102
RTVSPost2010Prop37
 90
       50
102
RTVSPost2010PropOp37
 70
     1
102
RTVSPost2010Prop38
140
0.0
102
RTVSPost2010PropOp38
 70
     1
102
RTVSPost2010Prop39
140
1.0
102
RTVSPost2010PropOp39
 70
     1
102
RTVSPost2010Prop40
 90
        0
102
RTVSPost2010PropOp40
 70
     1
102
RTVSPost2010Prop41ColorIndex
 90
       18
102
RTVSPost2010Prop41ColorRGB
 90
        0
102
RTVSPost2010PropOp41
 70
     1
102
RTVSPost2010Prop42
 90
       50
102
RTVSPost2010PropOp42
 70
     1
102
RTVSPost2010Prop43
 90
        3
102
RTVSPost2010PropOp43
 70
     1
102
RTVSPost2010Prop44ColorIndex
 90
        5
102
RTVSPost2010Prop44ColorRGB
 90
      255
102
RTVSPost2010PropOp44
 70
     1
102
RTVSPost2010Prop45
280
     0
102
RTVSPost2010PropOp45
 70
     1
102
RTVSPost2010Prop46
 90
       50
102
RTVSPost2010PropOp46
 70
     1
102
RTVSPost2010Prop47
 90
       50
102
RTVSPost2010PropOp47
 70
     1
102
RTVSPost2010Prop48
 90
       50
102
RTVSPost2010PropOp48
 70
     1
102
RTVSPost2010Prop49
280
     0
102
RTVSPost2010PropOp49
 70
     1
102
RTVSPost2010Prop50
 90
       50
102
RTVSPost2010PropOp50
 70
     1
102
RTVSPost2010Prop51ColorIndex
 90
      256
102
RTVSPost2010Prop51ColorRGB
 90
-16777216
102
RTVSPost2010PropOp51
 70
     0
102
RTVSPost2010Prop52
140
1.0
102
RTVSPost2010PropOp52
 70
     0
102
RTVSPost2010Prop53
 90
        2
102
RTVSPost2010PropOp53
 70
     1
102
RTVSPost2010Prop54
  1
strokes_ogs.tif
102
RTVSPost2010PropOp54
 70
     1
102
RTVSPost2010Prop55
280
     0
102
RTVSPost2010PropOp55
 70
     1
102
RTVSPost2010Prop56
140
1.0
102
RTVSPost2010PropOp56
 70
     1
102
RTVSPost2010Prop57
140
1.0
102
RTVSPost2010PropOp57
 70
     1
  0
XRECORD
  5
2AD
102
{ACAD_REACTORS
330
2AC
102
}
330
2AC
100
AcDbXrecord
280
     1
102
RTVSPropertyOp0
 70
     1
102
RTVSPropertyOp1
 70
     1
102
RTVSPropertyOp2
 70
     1
102
RTVSPropertyOp3
 70
     1
102
RTVSPropertyOp4
 70
     1
102
RTVSPropertyOp5
 70
     1
102
RTVSPropertyOp6
 70
     1
102
RTVSPropertyOp7
 70
     1
102
RTVSPropertyOp8
 70
     1
102
RTVSPropertyOp9
 70
     1
102
RTVSPropertyOp10
 70
     1
102
RTVSPropertyOp11
 70
     1
102
RTVSPropertyOp12
 70
     1
102
RTVSPropertyOp13
 70
     1
102
RTVSPropertyOp14
 70
     1
102
RTVSPropertyOp15
 70
     1
102
RTVSPropertyOp16
 70
     1
102
RTVSPropertyOp17
 70
     1
102
RTVSPropertyOp18
 70
     1
102
RTVSPropertyOp19
 70
     1
102
RTVSPropertyOp20
 70
     1
102
RTVSPropertyOp21
 70
     1
102
RTVSPropertyOp22
 70
     1
102
RTVSPropertyOp23
 70
     1
102
RTVSPropertyOp24
 70
     1
102
RTVSPropertyOp25
 70
     1
102
RTVSPropertyOp26
 70
     1
102
RTVSPropertyOp27
 70
     1
102
RTVSPropertyOp28
 70
     1
102
RTVSPropertyOp29
 70
     1
102
RTVSPropertyOp30
 70
     1
102
RTVSPropertyOp31
 70
     1
102
RTVSPropertyOp32
 70
     1
102
RTVSPropertyOp33
 70
     1
102
RTVSPropertyOp34
 70
     1
102
RTVSPropertyOp35
 70
     1
102
RTVSPropertyOp36
 70
     1
102
RTVSPropertyOp37
 70
     1
102
RTVSPropertyOp38
 70
     1
102
RTVSPropertyOp39
 70
     1
102
RTVSPropertyOp40
 70
     1
102
RTVSPropertyOp41
 70
     1
102
RTVSPropertyOp42
 70
     1
102
RTVSPropertyOp43
 70
     1
102
RTVSPropertyOp44
 70
     1
102
RTVSPropertyOp45
 70
     1
102
RTVSPropertyOp46
 70
     1
102
RTVSPropertyOp47
 70
     1
102
RTVSPropertyOp48
 70
     1
102
RTVSPropertyOp49
 70
     1
102
RTVSPropertyOp50
 70
     1
102
RTVSPropertyOp51
 70
     0
102
RTVSPropertyOp52
 70
     0
102
RTVSPropertyOp53
 70
     1
102
RTVSPropertyOp54
 70
     1
102
RTVSPropertyOp55
 70
     1
102
RTVSPropertyOp56
 70
     1
102
RTVSPropertyOp57
 70
     1
102
RTVSPost2010Prop28
280
     0
102
RTVSPost2010PropOp28
 70
     1
102
RTVSPost2010Prop29
280
     1
102
RTVSPost2010PropOp29
 70
     1
102
RTVSPost2010Prop30
280
     1
102
RTVSPost2010PropOp30
 70
     1
102
RTVSPost2010Prop31
280
     0
102
RTVSPost2010PropOp31
 70
     1
102
RTVSPost2010Prop32
280
     0
102
RTVSPost2010PropOp32
 70
     1
102
RTVSPost2010Prop33
280
     0
102
RTVSPost2010PropOp33
 70
     1
102
RTVSPost2010Prop34
280
     0
102
RTVSPost2010PropOp34
 70
     1
102
RTVSPost2010Prop35
280
     0
102
RTVSPost2010PropOp35
 70
     1
102
RTVSPost2010Prop36
280
     0
102
RTVSPost2010PropOp36
 70
     1
102
RTVSPost2010Prop37
 90
       50
102
RTVSPost2010PropOp37
 70
     1
102
RTVSPost2010Prop38
140
0.0
102
RTVSPost2010PropOp38
 70
     1
102
RTVSPost2010Prop39
140
1.0
102
RTVSPost2010PropOp39
 70
     1
102
RTVSPost2010Prop40
 90
        0
102
RTVSPost2010PropOp40
 70
     1
102
RTVSPost2010Prop41ColorIndex
 90
       18
102
RTVSPost2010Prop41ColorRGB
 90
        0
102
RTVSPost2010PropOp41
 70
     1
102
RTVSPost2010Prop42
 90
       50
102
RTVSPost2010PropOp42
 70
     1
102
RTVSPost2010Prop43
 90
        3
102
RTVSPost2010PropOp43
 70
     1
102
RTVSPost2010Prop44ColorIndex
 90
        5
102
RTVSPost2010Prop44ColorRGB
 90
      255
102
RTVSPost2010PropOp44
 70
     1
102
RTVSPost2010Prop45
280
     0
102
RTVSPost2010PropOp45
 70
     1
102
RTVSPost2010Prop46
 90
       50
102
RTVSPost2010PropOp46
 70
     1
102
RTVSPost2010Prop47
 90
       50
102
RTVSPost2010PropOp47
 70
     1
102
RTVSPost2010Prop48
 90
       50
102
RTVSPost2010PropOp48
 70
     1
102
RTVSPost2010Prop49
280
     0
102
RTVSPost2010PropOp49
 70
     1
102
RTVSPost2010Prop50
 90
       50
102
RTVSPost2010PropOp50
 70
     1
102
RTVSPost2010Prop51ColorIndex
 90
      256
102
RTVSPost2010Prop51ColorRGB
 90
-16777216
102
RTVSPost2010PropOp51
 70
     0
102
RTVSPost2010Prop52
140
1.0
102
RTVSPost2010PropOp52
 70
     0
102
RTVSPost2010Prop53
 90
        2
102
RTVSPost2010PropOp53
 70
     1
102
RTVSPost2010Prop54
  1
strokes_ogs.tif
102
RTVSPost2010PropOp54
 70
     1
102
RTVSPost2010Prop55
280
     0
102
RTVSPost2010PropOp55
 70
     1
102
RTVSPost2010Prop56
140
1.0
102
RTVSPost2010PropOp56
 70
     1
102
RTVSPost2010Prop57
140
1.0
102
RTVSPost2010PropOp57
 70
     1
  0
XRECORD
  5
29D
102
{ACAD_REACTORS
330
29C
102
}
330
29C
100
AcDbXrecord
280
     1
102
RTVSPropertyOp0
 70
     1
102
RTVSPropertyOp1
 70
     1
102
RTVSPropertyOp2
 70
     1
102
RTVSPropertyOp3
 70
     1
102
RTVSPropertyOp4
 70
     1
102
RTVSPropertyOp5
 70
     1
102
RTVSPropertyOp6
 70
     1
102
RTVSPropertyOp7
 70
     1
102
RTVSPropertyOp8
 70
     1
102
RTVSPropertyOp9
 70
     1
102
RTVSPropertyOp10
 70
     1
102
RTVSPropertyOp11
 70
     1
102
RTVSPropertyOp12
 70
     1
102
RTVSPropertyOp13
 70
     1
102
RTVSPropertyOp14
 70
     1
102
RTVSPropertyOp15
 70
     1
102
RTVSPropertyOp16
 70
     1
102
RTVSPropertyOp17
 70
     1
102
RTVSPropertyOp18
 70
     1
102
RTVSPropertyOp19
 70
     1
102
RTVSPropertyOp20
 70
     1
102
RTVSPropertyOp21
 70
     1
102
RTVSPropertyOp22
 70
     1
102
RTVSPropertyOp23
 70
     1
102
RTVSPropertyOp24
 70
     1
102
RTVSPropertyOp25
 70
     1
102
RTVSPropertyOp26
 70
     1
102
RTVSPropertyOp27
 70
     1
102
RTVSPropertyOp28
 70
     1
102
RTVSPropertyOp29
 70
     1
102
RTVSPropertyOp30
 70
     1
102
RTVSPropertyOp31
 70
     1
102
RTVSPropertyOp32
 70
     1
102
RTVSPropertyOp33
 70
     1
102
RTVSPropertyOp34
 70
     1
102
RTVSPropertyOp35
 70
     1
102
RTVSPropertyOp36
 70
     1
102
RTVSPropertyOp37
 70
     1
102
RTVSPropertyOp38
 70
     1
102
RTVSPropertyOp39
 70
     1
102
RTVSPropertyOp40
 70
     1
102
RTVSPropertyOp41
 70
     1
102
RTVSPropertyOp42
 70
     1
102
RTVSPropertyOp43
 70
     1
102
RTVSPropertyOp44
 70
     1
102
RTVSPropertyOp45
 70
     1
102
RTVSPropertyOp46
 70
     1
102
RTVSPropertyOp47
 70
     1
102
RTVSPropertyOp48
 70
     1
102
RTVSPropertyOp49
 70
     1
102
RTVSPropertyOp50
 70
     1
102
RTVSPropertyOp51
 70
     0
102
RTVSPropertyOp52
 70
     0
102
RTVSPropertyOp53
 70
     1
102
RTVSPropertyOp54
 70
     1
102
RTVSPropertyOp55
 70
     1
102
RTVSPropertyOp56
 70
     1
102
RTVSPropertyOp57
 70
     1
102
RTVSPost2010Prop28
280
     0
102
RTVSPost2010PropOp28
 70
     1
102
RTVSPost2010Prop29
280
     1
102
RTVSPost2010PropOp29
 70
     1
102
RTVSPost2010Prop30
280
     1
102
RTVSPost2010PropOp30
 70
     1
102
RTVSPost2010Prop31
280
     0
102
RTVSPost2010PropOp31
 70
     1
102
RTVSPost2010Prop32
280
     0
102
RTVSPost2010PropOp32
 70
     1
102
RTVSPost2010Prop33
280
     0
102
RTVSPost2010PropOp33
 70
     1
102
RTVSPost2010Prop34
280
     0
102
RTVSPost2010PropOp34
 70
     1
102
RTVSPost2010Prop35
280
     0
102
RTVSPost2010PropOp35
 70
     1
102
RTVSPost2010Prop36
280
     0
102
RTVSPost2010PropOp36
 70
     1
102
RTVSPost2010Prop37
 90
       50
102
RTVSPost2010PropOp37
 70
     1
102
RTVSPost2010Prop38
140
0.0
102
RTVSPost2010PropOp38
 70
     1
102
RTVSPost2010Prop39
140
1.0
102
RTVSPost2010PropOp39
 70
     1
102
RTVSPost2010Prop40
 90
        0
102
RTVSPost2010PropOp40
 70
     1
102
RTVSPost2010Prop41ColorIndex
 90
       18
102
RTVSPost2010Prop41ColorRGB
 90
        0
102
RTVSPost2010PropOp41
 70
     1
102
RTVSPost2010Prop42
 90
       50
102
RTVSPost2010PropOp42
 70
     1
102
RTVSPost2010Prop43
 90
        3
102
RTVSPost2010PropOp43
 70
     1
102
RTVSPost2010Prop44ColorIndex
 90
        5
102
RTVSPost2010Prop44ColorRGB
 90
      255
102
RTVSPost2010PropOp44
 70
     1
102
RTVSPost2010Prop45
280
     0
102
RTVSPost2010PropOp45
 70
     1
102
RTVSPost2010Prop46
 90
       50
102
RTVSPost2010PropOp46
 70
     1
102
RTVSPost2010Prop47
 90
       50
102
RTVSPost2010PropOp47
 70
     1
102
RTVSPost2010Prop48
 90
       50
102
RTVSPost2010PropOp48
 70
     1
102
RTVSPost2010Prop49
280
     0
102
RTVSPost2010PropOp49
 70
     1
102
RTVSPost2010Prop50
 90
       50
102
RTVSPost2010PropOp50
 70
     1
102
RTVSPost2010Prop51ColorIndex
 90
      256
102
RTVSPost2010Prop51ColorRGB
 90
-16777216
102
RTVSPost2010PropOp51
 70
     0
102
RTVSPost2010Prop52
140
1.0
102
RTVSPost2010PropOp52
 70
     0
102
RTVSPost2010Prop53
 90
        2
102
RTVSPost2010PropOp53
 70
     1
102
RTVSPost2010Prop54
  1
strokes_ogs.tif
102
RTVSPost2010PropOp54
 70
     1
102
RTVSPost2010Prop55
280
     0
102
RTVSPost2010PropOp55
 70
     1
102
RTVSPost2010Prop56
140
1.0
102
RTVSPost2010PropOp56
 70
     1
102
RTVSPost2010Prop57
140
1.0
102
RTVSPost2010PropOp57
 70
     1
  0
XRECORD
  5
28F
102
{ACAD_REACTORS
330
28E
102
}
330
28E
100
AcDbXrecord
280
     1
102
RTVSPropertyOp0
 70
     1
102
RTVSPropertyOp1
 70
     1
102
RTVSPropertyOp2
 70
     1
102
RTVSPropertyOp3
 70
     1
102
RTVSPropertyOp4
 70
     1
102
RTVSPropertyOp5
 70
     1
102
RTVSPropertyOp6
 70
     1
102
RTVSPropertyOp7
 70
     1
102
RTVSPropertyOp8
 70
     1
102
RTVSPropertyOp9
 70
     1
102
RTVSPropertyOp10
 70
     1
102
RTVSPropertyOp11
 70
     1
102
RTVSPropertyOp12
 70
     1
102
RTVSPropertyOp13
 70
     1
102
RTVSPropertyOp14
 70
     1
102
RTVSPropertyOp15
 70
     1
102
RTVSPropertyOp16
 70
     1
102
RTVSPropertyOp17
 70
     1
102
RTVSPropertyOp18
 70
     1
102
RTVSPropertyOp19
 70
     1
102
RTVSPropertyOp20
 70
     1
102
RTVSPropertyOp21
 70
     1
102
RTVSPropertyOp22
 70
     1
102
RTVSPropertyOp23
 70
     1
102
RTVSPropertyOp24
 70
     1
102
RTVSPropertyOp25
 70
     1
102
RTVSPropertyOp26
 70
     1
102
RTVSPropertyOp27
 70
     1
102
RTVSPropertyOp28
 70
     1
102
RTVSPropertyOp29
 70
     1
102
RTVSPropertyOp30
 70
     1
102
RTVSPropertyOp31
 70
     1
102
RTVSPropertyOp32
 70
     1
102
RTVSPropertyOp33
 70
     1
102
RTVSPropertyOp34
 70
     1
102
RTVSPropertyOp35
 70
     1
102
RTVSPropertyOp36
 70
     1
102
RTVSPropertyOp37
 70
     1
102
RTVSPropertyOp38
 70
     1
102
RTVSPropertyOp39
 70
     1
102
RTVSPropertyOp40
 70
     1
102
RTVSPropertyOp41
 70
     1
102
RTVSPropertyOp42
 70
     1
102
RTVSPropertyOp43
 70
     1
102
RTVSPropertyOp44
 70
     1
102
RTVSPropertyOp45
 70
     1
102
RTVSPropertyOp46
 70
     1
102
RTVSPropertyOp47
 70
     1
102
RTVSPropertyOp48
 70
     1
102
RTVSPropertyOp49
 70
     1
102
RTVSPropertyOp50
 70
     1
102
RTVSPropertyOp51
 70
     0
102
RTVSPropertyOp52
 70
     0
102
RTVSPropertyOp53
 70
     1
102
RTVSPropertyOp54
 70
     1
102
RTVSPropertyOp55
 70
     1
102
RTVSPropertyOp56
 70
     1
102
RTVSPropertyOp57
 70
     1
102
RTVSPost2010Prop28
280
     0
102
RTVSPost2010PropOp28
 70
     1
102
RTVSPost2010Prop29
280
     1
102
RTVSPost2010PropOp29
 70
     1
102
RTVSPost2010Prop30
280
     1
102
RTVSPost2010PropOp30
 70
     1
102
RTVSPost2010Prop31
280
     0
102
RTVSPost2010PropOp31
 70
     1
102
RTVSPost2010Prop32
280
     0
102
RTVSPost2010PropOp32
 70
     1
102
RTVSPost2010Prop33
280
     0
102
RTVSPost2010PropOp33
 70
     1
102
RTVSPost2010Prop34
280
     0
102
RTVSPost2010PropOp34
 70
     1
102
RTVSPost2010Prop35
280
     0
102
RTVSPost2010PropOp35
 70
     1
102
RTVSPost2010Prop36
280
     0
102
RTVSPost2010PropOp36
 70
     1
102
RTVSPost2010Prop37
 90
       50
102
RTVSPost2010PropOp37
 70
     1
102
RTVSPost2010Prop38
140
0.0
102
RTVSPost2010PropOp38
 70
     1
102
RTVSPost2010Prop39
140
1.0
102
RTVSPost2010PropOp39
 70
     1
102
RTVSPost2010Prop40
 90
        0
102
RTVSPost2010PropOp40
 70
     1
102
RTVSPost2010Prop41ColorIndex
 90
       18
102
RTVSPost2010Prop41ColorRGB
 90
        0
102
RTVSPost2010PropOp41
 70
     1
102
RTVSPost2010Prop42
 90
       50
102
RTVSPost2010PropOp42
 70
     1
102
RTVSPost2010Prop43
 90
        3
102
RTVSPost2010PropOp43
 70
     1
102
RTVSPost2010Prop44ColorIndex
 90
        5
102
RTVSPost2010Prop44ColorRGB
 90
      255
102
RTVSPost2010PropOp44
 70
     1
102
RTVSPost2010Prop45
280
     0
102
RTVSPost2010PropOp45
 70
     1
102
RTVSPost2010Prop46
 90
       50
102
RTVSPost2010PropOp46
 70
     1
102
RTVSPost2010Prop47
 90
       50
102
RTVSPost2010PropOp47
 70
     1
102
RTVSPost2010Prop48
 90
       50
102
RTVSPost2010PropOp48
 70
     1
102
RTVSPost2010Prop49
280
     0
102
RTVSPost2010PropOp49
 70
     1
102
RTVSPost2010Prop50
 90
       50
102
RTVSPost2010PropOp50
 70
     1
102
RTVSPost2010Prop51ColorIndex
 90
      256
102
RTVSPost2010Prop51ColorRGB
 90
-16777216
102
RTVSPost2010PropOp51
 70
     0
102
RTVSPost2010Prop52
140
1.0
102
RTVSPost2010PropOp52
 70
     0
102
RTVSPost2010Prop53
 90
        2
102
RTVSPost2010PropOp53
 70
     1
102
RTVSPost2010Prop54
  1
strokes_ogs.tif
102
RTVSPost2010PropOp54
 70
     1
102
RTVSPost2010Prop55
280
     0
102
RTVSPost2010PropOp55
 70
     1
102
RTVSPost2010Prop56
140
1.0
102
RTVSPost2010PropOp56
 70
     1
102
RTVSPost2010Prop57
140
1.0
102
RTVSPost2010PropOp57
 70
     1
  0
XRECORD
  5
2AF
102
{ACAD_REACTORS
330
2AE
102
}
330
2AE
100
AcDbXrecord
280
     1
102
RTVSPropertyOp0
 70
     1
102
RTVSPropertyOp1
 70
     1
102
RTVSPropertyOp2
 70
     1
102
RTVSPropertyOp3
 70
     1
102
RTVSPropertyOp4
 70
     1
102
RTVSPropertyOp5
 70
     1
102
RTVSPropertyOp6
 70
     1
102
RTVSPropertyOp7
 70
     1
102
RTVSPropertyOp8
 70
     1
102
RTVSPropertyOp9
 70
     1
102
RTVSPropertyOp10
 70
     1
102
RTVSPropertyOp11
 70
     1
102
RTVSPropertyOp12
 70
     1
102
RTVSPropertyOp13
 70
     1
102
RTVSPropertyOp14
 70
     1
102
RTVSPropertyOp15
 70
     1
102
RTVSPropertyOp16
 70
     1
102
RTVSPropertyOp17
 70
     1
102
RTVSPropertyOp18
 70
     1
102
RTVSPropertyOp19
 70
     1
102
RTVSPropertyOp20
 70
     1
102
RTVSPropertyOp21
 70
     1
102
RTVSPropertyOp22
 70
     1
102
RTVSPropertyOp23
 70
     1
102
RTVSPropertyOp24
 70
     1
102
RTVSPropertyOp25
 70
     1
102
RTVSPropertyOp26
 70
     1
102
RTVSPropertyOp27
 70
     1
102
RTVSPropertyOp28
 70
     1
102
RTVSPropertyOp29
 70
     1
102
RTVSPropertyOp30
 70
     1
102
RTVSPropertyOp31
 70
     1
102
RTVSPropertyOp32
 70
     1
102
RTVSPropertyOp33
 70
     1
102
RTVSPropertyOp34
 70
     1
102
RTVSPropertyOp35
 70
     1
102
RTVSPropertyOp36
 70
     1
102
RTVSPropertyOp37
 70
     1
102
RTVSPropertyOp38
 70
     1
102
RTVSPropertyOp39
 70
     1
102
RTVSPropertyOp40
 70
     1
102
RTVSPropertyOp41
 70
     1
102
RTVSPropertyOp42
 70
     1
102
RTVSPropertyOp43
 70
     1
102
RTVSPropertyOp44
 70
     1
102
RTVSPropertyOp45
 70
     1
102
RTVSPropertyOp46
 70
     1
102
RTVSPropertyOp47
 70
     1
102
RTVSPropertyOp48
 70
     1
102
RTVSPropertyOp49
 70
     1
102
RTVSPropertyOp50
 70
     1
102
RTVSPropertyOp51
 70
     0
102
RTVSPropertyOp52
 70
     0
102
RTVSPropertyOp53
 70
     1
102
RTVSPropertyOp54
 70
     1
102
RTVSPropertyOp55
 70
     1
102
RTVSPropertyOp56
 70
     1
102
RTVSPropertyOp57
 70
     1
102
RTVSPost2010Prop28
280
     0
102
RTVSPost2010PropOp28
 70
     1
102
RTVSPost2010Prop29
280
     1
102
RTVSPost2010PropOp29
 70
     1
102
RTVSPost2010Prop30
280
     1
102
RTVSPost2010PropOp30
 70
     1
102
RTVSPost2010Prop31
280
     0
102
RTVSPost2010PropOp31
 70
     1
102
RTVSPost2010Prop32
280
     0
102
RTVSPost2010PropOp32
 70
     1
102
RTVSPost2010Prop33
280
     0
102
RTVSPost2010PropOp33
 70
     1
102
RTVSPost2010Prop34
280
     0
102
RTVSPost2010PropOp34
 70
     1
102
RTVSPost2010Prop35
280
     0
102
RTVSPost2010PropOp35
 70
     1
102
RTVSPost2010Prop36
280
     0
102
RTVSPost2010PropOp36
 70
     1
102
RTVSPost2010Prop37
 90
       50
102
RTVSPost2010PropOp37
 70
     1
102
RTVSPost2010Prop38
140
0.0
102
RTVSPost2010PropOp38
 70
     1
102
RTVSPost2010Prop39
140
1.0
102
RTVSPost2010PropOp39
 70
     1
102
RTVSPost2010Prop40
 90
        0
102
RTVSPost2010PropOp40
 70
     1
102
RTVSPost2010Prop41ColorIndex
 90
       18
102
RTVSPost2010Prop41ColorRGB
 90
        0
102
RTVSPost2010PropOp41
 70
     1
102
RTVSPost2010Prop42
 90
       50
102
RTVSPost2010PropOp42
 70
     1
102
RTVSPost2010Prop43
 90
        3
102
RTVSPost2010PropOp43
 70
     1
102
RTVSPost2010Prop44ColorIndex
 90
        5
102
RTVSPost2010Prop44ColorRGB
 90
      255
102
RTVSPost2010PropOp44
 70
     1
102
RTVSPost2010Prop45
280
     0
102
RTVSPost2010PropOp45
 70
     1
102
RTVSPost2010Prop46
 90
       50
102
RTVSPost2010PropOp46
 70
     1
102
RTVSPost2010Prop47
 90
       50
102
RTVSPost2010PropOp47
 70
     1
102
RTVSPost2010Prop48
 90
       50
102
RTVSPost2010PropOp48
 70
     1
102
RTVSPost2010Prop49
280
     0
102
RTVSPost2010PropOp49
 70
     1
102
RTVSPost2010Prop50
 90
       50
102
RTVSPost2010PropOp50
 70
     1
102
RTVSPost2010Prop51ColorIndex
 90
      256
102
RTVSPost2010Prop51ColorRGB
 90
-16777216
102
RTVSPost2010PropOp51
 70
     0
102
RTVSPost2010Prop52
140
1.0
102
RTVSPost2010PropOp52
 70
     0
102
RTVSPost2010Prop53
 90
        2
102
RTVSPost2010PropOp53
 70
     1
102
RTVSPost2010Prop54
  1
strokes_ogs.tif
102
RTVSPost2010PropOp54
 70
     1
102
RTVSPost2010Prop55
280
     0
102
RTVSPost2010PropOp55
 70
     1
102
RTVSPost2010Prop56
140
1.0
102
RTVSPost2010PropOp56
 70
     1
102
RTVSPost2010Prop57
140
1.0
102
RTVSPost2010PropOp57
 70
     1
  0
ENDSEC
  0
EOF
