  0
SECTION
  2
HEADER
  9
$ACADVER
  1
AC1021
  9
$ACADMAINTVER
 70
    25
  9
$DWGCODEPAGE
  3
ANSI_1252
  9
$INSBASE
 10
0.0
 20
0.0
 30
0.0
  9
$EXTMIN
 10
1.000000000000000E+20
 20
1.000000000000000E+20
 30
1.000000000000000E+20
  9
$EXTMAX
 10
-1.000000000000000E+20
 20
-1.000000000000000E+20
 30
-1.000000000000000E+20
  9
$LIMMIN
 10
0.0
 20
0.0
  9
$LIMMAX
 10
12.0
 20
9.0
  9
$ORTHOMODE
 70
     0
  9
$REGENMODE
 70
     1
  9
$FILLMODE
 70
     1
  9
$QTEXTMODE
 70
     0
  9
$MIRRTEXT
 70
     1
  9
$LTSCALE
 40
1.0
  9
$ATTMODE
 70
     1
  9
$TEXTSIZE
 40
0.2
  9
$TRACEWID
 40
0.05
  9
$TEXTSTYLE
  7
Standard
  9
$CLAYER
  8
CORTE
  9
$CELTYPE
  6
ByLayer
  9
$CECOLOR
 62
   256
  9
$CELTSCALE
 40
1.0
  9
$DISPSILH
 70
     0
  9
$DIMSCALE
 40
1.0
  9
$DIMASZ
 40
0.18
  9
$DIMEXO
 40
0.0625
  9
$DIMDLI
 40
0.38
  9
$DIMRND
 40
0.0
  9
$DIMDLE
 40
0.0
  9
$DIMEXE
 40
0.18
  9
$DIMTP
 40
0.0
  9
$DIMTM
 40
0.0
  9
$DIMTXT
 40
0.18
  9
$DIMCEN
 40
0.09
  9
$DIMTSZ
 40
0.0
  9
$DIMTOL
 70
     0
  9
$DIMLIM
 70
     0
  9
$DIMTIH
 70
     1
  9
$DIMTOH
 70
     1
  9
$DIMSE1
 70
     0
  9
$DIMSE2
 70
     0
  9
$DIMTAD
 70
     0
  9
$DIMZIN
 70
     0
  9
$DIMBLK
  1

  9
$DIMASO
 70
     1
  9
$DIMSHO
 70
     1
  9
$DIMPOST
  1

  9
$DIMAPOST
  1

  9
$DIMALT
 70
     0
  9
$DIMALTD
 70
     2
  9
$DIMALTF
 40
25.4
  9
$DIMLFAC
 40
1.0
  9
$DIMTOFL
 70
     0
  9
$DIMTVP
 40
0.0
  9
$DIMTIX
 70
     0
  9
$DIMSOXD
 70
     0
  9
$DIMSAH
 70
     0
  9
$DIMBLK1
  1

  9
$DIMBLK2
  1

  9
$DIMSTYLE
  2
STANDARD_ACAD
  9
$DIMCLRD
 70
     0
  9
$DIMCLRE
 70
     0
  9
$DIMCLRT
 70
     0
  9
$DIMTFAC
 40
1.0
  9
$DIMGAP
 40
0.09
  9
$DIMJUST
 70
     0
  9
$DIMSD1
 70
     0
  9
$DIMSD2
 70
     0
  9
$DIMTOLJ
 70
     1
  9
$DIMTZIN
 70
     0
  9
$DIMALTZ
 70
     0
  9
$DIMALTTZ
 70
     0
  9
$DIMUPT
 70
     0
  9
$DIMDEC
 70
     4
  9
$DIMTDEC
 70
     4
  9
$DIMALTU
 70
     2
  9
$DIMALTTD
 70
     2
  9
$DIMTXSTY
  7
Standard
  9
$DIMAUNIT
 70
     0
  9
$DIMADEC
 70
     0
  9
$DIMALTRND
 40
0.0
  9
$DIMAZIN
 70
     0
  9
$DIMDSEP
 70
    46
  9
$DIMATFIT
 70
     3
  9
$DIMFRAC
 70
     0
  9
$DIMLDRBLK
  1

  9
$DIMLUNIT
 70
     2
  9
$DIMLWD
 70
    -2
  9
$DIMLWE
 70
    -2
  9
$DIMTMOVE
 70
     2
  9
$DIMFXL
 40
1.0
  9
$DIMFXLON
 70
     0
  9
$DIMJOGANG
 40
0.7853981633974483
  9
$DIMTFILL
 70
     0
  9
$DIMTFILLCLR
 70
     0
  9
$DIMARCSYM
 70
     0
  9
$DIMLTYPE
  6

  9
$DIMLTEX1
  6

  9
$DIMLTEX2
  6

  9
$LUNITS
 70
     2
  9
$LUPREC
 70
     3
  9
$SKETCHINC
 40
0.1
  9
$FILLETRAD
 40
0.5
  9
$AUNITS
 70
     0
  9
$AUPREC
 70
     0
  9
$MENU
  1
.
  9
$ELEVATION
 40
0.0
  9
$PELEVATION
 40
0.0
  9
$THICKNESS
 40
0.0
  9
$LIMCHECK
 70
     0
  9
$CHAMFERA
 40
0.0
  9
$CHAMFERB
 40
0.0
  9
$CHAMFERC
 40
0.0
  9
$CHAMFERD
 40
0.0
  9
$SKPOLY
 70
     0
  9
$TDCREATE
 40
2460829.477457431
  9
$TDUCREATE
 40
2460829.602457431
  9
$TDUPDATE
 40
2460829.477471041
  9
$TDUUPDATE
 40
2460829.602471041
  9
$TDINDWG
 40
0.0000000116
  9
$TDUSRTIMER
 40
0.0000000116
  9
$USRTIMER
 70
     1
  9
$ANGBASE
 50
0.0
  9
$ANGDIR
 70
     0
  9
$PDMODE
 70
     0
  9
$PDSIZE
 40
0.0
  9
$PLINEWID
 40
0.0
  9
$SPLFRAME
 70
     0
  9
$SPLINETYPE
 70
     6
  9
$SPLINESEGS
 70
     8
  9
$HANDSEED
  5
1D4
  9
$SURFTAB1
 70
     6
  9
$SURFTAB2
 70
     6
  9
$SURFTYPE
 70
     6
  9
$SURFU
 70
     6
  9
$SURFV
 70
     6
  9
$UCSBASE
  2

  9
$UCSNAME
  2

  9
$UCSORG
 10
0.0
 20
0.0
 30
0.0
  9
$UCSXDIR
 10
1.0
 20
0.0
 30
0.0
  9
$UCSYDIR
 10
0.0
 20
1.0
 30
0.0
  9
$UCSORTHOREF
  2

  9
$UCSORTHOVIEW
 70
     0
  9
$UCSORGTOP
 10
0.0
 20
0.0
 30
0.0
  9
$UCSORGBOTTOM
 10
0.0
 20
0.0
 30
0.0
  9
$UCSORGLEFT
 10
0.0
 20
0.0
 30
0.0
  9
$UCSORGRIGHT
 10
0.0
 20
0.0
 30
0.0
  9
$UCSORGFRONT
 10
0.0
 20
0.0
 30
0.0
  9
$UCSORGBACK
 10
0.0
 20
0.0
 30
0.0
  9
$PUCSBASE
  2

  9
$PUCSNAME
  2

  9
$PUCSORG
 10
0.0
 20
0.0
 30
0.0
  9
$PUCSXDIR
 10
1.0
 20
0.0
 30
0.0
  9
$PUCSYDIR
 10
0.0
 20
1.0
 30
0.0
  9
$PUCSORTHOREF
  2

  9
$PUCSORTHOVIEW
 70
     0
  9
$PUCSORGTOP
 10
0.0
 20
0.0
 30
0.0
  9
$PUCSORGBOTTOM
 10
0.0
 20
0.0
 30
0.0
  9
$PUCSORGLEFT
 10
0.0
 20
0.0
 30
0.0
  9
$PUCSORGRIGHT
 10
0.0
 20
0.0
 30
0.0
  9
$PUCSORGFRONT
 10
0.0
 20
0.0
 30
0.0
  9
$PUCSORGBACK
 10
0.0
 20
0.0
 30
0.0
  9
$USERI1
 70
     0
  9
$USERI2
 70
     0
  9
$USERI3
 70
     0
  9
$USERI4
 70
     0
  9
$USERI5
 70
     0
  9
$USERR1
 40
0.0
  9
$USERR2
 40
0.0
  9
$USERR3
 40
0.0
  9
$USERR4
 40
0.0
  9
$USERR5
 40
0.0
  9
$WORLDVIEW
 70
     1
  9
$SHADEDGE
 70
     3
  9
$SHADEDIF
 70
    70
  9
$TILEMODE
 70
     1
  9
$MAXACTVP
 70
    64
  9
$PINSBASE
 10
0.0
 20
0.0
 30
0.0
  9
$PLIMCHECK
 70
     0
  9
$PEXTMIN
 10
1.000000000000000E+20
 20
1.000000000000000E+20
 30
1.000000000000000E+20
  9
$PEXTMAX
 10
-1.000000000000000E+20
 20
-1.000000000000000E+20
 30
-1.000000000000000E+20
  9
$PLIMMIN
 10
0.0
 20
0.0
  9
$PLIMMAX
 10
12.0
 20
9.0
  9
$UNITMODE
 70
     0
  9
$VISRETAIN
 70
     1
  9
$PLINEGEN
 70
     0
  9
$PSLTSCALE
 70
     1
  9
$TREEDEPTH
 70
  3020
  9
$CMLSTYLE
  2
Standard
  9
$CMLJUST
 70
     0
  9
$CMLSCALE
 40
1.0
  9
$PROXYGRAPHICS
 70
     1
  9
$MEASUREMENT
 70
     1
  9
$CELWEIGHT
370
    -1
  9
$ENDCAPS
280
     0
  9
$JOINSTYLE
280
     0
  9
$LWDISPLAY
290
     0
  9
$INSUNITS
 70
     4
  9
$HYPERLINKBASE
  1

  9
$STYLESHEET
  1

  9
$XEDIT
290
     1
  9
$CEPSNTYPE
380
     0
  9
$PSTYLEMODE
290
     1
  9
$FINGERPRINTGUID
  2
{d75f063b-f2bd-402a-81d0-373366102593}
  9
$VERSIONGUID
  2
{FAEB1C32-E019-11D5-929B-00C0DF256EC4}
  9
$EXTNAMES
290
     1
  9
$PSVPSCALE
 40
0.0
  9
$OLESTARTUP
290
     0
  9
$SORTENTS
280
   127
  9
$INDEXCTL
280
     0
  9
$HIDETEXT
280
     1
  9
$XCLIPFRAME
290
     0
  9
$HALOGAP
280
     0
  9
$OBSCOLOR
 70
   257
  9
$OBSLTYPE
280
     0
  9
$INTERSECTIONDISPLAY
280
     0
  9
$INTERSECTIONCOLOR
 70
   257
  9
$DIMASSOC
280
     2
  9
$PROJECTNAME
  1

  9
$CAMERADISPLAY
290
     0
  9
$LENSLENGTH
 40
50.0
  9
$CAMERAHEIGHT
 40
0.0
  9
$STEPSPERSEC
 40
2.0
  9
$STEPSIZE
 40
6.0
  9
$3DDWFPREC
 40
2.0
  9
$PSOLWIDTH
 40
0.25
  9
$PSOLHEIGHT
 40
4.0
  9
$LOFTANG1
 40
1.570796326794897
  9
$LOFTANG2
 40
1.570796326794897
  9
$LOFTMAG1
 40
0.0
  9
$LOFTMAG2
 40
0.0
  9
$LOFTPARAM
 70
     7
  9
$LOFTNORMALS
280
     1
  9
$LATITUDE
 40
37.795
  9
$LONGITUDE
 40
-122.394
  9
$NORTHDIRECTION
 40
0.0
  9
$TIMEZONE
 70
 -8000
  9
$LIGHTGLYPHDISPLAY
280
     1
  9
$TILEMODELIGHTSYNCH
280
     1
  9
$CMATERIAL
347
44
  9
$SOLIDHIST
280
     0
  9
$SHOWHIST
280
     1
  9
$DWFFRAME
280
     2
  9
$DGNFRAME
280
     2
  9
$REALWORLDSCALE
290
     1
  9
$INTERFERECOLOR
 62
   256
  9
$CSHADOW
280
     0
  9
$SHADOWPLANELOCATION
 40
0.0
  0
ENDSEC
  0
SECTION
  2
CLASSES
  0
CLASS
  1
ACDBDICTIONARYWDFLT
  2
AcDbDictionaryWithDefault
  3
ObjectDBX Classes
 90
        0
 91
        3
280
     0
281
     0
  0
CLASS
  1
VISUALSTYLE
  2
AcDbVisualStyle
  3
ObjectDBX Classes
 90
     4095
 91
        3
280
     0
281
     0
  0
CLASS
  1
MATERIAL
  2
AcDbMaterial
  3
ObjectDBX Classes
 90
     1153
 91
        3
280
     0
281
     0
  0
CLASS
  1
SCALE
  2
AcDbScale
  3
ObjectDBX Classes
 90
     1153
 91
        3
280
     0
281
     0
  0
CLASS
  1
TABLESTYLE
  2
AcDbTableStyle
  3
ObjectDBX Classes
 90
     4095
 91
        3
280
     0
281
     0
  0
CLASS
  1
MLEADERSTYLE
  2
AcDbMLeaderStyle
  3
ACDB_MLEADERSTYLE_CLASS
 90
     4095
 91
        3
280
     0
281
     0
  0
CLASS
  1
SUN
  2
AcDbSun
  3
SCENEOE
 90
     1153
 91
        3
280
     0
281
     0
  0
CLASS
  1
DICTIONARYVAR
  2
AcDbDictionaryVar
  3
ObjectDBX Classes
 90
        0
 91
        3
280
     0
281
     0
  0
CLASS
  1
CELLSTYLEMAP
  2
AcDbCellStyleMap
  3
ObjectDBX Classes
 90
     1152
 91
        3
280
     0
281
     0
  0
ENDSEC
  0
SECTION
  2
TABLES
  0
TABLE
  2
VPORT
  5
8
330
0
100
AcDbSymbolTable
 70
     1
  0
VPORT
  5
29
330
8
100
AcDbSymbolTableRecord
100
AcDbViewportTableRecord
  2
*Active
 70
     0
 10
0.0
 20
0.0
 11
1.0
 21
1.0
 12
10.42990654205607
 22
4.5
 13
0.0
 23
0.0
 14
0.5
 24
0.5
 15
0.5
 25
0.5
 16
0.0
 26
0.0
 36
1.0
 17
0.0
 27
0.0
 37
0.0
 40
9.0
 41
1.972972972850329
 42
50.0
 43
0.0
 44
0.0
 50
0.0
 51
0.0
 71
     0
 72
   100
 73
     1
 74
     3
 75
     0
 76
     0
 77
     0
 78
     0
281
     0
 65
     1
110
0.0
120
0.0
130
0.0
111
1.0
121
0.0
131
0.0
112
0.0
122
1.0
132
0.0
 79
     0
146
0.0
348
2F
 60
     3
 61
     5
292
     1
282
     1
141
0.0
142
0.0
 63
   250
361
6D
  0
ENDTAB
  0
TABLE
  2
LTYPE
  5
5
330
0
100
AcDbSymbolTable
 70
     1
  0
LTYPE
  5
14
330
5
100
AcDbSymbolTableRecord
100
AcDbLinetypeTableRecord
  2
ByBlock
 70
     0
  3

 72
    65
 73
     0
 40
0.0
  0
LTYPE
  5
15
330
5
100
AcDbSymbolTableRecord
100
AcDbLinetypeTableRecord
  2
ByLayer
 70
     0
  3

 72
    65
 73
     0
 40
0.0
  0
LTYPE
  5
16
330
5
100
AcDbSymbolTableRecord
100
AcDbLinetypeTableRecord
  2
Continuous
 70
     0
  3
Solid line
 72
    65
 73
     0
 40
0.0
  0
ENDTAB
  0
TABLE
  2
LAYER
  5
2
330
0
100
AcDbSymbolTable
 70
     3
  0
LAYER
  5
10
330
2
100
AcDbSymbolTableRecord
100
AcDbLayerTableRecord
  2
0
 70
     0
 62
     7
  6
Continuous
370
    -3
390
F
347
46
  0
LAYER
  5
6E
330
2
100
AcDbSymbolTableRecord
100
AcDbLayerTableRecord
  2
GRAVAÇÃO
 70
     0
 62
     1
420
 16711682
  6
Continuous
370
    -3
390
F
347
46
  0
LAYER
  5
145
330
2
100
AcDbSymbolTableRecord
100
AcDbLayerTableRecord
  2
CORTE
 70
     0
 62
    18
420
        0
  6
Continuous
370
    -3
390
F
347
46
  0
ENDTAB
  0
TABLE
  2
STYLE
  5
3
330
0
100
AcDbSymbolTable
 70
     1
  0
STYLE
  5
11
330
3
100
AcDbSymbolTableRecord
100
AcDbTextStyleTableRecord
  2
Standard
 70
     0
 40
0.0
 41
1.0
 50
0.0
 71
     0
 42
0.2
  3
txt
  4

  0
ENDTAB
  0
TABLE
  2
VIEW
  5
6
330
0
100
AcDbSymbolTable
 70
     0
  0
ENDTAB
  0
TABLE
  2
UCS
  5
7
330
0
100
AcDbSymbolTable
 70
     0
  0
ENDTAB
  0
TABLE
  2
APPID
  5
9
330
0
100
AcDbSymbolTable
 70
     2
  0
APPID
  5
12
330
9
100
AcDbSymbolTableRecord
100
AcDbRegAppTableRecord
  2
ACAD
 70
     0
  0
APPID
  5
1CC
330
9
100
AcDbSymbolTableRecord
100
AcDbRegAppTableRecord
  2
ACAD_MLEADERVER
 70
     0
  0
ENDTAB
  0
TABLE
  2
DIMSTYLE
  5
A
330
0
100
AcDbSymbolTable
 70
     1
100
AcDbDimStyleTable
  0
DIMSTYLE
105
27
330
A
100
AcDbSymbolTableRecord
100
AcDbDimStyleTableRecord
  2
STANDARD_ACAD
 70
     0
178
     0
340
11
  0
ENDTAB
  0
TABLE
  2
BLOCK_RECORD
  5
1
330
0
100
AcDbSymbolTable
 70
     1
  0
BLOCK_RECORD
  5
1F
330
1
100
AcDbSymbolTableRecord
100
AcDbBlockTableRecord
  2
*Model_Space
340
22
 70
     0
280
     1
281
     0
  0
BLOCK_RECORD
  5
1B
330
1
100
AcDbSymbolTableRecord
100
AcDbBlockTableRecord
  2
*Paper_Space
340
1E
 70
     0
280
     1
281
     0
  0
BLOCK_RECORD
  5
23
330
1
100
AcDbSymbolTableRecord
100
AcDbBlockTableRecord
  2
*Paper_Space0
340
26
 70
     0
280
     1
281
     0
  0
ENDTAB
  0
ENDSEC
  0
SECTION
  2
BLOCKS
  0
BLOCK
  5
20
330
1F
100
AcDbEntity
  8
0
100
AcDbBlockBegin
  2
*Model_Space
 70
     0
 10
0.0
 20
0.0
 30
0.0
  3
*Model_Space
  1

  0
ENDBLK
  5
21
330
1F
100
AcDbEntity
  8
0
100
AcDbBlockEnd
  0
BLOCK
  5
1C
330
1B
100
AcDbEntity
 67
     1
  8
0
100
AcDbBlockBegin
  2
*Paper_Space
 70
     0
 10
0.0
 20
0.0
 30
0.0
  3
*Paper_Space
  1

  0
ENDBLK
  5
1D
330
1B
100
AcDbEntity
 67
     1
  8
0
100
AcDbBlockEnd
  0
BLOCK
  5
24
330
23
100
AcDbEntity
  8
0
100
AcDbBlockBegin
  2
*Paper_Space0
 70
     0
 10
0.0
 20
0.0
 30
0.0
  3
*Paper_Space0
  1

  0
ENDBLK
  5
25
330
23
100
AcDbEntity
  8
0
100
AcDbBlockEnd
  0
ENDSEC
  0
SECTION
  2
ENTITIES
  0
SPLINE
  5
6F
330
1F
100
AcDbEntity
  8
GRAVAÇÃO
100
AcDbSpline
210
0.0
220
0.0
230
1.0
 70
     8
 71
     2
 72
     6
 73
     3
 74
     0
 42
0.000000001
 43
0.0000000001
 40
0.0
 40
0.0
 40
0.0
 40
8.039303927036965
 40
8.039303927036965
 40
8.039303927036965
 10
10.23490899064826
 20
37.89641913491849
 30
0.0
 10
11.96419368462311
 20
38.16319074106789
 30
0.0
 10
13.60584770042594
 20
39.15153557706842
 30
0.0
  0
SPLINE
  5
70
330
1F
100
AcDbEntity
  8
GRAVAÇÃO
100
AcDbSpline
210
0.0
220
0.0
230
1.0
 70
     8
 71
     2
 72
     6
 73
     3
 74
     0
 42
0.000000001
 43
0.0000000001
 40
0.0
 40
0.0
 40
0.0
 40
7.854779956159705
 40
7.854779956159705
 40
7.854779956159705
 10
9.846563109688617
 20
39.19671481520906
 30
0.0
 10
11.42759456553513
 20
39.54642402582803
 30
0.0
 10
13.14140283434394
 20
40.50271943850818
 30
0.0
  0
SPLINE
  5
71
330
1F
100
AcDbEntity
  8
GRAVAÇÃO
100
AcDbSpline
210
0.0
220
0.0
230
1.0
 70
     8
 71
     2
 72
     6
 73
     3
 74
     0
 42
0.000000001
 43
0.0000000001
 40
0.0
 40
0.0
 40
0.0
 40
8.062047708340174
 40
8.062047708340174
 40
8.062047708340174
 10
9.264055807388942
 20
40.65356728320926
 30
0.0
 10
11.22487934276855
 20
41.08467483388027
 30
0.0
 10
12.5214892663827
 20
42.13502830345
 30
0.0
  0
SPLINE
  5
72
330
1F
100
AcDbEntity
  8
GRAVAÇÃO
100
AcDbSpline
210
0.0
220
0.0
230
1.0
 70
     8
 71
     3
 72
     8
 73
     4
 74
     0
 42
0.000000001
 43
0.0000000001
 40
0.0
 40
0.0
 40
0.0
 40
0.0
 40
8.085919687269765
 40
8.085919687269765
 40
8.085919687269765
 40
8.085919687269765
 10
8.646959464233461
 20
42.17539130458287
 30
0.0
 10
9.817797208271159
 20
42.52753024298353
 30
0.0
 10
10.89099544644714
 20
43.56495520655363
 30
0.0
 10
11.58913222264907
 20
44.24113068911596
 30
0.0
  0
SPLINE
  5
73
330
1F
100
AcDbEntity
  8
GRAVAÇÃO
100
AcDbSpline
210
0.0
220
0.0
230
1.0
 70
     8
 71
     3
 72
     8
 73
     4
 74
     0
 42
0.000000001
 43
0.0000000001
 40
0.0
 40
0.0
 40
0.0
 40
0.0
 40
8.302142470970384
 40
8.302142470970384
 40
8.302142470970384
 40
8.302142470970384
 10
8.035826328313718
 20
43.46089933096954
 30
0.0
 10
9.293122514051802
 20
44.16117644998474
 30
0.0
 10
10.30669862788467
 20
45.53248530987626
 30
0.0
 10
10.62215205189732
 20
46.09096119325481
 30
0.0
  0
SPLINE
  5
74
330
1F
100
AcDbEntity
  8
GRAVAÇÃO
100
AcDbSpline
210
0.0
220
0.0
230
1.0
 70
     8
 71
     2
 72
     6
 73
     3
 74
     0
 42
0.000000001
 43
0.0000000001
 40
0.0
 40
0.0
 40
0.0
 40
8.188930926732436
 40
8.188930926732436
 40
8.188930926732436
 10
7.194004236560986
 20
44.98547591076374
 30
0.0
 10
8.80422109443829
 20
46.00946230462115
 30
0.0
 10
9.65640073220662
 20
47.62435421818176
 30
0.0
  0
SPLINE
  5
75
330
1F
100
AcDbEntity
  8
GRAVAÇÃO
100
AcDbSpline
210
0.0
220
0.0
230
1.0
 70
     8
 71
     3
 72
     8
 73
     4
 74
     0
 42
0.000000001
 43
0.0000000001
 40
0.0
 40
0.0
 40
0.0
 40
0.0
 40
8.3343140729146
 40
8.3343140729146
 40
8.3343140729146
 40
8.3343140729146
 10
6.100671468468605
 20
46.55356034225676
 30
0.0
 10
7.470076754622511
 20
46.93474911102899
 30
0.0
 10
8.320049759257884
 20
48.04550928754112
 30
0.0
 10
8.637422780618792
 20
48.97306287310923
 30
0.0
  0
SPLINE
  5
76
330
1F
100
AcDbEntity
  8
GRAVAÇÃO
100
AcDbSpline
210
0.0
220
0.0
230
1.0
 70
     8
 71
     3
 72
     8
 73
     4
 74
     0
 42
0.000000001
 43
0.0000000001
 40
0.0
 40
0.0
 40
0.0
 40
0.0
 40
8.311445623528638
 40
8.311445623528638
 40
8.311445623528638
 40
8.311445623528638
 10
5.463169130068124
 20
47.27761096068926
 30
0.0
 10
6.558386996565361
 20
48.18666287374184
 30
0.0
 10
7.411027543695965
 20
49.46562369443774
 30
0.0
 10
7.404192152367116
 20
50.29518899427596
 30
0.0
  0
SPLINE
  5
77
330
1F
100
AcDbEntity
  8
GRAVAÇÃO
100
AcDbSpline
210
0.0
220
0.0
230
1.0
 70
     8
 71
     3
 72
     8
 73
     4
 74
     0
 42
0.000000001
 43
0.0000000001
 40
0.0
 40
0.0
 40
0.0
 40
0.0
 40
7.737352221528645
 40
7.737352221528645
 40
7.737352221528645
 40
7.737352221528645
 10
4.320820423537398
 20
48.46053821332481
 30
0.0
 10
5.301864085004482
 20
49.17393087568253
 30
0.0
 10
6.042315086459993
 20
50.20607469589326
 30
0.0
 10
6.336956075445116
 20
51.20866049555268
 30
0.0
  0
SPLINE
  5
78
330
1F
100
AcDbEntity
  8
GRAVAÇÃO
100
AcDbSpline
210
0.0
220
0.0
230
1.0
 70
     8
 71
     3
 72
     8
 73
     4
 74
     0
 42
0.000000001
 43
0.0000000001
 40
0.0
 40
0.0
 40
0.0
 40
0.0
 40
7.340986976714518
 40
7.340986976714518
 40
7.340986976714518
 40
7.340986976714518
 10
3.192255333055357
 20
49.42745910805046
 30
0.0
 10
4.090216991713632
 20
50.22851260502827
 30
0.0
 10
4.651164720089014
 20
51.17090478869893
 30
0.0
 10
5.065579706312462
 20
52.13290936615334
 30
0.0
  0
SPLINE
  5
79
330
1F
100
AcDbEntity
  8
GRAVAÇÃO
100
AcDbSpline
210
0.0
220
0.0
230
1.0
 70
     8
 71
     3
 72
     8
 73
     4
 74
     0
 42
0.000000001
 43
0.0000000001
 40
0.0
 40
0.0
 40
0.0
 40
0.0
 40
7.129176701455182
 40
7.129176701455182
 40
7.129176701455182
 40
7.129176701455182
 10
1.728325679429702
 20
50.57301356407783
 30
0.0
 10
2.631752897937602
 20
51.26065642523901
 30
0.0
 10
3.596582990743272
 20
52.31523815458476
 30
0.0
 10
3.80535334761818
 20
52.96893230231807
 30
0.0
  0
SPLINE
  5
7A
330
1F
100
AcDbEntity
  8
GRAVAÇÃO
100
AcDbSpline
210
0.0
220
0.0
230
1.0
 70
     8
 71
     2
 72
     6
 73
     3
 74
     0
 42
0.000000001
 43
0.0000000001
 40
0.0
 40
0.0
 40
0.0
 40
6.819867051309174
 40
6.819867051309174
 40
6.819867051309174
 10
0.4280422740992407
 20
51.53115516025102
 30
0.0
 10
1.532224627929111
 20
52.62846461225372
 30
0.0
 10
1.950667682329922
 20
54.1242208563889
 30
0.0
  0
SPLINE
  5
7B
330
1F
100
AcDbEntity
  8
GRAVAÇÃO
100
AcDbSpline
210
0.0
220
0.0
230
1.0
 70
     8
 71
     2
 72
     6
 73
     3
 74
     0
 42
0.000000001
 43
0.0000000001
 40
0.0
 40
0.0
 40
0.0
 40
5.485043645783204
 40
5.485043645783204
 40
5.485043645783204
 10
4.760557578956124
 20
46.39533183126775
 30
0.0
 10
5.300840628903188
 20
45.88239464211462
 30
0.0
 10
6.855299847871393
 20
45.06512980397007
 30
0.0
  0
SPLINE
  5
7C
330
1F
100
AcDbEntity
  8
GRAVAÇÃO
100
AcDbSpline
210
0.0
220
0.0
230
1.0
 70
     8
 71
     3
 72
     8
 73
     4
 74
     0
 42
0.000000001
 43
0.0000000001
 40
0.0
 40
0.0
 40
0.0
 40
0.0
 40
5.962963671027247
 40
5.962963671027247
 40
5.962963671027247
 40
5.962963671027247
 10
4.04803081257424
 20
45.58216024279237
 30
0.0
 10
4.402573703549905
 20
44.92617501189983
 30
0.0
 10
5.474698743487707
 20
44.33698917914121
 30
0.0
 10
6.194159557887488
 20
44.12475157462319
 30
0.0
  0
SPLINE
  5
7D
330
1F
100
AcDbEntity
  8
GRAVAÇÃO
100
AcDbSpline
210
0.0
220
0.0
230
1.0
 70
     8
 71
     3
 72
     8
 73
     4
 74
     0
 42
0.000000001
 43
0.0000000001
 40
0.0
 40
0.0
 40
0.0
 40
0.0
 40
6.341687169735305
 40
6.341687169735305
 40
6.341687169735305
 40
6.341687169735305
 10
2.96596248982604
 20
44.44040934277524
 30
0.0
 10
3.272495958750611
 20
43.76712091466977
 30
0.0
 10
4.663360875426662
 20
42.93646547832157
 30
0.0
 10
5.185790937590752
 20
42.83592063133564
 30
0.0
  0
SPLINE
  5
7E
330
1F
100
AcDbEntity
  8
GRAVAÇÃO
100
AcDbSpline
210
0.0
220
0.0
230
1.0
 70
     8
 71
     3
 72
     8
 73
     4
 74
     0
 42
0.000000001
 43
0.0000000001
 40
0.0
 40
0.0
 40
0.0
 40
0.0
 40
6.396833841529095
 40
6.396833841529095
 40
6.396833841529095
 40
6.396833841529095
 10
1.82413405194221
 20
43.3134721149035
 30
0.0
 10
2.412864169971655
 20
42.72397222716272
 30
0.0
 10
3.745776381786214
 20
42.00922220053752
 30
0.0
 10
4.276404277862795
 20
41.79728639092225
 30
0.0
  0
SPLINE
  5
7F
330
1F
100
AcDbEntity
  8
GRAVAÇÃO
100
AcDbSpline
210
0.0
220
0.0
230
1.0
 70
     8
 71
     3
 72
     8
 73
     4
 74
     0
 42
0.000000001
 43
0.0000000001
 40
0.0
 40
0.0
 40
0.0
 40
0.0
 40
6.380256916142977
 40
6.380256916142977
 40
6.380256916142977
 40
6.380256916142977
 10
0.9064711586475909
 20
42.44716214945056
 30
0.0
 10
1.331080345890271
 20
41.76775259694793
 30
0.0
 10
2.267982407817897
 20
40.97573229717406
 30
0.0
 10
3.019919022738904
 20
40.51584965096863
 30
0.0
  0
SPLINE
  5
80
330
1F
100
AcDbEntity
  8
GRAVAÇÃO
100
AcDbSpline
210
0.0
220
0.0
230
1.0
 70
     8
 71
     3
 72
     8
 73
     4
 74
     0
 42
0.000000001
 43
0.0000000001
 40
0.0
 40
0.0
 40
0.0
 40
0.0
 40
6.46146023802299
 40
6.46146023802299
 40
6.46146023802299
 40
6.46146023802299
 10
-0.2710923930700062
 20
41.37166654546766
 30
0.0
 10
0.2941296741860384
 20
40.67004523468182
 30
0.0
 10
1.128245878875006
 20
39.81667819994401
 30
0.0
 10
1.915472382150298
 20
39.49038983069246
 30
0.0
  0
SPLINE
  5
81
330
1F
100
AcDbEntity
  8
GRAVAÇÃO
100
AcDbSpline
210
0.0
220
0.0
230
1.0
 70
     8
 71
     3
 72
     8
 73
     4
 74
     0
 42
0.000000001
 43
0.0000000001
 40
0.0
 40
0.0
 40
0.0
 40
0.0
 40
6.492956435688256
 40
6.492956435688256
 40
6.492956435688256
 40
6.492956435688256
 10
-1.060989059229172
 20
40.74384509745639
 30
0.0
 10
-0.6834583499993414
 20
39.78009918892455
 30
0.0
 10
-0.007343459948487
 20
38.90114983185842
 30
0.0
 10
0.5579853027843455
 20
38.31154049687124
 30
0.0
  0
SPLINE
  5
82
330
1F
100
AcDbEntity
  8
GRAVAÇÃO
100
AcDbSpline
210
0.0
220
0.0
230
1.0
 70
     8
 71
     3
 72
     8
 73
     4
 74
     0
 42
0.000000001
 43
0.0000000001
 40
0.0
 40
0.0
 40
0.0
 40
0.0
 40
6.758286159120688
 40
6.758286159120688
 40
6.758286159120688
 40
6.758286159120688
 10
-2.472416438381529
 20
39.74456004980257
 30
0.0
 10
-2.335110438552178
 20
39.21988970859668
 30
0.0
 10
-1.620360411926967
 20
38.16708223694606
 30
0.0
 10
-0.6757972928909339
 20
37.32270290060586
 30
0.0
  0
SPLINE
  5
83
330
1F
100
AcDbEntity
  8
GRAVAÇÃO
100
AcDbSpline
210
0.0
220
0.0
230
1.0
 70
     8
 71
     3
 72
     8
 73
     4
 74
     0
 42
0.000000001
 43
0.0000000001
 40
0.0
 40
0.0
 40
0.0
 40
0.0
 40
7.003804258847143
 40
7.003804258847143
 40
7.003804258847143
 40
7.003804258847143
 10
-3.397480737139844
 20
39.14618141012828
 30
0.0
 10
-3.175424659043941
 20
38.36025791981773
 30
0.0
 10
-2.605556394572517
 20
36.99836935557241
 30
0.0
 10
-1.906850157519827
 20
36.42988707602245
 30
0.0
  0
SPLINE
  5
84
330
1F
100
AcDbEntity
  8
GRAVAÇÃO
100
AcDbSpline
210
0.0
220
0.0
230
1.0
 70
     8
 71
     3
 72
     8
 73
     4
 74
     0
 42
0.000000001
 43
0.0000000001
 40
0.0
 40
0.0
 40
0.0
 40
0.0
 40
7.326112006354824
 40
7.326112006354824
 40
7.326112006354824
 40
7.326112006354824
 10
-4.5092382633743
 20
38.49521085626921
 30
0.0
 10
-4.440725381853426
 20
37.15290990186976
 30
0.0
 10
-3.938468606387076
 20
36.07112607778836
 30
0.0
 10
-3.438576546752429
 20
35.44143862666225
 30
0.0
  0
SPLINE
  5
85
330
1F
100
AcDbEntity
  8
GRAVAÇÃO
100
AcDbSpline
210
0.0
220
0.0
230
1.0
 70
     8
 71
     3
 72
     9
 73
     5
 74
     0
 42
0.000000001
 43
0.0000000001
 40
0.0
 40
0.0
 40
0.0
 40
0.0
 40
3.816124142863926
 40
7.632248285727852
 40
7.632248285727852
 40
7.632248285727852
 40
7.632248285727852
 10
-5.687796768131378
 20
37.87014675154737
 30
0.0
 10
-5.686708536375733
 20
36.66031191054698
 30
0.0
 10
-5.503191637647646
 20
35.61716322303993
 30
0.0
 10
-5.029911214612028
 20
34.81548413912247
 30
0.0
 10
-4.793128522225899
 20
34.66535042694058
 30
0.0
  0
SPLINE
  5
86
330
1F
100
AcDbEntity
  8
GRAVAÇÃO
100
AcDbSpline
210
0.0
220
0.0
230
1.0
 70
     8
 71
     3
 72
     8
 73
     4
 74
     0
 42
0.000000001
 43
0.0000000001
 40
0.0
 40
0.0
 40
0.0
 40
0.0
 40
7.45365949373282
 40
7.45365949373282
 40
7.45365949373282
 40
7.45365949373282
 10
-7.490917671203491
 20
37.03784087196782
 30
0.0
 10
-7.492901171225881
 20
36.24498419237288
 30
0.0
 10
-7.145184942056872
 20
34.25527465879462
 30
0.0
 10
-6.951180149089694
 20
33.70214061580585
 30
0.0
  0
SPLINE
  5
87
330
1F
100
AcDbEntity
  8
GRAVAÇÃO
100
AcDbSpline
210
0.0
220
0.0
230
1.0
 70
     8
 71
     3
 72
     8
 73
     4
 74
     0
 42
0.000000001
 43
0.0000000001
 40
0.0
 40
0.0
 40
0.0
 40
0.0
 40
7.119468038009356
 40
7.119468038009356
 40
7.119468038009356
 40
7.119468038009356
 10
-9.158345705218991
 20
36.41352594750687
 30
0.0
 10
-9.299093806076044
 20
35.01831860613774
 30
0.0
 10
-9.212164748783792
 20
33.65643004189242
 30
0.0
 10
-9.14686220404296
 20
33.18134521096651
 30
0.0
  0
SPLINE
  5
88
330
1F
100
AcDbEntity
  8
GRAVAÇÃO
100
AcDbSpline
210
0.0
220
0.0
230
1.0
 70
     8
 71
     2
 72
     6
 73
     3
 74
     0
 42
0.000000001
 43
0.0000000001
 40
0.0
 40
0.0
 40
0.0
 40
6.68023607341661
 40
6.68023607341661
 40
6.68023607341661
 10
11.66389038878367
 20
53.40719618743201
 30
0.0
 10
10.37383917045905
 20
53.37930659457716
 30
0.0
 10
8.794139262495477
 20
54.14584509036106
 30
0.0
  0
SPLINE
  5
89
330
1F
100
AcDbEntity
  8
GRAVAÇÃO
100
AcDbSpline
210
0.0
220
0.0
230
1.0
 70
     8
 71
     3
 72
     8
 73
     4
 74
     0
 42
0.000000001
 43
0.0000000001
 40
0.0
 40
0.0
 40
0.0
 40
0.0
 40
7.346111638452243
 40
7.346111638452243
 40
7.346111638452243
 40
7.346111638452243
 10
8.901453949160071
 20
55.23689094261452
 30
0.0
 10
9.658373678341732
 20
54.84601085341765
 30
0.0
 10
10.86274059007253
 20
54.63137120578246
 30
0.0
 10
12.07889204922655
 20
55.01298267324636
 30
0.0
  0
SPLINE
  5
8A
330
1F
100
AcDbEntity
  8
GRAVAÇÃO
100
AcDbSpline
210
0.0
220
0.0
230
1.0
 70
     8
 71
     3
 72
     8
 73
     4
 74
     0
 42
0.000000001
 43
0.0000000001
 40
0.0
 40
0.0
 40
0.0
 40
0.0
 40
7.217223896403571
 40
7.217223896403571
 40
7.217223896403571
 40
7.217223896403571
 10
12.31753440725979
 20
56.37750254637348
 30
0.0
 10
11.28429318892358
 20
56.22354215528621
 30
0.0
 10
9.865286629557573
 20
56.36663525370967
 30
0.0
 10
9.117140651305903
 20
56.70286107787112
 30
0.0
  0
SPLINE
  5
8B
330
1F
100
AcDbEntity
  8
GRAVAÇÃO
100
AcDbSpline
210
0.0
220
0.0
230
1.0
 70
     8
 71
     3
 72
     8
 73
     4
 74
     0
 42
0.000000001
 43
0.0000000001
 40
0.0
 40
0.0
 40
0.0
 40
0.0
 40
7.160612962518334
 40
7.160612962518334
 40
7.160612962518334
 40
7.160612962518334
 10
9.323607458428754
 20
57.93447301755758
 30
0.0
 10
10.40188574864555
 20
57.64254871465224
 30
0.0
 10
11.49893283655878
 20
57.58292659030911
 30
0.0
 10
12.46797677389482
 20
57.98592216474881
 30
0.0
  0
SPLINE
  5
8C
330
1F
100
AcDbEntity
  8
GRAVAÇÃO
100
AcDbSpline
210
0.0
220
0.0
230
1.0
 70
     8
 71
     3
 72
     8
 73
     4
 74
     0
 42
0.000000001
 43
0.0000000001
 40
0.0
 40
0.0
 40
0.0
 40
0.0
 40
7.521001930134147
 40
7.521001930134147
 40
7.521001930134147
 40
7.521001930134147
 10
9.21560901584023
 20
59.1184381767542
 30
0.0
 10
10.24686822535348
 20
58.84691562638305
 30
0.0
 10
11.55855496090187
 20
58.84691562638305
 30
0.0
 10
12.46015924147855
 20
59.38800888278752
 30
0.0
  0
SPLINE
  5
8D
330
1F
100
AcDbEntity
  8
GRAVAÇÃO
100
AcDbSpline
210
0.0
220
0.0
230
1.0
 70
     8
 71
     3
 72
     8
 73
     4
 74
     0
 42
0.000000001
 43
0.0000000001
 40
0.0
 40
0.0
 40
0.0
 40
0.0
 40
7.586918618408499
 40
7.586918618408499
 40
7.586918618408499
 40
7.586918618408499
 10
8.976829910413045
 20
60.23714357793916
 30
0.0
 10
10.33033919943382
 20
60.12282908732558
 30
0.0
 10
11.66587478471948
 20
60.6117305069391
 30
0.0
 10
12.19562895013631
 20
61.03666258570577
 30
0.0
  0
SPLINE
  5
8E
330
1F
100
AcDbEntity
  8
GRAVAÇÃO
100
AcDbSpline
210
0.0
220
0.0
230
1.0
 70
     8
 71
     2
 72
     6
 73
     3
 74
     0
 42
0.000000001
 43
0.0000000001
 40
0.0
 40
0.0
 40
0.0
 40
7.330010573272398
 40
7.330010573272398
 40
7.330010573272398
 10
11.81468649260529
 20
62.17848036464785
 30
0.0
 10
10.43765902325143
 20
61.434515822874
 30
0.0
 10
8.664755918709986
 20
61.30871363034834
 30
0.0
  0
SPLINE
  5
8F
330
1F
100
AcDbEntity
  8
GRAVAÇÃO
100
AcDbSpline
210
0.0
220
0.0
230
1.0
 70
     8
 71
     2
 72
     6
 73
     3
 74
     0
 42
0.000000001
 43
0.0000000001
 40
0.0
 40
0.0
 40
0.0
 40
7.494693510818081
 40
7.494693510818081
 40
7.494693510818081
 10
8.221078132767317
 20
62.4445383930054
 30
0.0
 10
10.23494380048486
 20
62.42424308696962
 30
0.0
 10
11.27460106040874
 20
63.36727486955189
 30
0.0
  0
SPLINE
  5
90
330
1F
100
AcDbEntity
  8
GRAVAÇÃO
100
AcDbSpline
210
0.0
220
0.0
230
1.0
 70
     8
 71
     2
 72
     6
 73
     3
 74
     0
 42
0.000000001
 43
0.0000000001
 40
0.0
 40
0.0
 40
0.0
 40
7.030336102752988
 40
7.030336102752988
 40
7.030336102752988
 10
7.670888376620368
 20
63.40925872016605
 30
0.0
 10
9.352536360206827
 20
63.91479619554737
 30
0.0
 10
10.54594424483436
 20
64.73813311045275
 30
0.0
  0
SPLINE
  5
91
330
1F
100
AcDbEntity
  8
GRAVAÇÃO
100
AcDbSpline
210
0.0
220
0.0
230
1.0
 70
     8
 71
     2
 72
     6
 73
     3
 74
     0
 42
0.000000001
 43
0.0000000001
 40
0.0
 40
0.0
 40
0.0
 40
7.239178754281589
 40
7.239178754281589
 40
7.239178754281589
 10
7.009321622817012
 20
64.24969574102718
 30
0.0
 10
8.756315116775738
 20
64.97607000885472
 30
0.0
 10
9.847916639608329
 20
65.86712646395684
 30
0.0
  0
SPLINE
  5
92
330
1F
100
AcDbEntity
  8
GRAVAÇÃO
100
AcDbSpline
210
0.0
220
0.0
230
1.0
 70
     8
 71
     2
 72
     6
 73
     3
 74
     0
 42
0.000000001
 43
0.0000000001
 40
0.0
 40
0.0
 40
0.0
 40
7.646013543409591
 40
7.646013543409591
 40
7.646013543409591
 10
9.026737240048405
 20
66.91148129879024
 30
0.0
 10
7.754663427811494
 20
65.6080645268917
 30
0.0
 10
6.224358098348702
 20
64.9511974713552
 30
0.0
  0
SPLINE
  5
93
330
1F
100
AcDbEntity
  8
GRAVAÇÃO
100
AcDbSpline
210
0.0
220
0.0
230
1.0
 70
     8
 71
     2
 72
     6
 73
     3
 74
     0
 42
0.000000001
 43
0.0000000001
 40
0.0
 40
0.0
 40
0.0
 40
9.346125188783475
 40
9.346125188783475
 40
9.346125188783475
 10
8.124705916088331
 20
67.80058738905869
 30
0.0
 10
6.383354567919966
 20
66.38315214335212
 30
0.0
 10
4.431486608980677
 20
65.87650566870403
 30
0.0
  0
SPLINE
  5
94
330
1F
100
AcDbEntity
  8
GRAVAÇÃO
100
AcDbSpline
210
0.0
220
0.0
230
1.0
 70
     8
 71
     2
 72
     6
 73
     3
 74
     0
 42
0.000000001
 43
0.0000000001
 40
0.0
 40
0.0
 40
0.0
 40
6.332880965748446
 40
6.332880965748446
 40
6.332880965748446
 10
7.302076842882329
 20
60.10763555758118
 30
0.0
 10
8.498997838096628
 20
58.43393123190968
 30
0.0
 10
8.545787749933098
 20
57.60508223488999
 30
0.0
  0
SPLINE
  5
95
330
1F
100
AcDbEntity
  8
GRAVAÇÃO
100
AcDbSpline
210
0.0
220
0.0
230
1.0
 70
     8
 71
     2
 72
     6
 73
     3
 74
     0
 42
0.000000001
 43
0.0000000001
 40
0.0
 40
0.0
 40
0.0
 40
6.3614109963489
 40
6.3614109963489
 40
6.3614109963489
 10
5.287411553521238
 20
59.45335944310708
 30
0.0
 10
6.459921185562294
 20
58.36238468269795
 30
0.0
 10
6.705308554068537
 20
57.08650692998181
 30
0.0
  0
SPLINE
  5
96
330
1F
100
AcDbEntity
  8
GRAVAÇÃO
100
AcDbSpline
210
0.0
220
0.0
230
1.0
 70
     8
 71
     2
 72
     6
 73
     3
 74
     0
 42
0.000000001
 43
0.0000000001
 40
0.0
 40
0.0
 40
0.0
 40
6.028580379587007
 40
6.028580379587007
 40
6.028580379587007
 10
3.570988996533572
 20
58.72727560345103
 30
0.0
 10
4.468542232502429
 20
57.90925653769031
 30
0.0
 10
5.268246221019169
 20
56.59943045427497
 30
0.0
  0
SPLINE
  5
97
330
1F
100
AcDbEntity
  8
GRAVAÇÃO
100
AcDbSpline
210
0.0
220
0.0
230
1.0
 70
     8
 71
     2
 72
     6
 73
     3
 74
     0
 42
0.000000001
 43
0.0000000001
 40
0.0
 40
0.0
 40
0.0
 40
7.104190706890595
 40
7.104190706890595
 40
7.104190706890595
 10
1.333864035439134
 20
57.62777509657813
 30
0.0
 10
3.085308947742291
 20
56.84798272438296
 30
0.0
 10
3.834882595112859
 20
55.75861547308453
 30
0.0
  0
SPLINE
  5
98
330
1F
100
AcDbEntity
  8
GRAVAÇÃO
100
AcDbSpline
210
0.0
220
0.0
230
1.0
 70
     8
 71
     2
 72
     6
 73
     3
 74
     0
 42
0.000000001
 43
0.0000000001
 40
0.0
 40
0.0
 40
0.0
 40
7.174024337496887
 40
7.174024337496887
 40
7.174024337496887
 10
-0.1138834567769322
 20
56.73260917539329
 30
0.0
 10
1.439738315872475
 20
56.09674395765978
 30
0.0
 10
2.506492595471855
 20
54.91410697132946
 30
0.0
  0
SPLINE
  5
99
330
1F
100
AcDbEntity
  8
GRAVAÇÃO
100
AcDbSpline
210
0.0
220
0.0
230
1.0
 70
     8
 71
     2
 72
     6
 73
     3
 74
     0
 42
0.000000001
 43
0.0000000001
 40
0.0
 40
0.0
 40
0.0
 40
7.900181596159364
 40
7.900181596159364
 40
7.900181596159364
 10
-1.744320023485741
 20
55.48377977024512
 30
0.0
 10
0.5334820258571966
 20
54.98777244487795
 30
0.0
 10
0.9443711313719518
 20
53.7846749232512
 30
0.0
  0
SPLINE
  5
9A
330
1F
100
AcDbEntity
  8
GRAVAÇÃO
100
AcDbSpline
210
0.0
220
0.0
230
1.0
 70
     8
 71
     2
 72
     6
 73
     3
 74
     0
 42
0.000000001
 43
0.0000000001
 40
0.0
 40
0.0
 40
0.0
 40
7.357857122055028
 40
7.357857122055028
 40
7.357857122055028
 10
-3.033133034768909
 20
54.33390401515939
 30
0.0
 10
-1.100164181143995
 20
53.83110323262162
 30
0.0
 10
-0.2533791358165018
 20
52.76955410183081
 30
0.0
  0
SPLINE
  5
9B
330
1F
100
AcDbEntity
  8
GRAVAÇÃO
100
AcDbSpline
210
0.0
220
0.0
230
1.0
 70
     8
 71
     2
 72
     6
 73
     3
 74
     0
 42
0.000000001
 43
0.0000000001
 40
0.0
 40
0.0
 40
0.0
 40
7.489097092372062
 40
7.489097092372062
 40
7.489097092372062
 10
-4.339343144166108
 20
53.02687863327972
 30
0.0
 10
-2.936525610911772
 20
52.86522481826324
 30
0.0
 10
-1.568065318734853
 20
51.4026475297255
 30
0.0
  0
SPLINE
  5
9C
330
1F
100
AcDbEntity
  8
GRAVAÇÃO
100
AcDbSpline
210
0.0
220
0.0
230
1.0
 70
     8
 71
     2
 72
     6
 73
     3
 74
     0
 42
0.000000001
 43
0.0000000001
 40
0.0
 40
0.0
 40
0.0
 40
7.414632087181031
 40
7.414632087181031
 40
7.414632087181031
 10
-5.363630564666991
 20
51.90566543860579
 30
0.0
 10
-4.045497123693607
 20
51.75625330548141
 30
0.0
 10
-2.362879549050504
 20
50.57733063505678
 30
0.0
  0
SPLINE
  5
9D
330
1F
100
AcDbEntity
  8
GRAVAÇÃO
100
AcDbSpline
210
0.0
220
0.0
230
1.0
 70
     8
 71
     2
 72
     6
 73
     3
 74
     0
 42
0.000000001
 43
0.0000000001
 40
0.0
 40
0.0
 40
0.0
 40
7.497412066339621
 40
7.497412066339621
 40
7.497412066339621
 10
-6.320487499139006
 20
50.76912041237273
 30
0.0
 10
-4.856358014759891
 20
50.74267719164854
 30
0.0
 10
-3.377940764725764
 20
49.46429568053101
 30
0.0
  0
SPLINE
  5
9E
330
1F
100
AcDbEntity
  8
GRAVAÇÃO
100
AcDbSpline
210
0.0
220
0.0
230
1.0
 70
     8
 71
     2
 72
     6
 73
     3
 74
     0
 42
0.000000001
 43
0.0000000001
 40
0.0
 40
0.0
 40
0.0
 40
7.005839669417473
 40
7.005839669417473
 40
7.005839669417473
 10
-7.156269391410731
 20
49.63697845543614
 30
0.0
 10
-5.54797465713996
 20
49.31174620741392
 30
0.0
 10
-4.42946511842996
 20
48.23316257362916
 30
0.0
  0
SPLINE
  5
9F
330
1F
100
AcDbEntity
  8
GRAVAÇÃO
100
AcDbSpline
210
0.0
220
0.0
230
1.0
 70
     8
 71
     2
 72
     6
 73
     3
 74
     0
 42
0.000000001
 43
0.0000000001
 40
0.0
 40
0.0
 40
0.0
 40
6.471236430802656
 40
6.471236430802656
 40
6.471236430802656
 10
-7.667154673027326
 20
48.79810079852805
 30
0.0
 10
-6.466155372023849
 20
48.2743212438438
 30
0.0
 10
-5.400719899183599
 20
47.02667976423469
 30
0.0
  0
SPLINE
  5
A0
330
1F
100
AcDbEntity
  8
GRAVAÇÃO
100
AcDbSpline
210
0.0
220
0.0
230
1.0
 70
     8
 71
     2
 72
     6
 73
     3
 74
     0
 42
0.000000001
 43
0.0000000001
 40
0.0
 40
0.0
 40
0.0
 40
7.015514990644142
 40
7.015514990644142
 40
7.015514990644142
 10
-3.247169804123516
 20
40.10486969407519
 30
0.0
 10
-2.776263883323267
 20
41.41490213226737
 30
0.0
 10
-1.154416352672243
 20
42.21168183852815
 30
0.0
  0
SPLINE
  5
A1
330
1F
100
AcDbEntity
  8
GRAVAÇÃO
100
AcDbSpline
210
0.0
220
0.0
230
1.0
 70
     8
 71
     3
 72
     8
 73
     4
 74
     0
 42
0.000000001
 43
0.0000000001
 40
0.0
 40
0.0
 40
0.0
 40
0.0
 40
6.931918825907914
 40
6.931918825907914
 40
6.931918825907914
 40
6.931918825907914
 10
-4.313212258939799
 20
41.00099393562695
 30
0.0
 10
-4.042313931102882
 20
41.91543354650582
 30
0.0
 10
-2.570162712754495
 20
42.78400276533137
 30
0.0
 10
-2.132109779629801
 20
43.0208323596927
 30
0.0
  0
SPLINE
  5
A2
330
1F
100
AcDbEntity
  8
GRAVAÇÃO
100
AcDbSpline
210
0.0
220
0.0
230
1.0
 70
     8
 71
     3
 72
     8
 73
     4
 74
     0
 42
0.000000001
 43
0.0000000001
 40
0.0
 40
0.0
 40
0.0
 40
0.0
 40
6.72616290283452
 40
6.72616290283452
 40
6.72616290283452
 40
6.72616290283452
 10
-5.332332419060037
 20
41.87534840122049
 30
0.0
 10
-4.925604662111908
 20
42.87233183843227
 30
0.0
 10
-3.674276126515778
 20
43.79978710599175
 30
0.0
 10
-3.307481358158896
 20
44.02958684399582
 30
0.0
  0
SPLINE
  5
A3
330
1F
100
AcDbEntity
  8
GRAVAÇÃO
100
AcDbSpline
210
0.0
220
0.0
230
1.0
 70
     8
 71
     2
 72
     6
 73
     3
 74
     0
 42
0.000000001
 43
0.0000000001
 40
0.0
 40
0.0
 40
0.0
 40
6.953147319766227
 40
6.953147319766227
 40
6.953147319766227
 10
-6.108995585200006
 20
42.5586059316894
 30
0.0
 10
-5.691123295653071
 20
43.90283769127615
 30
0.0
 10
-4.175912064887214
 20
44.80406420398694
 30
0.0
  0
SPLINE
  5
A4
330
1F
100
AcDbEntity
  8
GRAVAÇÃO
100
AcDbSpline
210
0.0
220
0.0
230
1.0
 70
     8
 71
     2
 72
     6
 73
     3
 74
     0
 42
0.000000001
 43
0.0000000001
 40
0.0
 40
0.0
 40
0.0
 40
7.081038343745594
 40
7.081038343745594
 40
7.081038343745594
 10
-5.321086991502469
 20
45.87873119533354
 30
0.0
 10
-6.574414026662097
 20
45.16888773905575
 30
0.0
 10
-7.09267989618418
 20
43.45702806799514
 30
0.0
  0
SPLINE
  5
A5
330
1F
100
AcDbEntity
  8
GRAVAÇÃO
100
AcDbSpline
210
0.0
220
0.0
230
1.0
 70
     8
 71
     3
 72
     8
 73
     4
 74
     0
 42
0.000000001
 43
0.0000000001
 40
0.0
 40
0.0
 40
0.0
 40
0.0
 40
6.884686998840075
 40
6.884686998840075
 40
6.884686998840075
 40
6.884686998840075
 10
-5.867974983114564
 20
46.42497041355868
 30
0.0
 10
-6.854122758148279
 20
46.06689998224827
 30
0.0
 10
-7.67852744042338
 20
44.91862203193654
 30
0.0
 10
-7.966925462597956
 20
44.30642710181105
 30
0.0
  0
SPLINE
  5
A6
330
1F
100
AcDbEntity
  8
GRAVAÇÃO
100
AcDbSpline
210
0.0
220
0.0
230
1.0
 70
     8
 71
     3
 72
     8
 73
     4
 74
     0
 42
0.000000001
 43
0.0000000001
 40
0.0
 40
0.0
 40
0.0
 40
0.0
 40
7.253135296856574
 40
7.253135296856574
 40
7.253135296856574
 40
7.253135296856574
 10
-8.962342328171857
 20
45.34508653545311
 30
0.0
 10
-8.812083878551633
 20
46.27300115281705
 30
0.0
 10
-7.516590806405063
 20
47.34767154221137
 30
0.0
 10
-6.832369070313561
 20
47.35191668088518
 30
0.0
  0
SPLINE
  5
A7
330
1F
100
AcDbEntity
  8
GRAVAÇÃO
100
AcDbSpline
210
0.0
220
0.0
230
1.0
 70
     8
 71
     3
 72
     8
 73
     4
 74
     0
 42
0.000000001
 43
0.0000000001
 40
0.0
 40
0.0
 40
0.0
 40
0.0
 40
7.271548443125185
 40
7.271548443125185
 40
7.271548443125185
 40
7.271548443125185
 10
-9.853996572566828
 20
46.29792810408652
 30
0.0
 10
-9.577602512092795
 20
47.39183607876183
 30
0.0
 10
-8.63542573234983
 20
48.31929134632131
 30
0.0
 10
-7.79891096272604
 20
48.54137801778288
 30
0.0
  0
SPLINE
  5
A8
330
1F
100
AcDbEntity
  8
GRAVAÇÃO
100
AcDbSpline
210
0.0
220
0.0
230
1.0
 70
     8
 71
     3
 72
     8
 73
     4
 74
     0
 42
0.000000001
 43
0.0000000001
 40
0.0
 40
0.0
 40
0.0
 40
0.0
 40
7.290717561923034
 40
7.290717561923034
 40
7.290717561923034
 40
7.290717561923034
 10
-10.95210382409394
 20
47.56123217441962
 30
0.0
 10
-10.59338685275317
 20
48.48122798033963
 30
0.0
 10
-9.503994951175372
 20
49.5117338331835
 30
0.0
 10
-8.702097116660113
 20
49.75354054662343
 30
0.0
  0
SPLINE
  5
A9
330
1F
100
AcDbEntity
  8
GRAVAÇÃO
100
AcDbSpline
210
0.0
220
0.0
230
1.0
 70
     8
 71
     3
 72
     8
 73
     4
 74
     0
 42
0.000000001
 43
0.0000000001
 40
0.0
 40
0.0
 40
0.0
 40
0.0
 40
7.435999571481927
 40
7.435999571481927
 40
7.435999571481927
 40
7.435999571481927
 10
-11.73385610405968
 20
48.64239890017026
 30
0.0
 10
-11.25585490100995
 20
49.60006290628441
 30
0.0
 10
-10.18118451161563
 20
50.39502456419252
 30
0.0
 10
-9.205606240015854
 20
50.52169904640002
 30
0.0
  0
SPLINE
  5
AA
330
1F
100
AcDbEntity
  8
GRAVAÇÃO
100
AcDbSpline
210
0.0
220
0.0
230
1.0
 70
     8
 71
     3
 72
     8
 73
     4
 74
     0
 42
0.000000001
 43
0.0000000001
 40
0.0
 40
0.0
 40
0.0
 40
0.0
 40
7.42923162695425
 40
7.42923162695425
 40
7.42923162695425
 40
7.42923162695425
 10
-12.46768282053384
 20
49.89406159245635
 30
0.0
 10
-11.96248748581718
 20
50.77778388096311
 30
0.0
 10
-10.65227290148711
 20
51.71996066070608
 30
0.0
 10
-9.903963637353371
 20
51.8276488832218
 30
0.0
  0
SPLINE
  5
AB
330
1F
100
AcDbEntity
  8
GRAVAÇÃO
100
AcDbSpline
210
0.0
220
0.0
230
1.0
 70
     8
 71
     3
 72
     8
 73
     4
 74
     0
 42
0.000000001
 43
0.0000000001
 40
0.0
 40
0.0
 40
0.0
 40
0.0
 40
7.325083869112887
 40
7.325083869112887
 40
7.325083869112887
 40
7.325083869112887
 10
-13.22963728598205
 20
51.47774918798206
 30
0.0
 10
-12.6691200706244
 20
52.22049207494453
 30
0.0
 10
-10.7553234867715
 20
52.91240314756827
 30
0.0
 10
-10.38134253613153
 20
52.93593619241094
 30
0.0
  0
SPLINE
  5
AC
330
1F
100
AcDbEntity
  8
GRAVAÇÃO
100
AcDbSpline
210
0.0
220
0.0
230
1.0
 70
     8
 71
     2
 72
     6
 73
     3
 74
     0
 42
0.000000001
 43
0.0000000001
 40
0.0
 40
0.0
 40
0.0
 40
6.8316027840501
 40
6.8316027840501
 40
6.8316027840501
 10
-13.91240000003084
 20
53.473314306774
 30
0.0
 10
-12.8457782168262
 20
54.13428865879743
 30
0.0
 10
-11.0176405350942
 20
54.47933333857669
 30
0.0
  0
SPLINE
  5
AD
330
1F
100
AcDbEntity
  8
GRAVAÇÃO
100
AcDbSpline
210
0.0
220
0.0
230
1.0
 70
     8
 71
     3
 72
     8
 73
     4
 74
     0
 42
0.000000001
 43
0.0000000001
 40
0.0
 40
0.0
 40
0.0
 40
0.0
 40
7.970810757135992
 40
7.970810757135992
 40
7.970810757135992
 40
7.970810757135992
 10
17.22641291600532
 20
59.40849266555712
 30
0.0
 10
17.38986068104278
 20
57.95708521910218
 30
0.0
 10
17.21099430801345
 20
56.43075883591858
 30
0.0
 10
16.79623829971233
 20
55.94680738751516
 30
0.0
  0
SPLINE
  5
AE
330
1F
100
AcDbEntity
  8
GRAVAÇÃO
100
AcDbSpline
210
0.0
220
0.0
230
1.0
 70
     8
 71
     3
 72
     8
 73
     4
 74
     0
 42
0.000000001
 43
0.0000000001
 40
0.0
 40
0.0
 40
0.0
 40
0.0
 40
7.157525592912161
 40
7.157525592912161
 40
7.157525592912161
 40
7.157525592912161
 10
18.76552040324428
 20
58.34458573109499
 30
0.0
 10
18.928111489095
 20
57.43241052488283
 30
0.0
 10
18.40343679487565
 20
56.28766573749512
 30
0.0
 10
17.55457268048583
 20
55.62312424731564
 30
0.0
  0
SPLINE
  5
AF
330
1F
100
AcDbEntity
  8
GRAVAÇÃO
100
AcDbSpline
210
0.0
220
0.0
230
1.0
 70
     8
 71
     3
 72
     8
 73
     4
 74
     0
 42
0.000000001
 43
0.0000000001
 40
0.0
 40
0.0
 40
0.0
 40
0.0
 40
7.180833134336099
 40
7.180833134336099
 40
7.180833134336099
 40
7.180833134336099
 10
20.23564577163772
 20
57.20575655114345
 30
0.0
 10
20.02515857700821
 20
56.26381688775787
 30
0.0
 10
19.15467556159882
 20
55.21446749931914
 30
0.0
 10
18.2274247043776
 20
55.02753091838333
 30
0.0
  0
SPLINE
  5
B0
330
1F
100
AcDbEntity
  8
GRAVAÇÃO
100
AcDbSpline
210
0.0
220
0.0
230
1.0
 70
     8
 71
     3
 72
     8
 73
     4
 74
     0
 42
0.000000001
 43
0.0000000001
 40
0.0
 40
0.0
 40
0.0
 40
0.0
 40
7.340760216257545
 40
7.340760216257545
 40
7.340760216257545
 40
7.340760216257545
 10
18.84760167194501
 20
54.33241680777216
 30
0.0
 10
19.85821662884752
 20
54.40360660825286
 30
0.0
 10
21.06258354057833
 20
55.16676979984466
 30
0.0
 10
21.59208782351841
 20
55.90499341222461
 30
0.0
  0
SPLINE
  5
B1
330
1F
100
AcDbEntity
  8
GRAVAÇÃO
100
AcDbSpline
210
0.0
220
0.0
230
1.0
 70
     8
 71
     3
 72
     8
 73
     4
 74
     0
 42
0.000000001
 43
0.0000000001
 40
0.0
 40
0.0
 40
0.0
 40
0.0
 40
7.521657311748547
 40
7.521657311748547
 40
7.521657311748547
 40
7.521657311748547
 10
19.66587643239951
 20
53.15412708607741
 30
0.0
 10
20.62137982043932
 20
53.19923969652204
 30
0.0
 10
21.90921770625049
 20
53.98625173785109
 30
0.0
 10
22.60480821620079
 20
54.65375350047537
 30
0.0
  0
SPLINE
  5
B2
330
1F
100
AcDbEntity
  8
GRAVAÇÃO
100
AcDbSpline
210
0.0
220
0.0
230
1.0
 70
     8
 71
     3
 72
     8
 73
     4
 74
     0
 42
0.000000001
 43
0.0000000001
 40
0.0
 40
0.0
 40
0.0
 40
0.0
 40
8.199485786256052
 40
8.199485786256052
 40
8.199485786256052
 40
8.199485786256052
 10
20.26408650139486
 20
51.88311156969577
 30
0.0
 10
21.08643239031558
 20
51.64906446360119
 30
0.0
 10
22.54121222428743
 20
52.24528570703228
 30
0.0
 10
23.66737602350257
 20
52.91796865368329
 30
0.0
  0
SPLINE
  5
B3
330
1F
100
AcDbEntity
  8
GRAVAÇÃO
100
AcDbSpline
210
0.0
220
0.0
230
1.0
 70
     8
 71
     3
 72
     9
 73
     5
 74
     0
 42
0.000000001
 43
0.0000000001
 40
0.0
 40
0.0
 40
0.0
 40
0.0
 40
5.078527547946176
 40
10.15705509589235
 40
10.15705509589235
 40
10.15705509589235
 40
10.15705509589235
 10
20.82195241885822
 20
50.00043470999887
 30
0.0
 10
21.44416513637422
 20
49.22840621527094
 30
0.0
 10
22.80354957139713
 20
49.57421453646097
 30
0.0
 10
24.34180037944934
 20
50.44469755187038
 30
0.0
 10
24.69180762937826
 20
50.75829707895889
 30
0.0
  0
SPLINE
  5
B4
330
1F
100
AcDbEntity
  8
GRAVAÇÃO
100
AcDbSpline
210
0.0
220
0.0
230
1.0
 70
     8
 71
     3
 72
     9
 73
     5
 74
     0
 42
0.000000001
 43
0.0000000001
 40
0.0
 40
0.0
 40
0.0
 40
0.0
 40
5.262961846145497
 40
10.52592369229099
 40
10.52592369229099
 40
10.52592369229099
 40
10.52592369229099
 10
21.05775406940062
 20
48.54693626775891
 30
0.0
 10
22.12385735388567
 20
47.80939965590493
 30
0.0
 10
23.81712568522998
 20
47.88094620511666
 30
0.0
 10
24.98571932235491
 20
48.25060337604394
 30
0.0
 10
25.47493832077278
 20
48.56780685395101
 30
0.0
  0
SPLINE
  5
B5
330
1F
100
AcDbEntity
  8
GRAVAÇÃO
100
AcDbSpline
210
0.0
220
0.0
230
1.0
 70
     8
 71
     3
 72
     9
 73
     5
 74
     0
 42
0.000000001
 43
0.0000000001
 40
0.0
 40
0.0
 40
0.0
 40
0.0
 40
5.595816078635744
 40
11.19163215727149
 40
11.19163215727149
 40
11.19163215727149
 40
11.19163215727149
 10
21.07903532691948
 20
46.51667517181592
 30
0.0
 10
21.80189788243287
 20
45.96111380126852
 30
0.0
 10
23.24475329153613
 20
45.87764282718817
 30
0.0
 10
24.63991100116489
 20
46.37846867167029
 30
0.0
 10
25.79032940476637
 20
46.90247115130526
 30
0.0
  0
SPLINE
  5
B6
330
1F
100
AcDbEntity
  8
GRAVAÇÃO
100
AcDbSpline
210
0.0
220
0.0
230
1.0
 70
     8
 71
     3
 72
    10
 73
     6
 74
     0
 42
0.000000001
 43
0.0000000001
 40
0.0
 40
0.0
 40
0.0
 40
0.0
 40
3.977353451625389
 40
7.954706903250777
 40
11.93206035487617
 40
11.93206035487617
 40
11.93206035487617
 40
11.93206035487617
 10
20.86788013740387
 20
45.06715544369112
 30
0.0
 10
21.36069416229388
 20
44.41093856834767
 30
0.0
 10
22.76777629679125
 20
43.8266417497852
 30
0.0
 10
24.12716073181416
 20
43.86241502439107
 30
0.0
 10
25.0214925969608
 20
44.35131644400457
 30
0.0
 10
25.58903831434114
 20
44.79065591795958
 30
0.0
  0
SPLINE
  5
B7
330
1F
100
AcDbEntity
  8
GRAVAÇÃO
100
AcDbSpline
210
0.0
220
0.0
230
1.0
 70
     8
 71
     3
 72
     9
 73
     5
 74
     0
 42
0.000000001
 43
0.0000000001
 40
0.0
 40
0.0
 40
0.0
 40
0.0
 40
5.356348455731137
 40
10.71269691146227
 40
10.71269691146227
 40
10.71269691146227
 40
10.71269691146227
 10
20.10593773812927
 20
42.5041460155135
 30
0.0
 10
20.69292636965103
 20
42.10952456870365
 30
0.0
 10
22.20732832796602
 20
41.75179182264498
 30
0.0
 10
23.74557913601826
 20
41.60869872422151
 30
0.0
 10
24.7386477602597
 20
42.02486896427614
 30
0.0
  0
SPLINE
  5
B8
330
1F
100
AcDbEntity
  8
GRAVAÇÃO
100
AcDbSpline
210
0.0
220
0.0
230
1.0
 70
     8
 71
     3
 72
     9
 73
     5
 74
     0
 42
0.000000001
 43
0.0000000001
 40
0.0
 40
0.0
 40
0.0
 40
0.0
 40
5.402701679183036
 40
10.80540335836607
 40
10.80540335836607
 40
10.80540335836607
 40
10.80540335836607
 10
19.43736167901173
 20
41.10521225097118
 30
0.0
 10
20.19210052516893
 20
40.4043318124907
 30
0.0
 10
21.90921770625049
 20
40.08237234103791
 30
0.0
 10
23.51901506351443
 20
40.21354101459275
 30
0.0
 10
24.0466198370263
 20
40.30305261723257
 30
0.0
  0
SPLINE
  5
B9
330
1F
100
AcDbEntity
  8
GRAVAÇÃO
100
AcDbSpline
210
0.0
220
0.0
230
1.0
 70
     8
 71
     3
 72
     9
 73
     5
 74
     0
 42
0.000000001
 43
0.0000000001
 40
0.0
 40
0.0
 40
0.0
 40
0.0
 40
5.131334658684982
 40
10.26266931736996
 40
10.26266931736996
 40
10.26266931736996
 40
10.26266931736996
 10
18.6496372933063
 20
39.7785376504772
 30
0.0
 10
19.10697786212434
 20
39.02109852773056
 30
0.0
 10
20.25172264951205
 20
38.47257498377395
 30
0.0
 10
21.81382230730151
 20
37.88827816521148
 30
0.0
 10
22.63837365173534
 20
38.12489873195408
 30
0.0
  0
SPLINE
  5
BA
330
1F
100
AcDbEntity
  8
GRAVAÇÃO
100
AcDbSpline
210
0.0
220
0.0
230
1.0
 70
     8
 71
     3
 72
     8
 73
     4
 74
     0
 42
0.000000001
 43
0.0000000001
 40
0.0
 40
0.0
 40
0.0
 40
0.0
 40
8.120907852018762
 40
8.120907852018762
 40
8.120907852018762
 40
8.120907852018762
 10
17.75650475001051
 20
38.38429314614598
 30
0.0
 10
18.17687272237183
 20
37.5186209942842
 30
0.0
 10
19.6316525563437
 20
36.79123107729826
 30
0.0
 10
20.70689412806821
 20
36.49868790572468
 30
0.0
  0
SPLINE
  5
BB
330
1F
100
AcDbEntity
  8
GRAVAÇÃO
100
AcDbSpline
210
0.0
220
0.0
230
1.0
 70
     8
 71
     3
 72
     8
 73
     4
 74
     0
 42
0.000000001
 43
0.0000000001
 40
0.0
 40
0.0
 40
0.0
 40
0.0
 40
7.335780960753686
 40
7.335780960753686
 40
7.335780960753686
 40
7.335780960753686
 10
16.83009947661718
 20
37.62193313599107
 30
0.0
 10
17.1275233339331
 20
36.80315550216688
 30
0.0
 10
18.04570404881699
 20
36.0519167354437
 30
0.0
 10
19.15560861175666
 20
35.39907191183651
 30
0.0
  0
SPLINE
  5
BC
330
1F
100
AcDbEntity
  8
GRAVAÇÃO
100
AcDbSpline
210
0.0
220
0.0
230
1.0
 70
     8
 71
     3
 72
     8
 73
     4
 74
     0
 42
0.000000001
 43
0.0000000001
 40
0.0
 40
0.0
 40
0.0
 40
0.0
 40
7.138523505342262
 40
7.138523505342262
 40
7.138523505342262
 40
7.138523505342262
 10
15.65954859604537
 20
37.00904457939239
 30
0.0
 10
16.03047624601989
 20
36.09961443491819
 30
0.0
 10
16.97250581064101
 20
34.87139867345013
 30
0.0
 10
17.60078261646471
 20
34.50931966786217
 30
0.0
  0
SPLINE
  5
BD
330
1F
100
AcDbEntity
  8
GRAVAÇÃO
100
AcDbSpline
210
0.0
220
0.0
230
1.0
 70
     8
 71
     3
 72
     9
 73
     5
 74
     0
 42
0.000000001
 43
0.0000000001
 40
0.0
 40
0.0
 40
0.0
 40
0.0
 40
3.566266168768935
 40
7.132532337537871
 40
7.132532337537871
 40
7.132532337537871
 40
7.132532337537871
 10
14.10264284035229
 20
36.62815252349276
 30
0.0
 10
14.09871941730314
 20
36.21849185135596
 30
0.0
 10
14.24181251572661
 20
35.37222451793225
 30
0.0
 10
14.64724296125975
 20
34.25132858028179
 30
0.0
 10
15.14509277701582
 20
33.63468052228447
 30
0.0
  0
SPLINE
  5
BE
330
1F
100
AcDbEntity
  8
GRAVAÇÃO
100
AcDbSpline
210
0.0
220
0.0
230
1.0
 70
     8
 71
     3
 72
     9
 73
     5
 74
     0
 42
0.000000001
 43
0.0000000001
 40
0.0
 40
0.0
 40
0.0
 40
0.0
 40
3.75460806382716
 40
7.509216127654319
 40
7.509216127654319
 40
7.509216127654319
 40
7.509216127654319
 10
12.82294845338755
 20
36.54547722549884
 30
0.0
 10
12.7394163912315
 20
36.04921103236394
 30
0.0
 10
13.12099798702741
 20
34.74944872168415
 30
0.0
 10
13.52642843256055
 20
33.65240163377092
 30
0.0
 10
13.84283868286717
 20
33.41296068482993
 30
0.0
  0
SPLINE
  5
BF
330
1F
100
AcDbEntity
  8
GRAVAÇÃO
100
AcDbSpline
210
0.0
220
0.0
230
1.0
 70
     8
 71
     3
 72
     9
 73
     5
 74
     0
 42
0.000000001
 43
0.0000000001
 40
0.0
 40
0.0
 40
0.0
 40
0.0
 40
3.744778868380992
 40
7.489557736761984
 40
7.489557736761984
 40
7.489557736761984
 40
7.489557736761984
 10
11.06918191416776
 20
36.59623539209235
 30
0.0
 10
10.80765956251476
 20
35.96574005828358
 30
0.0
 10
10.83150841225201
 20
34.86869297037036
 30
0.0
 10
11.06999690962444
 20
34.04590765443545
 30
0.0
 10
11.35780896299521
 20
33.322324226897
 30
0.0
  0
SPLINE
  5
C0
330
1F
100
AcDbEntity
  8
GRAVAÇÃO
100
AcDbSpline
210
0.0
220
0.0
230
1.0
 70
     8
 71
     3
 72
     8
 73
     4
 74
     0
 42
0.000000001
 43
0.0000000001
 40
0.0
 40
0.0
 40
0.0
 40
0.0
 40
7.056915380210727
 40
7.056915380210727
 40
7.056915380210727
 40
7.056915380210727
 10
9.428873622292784
 20
36.70155660445008
 30
0.0
 10
8.911676008403887
 20
35.84649580959736
 30
0.0
 10
8.649338661294209
 20
34.88061739523899
 30
0.0
 10
8.57549641332723
 20
33.66506331808223
 30
0.0
  0
SPLINE
  5
C1
330
1F
100
AcDbEntity
  8
GRAVAÇÃO
100
AcDbSpline
210
0.0
220
0.0
230
1.0
 70
     8
 71
     3
 72
     8
 73
     4
 74
     0
 42
0.000000001
 43
0.0000000001
 40
0.0
 40
0.0
 40
0.0
 40
0.0
 40
7.380899152804325
 40
7.380899152804325
 40
7.380899152804325
 40
7.380899152804325
 10
7.113488597456225
 20
37.53194755330256
 30
0.0
 10
6.26569262720507
 20
36.19144361039047
 30
0.0
 10
5.998772784194458
 20
35.46768018991938
 30
0.0
 10
5.736284089246269
 20
34.49424825633214
 30
0.0
  0
SPLINE
  5
C2
330
1F
100
AcDbEntity
  8
GRAVAÇÃO
100
AcDbSpline
210
0.0
220
0.0
230
1.0
 70
     8
 71
     2
 72
     6
 73
     3
 74
     0
 42
0.000000001
 43
0.0000000001
 40
0.0
 40
0.0
 40
0.0
 40
3.615789622120749
 40
3.615789622120749
 40
3.615789622120749
 10
1.664391812914829
 20
16.61886872609893
 30
0.0
 10
1.761922330035375
 20
17.08269232081997
 30
0.0
 10
2.693572547495208
 20
17.79843584700416
 30
0.0
  0
SPLINE
  5
C3
330
1F
100
AcDbEntity
  8
GRAVAÇÃO
100
AcDbSpline
210
0.0
220
0.0
230
1.0
 70
     8
 71
     2
 72
     6
 73
     3
 74
     0
 42
0.000000001
 43
0.0000000001
 40
0.0
 40
0.0
 40
0.0
 40
3.507696205179218
 40
3.507696205179218
 40
3.507696205179218
 10
-0.1514362203955528
 20
17.52572852741495
 30
0.0
 10
0.0689484289347462
 20
18.12791968584732
 30
0.0
 10
0.8560943936568179
 20
18.67443716263616
 30
0.0
  0
SPLINE
  5
C4
330
1F
100
AcDbEntity
  8
GRAVAÇÃO
100
AcDbSpline
210
0.0
220
0.0
230
1.0
 70
     8
 71
     2
 72
     6
 73
     3
 74
     0
 42
0.000000001
 43
0.0000000001
 40
0.0
 40
0.0
 40
0.0
 40
5.047898761387694
 40
5.047898761387694
 40
5.047898761387694
 10
-2.751575191375082
 20
20.14520914028621
 30
0.0
 10
-3.022569129596846
 20
19.29091914834255
 30
0.0
 10
-2.816632916937564
 20
17.90047014131228
 30
0.0
  0
SPLINE
  5
C5
330
1F
100
AcDbEntity
  8
GRAVAÇÃO
100
AcDbSpline
210
0.0
220
0.0
230
1.0
 70
     8
 71
     3
 72
     8
 73
     4
 74
     0
 42
0.000000001
 43
0.0000000001
 40
0.0
 40
0.0
 40
0.0
 40
0.0
 40
7.353384050916
 40
7.353384050916
 40
7.353384050916
 40
7.353384050916
 10
-5.101898286654944
 20
21.05832644344288
 30
0.0
 10
-5.216074444935941
 20
20.20365290371855
 30
0.0
 10
-5.31912503022032
 20
18.878716807205
 30
0.0
 10
-4.981499845886461
 20
17.76688589878914
 30
0.0
  0
SPLINE
  5
C6
330
1F
100
AcDbEntity
  8
GRAVAÇÃO
100
AcDbSpline
210
0.0
220
0.0
230
1.0
 70
     8
 71
     3
 72
     8
 73
     4
 74
     0
 42
0.000000001
 43
0.0000000001
 40
0.0
 40
0.0
 40
0.0
 40
0.0
 40
10.67755069036268
 40
10.67755069036268
 40
10.67755069036268
 40
10.67755069036268
 10
-8.668336657228892
 20
17.50038254532414
 30
0.0
 10
-8.45480712530238
 20
18.77566622192062
 30
0.0
 10
-7.409579760275022
 20
20.21837441590203
 30
0.0
 10
-6.090309155759599
 20
21.4347012442381
 30
0.0
  0
SPLINE
  5
C7
330
1F
100
AcDbEntity
  8
GRAVAÇÃO
100
AcDbSpline
210
0.0
220
0.0
230
1.0
 70
     8
 71
     3
 72
    10
 73
     6
 74
     0
 42
0.000000001
 43
0.0000000001
 40
0.0
 40
0.0
 40
0.0
 40
0.0
 40
2.751680033274643
 40
5.503360066549286
 40
8.255040099823928
 40
8.255040099823928
 40
8.255040099823928
 40
8.255040099823928
 10
9.1258716375376
 20
28.25437599999266
 30
0.0
 10
9.184962711849352
 20
27.85846989868514
 30
0.0
 10
9.78118395528044
 20
27.35764405420302
 30
0.0
 10
11.06902184109161
 20
26.88066705945814
 30
0.0
 10
11.78448733320893
 20
26.84489378485228
 30
0.0
 10
12.26999883218114
 20
26.94482087982342
 30
0.0
  0
SPLINE
  5
C8
330
1F
100
AcDbEntity
  8
GRAVAÇÃO
100
AcDbSpline
210
0.0
220
0.0
230
1.0
 70
     8
 71
     3
 72
     9
 73
     5
 74
     0
 42
0.000000001
 43
0.0000000001
 40
0.0
 40
0.0
 40
0.0
 40
0.0
 40
3.786860335372212
 40
7.573720670744423
 40
7.573720670744423
 40
7.573720670744423
 40
7.573720670744423
 10
8.366353102789347
 20
27.19789125964149
 30
0.0
 10
8.469497219732048
 20
26.52293431339949
 30
0.0
 10
9.089567312900371
 20
25.77169554667631
 30
0.0
 10
10.18661440081358
 20
25.02045677995313
 30
0.0
 10
10.64135846130475
 20
24.91352269686034
 30
0.0
  0
SPLINE
  5
C9
330
1F
100
AcDbEntity
  8
GRAVAÇÃO
100
AcDbSpline
210
0.0
220
0.0
230
1.0
 70
     8
 71
     3
 72
     8
 73
     4
 74
     0
 42
0.000000001
 43
0.0000000001
 40
0.0
 40
0.0
 40
0.0
 40
0.0
 40
7.390908759401175
 40
7.390908759401175
 40
7.390908759401175
 40
7.390908759401175
 10
7.181200196302299
 20
26.18527033486268
 30
0.0
 10
7.408223406424696
 20
25.39011395088041
 30
0.0
 10
8.20715987262237
 20
24.3526889873103
 30
0.0
 10
9.28823384490272
 20
23.75780447565559
 30
0.0
  0
SPLINE
  5
CA
330
1F
100
AcDbEntity
  8
GRAVAÇÃO
100
AcDbSpline
210
0.0
220
0.0
230
1.0
 70
     8
 71
     3
 72
     8
 73
     4
 74
     0
 42
0.000000001
 43
0.0000000001
 40
0.0
 40
0.0
 40
0.0
 40
0.0
 40
7.725499174241019
 40
7.725499174241019
 40
7.725499174241019
 40
7.725499174241019
 10
5.104456553509905
 20
25.20301116420347
 30
0.0
 10
5.476466577707953
 20
24.3526889873103
 30
0.0
 10
6.406571717460466
 20
23.36296172321468
 30
0.0
 10
7.342099946535456
 20
22.55438023582995
 30
0.0
  0
SPLINE
  5
CB
330
1F
100
AcDbEntity
  8
GRAVAÇÃO
100
AcDbSpline
210
0.0
220
0.0
230
1.0
 70
     8
 71
     3
 72
     9
 73
     5
 74
     0
 42
0.000000001
 43
0.0000000001
 40
0.0
 40
0.0
 40
0.0
 40
0.0
 40
3.915156525014589
 40
7.830313050029178
 40
7.830313050029178
 40
7.830313050029178
 40
7.830313050029178
 10
4.10401436979194
 20
24.88586840921509
 30
0.0
 10
4.069384443210581
 20
24.25729358836132
 30
0.0
 10
4.415192764400601
 20
23.23179304965984
 30
0.0
 10
4.892169759145489
 20
22.38515888398769
 30
0.0
 10
5.470883897663342
 20
21.71277608521719
 30
0.0
  0
SPLINE
  5
CC
330
1F
100
AcDbEntity
  8
GRAVAÇÃO
100
AcDbSpline
210
0.0
220
0.0
230
1.0
 70
     8
 71
     3
 72
     9
 73
     5
 74
     0
 42
0.000000001
 43
0.0000000001
 40
0.0
 40
0.0
 40
0.0
 40
0.0
 40
4.006879200478517
 40
8.013758400957034
 40
8.013758400957034
 40
8.013758400957034
 40
8.013758400957034
 10
2.950542058450395
 20
24.61643843381126
 30
0.0
 10
2.829244256873892
 20
23.73261889414196
 30
0.0
 10
2.793470982268033
 20
22.62364738136012
 30
0.0
 10
3.127354878589443
 20
21.65776896700175
 30
0.0
 10
3.331465815481479
 20
21.06102208511677
 30
0.0
  0
SPLINE
  5
CD
330
1F
100
AcDbEntity
  8
GRAVAÇÃO
100
AcDbSpline
210
0.0
220
0.0
230
1.0
 70
     8
 71
     3
 72
     8
 73
     4
 74
     0
 42
0.000000001
 43
0.0000000001
 40
0.0
 40
0.0
 40
0.0
 40
0.0
 40
7.704711473202476
 40
7.704711473202476
 40
7.704711473202476
 40
7.704711473202476
 10
1.340554638142564
 20
24.22877500422482
 30
0.0
 10
1.112127075792344
 20
23.43450827242641
 30
0.0
 10
1.112127075792344
 20
22.00357728819179
 30
0.0
 10
1.4472883795017
 20
20.79314137027897
 30
0.0
  0
SPLINE
  5
CE
330
1F
100
AcDbEntity
  8
GRAVAÇÃO
100
AcDbSpline
210
0.0
220
0.0
230
1.0
 70
     8
 71
     3
 72
     9
 73
     5
 74
     0
 42
0.000000001
 43
0.0000000001
 40
0.0
 40
0.0
 40
0.0
 40
0.0
 40
3.585598456025948
 40
7.171196912051895
 40
7.171196912051895
 40
7.171196912051895
 40
7.171196912051895
 10
0.0726064175890144
 20
23.92648425282515
 30
0.0
 10
-0.2479264744831937
 20
23.16681989927906
 30
0.0
 10
-0.3746690400153057
 20
22.29229619710753
 30
0.0
 10
-0.4063546813983265
 20
21.51282941908508
 30
0.0
 10
-0.2353707299936474
 20
20.74995645911125
 30
0.0
  0
SPLINE
  5
CF
330
1F
100
AcDbEntity
  8
GRAVAÇÃO
100
AcDbSpline
210
0.0
220
0.0
230
1.0
 70
     8
 71
     3
 72
     8
 73
     4
 74
     0
 42
0.000000001
 43
0.0000000001
 40
0.0
 40
0.0
 40
0.0
 40
0.0
 40
5.997938742713433
 40
5.997938742713433
 40
5.997938742713433
 40
5.997938742713433
 10
-1.90899792518421
 20
23.50943361357893
 30
0.0
 10
-2.180750598847808
 20
22.6154897392144
 30
0.0
 10
-2.402550088528997
 20
21.57620070185113
 30
0.0
 10
-2.345154178819499
 20
20.84038609946955
 30
0.0
  0
SPLINE
  5
D0
330
1F
100
AcDbEntity
  8
GRAVAÇÃO
100
AcDbSpline
210
0.0
220
0.0
230
1.0
 70
     8
 71
     3
 72
     8
 73
     4
 74
     0
 42
0.000000001
 43
0.0000000001
 40
0.0
 40
0.0
 40
0.0
 40
0.0
 40
4.387173130757153
 40
4.387173130757153
 40
4.387173130757153
 40
4.387173130757153
 10
-3.823099030079092
 20
20.94873728909599
 30
0.0
 10
-3.929798003190868
 20
21.46846952114885
 30
0.0
 10
-3.7396841548927
 20
22.43805014746945
 30
0.0
 10
-3.629759243758514
 20
22.9072968622439
 30
0.0
  0
SPLINE
  5
D1
330
1F
100
AcDbEntity
  8
GRAVAÇÃO
100
AcDbSpline
210
0.0
220
0.0
230
1.0
 70
     8
 71
     2
 72
     6
 73
     3
 74
     0
 42
0.000000001
 43
0.0000000001
 40
0.0
 40
0.0
 40
0.0
 40
1.097464587717033
 40
1.097464587717033
 40
1.097464587717033
 10
1.86496200843888
 20
24.85153931170729
 30
0.0
 10
1.804560688157139
 20
24.60396725908666
 30
0.0
 10
1.912616833951589
 20
24.38339992268503
 30
0.0
  0
SPLINE
  5
D2
330
1F
100
AcDbEntity
  8
GRAVAÇÃO
100
AcDbSpline
210
0.0
220
0.0
230
1.0
 70
     8
 71
     3
 72
     8
 73
     4
 74
     0
 42
0.000000001
 43
0.0000000001
 40
0.0
 40
0.0
 40
0.0
 40
0.0
 40
3.196192015625804
 40
3.196192015625804
 40
3.196192015625804
 40
3.196192015625804
 10
0.622589056412906
 20
25.36892145190216
 30
0.0
 10
0.3742080365847897
 20
25.10910128147533
 30
0.0
 10
0.4211497275226037
 20
24.55362460537783
 30
0.0
 10
0.5975288304556017
 20
24.04263487273216
 30
0.0
  0
SPLINE
  5
D3
330
1F
100
AcDbEntity
  8
GRAVAÇÃO
100
AcDbSpline
210
0.0
220
0.0
230
1.0
 70
     8
 71
     2
 72
     6
 73
     3
 74
     0
 42
0.000000001
 43
0.0000000001
 40
0.0
 40
0.0
 40
0.0
 40
4.365293803414042
 40
4.365293803414042
 40
4.365293803414042
 10
-1.361685967168611
 20
23.64950057806903
 30
0.0
 10
-1.51128321608418
 20
24.49885929928371
 30
0.0
 10
-1.113941371370302
 20
25.55472628780918
 30
0.0
  0
SPLINE
  5
D4
330
1F
100
AcDbEntity
  8
GRAVAÇÃO
100
AcDbSpline
210
0.0
220
0.0
230
1.0
 70
     8
 71
     3
 72
     8
 73
     4
 74
     0
 42
0.000000001
 43
0.0000000001
 40
0.0
 40
0.0
 40
0.0
 40
0.0
 40
4.854794171596544
 40
4.854794171596544
 40
4.854794171596544
 40
4.854794171596544
 10
-3.524222415327941
 20
25.22219804654114
 30
0.0
 10
-3.568894002191811
 20
24.28762169006353
 30
0.0
 10
-3.349832777815337
 20
23.56784909568368
 30
0.0
 10
-3.157663467946733
 20
23.0784364208399
 30
0.0
  0
SPLINE
  5
D5
330
1F
100
AcDbEntity
  8
GRAVAÇÃO
100
AcDbSpline
210
0.0
220
0.0
230
1.0
 70
     8
 71
     3
 72
     8
 73
     4
 74
     0
 42
0.000000001
 43
0.0000000001
 40
0.0
 40
0.0
 40
0.0
 40
0.0
 40
5.169354022337944
 40
5.169354022337944
 40
5.169354022337944
 40
5.169354022337944
 10
-6.145819734714621
 20
24.3677037158223
 30
0.0
 10
-5.516974176111219
 20
23.72432139880973
 30
0.0
 10
-5.000615575795237
 20
22.77766396489709
 30
0.0
 10
-5.007050054235989
 20
22.39846172028307
 30
0.0
  0
SPLINE
  5
D6
330
1F
100
AcDbEntity
  8
GRAVAÇÃO
100
AcDbSpline
210
0.0
220
0.0
230
1.0
 70
     8
 71
     3
 72
     8
 73
     4
 74
     0
 42
0.000000001
 43
0.0000000001
 40
0.0
 40
0.0
 40
0.0
 40
0.0
 40
5.789204213657907
 40
5.789204213657907
 40
5.789204213657907
 40
5.789204213657907
 10
-8.543938026201644
 20
23.37821427439984
 30
0.0
 10
-7.558937731906241
 20
22.90284180739793
 30
0.0
 10
-6.815694292057472
 20
22.13612752208026
 30
0.0
 10
-6.710800985626918
 20
21.66941535965916
 30
0.0
  0
SPLINE
  5
D7
330
1F
100
AcDbEntity
  8
GRAVAÇÃO
100
AcDbSpline
210
0.0
220
0.0
230
1.0
 70
     8
 71
     3
 72
     8
 73
     4
 74
     0
 42
0.000000001
 43
0.0000000001
 40
0.0
 40
0.0
 40
0.0
 40
0.0
 40
10.13676576450907
 40
10.13676576450907
 40
10.13676576450907
 40
10.13676576450907
 10
-6.710800985626918
 20
21.66941535965916
 30
0.0
 10
-7.977973245018177
 20
21.74390983474986
 30
0.0
 10
-10.05370646288939
 20
21.33170749361232
 30
0.0
 10
-11.20093696920931
 20
20.86968024849677
 30
0.0
  0
SPLINE
  5
D8
330
1F
100
AcDbEntity
  8
GRAVAÇÃO
100
AcDbSpline
210
0.0
220
0.0
230
1.0
 70
     8
 71
     3
 72
     9
 73
     5
 74
     0
 42
0.000000001
 43
0.0000000001
 40
0.0
 40
0.0
 40
0.0
 40
0.0
 40
6.54644019913377
 40
13.09288039826754
 40
13.09288039826754
 40
13.09288039826754
 40
13.09288039826754
 10
-12.4125401097354
 20
22.9831620334968
 30
0.0
 10
-12.00817158611727
 20
23.56495611960044
 30
0.0
 10
-10.80082356816931
 20
24.52117574981523
 30
0.0
 10
-9.149171479616498
 20
25.35183118616343
 30
0.0
 10
-7.382677013319153
 20
25.97432317540822
 30
0.0
  0
SPLINE
  5
D9
330
1F
100
AcDbEntity
  8
GRAVAÇÃO
100
AcDbSpline
210
0.0
220
0.0
230
1.0
 70
     8
 71
     3
 72
     9
 73
     5
 74
     0
 42
0.000000001
 43
0.0000000001
 40
0.0
 40
0.0
 40
0.0
 40
0.0
 40
5.360069213272718
 40
10.72013842654544
 40
10.72013842654544
 40
10.72013842654544
 40
10.72013842654544
 10
-13.20233769285076
 20
24.16289922490992
 30
0.0
 10
-12.72292161274247
 20
24.92684468384574
 30
0.0
 10
-11.05195195590248
 20
26.01828729207071
 30
0.0
 10
-9.66108703922643
 20
26.66542582969081
 30
0.0
 10
-9.214229583500895
 20
26.75931753552038
 30
0.0
  0
SPLINE
  5
DA
330
1F
100
AcDbEntity
  8
GRAVAÇÃO
100
AcDbSpline
210
0.0
220
0.0
230
1.0
 70
     8
 71
     3
 72
     9
 73
     5
 74
     0
 42
0.000000001
 43
0.0000000001
 40
0.0
 40
0.0
 40
0.0
 40
0.0
 40
5.051114881125921
 40
10.10222976225184
 40
10.10222976225184
 40
10.10222976225184
 40
10.10222976225184
 10
-14.38606940524322
 20
26.14768376050323
 30
0.0
 10
-13.87906488467422
 20
26.81193240638943
 30
0.0
 10
-12.57512902529042
 20
27.42043580743521
 30
0.0
 10
-11.24221681347588
 20
27.77781082074781
 30
0.0
 10
-10.29753112327781
 20
27.8963724158894
 30
0.0
  0
SPLINE
  5
DB
330
1F
100
AcDbEntity
  8
GRAVAÇÃO
100
AcDbSpline
210
0.0
220
0.0
230
1.0
 70
     8
 71
     3
 72
    10
 73
     6
 74
     0
 42
0.000000001
 43
0.0000000001
 40
0.0
 40
0.0
 40
0.0
 40
0.0
 40
3.428427734106908
 40
6.856855468213816
 40
10.28528320232072
 40
10.28528320232072
 40
10.28528320232072
 40
10.28528320232072
 10
-15.03185461971141
 20
27.50036182878925
 30
0.0
 10
-14.65698685507047
 20
27.99554928245788
 30
0.0
 10
-13.71042600899928
 20
28.63302903593441
 30
0.0
 10
-12.30990230817963
 20
28.874498639524
 30
0.0
 10
-11.34402389382127
 20
28.90347499195475
 30
0.0
 10
-10.80705585889903
 20
28.843236487332
 30
0.0
  0
SPLINE
  5
DC
330
1F
100
AcDbEntity
  8
GRAVAÇÃO
100
AcDbSpline
210
0.0
220
0.0
230
1.0
 70
     8
 71
     3
 72
     9
 73
     5
 74
     0
 42
0.000000001
 43
0.0000000001
 40
0.0
 40
0.0
 40
0.0
 40
0.0
 40
4.805013198350312
 40
9.610026396700624
 40
9.610026396700624
 40
9.610026396700624
 40
9.610026396700624
 10
-15.55022172985626
 20
29.56744211356138
 30
0.0
 10
-14.98712022810683
 20
30.06480837974316
 30
0.0
 10
-13.80874856258963
 20
30.3352543357635
 30
0.0
 10
-12.61105932878525
 20
30.50911245034801
 30
0.0
 10
-11.40538930860505
 20
30.38888317816566
 30
0.0
  0
SPLINE
  5
DD
330
1F
100
AcDbEntity
  8
GRAVAÇÃO
100
AcDbSpline
210
0.0
220
0.0
230
1.0
 70
     8
 71
     3
 72
     9
 73
     5
 74
     0
 42
0.000000001
 43
0.0000000001
 40
0.0
 40
0.0
 40
0.0
 40
0.0
 40
4.726780717687523
 40
9.453561435375047
 40
9.453561435375047
 40
9.453561435375047
 40
9.453561435375047
 10
-15.63021368401256
 20
31.30570397924445
 30
0.0
 10
-15.09336685368625
 20
31.90963615116765
 30
0.0
 10
-13.67352558457945
 20
32.13178818647008
 30
0.0
 10
-12.30197823619056
 20
32.16076453890084
 30
0.0
 10
-11.61023866256943
 20
32.21471016745532
 30
0.0
  0
SPLINE
  5
DE
330
1F
100
AcDbEntity
  8
GRAVAÇÃO
100
AcDbSpline
210
0.0
220
0.0
230
1.0
 70
     8
 71
     3
 72
     9
 73
     5
 74
     0
 42
0.000000001
 43
0.0000000001
 40
0.0
 40
0.0
 40
0.0
 40
0.0
 40
4.531986236910007
 40
9.063972473820014
 40
9.063972473820014
 40
9.063972473820014
 40
9.063972473820014
 10
-11.55546983594984
 20
33.10811438894441
 30
0.0
 10
-12.41788364591356
 20
33.32947742027446
 30
0.0
 10
-13.8763600515947
 20
33.29084228370013
 30
0.0
 10
-15.33483645727584
 20
33.02039632767978
 30
0.0
 10
-15.57011052968517
 20
32.83345078258997
 30
0.0
  0
SPLINE
  5
DF
330
1F
100
AcDbEntity
  8
GRAVAÇÃO
100
AcDbSpline
210
0.0
220
0.0
230
1.0
 70
     8
 71
     3
 72
     8
 73
     4
 74
     0
 42
0.000000001
 43
0.0000000001
 40
0.0
 40
0.0
 40
0.0
 40
0.0
 40
9.152887751801943
 40
9.152887751801943
 40
9.152887751801943
 40
9.152887751801943
 10
-11.29974723829879
 20
34.71548229489635
 30
0.0
 10
-12.43720121420073
 20
35.09703491855028
 30
0.0
 10
-14.90019117081458
 20
35.0873761344067
 30
0.0
 10
-15.39399178138353
 20
34.95593667199333
 30
0.0
  0
SPLINE
  5
E0
330
1F
100
AcDbEntity
  8
GRAVAÇÃO
100
AcDbSpline
210
0.0
220
0.0
230
1.0
 70
     8
 71
     3
 72
     8
 73
     4
 74
     0
 42
0.000000001
 43
0.0000000001
 40
0.0
 40
0.0
 40
0.0
 40
0.0
 40
9.317212804665257
 40
9.317212804665257
 40
9.317212804665257
 40
9.317212804665257
 10
-11.11984231659012
 20
35.6873189661904
 30
0.0
 10
-11.87699173387288
 20
36.19813631091883
 30
0.0
 10
-13.67352558457945
 20
36.46858226693917
 30
0.0
 10
-15.178695343961
 20
36.26741972619248
 30
0.0
  0
SPLINE
  5
E1
330
1F
100
AcDbEntity
  8
GRAVAÇÃO
100
AcDbSpline
210
0.0
220
0.0
230
1.0
 70
     8
 71
     3
 72
     8
 73
     4
 74
     0
 42
0.000000001
 43
0.0000000001
 40
0.0
 40
0.0
 40
0.0
 40
0.0
 40
9.00376318609634
 40
9.00376318609634
 40
9.00376318609634
 40
9.00376318609634
 10
-10.85274505666631
 20
37.0190373744129
 30
0.0
 10
-11.82869781315496
 20
37.56968365930771
 30
0.0
 10
-13.84738369916396
 20
37.80149447875372
 30
0.0
 10
-14.79874521166674
 20
37.74207407519005
 30
0.0
  0
SPLINE
  5
E2
330
1F
100
AcDbEntity
  8
GRAVAÇÃO
100
AcDbSpline
210
0.0
220
0.0
230
1.0
 70
     8
 71
     3
 72
     8
 73
     4
 74
     0
 42
0.000000001
 43
0.0000000001
 40
0.0
 40
0.0
 40
0.0
 40
0.0
 40
8.805257876754927
 40
8.805257876754927
 40
8.805257876754927
 40
8.805257876754927
 10
-10.47188965665565
 20
38.37272561596021
 30
0.0
 10
-11.32644103768861
 20
38.89293708697868
 30
0.0
 10
-12.94911677381067
 20
39.26962966857845
 30
0.0
 10
-14.29781315120253
 20
39.24285483678435
 30
0.0
  0
SPLINE
  5
E3
330
1F
100
AcDbEntity
  8
GRAVAÇÃO
100
AcDbSpline
210
0.0
220
0.0
230
1.0
 70
     8
 71
     3
 72
     8
 73
     4
 74
     0
 42
0.000000001
 43
0.0000000001
 40
0.0
 40
0.0
 40
0.0
 40
0.0
 40
8.036929414475091
 40
8.036929414475091
 40
8.036929414475091
 40
8.036929414475091
 10
-21.82755298008841
 20
34.87321205962396
 30
0.0
 10
-21.1571906503202
 20
36.22227758306877
 30
0.0
 10
-19.94984263237224
 20
37.30406140715016
 30
0.0
 10
-19.50073936677122
 20
37.59907219221469
 30
0.0
  0
SPLINE
  5
E4
330
1F
100
AcDbEntity
  8
GRAVAÇÃO
100
AcDbSpline
210
0.0
220
0.0
230
1.0
 70
     8
 71
     3
 72
     8
 73
     4
 74
     0
 42
0.000000001
 43
0.0000000001
 40
0.0
 40
0.0
 40
0.0
 40
0.0
 40
7.792364936180821
 40
7.792364936180821
 40
7.792364936180821
 40
7.792364936180821
 10
-23.29607755278697
 20
36.21202462246827
 30
0.0
 10
-22.45146772556042
 20
37.13020329256564
 30
0.0
 10
-21.13787308203304
 20
38.00915264963176
 30
0.0
 10
-20.502498171118
 20
38.35884018642781
 30
0.0
  0
SPLINE
  5
E5
330
1F
100
AcDbEntity
  8
GRAVAÇÃO
100
AcDbSpline
210
0.0
220
0.0
230
1.0
 70
     8
 71
     3
 72
     8
 73
     4
 74
     0
 42
0.000000001
 43
0.0000000001
 40
0.0
 40
0.0
 40
0.0
 40
0.0
 40
7.654811149130163
 40
7.654811149130163
 40
7.654811149130163
 40
7.654811149130163
 10
-24.03668522852928
 20
37.1076676212237
 30
0.0
 10
-23.6491569593648
 20
37.73870669361142
 30
0.0
 10
-22.44180894141683
 20
38.69492632382621
 30
0.0
 10
-21.38318654751619
 20
39.28082535958042
 30
0.0
  0
SPLINE
  5
E6
330
1F
100
AcDbEntity
  8
GRAVAÇÃO
100
AcDbSpline
210
0.0
220
0.0
230
1.0
 70
     8
 71
     3
 72
     8
 73
     4
 74
     0
 42
0.000000001
 43
0.0000000001
 40
0.0
 40
0.0
 40
0.0
 40
0.0
 40
7.692061415434823
 40
7.692061415434823
 40
7.692061415434823
 40
7.692061415434823
 10
-24.86160164860019
 20
38.2636413518217
 30
0.0
 10
-24.27697792869773
 20
39.06196012128238
 30
0.0
 10
-22.96338328517036
 20
40.07613245635868
 30
0.0
 10
-22.12507917724244
 20
40.26157609200541
 30
0.0
  0
SPLINE
  5
E7
330
1F
100
AcDbEntity
  8
GRAVAÇÃO
100
AcDbSpline
210
0.0
220
0.0
230
1.0
 70
     8
 71
     3
 72
     8
 73
     4
 74
     0
 42
0.000000001
 43
0.0000000001
 40
0.0
 40
0.0
 40
0.0
 40
0.0
 40
7.722550583437079
 40
7.722550583437079
 40
7.722550583437079
 40
7.722550583437079
 10
-25.66030842472977
 20
39.55337129524041
 30
0.0
 10
-25.04968066018443
 20
40.43350746967127
 30
0.0
 10
-23.7650623690878
 20
41.15791628044005
 30
0.0
 10
-22.79984342051664
 20
41.29916271636779
 30
0.0
  0
SPLINE
  5
E8
330
1F
100
AcDbEntity
  8
GRAVAÇÃO
100
AcDbSpline
210
0.0
220
0.0
230
1.0
 70
     8
 71
     3
 72
     8
 73
     4
 74
     0
 42
0.000000001
 43
0.0000000001
 40
0.0
 40
0.0
 40
0.0
 40
0.0
 40
7.698057468373061
 40
7.698057468373061
 40
7.698057468373061
 40
7.698057468373061
 10
-26.54999481331841
 20
41.52362584473889
 30
0.0
 10
-26.02521785868638
 20
42.30731159352652
 30
0.0
 10
-24.77923470416408
 20
42.76127444827495
 30
0.0
 10
-23.5883520050438
 20
43.1106419660866
 30
0.0
  0
SPLINE
  5
E9
330
1F
100
AcDbEntity
  8
GRAVAÇÃO
100
AcDbSpline
210
0.0
220
0.0
230
1.0
 70
     8
 71
     3
 72
     8
 73
     4
 74
     0
 42
0.000000001
 43
0.0000000001
 40
0.0
 40
0.0
 40
0.0
 40
0.0
 40
7.926165017651469
 40
7.926165017651469
 40
7.926165017651469
 40
7.926165017651469
 10
-27.03516244272104
 20
43.06463066827976
 30
0.0
 10
-26.45020436100406
 20
43.79476435163842
 30
0.0
 10
-24.89514011388709
 20
44.32599747953552
 30
0.0
 10
-23.88354740619827
 20
44.54721427207546
 30
0.0
  0
SPLINE
  5
EA
330
1F
100
AcDbEntity
  8
GRAVAÇÃO
100
AcDbSpline
210
0.0
220
0.0
230
1.0
 70
     8
 71
     2
 72
     6
 73
     3
 74
     0
 42
0.000000001
 43
0.0000000001
 40
0.0
 40
0.0
 40
0.0
 40
7.518549416942689
 40
7.518549416942689
 40
7.518549416942689
 10
-27.31314286011627
 20
45.23350232000081
 30
0.0
 10
-25.94794758553771
 20
45.51402792919632
 30
0.0
 10
-23.92738507794938
 20
45.75401084341648
 30
0.0
  0
SPLINE
  5
EB
330
1F
100
AcDbEntity
  8
GRAVAÇÃO
100
AcDbSpline
210
0.0
220
0.0
230
1.0
 70
     8
 71
     3
 72
     8
 73
     4
 74
     0
 42
0.000000001
 43
0.0000000001
 40
0.0
 40
0.0
 40
0.0
 40
0.0
 40
7.590238892636935
 40
7.590238892636935
 40
7.590238892636935
 40
7.590238892636935
 10
-27.18701683034888
 20
46.90649606951547
 30
0.0
 10
-26.47696992506418
 20
46.99962405435616
 30
0.0
 10
-24.53671336630108
 20
47.08568382107549
 30
0.0
 10
-23.73385978419759
 20
47.09236883501795
 30
0.0
  0
SPLINE
  5
EC
330
1F
100
AcDbEntity
  8
GRAVAÇÃO
100
AcDbSpline
210
0.0
220
0.0
230
1.0
 70
     8
 71
     3
 72
     8
 73
     4
 74
     0
 42
0.000000001
 43
0.0000000001
 40
0.0
 40
0.0
 40
0.0
 40
0.0
 40
8.23387427617068
 40
8.23387427617068
 40
8.23387427617068
 40
8.23387427617068
 10
-26.7491328870978
 20
48.97303744337482
 30
0.0
 10
-25.20172065458682
 20
49.12764737687053
 30
0.0
 10
-23.65264485363886
 20
48.93988061311926
 30
0.0
 10
-23.33680566643101
 20
48.38422904913898
 30
0.0
  0
SPLINE
  5
ED
330
1F
100
AcDbEntity
  8
GRAVAÇÃO
100
AcDbSpline
210
0.0
220
0.0
230
1.0
 70
     8
 71
     3
 72
     8
 73
     4
 74
     0
 42
0.000000001
 43
0.0000000001
 40
0.0
 40
0.0
 40
0.0
 40
0.0
 40
8.084052345897867
 40
8.084052345897867
 40
8.084052345897867
 40
8.084052345897867
 10
-26.03171481955334
 20
50.78668867908584
 30
0.0
 10
-24.47412444505066
 20
50.7236648687563
 30
0.0
 10
-23.08152094722876
 20
50.457661953442
 30
0.0
 10
-22.59056143642994
 20
49.94517278244486
 30
0.0
  0
SPLINE
  5
EE
330
1F
100
AcDbEntity
  8
GRAVAÇÃO
100
AcDbSpline
210
0.0
220
0.0
230
1.0
 70
     8
 71
     3
 72
     8
 73
     4
 74
     0
 42
0.000000001
 43
0.0000000001
 40
0.0
 40
0.0
 40
0.0
 40
0.0
 40
8.376284963765112
 40
8.376284963765112
 40
8.376284963765112
 40
8.376284963765112
 10
-24.7895964184402
 20
52.65603464613288
 30
0.0
 10
-23.51964339598172
 20
52.55439081533116
 30
0.0
 10
-22.20527604972285
 20
52.29621151517317
 30
0.0
 10
-21.4426204589298
 20
51.36182966999144
 30
0.0
  0
SPLINE
  5
EF
330
1F
100
AcDbEntity
  8
GRAVAÇÃO
100
AcDbSpline
210
0.0
220
0.0
230
1.0
 70
     8
 71
     3
 72
     9
 73
     5
 74
     0
 42
0.000000001
 43
0.0000000001
 40
0.0
 40
0.0
 40
0.0
 40
0.0
 40
4.010496274061287
 40
8.020992548122575
 40
8.020992548122575
 40
8.020992548122575
 40
8.020992548122575
 10
-22.69380120147699
 20
54.65472390522244
 30
0.0
 10
-21.97839121019007
 20
54.54941268018838
 30
0.0
 10
-21.09432269752786
 20
53.95481792830937
 30
0.0
 10
-20.56231686689927
 20
53.30545787033623
 30
0.0
 10
-20.40536658702459
 20
52.28789509760148
 30
0.0
  0
SPLINE
  5
F0
330
1F
100
AcDbEntity
  8
GRAVAÇÃO
100
AcDbSpline
210
0.0
220
0.0
230
1.0
 70
     8
 71
     3
 72
     9
 73
     5
 74
     0
 42
0.000000001
 43
0.0000000001
 40
0.0
 40
0.0
 40
0.0
 40
0.0
 40
3.885557677280464
 40
7.771115354560927
 40
7.771115354560927
 40
7.771115354560927
 40
7.771115354560927
 10
-20.95275594040135
 20
55.80927259630464
 30
0.0
 10
-20.13984164845891
 20
55.46477565347581
 30
0.0
 10
-19.32618567220342
 20
54.65894329237662
 30
0.0
 10
-18.9897702204824
 20
53.79834562518332
 30
0.0
 10
-19.04544135479092
 20
53.20939391803834
 30
0.0
  0
SPLINE
  5
F1
330
1F
100
AcDbEntity
  8
GRAVAÇÃO
100
AcDbSpline
210
0.0
220
0.0
230
1.0
 70
     8
 71
     3
 72
     9
 73
     5
 74
     0
 42
0.000000001
 43
0.0000000001
 40
0.0
 40
0.0
 40
0.0
 40
0.0
 40
3.952439023939978
 40
7.904878047879957
 40
7.904878047879957
 40
7.904878047879957
 40
7.904878047879957
 10
-19.2154443948654
 20
56.71724431074826
 30
0.0
 10
-18.4264699292286
 20
56.39578585707584
 30
0.0
 10
-17.65193202875462
 20
55.52736457472623
 30
0.0
 10
-17.33116380734621
 20
54.86235728644048
 30
0.0
 10
-17.36972222141809
 20
54.0124997517524
 30
0.0
  0
SPLINE
  5
F2
330
1F
100
AcDbEntity
  8
GRAVAÇÃO
100
AcDbSpline
210
0.0
220
0.0
230
1.0
 70
     8
 71
     3
 72
     9
 73
     5
 74
     0
 42
0.000000001
 43
0.0000000001
 40
0.0
 40
0.0
 40
0.0
 40
0.0
 40
3.63674876670878
 40
7.27349753341756
 40
7.27349753341756
 40
7.27349753341756
 40
7.27349753341756
 10
-17.39080336957531
 20
57.42471645549431
 30
0.0
 10
-16.90868858890586
 20
57.00602783926746
 30
0.0
 10
-16.38450637343357
 20
56.10631209629263
 30
0.0
 10
-16.24368130062012
 20
55.22224358363042
 30
0.0
 10
-16.22734960791846
 20
54.4807162346124
 30
0.0
  0
SPLINE
  5
F3
330
1F
100
AcDbEntity
  8
GRAVAÇÃO
100
AcDbSpline
210
0.0
220
0.0
230
1.0
 70
     8
 71
     3
 72
     9
 73
     5
 74
     0
 42
0.000000001
 43
0.0000000001
 40
0.0
 40
0.0
 40
0.0
 40
0.0
 40
3.584104601924276
 40
7.168209203848551
 40
7.168209203848551
 40
7.168209203848551
 40
7.168209203848551
 10
-15.51304717595232
 20
57.83377122016076
 30
0.0
 10
-15.15619879389403
 20
57.44415028802041
 30
0.0
 10
-14.66331103904696
 20
56.70873046332795
 30
0.0
 10
-14.41295535404527
 20
55.84030918097834
 30
0.0
 10
-14.52954398224419
 20
54.89619820383892
 30
0.0
  0
SPLINE
  5
F4
330
1F
100
AcDbEntity
  8
GRAVAÇÃO
100
AcDbSpline
210
0.0
220
0.0
230
1.0
 70
     8
 71
     3
 72
     9
 73
     5
 74
     0
 42
0.000000001
 43
0.0000000001
 40
0.0
 40
0.0
 40
0.0
 40
0.0
 40
3.493440105147144
 40
6.986880210294288
 40
6.986880210294288
 40
6.986880210294288
 40
6.986880210294288
 10
-13.55613894936108
 20
58.06746824985248
 30
0.0
 10
-13.12988246841161
 20
57.56150451536496
 30
0.0
 10
-12.8247614773158
 20
56.53661092988929
 30
0.0
 10
-12.78564340153429
 20
55.59777711113296
 30
0.0
 10
-12.79596123203744
 20
55.08242126761952
 30
0.0
  0
SPLINE
  5
F5
330
1F
100
AcDbEntity
  8
GRAVAÇÃO
100
AcDbSpline
210
0.0
220
0.0
230
1.0
 70
     8
 71
     3
 72
     9
 73
     5
 74
     0
 42
0.000000001
 43
0.0000000001
 40
0.0
 40
0.0
 40
0.0
 40
0.0
 40
3.3910935154592
 40
6.782187030918401
 40
6.782187030918401
 40
6.782187030918401
 40
6.782187030918401
 10
-11.43270612464137
 20
58.19439882186313
 30
0.0
 10
-11.15833144902331
 20
57.24855990911284
 30
0.0
 10
-11.04880083683507
 20
56.26278439941869
 30
0.0
 10
-11.15050783386701
 20
55.55083542019513
 30
0.0
 10
-11.28457744790065
 20
55.17731890368651
 30
0.0
  0
SPLINE
  5
F6
330
1F
100
AcDbEntity
  8
GRAVAÇÃO
100
AcDbSpline
210
0.0
220
0.0
230
1.0
 70
     8
 71
     3
 72
     8
 73
     4
 74
     0
 42
0.000000001
 43
0.0000000001
 40
0.0
 40
0.0
 40
0.0
 40
0.0
 40
6.734596912235395
 40
6.734596912235395
 40
6.734596912235395
 40
6.734596912235395
 10
-9.381241386769943
 20
58.17078481930906
 30
0.0
 10
-9.17895681447871
 20
57.28767798489436
 30
0.0
 10
-9.257192966041728
 20
56.23931355394978
 30
0.0
 10
-9.468312626735823
 20
55.14576624231333
 30
0.0
  0
SPLINE
  5
F7
330
1F
100
AcDbEntity
  8
GRAVAÇÃO
100
AcDbSpline
210
0.0
220
0.0
230
1.0
 70
     8
 71
     3
 72
     8
 73
     4
 74
     0
 42
0.000000001
 43
0.0000000001
 40
0.0
 40
0.0
 40
0.0
 40
0.0
 40
6.560584863264457
 40
6.560584863264457
 40
6.560584863264457
 40
6.560584863264457
 10
-7.45611666292686
 20
57.8899776019731
 30
0.0
 10
-7.512526786186214
 20
56.72437769364056
 30
0.0
 10
-7.927178389470257
 20
55.38653950191278
 30
0.0
 10
-8.112350063309734
 20
55.00504440628214
 30
0.0
  0
SPLINE
  5
F8
330
1F
100
AcDbEntity
  8
GRAVAÇÃO
100
AcDbSpline
210
0.0
220
0.0
230
1.0
 70
     8
 71
     3
 72
     8
 73
     4
 74
     0
 42
0.000000001
 43
0.0000000001
 40
0.0
 40
0.0
 40
0.0
 40
0.0
 40
5.894249799609899
 40
5.894249799609899
 40
5.894249799609899
 40
5.894249799609899
 10
-2.810180404534719
 20
71.76981463270812
 30
0.0
 10
-3.246692189653842
 20
71.37957956257904
 30
0.0
 10
-4.208996853879086
 20
71.24657810492188
 30
0.0
 10
-5.336103240617803
 20
71.33828866664346
 30
0.0
  0
SPLINE
  5
F9
330
1F
100
AcDbEntity
  8
GRAVAÇÃO
100
AcDbSpline
210
0.0
220
0.0
230
1.0
 70
     8
 71
     3
 72
     8
 73
     4
 74
     0
 42
0.000000001
 43
0.0000000001
 40
0.0
 40
0.0
 40
0.0
 40
0.0
 40
3.308953663546781
 40
3.308953663546781
 40
3.308953663546781
 40
3.308953663546781
 10
-2.256131266455483
 20
71.18165439702452
 30
0.0
 10
-2.8320405863698
 20
70.95710434413868
 30
0.0
 10
-3.270163035122764
 20
70.67545419851179
 30
0.0
 10
-3.636511754177533
 20
70.62423192247834
 30
0.0
  0
SPLINE
  5
FA
330
1F
100
AcDbEntity
  8
GRAVAÇÃO
100
AcDbSpline
210
0.0
220
0.0
230
1.0
 70
     8
 71
     2
 72
     6
 73
     3
 74
     0
 42
0.000000001
 43
0.0000000001
 40
0.0
 40
0.0
 40
0.0
 40
2.285630916892784
 40
2.285630916892784
 40
2.285630916892784
 10
-1.352162561673453
 20
70.86021802088639
 30
0.0
 10
-1.345553706672263
 20
70.36250959225967
 30
0.0
 10
-1.639305935514017
 20
69.90404151014162
 30
0.0
  0
SPLINE
  5
FB
330
1F
100
AcDbEntity
  8
GRAVAÇÃO
100
AcDbSpline
210
0.0
220
0.0
230
1.0
 70
     8
 71
     3
 72
     8
 73
     4
 74
     0
 42
0.000000001
 43
0.0000000001
 40
0.0
 40
0.0
 40
0.0
 40
0.0
 40
3.70765924781668
 40
3.70765924781668
 40
3.70765924781668
 40
3.70765924781668
 10
0.9777712015148268
 20
70.71714314641542
 30
0.0
 10
1.103237837250504
 20
70.08085944663276
 30
0.0
 10
0.8920002280303407
 20
69.595795306942
 30
0.0
 10
0.5105608928391661
 20
69.25260332032764
 30
0.0
  0
SPLINE
  5
FC
330
1F
100
AcDbEntity
  8
GRAVAÇÃO
100
AcDbSpline
210
0.0
220
0.0
230
1.0
 70
     8
 71
     3
 72
     8
 73
     4
 74
     0
 42
0.000000001
 43
0.0000000001
 40
0.0
 40
0.0
 40
0.0
 40
0.0
 40
4.666151284336995
 40
4.666151284336995
 40
4.666151284336995
 40
4.666151284336995
 10
2.799668879012401
 20
70.76828783129238
 30
0.0
 10
2.894845708043846
 20
69.93221075866302
 30
0.0
 10
2.75402063523039
 20
69.29067431584619
 30
0.0
 10
2.33064430783962
 20
68.82482783865535
 30
0.0
  0
SPLINE
  5
FD
330
1F
100
AcDbEntity
  8
GRAVAÇÃO
100
AcDbSpline
210
0.0
220
0.0
230
1.0
 70
     8
 71
     3
 72
     8
 73
     4
 74
     0
 42
0.000000001
 43
0.0000000001
 40
0.0
 40
0.0
 40
0.0
 40
0.0
 40
6.309407444508469
 40
6.309407444508469
 40
6.309407444508469
 40
6.309407444508469
 10
5.378119305481633
 20
70.73918825214288
 30
0.0
 10
5.101105182121231
 20
70.15127198303949
 30
0.0
 10
4.279625590709443
 20
69.08726032178231
 30
0.0
 10
3.558236185924031
 20
68.57810610201382
 30
0.0
  0
SPLINE
  5
FE
330
1F
100
AcDbEntity
  8
GRAVAÇÃO
100
AcDbSpline
210
0.0
220
0.0
230
1.0
 70
     8
 71
     3
 72
     8
 73
     4
 74
     0
 42
0.000000001
 43
0.0000000001
 40
0.0
 40
0.0
 40
0.0
 40
0.0
 40
3.865091473093276
 40
3.865091473093276
 40
3.865091473093276
 40
3.865091473093276
 10
3.582185170591671
 20
68.4124283245891
 30
0.0
 10
3.731972529768242
 20
68.07019035146294
 30
0.0
 10
4.146624133052299
 20
67.80418743614865
 30
0.0
 10
5.007221800245603
 20
67.55383175114696
 30
0.0
  0
SPLINE
  5
FF
330
1F
100
AcDbEntity
  8
GRAVAÇÃO
100
AcDbSpline
210
0.0
220
0.0
230
1.0
 70
     8
 71
     2
 72
     6
 73
     3
 74
     0
 42
0.000000001
 43
0.0000000001
 40
0.0
 40
0.0
 40
0.0
 40
7.692495034533641
 40
7.692495034533641
 40
7.692495034533641
 10
3.908083472095583
 20
68.51190278930763
 30
0.0
 10
5.437520633842254
 20
68.5083128002159
 30
0.0
 10
7.368428744199363
 20
68.93901911578777
 30
0.0
  0
SPLINE
  5
100
330
1F
100
AcDbEntity
  8
GRAVAÇÃO
100
AcDbSpline
210
0.0
220
0.0
230
1.0
 70
     8
 71
     3
 72
     8
 73
     4
 74
     0
 42
0.000000001
 43
0.0000000001
 40
0.0
 40
0.0
 40
0.0
 40
0.0
 40
4.013243378298142
 40
4.013243378298142
 40
4.013243378298142
 40
4.013243378298142
 10
2.369043524816547
 20
68.04282255399256
 30
0.0
 10
2.809014279349341
 20
67.4915375447404
 30
0.0
 10
3.106311655288835
 20
67.01429702020593
 30
0.0
 10
3.159239459192008
 20
66.45433713499095
 30
0.0
  0
SPLINE
  5
101
330
1F
100
AcDbEntity
  8
GRAVAÇÃO
100
AcDbSpline
210
0.0
220
0.0
230
1.0
 70
     8
 71
     3
 72
     8
 73
     4
 74
     0
 42
0.000000001
 43
0.0000000001
 40
0.0
 40
0.0
 40
0.0
 40
0.0
 40
3.830275899615589
 40
3.830275899615589
 40
3.830275899615589
 40
3.830275899615589
 10
0.9619134998347505
 20
67.64292881576492
 30
0.0
 10
1.228644017776176
 20
67.11600401723786
 30
0.0
 10
1.494646933090465
 20
66.48229118957734
 30
0.0
 10
1.491050370394603
 20
66.0135521675993
 30
0.0
  0
SPLINE
  5
102
330
1F
100
AcDbEntity
  8
GRAVAÇÃO
100
AcDbSpline
210
0.0
220
0.0
230
1.0
 70
     8
 71
     2
 72
     6
 73
     3
 74
     0
 42
0.000000001
 43
0.0000000001
 40
0.0
 40
0.0
 40
0.0
 40
2.649437525848359
 40
2.649437525848359
 40
2.649437525848359
 10
-0.520535781445659
 20
67.27939248934001
 30
0.0
 10
-0.3790268854326229
 20
66.89002367503286
 30
0.0
 10
-0.4501823652637285
 20
66.09935277990327
 30
0.0
  0
SPLINE
  5
103
330
1F
100
AcDbEntity
  8
GRAVAÇÃO
100
AcDbSpline
210
0.0
220
0.0
230
1.0
 70
     8
 71
     3
 72
     9
 73
     5
 74
     0
 42
0.000000001
 43
0.0000000001
 40
0.0
 40
0.0
 40
0.0
 40
0.0
 40
4.074430876165841
 40
8.148861752331682
 40
8.148861752331682
 40
8.148861752331682
 40
8.148861752331682
 10
-13.7659628528454
 20
62.83887802629032
 30
0.0
 10
-12.64767480670544
 20
62.97178797790968
 30
0.0
 10
-11.25507130888354
 20
62.85443375056515
 30
0.0
 10
-10.41794448715915
 20
62.49454745337522
 30
0.0
 10
-10.31725973400611
 20
62.23220304589302
 30
0.0
  0
SPLINE
  5
104
330
1F
100
AcDbEntity
  8
GRAVAÇÃO
100
AcDbSpline
210
0.0
220
0.0
230
1.0
 70
     8
 71
     3
 72
     9
 73
     5
 74
     0
 42
0.000000001
 43
0.0000000001
 40
0.0
 40
0.0
 40
0.0
 40
0.0
 40
3.816225160352649
 40
7.632450320705298
 40
7.632450320705298
 40
7.632450320705298
 40
7.632450320705298
 10
-12.80401845225938
 20
64.1430203687289
 30
0.0
 10
-11.80272436982474
 20
64.08274133010468
 30
0.0
 10
-10.73088909341125
 20
64.01232879369796
 30
0.0
 10
-9.964174808093588
 20
63.70720780260216
 30
0.0
 10
-9.609172601084296
 20
63.25110881759001
 30
0.0
  0
SPLINE
  5
105
330
1F
100
AcDbEntity
  8
GRAVAÇÃO
100
AcDbSpline
210
0.0
220
0.0
230
1.0
 70
     8
 71
     3
 72
     9
 73
     5
 74
     0
 42
0.000000001
 43
0.0000000001
 40
0.0
 40
0.0
 40
0.0
 40
0.0
 40
3.507295267687883
 40
7.014590535375767
 40
7.014590535375767
 40
7.014590535375767
 40
7.014590535375767
 10
-11.65226881260627
 20
65.24476536097104
 30
0.0
 10
-10.89518501169361
 20
65.16240022167447
 30
0.0
 10
-9.674701047310378
 20
64.77904307901564
 30
0.0
 10
-8.947104837774233
 20
64.47392208791983
 30
0.0
 10
-8.804096757193065
 20
64.13390520085343
 30
0.0
  0
SPLINE
  5
106
330
1F
100
AcDbEntity
  8
GRAVAÇÃO
100
AcDbSpline
210
0.0
220
0.0
230
1.0
 70
     8
 71
     3
 72
     9
 73
     5
 74
     0
 42
0.000000001
 43
0.0000000001
 40
0.0
 40
0.0
 40
0.0
 40
0.0
 40
3.330904854918994
 40
6.661809709837988
 40
6.661809709837988
 40
6.661809709837988
 40
6.661809709837988
 10
-9.89593208051977
 20
66.4973881034048
 30
0.0
 10
-9.048811834806159
 20
66.38288418605771
 30
0.0
 10
-8.149096091831339
 20
66.10905765558711
 30
0.0
 10
-7.484088803545603
 20
65.63181713105264
 30
0.0
 10
-7.301285796503379
 20
65.2492595959872
 30
0.0
  0
SPLINE
  5
107
330
1F
100
AcDbEntity
  8
GRAVAÇÃO
100
AcDbSpline
210
0.0
220
0.0
230
1.0
 70
     8
 71
     3
 72
     8
 73
     4
 74
     0
 42
0.000000001
 43
0.0000000001
 40
0.0
 40
0.0
 40
0.0
 40
0.0
 40
5.881788978263959
 40
5.881788978263959
 40
5.881788978263959
 40
5.881788978263959
 10
-8.208948722883022
 20
67.46570445390485
 30
0.0
 10
-7.343263730732147
 20
67.14959847137537
 30
0.0
 10
-6.662609212133802
 20
66.42982587699552
 30
0.0
 10
-6.394104069892862
 20
65.70828113264258
 30
0.0
  0
SPLINE
  5
108
330
1F
100
AcDbEntity
  8
GRAVAÇÃO
100
AcDbSpline
210
0.0
220
0.0
230
1.0
 70
     8
 71
     3
 72
     9
 73
     5
 74
     0
 42
0.000000001
 43
0.0000000001
 40
0.0
 40
0.0
 40
0.0
 40
0.0
 40
3.139837389741212
 40
6.279674779482424
 40
6.279674779482424
 40
6.279674779482424
 40
6.279674779482424
 10
-6.050250134905227
 20
68.3871373615619
 30
0.0
 10
-5.340418250718642
 20
68.06496144466281
 30
0.0
 10
-4.604998426026171
 20
67.44689584731489
 30
0.0
 10
-4.338995510711882
 20
67.15742208653168
 30
0.0
 10
-4.350801876603853
 20
66.42727122499126
 30
0.0
  0
SPLINE
  5
109
330
1F
100
AcDbEntity
  8
GRAVAÇÃO
100
AcDbSpline
210
0.0
220
0.0
230
1.0
 70
     8
 71
     2
 72
     6
 73
     3
 74
     0
 42
0.000000001
 43
0.0000000001
 40
0.0
 40
0.0
 40
0.0
 40
5.603798573830225
 40
5.603798573830225
 40
5.603798573830225
 10
-3.621125602084078
 20
69.04687859939217
 30
0.0
 10
-2.819691937333872
 20
68.09365294608654
 30
0.0
 10
-2.84361725535237
 20
66.78388644951016
 30
0.0
  0
SPLINE
  5
10A
330
1F
100
AcDbEntity
  8
GRAVAÇÃO
100
AcDbSpline
210
0.0
220
0.0
230
1.0
 70
     8
 71
     2
 72
     6
 73
     3
 74
     0
 42
0.000000001
 43
0.0000000001
 40
0.0
 40
0.0
 40
0.0
 40
5.812837263107385
 40
5.812837263107385
 40
5.812837263107385
 10
-1.100206481634885
 20
69.6120493820517
 30
0.0
 10
-0.1327207387471105
 20
68.60215774623272
 30
0.0
 10
-0.2063531150893141
 20
67.35219030184226
 30
0.0
  0
SPLINE
  5
10B
330
1F
100
AcDbEntity
  8
GRAVAÇÃO
100
AcDbSpline
210
0.0
220
0.0
230
1.0
 70
     8
 71
     3
 72
     9
 73
     5
 74
     0
 42
0.000000001
 43
0.0000000001
 40
0.0
 40
0.0
 40
0.0
 40
0.0
 40
0.463763934005379
 40
0.9275278680107579
 40
0.9275278680107579
 40
0.9275278680107579
 40
0.9275278680107579
 10
4.102255411333346
 20
15.10695332927908
 30
0.0
 10
4.100672452393127
 20
15.16554087486797
 30
0.0
 10
4.122994875731891
 20
15.22899160595951
 30
0.0
 10
4.213255509825174
 20
15.25415950309453
 30
0.0
 10
4.478131478894525
 20
15.35663675447706
 30
0.0
  0
SPLINE
  5
10C
330
1F
100
AcDbEntity
  8
GRAVAÇÃO
100
AcDbSpline
210
0.0
220
0.0
230
1.0
 70
     8
 71
     3
 72
     8
 73
     4
 74
     0
 42
0.000000001
 43
0.0000000001
 40
0.9275278680107579
 40
0.9275278680107579
 40
0.9275278680107579
 40
0.9275278680107579
 40
2.17732108067284
 40
2.17732108067284
 40
2.17732108067284
 40
2.17732108067284
 10
4.478131478894525
 20
15.35663675447706
 30
0.0
 10
4.245561401158184
 20
15.47242825252956
 30
0.0
 10
4.006778615636463
 20
15.43883462204761
 30
0.0
 10
3.86779062875685
 20
15.35708307518404
 30
0.0
  0
SPLINE
  5
10D
330
1F
100
AcDbEntity
  8
GRAVAÇÃO
100
AcDbSpline
210
0.0
220
0.0
230
1.0
 70
    12
 71
     2
 72
     6
 73
     3
 74
     0
 42
0.000000001
 43
0.0000000001
 40
2.17732108067284
 40
2.17732108067284
 40
2.17732108067284
 40
2.696021490603775
 40
2.696021490603775
 40
2.696021490603775
 10
3.86779062875685
 20
15.35708307518403
 30
0.0
 41
1.0
 10
3.746901418885062
 20
15.28597707438489
 30
0.0
 41
0.9986550510131575
 10
3.624382594192426
 20
15.23318953195433
 30
0.0
 41
1.0
  0
SPLINE
  5
10E
330
1F
100
AcDbEntity
  8
GRAVAÇÃO
100
AcDbSpline
210
0.0
220
0.0
230
1.0
 70
    12
 71
     2
 72
    12
 73
     9
 74
     0
 42
0.000000001
 43
0.0000000001
 40
2.696021490603775
 40
2.696021490603775
 40
2.696021490603775
 40
3.668571003583284
 40
3.668571003583284
 40
5.23936733037818
 40
5.23936733037818
 40
6.810163657173076
 40
6.810163657173076
 40
7.029163292876693
 40
7.029163292876693
 40
7.029163292876693
 10
3.624382594192405
 20
15.23318953195432
 30
0.0
 41
0.8618688353925412
 10
3.472577758793112
 20
15.16778403847274
 30
0.0
 41
0.8186568478338325
 10
3.457757416293674
 20
15.05391929517921
 30
0.0
 41
1.0
 10
3.430044432140876
 20
14.8410003409394
 30
0.0
 41
0.7071067811865475
 10
3.752849300152135
 20
14.8459133427325
 30
0.0
 41
1.0
 10
4.07565416816339
 20
14.85082634452562
 30
0.0
 41
0.7071067811865475
 10
4.103367152316181
 20
15.06374529876542
 30
0.0
 41
1.0
 10
4.106215536067237
 20
15.08562944109396
 30
0.0
 41
0.9591649743979945
 10
4.102255411333344
 20
15.10695332927908
 30
0.0
 41
0.9297163463552887
  0
SPLINE
  5
10F
330
1F
100
AcDbEntity
  8
GRAVAÇÃO
100
AcDbSpline
210
0.0
220
0.0
230
1.0
 70
     8
 71
     3
 72
     9
 73
     5
 74
     0
 42
0.000000001
 43
0.0000000001
 40
0.0
 40
0.0
 40
0.0
 40
0.0
 40
0.463763934005379
 40
0.9275278680107579
 40
0.9275278680107579
 40
0.9275278680107579
 40
0.9275278680107579
 10
-4.083886209631444
 20
72.1844743122567
 30
0.0
 10
-4.069357665074435
 20
72.14912166761442
 30
0.0
 10
-4.077062133630236
 20
72.10751753741306
 30
0.0
 10
-4.159499947177409
 20
72.07978145061215
 30
0.0
 10
-4.395076094415089
 20
71.9810113422189
 30
0.0
  0
SPLINE
  5
110
330
1F
100
AcDbEntity
  8
GRAVAÇÃO
100
AcDbSpline
210
0.0
220
0.0
230
1.0
 70
     8
 71
     3
 72
     8
 73
     4
 74
     0
 42
0.000000001
 43
0.0000000001
 40
0.9275278680107579
 40
0.9275278680107579
 40
0.9275278680107579
 40
0.9275278680107579
 40
2.17732108067284
 40
2.17732108067284
 40
2.17732108067284
 40
2.17732108067284
 10
-4.395076094415089
 20
71.9810113422189
 30
0.0
 10
-4.142626760381759
 20
71.94280279436522
 30
0.0
 10
-3.917227953840026
 20
71.9961498780215
 30
0.0
 10
-3.799815456729547
 20
72.06496454349359
 30
0.0
  0
ARC
  5
111
330
1F
100
AcDbEntity
  8
GRAVAÇÃO
100
AcDbCircle
 10
2.646933209793175
 20
70.09790152635205
 30
0.0
 40
2.280016313254591
210
0.0
220
0.0
230
-1.0
100
AcDbArc
 50
59.62572275348077
 51
65.56959161763037
  0
SPLINE
  5
112
330
1F
100
AcDbEntity
  8
GRAVAÇÃO
100
AcDbSpline
210
0.0
220
0.0
230
1.0
 70
    12
 71
     2
 72
    12
 73
     9
 74
     0
 42
0.000000001
 43
0.0000000001
 40
2.696021490603775
 40
2.696021490603775
 40
2.696021490603775
 40
3.668571003583284
 40
3.668571003583284
 40
5.23936733037818
 40
5.23936733037818
 40
6.810163657173076
 40
6.810163657173076
 40
7.029163292876693
 40
7.029163292876693
 40
7.029163292876693
 10
-3.589919902440391
 20
72.17377495365857
 30
0.0
 41
0.8618688353925412
 10
-3.456386480404819
 20
72.23443387358442
 30
0.0
 41
0.8186568478338325
 10
-3.467170942636429
 20
72.30561132431305
 30
0.0
 41
1.0
 10
-3.487337118346086
 20
72.43870808399683
 30
0.0
 41
0.7071067811865475
 10
-3.80102496803805
 20
72.3911796219223
 30
0.0
 41
1.0
 10
-4.114712817730005
 20
72.34365115984777
 30
0.0
 41
0.7071067811865475
 10
-4.094546642020347
 20
72.21055440016399
 30
0.0
 41
1.0
 10
-4.092473931016168
 20
72.19687450753635
 30
0.0
 41
0.9591649743979945
 10
-4.083886209631451
 20
72.18447431225668
 30
0.0
 41
0.9297163463552887
  0
SPLINE
  5
113
330
1F
100
AcDbEntity
  8
GRAVAÇÃO
100
AcDbSpline
210
0.0
220
0.0
230
1.0
 70
     8
 71
     3
 72
    13
 73
     9
 74
     0
 42
0.000000001
 43
0.0000000001
 40
0.0
 40
0.0
 40
0.0
 40
0.0
 40
5.982576683407941
 40
11.96515336681588
 40
17.94773005022382
 40
23.93030673363176
 40
29.9128834170397
 40
35.89546010044764
 40
35.89546010044764
 40
35.89546010044764
 40
35.89546010044764
 10
-0.885663071525002
 20
69.6580306801251
 30
0.0
 10
-2.486168847503237
 20
69.31581107296017
 30
0.0
 10
-4.95792891781656
 20
68.75239517457992
 30
0.0
 10
-7.066194860142616
 20
68.0799310378035
 30
0.0
 10
-9.210810215267415
 20
66.95309924104302
 30
0.0
 10
-11.39177498319093
 20
65.55364684829209
 30
0.0
 10
-13.100197384731
 20
63.93609797874883
 30
0.0
 10
-14.04528211749786
 20
62.55482029239727
 30
0.0
 10
-14.13464693347866
 20
61.61569502043977
 30
0.0
  0
SPLINE
  5
114
330
1F
100
AcDbEntity
  8
GRAVAÇÃO
100
AcDbSpline
210
0.0
220
0.0
230
1.0
 70
    15
 71
     2
 72
    12
 73
     9
 74
     0
 42
0.000000001
 43
0.0000000001
 40
0.0
 40
0.0
 40
0.0
 40
1.570796326794897
 40
1.570796326794897
 40
3.141592653589793
 40
3.141592653589793
 40
4.71238898038469
 40
4.71238898038469
 40
6.283185307179586
 40
6.283185307179586
 40
6.283185307179586
 10
0.4899505290352977
 20
14.91306938895119
 30
0.0
 41
1.0
 10
0.4118137704565201
 20
14.84618266565349
 30
0.0
 41
0.7071067811865475
 10
0.1508644996056887
 20
15.15102238828468
 30
0.0
 41
1.0
 10
-0.1100847712451614
 20
15.45586211091585
 30
0.0
 41
0.7071067811865475
 10
-0.0319480126663763
 20
15.52274883421354
 30
0.0
 41
1.0
 10
0.0461887459123631
 20
15.58963555751123
 30
0.0
 41
0.7071067811865475
 10
0.3071380167632043
 20
15.28479583488006
 30
0.0
 41
1.0
 10
0.5680872876140446
 20
14.97995611224888
 30
0.0
 41
0.7071067811865475
 10
0.4899505290352977
 20
14.91306938895119
 30
0.0
 41
1.0
  0
SPLINE
  5
115
330
1F
100
AcDbEntity
  8
GRAVAÇÃO
100
AcDbSpline
210
0.0
220
0.0
230
1.0
 70
     8
 71
     3
 72
    12
 73
     8
 74
     0
 42
0.000000001
 43
0.0000000001
 40
8.665745753890203
 40
8.665745753890203
 40
8.665745753890203
 40
8.665745753890203
 40
9.369638415858455
 40
10.63863588827821
 40
11.90763336069797
 40
13.17663083311772
 40
14.29895116635575
 40
14.29895116635575
 40
14.29895116635575
 40
14.29895116635575
 10
0.4509986517901581
 20
14.40504946787714
 30
0.0
 10
0.5566560370402982
 20
14.42431511026066
 30
0.0
 10
0.866121968332962
 20
14.50682911602488
 30
0.0
 10
1.312495284009799
 20
14.85993039559014
 30
0.0
 10
1.375084205260222
 20
15.3293473049683
 30
0.0
 10
1.126852127736939
 20
15.73554525000641
 30
0.0
 10
0.8211404574756074
 20
15.88516057428157
 30
0.0
 10
0.7001649440747428
 20
15.9280775237192
 30
0.0
  0
ARC
  5
116
330
1F
100
AcDbEntity
  8
GRAVAÇÃO
100
AcDbCircle
 10
0.3952431137225716
 20
15.06855522641225
 30
0.0
 40
0.9120065253018368
100
AcDbArc
 50
70.46748674036694
 51
95.06742007829543
  0
SPLINE
  5
117
330
1F
100
AcDbEntity
  8
GRAVAÇÃO
100
AcDbSpline
210
0.0
220
0.0
230
1.0
 70
     8
 71
     3
 72
     8
 73
     4
 74
     0
 42
0.000000001
 43
0.0000000001
 40
15.15765083139169
 40
15.15765083139169
 40
15.15765083139169
 40
15.15765083139169
 40
15.17312938929551
 40
15.17312938929551
 40
15.17312938929551
 40
15.17312938929551
 10
0.3146874863743108
 20
15.97699713049619
 30
0.0
 10
0.3130192947030679
 20
15.97684920444169
 30
0.0
 10
0.3113442681336807
 20
15.97669823942809
 30
0.0
 10
0.3096772804276782
 20
15.9763800257144
 30
0.0
  0
ARC
  5
118
330
1F
100
AcDbEntity
  8
GRAVAÇÃO
100
AcDbCircle
 10
0.5175252106238588
 20
13.70585726066223
 30
0.0
 40
2.280016313254591
100
AcDbArc
 50
95.23038600692723
 51
98.82406733626928
  0
SPLINE
  5
119
330
1F
100
AcDbEntity
  8
GRAVAÇÃO
100
AcDbSpline
210
0.0
220
0.0
230
1.0
 70
     8
 71
     3
 72
    13
 73
     9
 74
     0
 42
0.000000001
 43
0.0000000001
 40
15.56824677925844
 40
15.56824677925844
 40
15.56824677925844
 40
15.56824677925844
 40
16.49696714145682
 40
17.76596461387658
 40
19.03496208629633
 40
20.30395955871609
 40
21.57295703113584
 40
22.5605797991204
 40
22.5605797991204
 40
22.5605797991204
 40
22.5605797991204
 10
0.1677685824736415
 20
15.95888737359282
 30
0.0
 10
0.0480457599097264
 20
15.94030180276877
 30
0.0
 10
-0.2722443796726424
 20
15.86887168773243
 30
0.0
 10
-0.6355848899095946
 20
15.62664468090782
 30
0.0
 10
-0.7764099627230365
 20
15.19634584731115
 30
0.0
 10
-0.7059974263163014
 20
14.70345809246408
 30
0.0
 10
-0.2422936198434797
 20
14.39190709749015
 30
0.0
 10
-0.0114674271065525
 20
14.36567587372703
 30
0.0
 10
0.105806474945453
 20
14.36895895486342
 30
0.0
  0
ARC
  5
11A
330
1F
100
AcDbEntity
  8
GRAVAÇÃO
100
AcDbCircle
 10
0.0420024496317666
 20
16.64808234666582
 30
0.0
 40
2.280016313254591
100
AcDbArc
 50
271.6035756615707
 51
280.3338242874307
  0
SPLINE
  5
11B
330
1F
100
AcDbEntity
  8
GRAVAÇÃO
100
AcDbSpline
210
0.0
220
0.0
230
1.0
 70
    15
 71
     2
 72
    12
 73
     9
 74
     0
 42
0.000000001
 43
0.0000000001
 40
0.0
 40
0.0
 40
0.0
 40
1.570796326794897
 40
1.570796326794897
 40
3.141592653589793
 40
3.141592653589793
 40
4.71238898038469
 40
4.71238898038469
 40
6.283185307179586
 40
6.283185307179586
 40
6.283185307179586
 10
0.0580833057044146
 20
71.6767504956851
 30
0.0
 41
1.0
 10
-0.034975203096799
 20
71.7205603203183
 30
0.0
 41
0.7071067811865475
 10
0.135942749383247
 20
72.08361518114718
 30
0.0
 41
1.0
 10
0.3068607018632712
 20
72.44667004197605
 30
0.0
 41
0.7071067811865475
 10
0.3999192106644927
 20
72.40286021734283
 30
0.0
 41
1.0
 10
0.4929777194656922
 20
72.35905039270962
 30
0.0
 41
0.7071067811865475
 10
0.3220597669856744
 20
71.99599553188077
 30
0.0
 41
1.0
 10
0.151141814505622
 20
71.6329406710519
 30
0.0
 41
0.7071067811865475
 10
0.0580833057044146
 20
71.6767504956851
 30
0.0
 41
1.0
  0
SPLINE
  5
11C
330
1F
100
AcDbEntity
  8
GRAVAÇÃO
100
AcDbSpline
210
0.0
220
0.0
230
1.0
 70
     8
 71
     3
 72
    12
 73
     8
 74
     0
 42
0.000000001
 43
0.0000000001
 40
8.665745753890203
 40
8.665745753890203
 40
8.665745753890203
 40
8.665745753890203
 40
9.369638415858455
 40
10.63863588827821
 40
11.90763336069797
 40
13.17663083311772
 40
14.29895116635575
 40
14.29895116635575
 40
14.29895116635575
 40
14.29895116635575
 10
0.4509986517901581
 20
71.22694571280874
 30
0.0
 10
0.5566560370402982
 20
71.24621135519226
 30
0.0
 10
0.866121968332962
 20
71.32872536095648
 30
0.0
 10
1.312495284009799
 20
71.68182664052173
 30
0.0
 10
1.375084205260222
 20
72.1512435498999
 30
0.0
 10
1.126852127736939
 20
72.557441494938
 30
0.0
 10
0.8211404574756074
 20
72.70705681921316
 30
0.0
 10
0.7001649440747428
 20
72.7499737686508
 30
0.0
  0
ARC
  5
11D
330
1F
100
AcDbEntity
  8
GRAVAÇÃO
100
AcDbCircle
 10
0.3952431137225716
 20
71.89045147134385
 30
0.0
 40
0.9120065253018368
100
AcDbArc
 50
70.4674867403668
 51
95.06742007829543
  0
SPLINE
  5
11E
330
1F
100
AcDbEntity
  8
GRAVAÇÃO
100
AcDbSpline
210
0.0
220
0.0
230
1.0
 70
     8
 71
     3
 72
     8
 73
     4
 74
     0
 42
0.000000001
 43
0.0000000001
 40
15.15765083139169
 40
15.15765083139169
 40
15.15765083139169
 40
15.15765083139169
 40
15.17312938929551
 40
15.17312938929551
 40
15.17312938929551
 40
15.17312938929551
 10
0.3146874863743108
 20
72.7988933754278
 30
0.0
 10
0.3130192947030679
 20
72.7987454493733
 30
0.0
 10
0.3113442681336807
 20
72.79859448435968
 30
0.0
 10
0.3096772804276782
 20
72.798276270646
 30
0.0
  0
ARC
  5
11F
330
1F
100
AcDbEntity
  8
GRAVAÇÃO
100
AcDbCircle
 10
0.5175252106238588
 20
70.52775350559384
 30
0.0
 40
2.280016313254591
100
AcDbArc
 50
95.23038600692723
 51
98.82406733626925
  0
SPLINE
  5
120
330
1F
100
AcDbEntity
  8
GRAVAÇÃO
100
AcDbSpline
210
0.0
220
0.0
230
1.0
 70
     8
 71
     3
 72
    13
 73
     9
 74
     0
 42
0.000000001
 43
0.0000000001
 40
15.56824677925844
 40
15.56824677925844
 40
15.56824677925844
 40
15.56824677925844
 40
16.49696714145682
 40
17.76596461387658
 40
19.03496208629633
 40
20.30395955871609
 40
21.57295703113584
 40
22.5605797991204
 40
22.5605797991204
 40
22.5605797991204
 40
22.5605797991204
 10
0.1677685824736415
 20
72.78078361852442
 30
0.0
 10
0.0480457599097264
 20
72.76219804770037
 30
0.0
 10
-0.2722443796726424
 20
72.69076793266403
 30
0.0
 10
-0.6355848899095946
 20
72.44854092583942
 30
0.0
 10
-0.7764099627230365
 20
72.01824209224276
 30
0.0
 10
-0.7059974263163014
 20
71.52535433739568
 30
0.0
 10
-0.2422936198434797
 20
71.21380334242176
 30
0.0
 10
-0.0114674271065525
 20
71.18757211865862
 30
0.0
 10
0.105806474945453
 20
71.19085519979502
 30
0.0
  0
ARC
  5
121
330
1F
100
AcDbEntity
  8
GRAVAÇÃO
100
AcDbCircle
 10
0.0420024496317666
 20
73.46997859159742
 30
0.0
 40
2.280016313254591
100
AcDbArc
 50
271.6035756615707
 51
280.3338242874307
  0
SPLINE
  5
122
330
1F
100
AcDbEntity
  8
GRAVAÇÃO
100
AcDbSpline
210
0.0
220
0.0
230
1.0
 70
     8
 71
     3
 72
    12
 73
     8
 74
     0
 42
0.000000001
 43
0.0000000001
 40
0.0
 40
0.0
 40
0.0
 40
0.0
 40
8.329616578370567
 40
16.65923315674113
 40
24.9888497351117
 40
33.31846631348227
 40
41.64808289185284
 40
41.64808289185284
 40
41.64808289185284
 40
41.64808289185284
 10
7.291100819105154
 20
68.55061609912401
 30
0.0
 10
8.675389784747935
 20
67.32667858911749
 30
0.0
 10
9.7113480495116
 20
66.27254561795446
 30
0.0
 10
11.38342103825296
 20
63.27371906205964
 30
0.0
 10
12.43755400941599
 20
60.76560957894762
 30
0.0
 10
12.60112636701025
 20
57.51233713346171
 30
0.0
 10
11.92866223023383
 20
53.84104644079048
 30
0.0
 10
10.99224658231324
 20
51.49927910524596
 30
0.0
  0
SPLINE
  5
123
330
1F
100
AcDbEntity
  8
GRAVAÇÃO
100
AcDbSpline
210
0.0
220
0.0
230
1.0
 70
     8
 71
     3
 72
    22
 73
    18
 74
     0
 42
0.000000001
 43
0.0000000001
 40
0.0
 40
0.0
 40
0.0
 40
0.0
 40
2.936669819825221
 40
5.873339639650442
 40
8.810009459475662
 40
11.74667927930088
 40
14.6833490991261
 40
17.62001891895132
 40
20.55668873877655
 40
23.49335855860177
 40
26.43002837842699
 40
29.36669819825221
 40
32.30336801807743
 40
35.24003783790265
 40
38.17670765772787
 40
41.11337747755309
 40
44.05004729737831
 40
44.05004729737831
 40
44.05004729737831
 40
44.05004729737831
 10
-3.241762692320506
 20
73.22164091811412
 30
0.0
 10
-3.020296354405403
 20
72.9514383214799
 30
0.0
 10
-3.020296354405403
 20
72.28897027322314
 30
0.0
 10
-2.740587622919207
 20
71.47928710313154
 30
0.0
 10
-1.960347477194574
 20
70.94931266452613
 30
0.0
 10
-0.5323607953966558
 20
70.69904695740692
 30
0.0
 10
1.322549739722277
 20
70.7137684695904
 30
0.0
 10
3.707434713446631
 20
70.80209754269129
 30
0.0
 10
5.312079541446337
 20
70.84626207924175
 30
0.0
 10
6.401471443024136
 20
70.40461671373724
 30
0.0
 10
7.255319149666178
 20
69.59493354364564
 30
0.0
 10
7.446698808051465
 20
68.85885793447144
 30
0.0
 10
7.152268564381799
 20
68.15222534966423
 30
0.0
 10
5.945104565336138
 20
67.38670671612309
 30
0.0
 10
4.222687639868553
 20
66.78312471660026
 30
0.0
 10
2.735814909336696
 20
66.32675783891226
 30
0.0
 10
2.21567155845149
 20
66.1425378526127
 30
0.0
 10
1.48827480889058
 20
66.0130578822254
 30
0.0
  0
SPLINE
  5
124
330
1F
100
AcDbEntity
  8
GRAVAÇÃO
100
AcDbSpline
210
0.0
220
0.0
230
1.0
 70
     8
 71
     3
 72
     9
 73
     5
 74
     0
 42
0.000000001
 43
0.0000000001
 40
0.0
 40
0.0
 40
0.0
 40
0.0
 40
8.286497631332466
 40
16.57299526266493
 40
16.57299526266493
 40
16.57299526266493
 40
16.57299526266493
 10
3.908083472095583
 20
68.51190278930763
 30
0.0
 10
2.654028730539565
 20
68.130233954921
 30
0.0
 10
0.7820339714052267
 20
67.53046864374204
 30
0.0
 10
-2.180443171690868
 20
66.91252862616372
 30
0.0
 10
-3.411539839196379
 20
66.6712092048482
 30
0.0
  0
SPLINE
  5
125
330
1F
100
AcDbEntity
  8
GRAVAÇÃO
100
AcDbSpline
210
0.0
220
0.0
230
1.0
 70
     8
 71
     3
 72
    10
 73
     6
 74
     0
 42
0.000000001
 43
0.0000000001
 40
0.0
 40
0.0
 40
0.0
 40
0.0
 40
7.22180964421361
 40
14.44361928842722
 40
21.66542893264083
 40
21.66542893264083
 40
21.66542893264083
 40
21.66542893264083
 10
-5.478721598696197
 20
71.43305926344533
 30
0.0
 10
-5.38337153133493
 20
71.33134564593418
 30
0.0
 10
-4.257107663768139
 20
70.84425377418462
 30
0.0
 10
-1.144832773057871
 20
69.6875845619283
 30
0.0
 10
1.381799282584197
 20
68.98444515569103
 30
0.0
 10
3.908083472095583
 20
68.51190278930763
 30
0.0
  0
SPLINE
  5
126
330
1F
100
AcDbEntity
  8
GRAVAÇÃO
100
AcDbSpline
210
0.0
220
0.0
230
1.0
 70
     8
 71
     3
 72
    17
 73
    13
 74
     0
 42
0.000000001
 43
0.0000000001
 40
0.0
 40
0.0
 40
0.0
 40
0.0
 40
4.915875450665089
 40
9.831750901330178
 40
14.74762635199527
 40
19.66350180266036
 40
24.57937725332545
 40
29.49525270399054
 40
34.41112815465563
 40
39.32700360532071
 40
44.2428790559858
 40
49.15875450665089
 40
49.15875450665089
 40
49.15875450665089
 40
49.15875450665089
 10
-11.15596545637035
 20
21.34163612195214
 30
0.0
 10
-11.69146688305831
 20
21.88626192863249
 30
0.0
 10
-12.88915611686268
 20
23.71177213176979
 30
0.0
 10
-13.807885944151
 20
25.04177390062565
 30
0.0
 10
-14.60284760205911
 20
26.54336814334098
 30
0.0
 10
-15.4272522843342
 20
28.29522809317553
 30
0.0
 10
-15.64807496708646
 20
30.38568282323021
 30
0.0
 10
-15.63335345490297
 20
31.59284682227587
 30
0.0
 10
-15.50085984525161
 20
34.38993413713776
 30
0.0
 10
-15.15008801174392
 20
36.70284727352063
 30
0.0
 10
-14.35040093017197
 20
39.17460734383394
 30
0.0
 10
-13.69611149979492
 20
40.84668033257529
 30
0.0
 10
-13.12074719254612
 20
42.09596906680709
 30
0.0
  0
SPLINE
  5
127
330
1F
100
AcDbEntity
  8
GRAVAÇÃO
100
AcDbSpline
210
0.0
220
0.0
230
1.0
 70
     8
 71
     3
 72
    23
 73
    19
 74
     0
 42
0.000000001
 43
0.0000000001
 40
0.0
 40
0.0
 40
0.0
 40
0.0
 40
3.607886727533507
 40
7.215773455067015
 40
10.82366018260052
 40
14.43154691013403
 40
18.03943363766754
 40
21.64732036520104
 40
25.25520709273455
 40
28.86309382026806
 40
32.47098054780157
 40
36.07886727533507
 40
39.68675400286858
 40
43.29464073040209
 40
46.9025274579356
 40
50.5104141854691
 40
54.11830091300261
 40
57.72618764053612
 40
57.72618764053612
 40
57.72618764053612
 40
57.72618764053612
 10
2.330720777858446
 20
16.04961885809589
 30
0.0
 10
1.886311548549131
 20
16.4585812080131
 30
0.0
 10
1.266241455380779
 20
16.95940705249521
 30
0.0
 10
-0.0573697050362227
 20
17.54370387105767
 30
0.0
 10
-1.35713201571599
 20
17.8298900679046
 30
0.0
 10
-3.598923891016881
 20
17.97298316632806
 30
0.0
 10
-5.852640191186381
 20
17.65102369487527
 30
0.0
 10
-7.152402501866149
 20
17.35291307315973
 30
0.0
 10
-7.939414543195184
 20
17.29329094881662
 30
0.0
 10
-8.893368532684917
 20
17.53177944618906
 30
0.0
 10
-9.322647827955294
 20
17.91336104198495
 30
0.0
 10
-10.25275296770779
 20
19.01040812989815
 30
0.0
 10
-11.13516040798579
 20
20.52481008821311
 30
0.0
 10
-11.27825350640926
 20
21.04948478243247
 30
0.0
 10
-10.96177084982661
 20
21.95414743809089
 30
0.0
 10
-10.4609450053445
 20
22.44304885770438
 30
0.0
 10
-8.863072072949194
 20
23.21813647416479
 30
0.0
 10
-6.740524446334533
 20
24.2674858626035
 30
0.0
 10
-2.51983220187465
 20
25.52598647715831
 30
0.0
  0
SPLINE
  5
128
330
1F
100
AcDbEntity
  8
GRAVAÇÃO
100
AcDbSpline
210
0.0
220
0.0
230
1.0
 70
     8
 71
     3
 72
    13
 73
     9
 74
     0
 42
0.000000001
 43
0.0000000001
 40
0.0
 40
0.0
 40
0.0
 40
0.0
 40
1.917325782519418
 40
3.834651565038837
 40
5.751977347558255
 40
7.669303130077674
 40
9.586628912597092
 40
11.50395469511651
 40
11.50395469511651
 40
11.50395469511651
 40
11.50395469511651
 10
3.976523594064645
 20
16.62701685074294
 30
0.0
 10
3.412637931732704
 20
16.50627890748758
 30
0.0
 10
2.530230491454688
 20
16.22009271064066
 30
0.0
 10
2.184422170264654
 20
15.96967978839961
 30
0.0
 10
2.089026771315687
 20
15.38538296983714
 30
0.0
 10
2.315590843819493
 20
14.59837092850811
 30
0.0
 10
2.864114387776098
 20
14.03792295968289
 30
0.0
 10
3.16222500949165
 20
13.4417017162518
 30
0.0
 10
3.261652470833226
 20
13.0
 30
0.0
  0
SPLINE
  5
129
330
1F
100
AcDbEntity
  8
GRAVAÇÃO
100
AcDbSpline
210
0.0
220
0.0
230
1.0
 70
     8
 71
     3
 72
    14
 73
    10
 74
     0
 42
0.000000001
 43
0.0000000001
 40
0.0
 40
0.0
 40
0.0
 40
0.0
 40
6.570155213825768
 40
13.14031042765154
 40
19.71046564147731
 40
26.28062085530307
 40
32.85077606912884
 40
39.42093128295461
 40
45.99108649678038
 40
45.99108649678038
 40
45.99108649678038
 40
45.99108649678038
 10
12.84865056437648
 20
28.26461281285597
 30
0.0
 10
12.76494979137151
 20
27.78238928955976
 30
0.0
 10
12.01371102464834
 20
26.39915600479964
 30
0.0
 10
10.61855331501961
 20
24.80128307240432
 30
0.0
 10
8.686796486302896
 20
23.22725898974625
 30
0.0
 10
6.206516113629576
 20
21.95134552880373
 30
0.0
 10
3.952799813460061
 20
21.15240906260607
 30
0.0
 10
1.484443865655365
 20
20.6754320678612
 30
0.0
 10
-1.639755449923527
 20
20.74697861707293
 30
0.0
 10
-5.101898286654944
 20
21.05832644344288
 30
0.0
  0
SPLINE
  5
12A
330
1F
100
AcDbEntity
  8
GRAVAÇÃO
100
AcDbSpline
210
0.0
220
0.0
230
1.0
 70
     8
 71
     3
 72
    11
 73
     7
 74
     0
 42
0.000000001
 43
0.0000000001
 40
0.0
 40
0.0
 40
0.0
 40
0.0
 40
5.250786815459757
 40
10.50157363091951
 40
15.75236044637927
 40
21.00314726183903
 40
21.00314726183903
 40
21.00314726183903
 40
21.00314726183903
 10
-6.710800985626918
 20
21.66941535965916
 30
0.0
 10
-6.394912455256971
 20
21.90147103330467
 30
0.0
 10
-2.619477924450393
 20
23.27717382799522
 30
0.0
 10
-1.57012853601168
 20
23.64683099892249
 30
0.0
 10
0.1708374948070883
 20
23.90916834603217
 30
0.0
 10
1.589844054173071
 20
24.29074994182807
 30
0.0
 10
2.383419057502167
 20
24.51511190538788
 30
0.0
  0
SPLINE
  5
12B
330
1F
100
AcDbEntity
  8
GRAVAÇÃO
100
AcDbSpline
210
0.0
220
0.0
230
1.0
 70
     8
 71
     3
 72
    13
 73
     9
 74
     0
 42
0.000000001
 43
0.0000000001
 40
0.0
 40
0.0
 40
0.0
 40
0.0
 40
5.108807849046925
 40
10.21761569809385
 40
15.32642354714077
 40
20.4352313961877
 40
25.54403924523462
 40
30.65284709428155
 40
30.65284709428155
 40
30.65284709428155
 40
30.65284709428155
 10
5.645060938920707
 20
15.61396101352773
 30
0.0
 10
4.890039929550085
 20
16.31999599382105
 30
0.0
 10
4.059006257882842
 20
16.48620272815449
 30
0.0
 10
3.787611462699516
 20
16.81139699051774
 30
0.0
 10
3.103201608826154
 20
17.57185238371036
 30
0.0
 10
2.076586828016119
 20
18.18655382654106
 30
0.0
 10
-0.4526107035231632
 20
19.20712417206342
 30
0.0
 10
-3.124292544229448
 20
20.31578126242452
 30
0.0
 10
-6.710800985626918
 20
21.66941535965916
 30
0.0
  0
SPLINE
  5
12C
330
1F
100
AcDbEntity
  8
GRAVAÇÃO
100
AcDbSpline
210
0.0
220
0.0
230
1.0
 70
     8
 71
     3
 72
    22
 73
    18
 74
     0
 42
0.000000001
 43
0.0000000001
 40
0.0
 40
0.0
 40
0.0
 40
0.0
 40
6.735763045027053
 40
13.47152609005411
 40
20.20728913508116
 40
26.94305218010821
 40
33.67881522513527
 40
40.41457827016232
 40
47.15034131518937
 40
53.88610436021642
 40
60.62186740524347
 40
67.35763045027052
 40
74.09339349529758
 40
80.82915654032463
 40
87.56491958535167
 40
94.30068263037873
 40
101.0364456754058
 40
101.0364456754058
 40
101.0364456754058
 40
101.0364456754058
 10
4.697929735292931
 20
35.19471829190763
 30
0.0
 10
5.270359246942519
 20
34.60012213818649
 30
0.0
 10
7.087829886878765
 20
33.92765800141009
 30
0.0
 10
10.97721705634233
 20
33.16432033263686
 30
0.0
 10
15.3936707113874
 20
33.4369409286273
 30
0.0
 10
18.84686492726627
 20
35.01814038537184
 30
0.0
 10
22.20918561114831
 20
37.65347281327939
 30
0.0
 10
23.40871623350624
 20
38.85300343563731
 30
0.0
 10
24.68094568146161
 20
41.63373351473977
 30
0.0
 10
25.73507865262464
 20
45.19597596901481
 30
0.0
 10
25.91682571661826
 20
46.34098247217464
 30
0.0
 10
25.5169821758323
 20
48.77639312968921
 30
0.0
 10
24.499198617468
 20
51.28450261280123
 30
0.0
 10
23.08157151831772
 20
54.15610622390049
 30
0.0
 10
21.3004502911802
 20
56.31889628542463
 30
0.0
 10
19.64655200883821
 20
57.73652338457489
 30
0.0
 10
17.15661723212556
 20
59.51764461171241
 30
0.0
 10
16.42996346153551
 20
59.86145878545022
 30
0.0
  0
SPLINE
  5
12D
330
1F
100
AcDbEntity
  8
GRAVAÇÃO
100
AcDbSpline
210
0.0
220
0.0
230
1.0
 70
    24
 71
     2
 72
     6
 73
     3
 74
     0
 42
0.000000001
 43
0.0000000001
 40
0.0
 40
0.0
 40
0.0
 40
10.68147373274826
 40
10.68147373274826
 40
10.68147373274826
 10
-5.5070218647339
 20
57.24927601369791
 30
0.0
 10
-3.539326577429513
 20
58.68430787556083
 30
0.0
 10
-1.571631290125126
 20
60.11933973742376
 30
0.0
  0
SPLINE
  5
12E
330
1F
100
AcDbEntity
  8
GRAVAÇÃO
100
AcDbSpline
210
0.0
220
0.0
230
1.0
 70
     8
 71
     3
 72
     9
 73
     5
 74
     0
 42
0.000000001
 43
0.0000000001
 40
0.0
 40
0.0
 40
0.0
 40
0.0
 40
8.649286244807504
 40
17.29857248961501
 40
17.29857248961501
 40
17.29857248961501
 40
17.29857248961501
 10
15.39586211066494
 20
63.64852199395889
 30
0.0
 10
15.91340435965304
 20
62.34523582618664
 30
0.0
 10
16.52282905220902
 20
59.99064042312946
 30
0.0
 10
16.74443803132029
 20
57.22052818423869
 30
0.0
 10
16.79623829971233
 20
55.94680738751516
 30
0.0
  0
SPLINE
  5
12F
330
1F
100
AcDbEntity
  8
GRAVAÇÃO
100
AcDbSpline
210
0.0
220
0.0
230
1.0
 70
     8
 71
     3
 72
     9
 73
     5
 74
     0
 42
0.000000001
 43
0.0000000001
 40
0.0
 40
0.0
 40
0.0
 40
0.0
 40
10.35460907844361
 40
20.70921815688721
 40
20.70921815688721
 40
20.70921815688721
 40
20.70921815688721
 10
-0.3431760650850322
 20
31.87731398600736
 30
0.0
 10
1.247176841174678
 20
32.68000808543849
 30
0.0
 10
4.191479277871395
 20
34.71557520216707
 30
0.0
 10
6.354269339395529
 20
36.51487113570396
 30
0.0
 10
7.113488597456225
 20
37.53194755330256
 30
0.0
  0
SPLINE
  5
130
330
1F
100
AcDbEntity
  8
GRAVAÇÃO
100
AcDbSpline
210
0.0
220
0.0
230
1.0
 70
     8
 71
     3
 72
     9
 73
     5
 74
     0
 42
0.000000001
 43
0.0000000001
 40
0.0
 40
0.0
 40
0.0
 40
0.0
 40
10.8526369950652
 40
21.70527399013041
 40
21.70527399013041
 40
21.70527399013041
 40
21.70527399013041
 10
9.1258716375376
 20
28.25437599999266
 30
0.0
 10
9.513641504994084
 20
28.20845094500398
 30
0.0
 10
14.4742022503407
 20
28.19652652013536
 30
0.0
 10
17.50300616697062
 20
28.6615790900116
 30
0.0
 10
18.94208401643353
 20
29.01701307968498
 30
0.0
  0
SPLINE
  5
131
330
1F
100
AcDbEntity
  8
GRAVAÇÃO
100
AcDbSpline
210
0.0
220
0.0
230
1.0
 70
    24
 71
     2
 72
     6
 73
     3
 74
     0
 42
0.000000001
 43
0.0000000001
 40
0.0
 40
0.0
 40
0.0
 40
3.138524262589334
 40
3.138524262589334
 40
3.138524262589334
 10
13.96020148977301
 20
38.05198181332948
 30
0.0
 10
14.0791168124147
 20
37.34634290803754
 30
0.0
 10
14.19803213505638
 20
36.64070400274561
 30
0.0
  0
SPLINE
  5
132
330
1F
100
AcDbEntity
  8
GRAVAÇÃO
100
AcDbSpline
210
0.0
220
0.0
230
1.0
 70
     8
 71
     3
 72
    10
 73
     6
 74
     0
 42
0.000000001
 43
0.0000000001
 40
0.0
 40
0.0
 40
0.0
 40
0.0
 40
6.551003650712495
 40
13.10200730142499
 40
19.65301095213749
 40
19.65301095213749
 40
19.65301095213749
 40
19.65301095213749
 10
10.43070142372855
 20
36.64005542548406
 30
0.0
 10
12.36058665539964
 20
36.49360586008041
 30
0.0
 10
14.48313428201432
 20
36.56515240929214
 30
0.0
 10
16.29564686204482
 20
37.17329807759184
 30
0.0
 10
17.97699076852047
 20
38.37766498932263
 30
0.0
 10
18.29389811371196
 20
39.24417371998777
 30
0.0
  0
SPLINE
  5
133
330
1F
100
AcDbEntity
  8
GRAVAÇÃO
100
AcDbSpline
210
0.0
220
0.0
230
1.0
 70
     8
 71
     3
 72
    12
 73
     8
 74
     0
 42
0.000000001
 43
0.0000000001
 40
0.0
 40
0.0
 40
0.0
 40
0.0
 40
9.262481280317695
 40
18.52496256063539
 40
27.78744384095308
 40
37.04992512127078
 40
46.31240640158848
 40
46.31240640158848
 40
46.31240640158848
 40
46.31240640158848
 10
1.642772540893546
 20
54.30972604937509
 30
0.0
 10
2.942054945240443
 20
53.5301738833483
 30
0.0
 10
5.414703685997836
 20
51.96545085208776
 30
0.0
 10
7.77144701703223
 20
50.11096429651973
 30
0.0
 10
9.906038312764196
 20
47.4258223046035
 30
0.0
 10
11.66100833149368
 20
44.28473435083373
 30
0.0
 10
13.04606445093906
 20
40.9605996641648
 30
0.0
 10
13.96020148977301
 20
38.05198181332948
 30
0.0
  0
SPLINE
  5
134
330
1F
100
AcDbEntity
  8
GRAVAÇÃO
100
AcDbSpline
210
0.0
220
0.0
230
1.0
 70
     8
 71
     3
 72
     8
 73
     4
 74
     0
 42
0.000000001
 43
0.0000000001
 40
0.0
 40
0.0
 40
0.0
 40
0.0
 40
18.19214838599967
 40
18.19214838599967
 40
18.19214838599967
 40
18.19214838599967
 10
8.794139262495477
 20
54.14584509036106
 30
0.0
 10
10.72243375395017
 20
51.92036522052295
 30
0.0
 10
12.0903904151308
 20
50.03942481139958
 30
0.0
 10
14.09452389388059
 20
47.77326633696093
 30
0.0
  0
SPLINE
  5
135
330
1F
100
AcDbEntity
  8
GRAVAÇÃO
100
AcDbSpline
210
0.0
220
0.0
230
1.0
 70
     8
 71
     3
 72
     9
 73
     5
 74
     0
 42
0.000000001
 43
0.0000000001
 40
0.0
 40
0.0
 40
0.0
 40
0.0
 40
8.082028570251529
 40
16.16405714050306
 40
16.16405714050306
 40
16.16405714050306
 40
16.16405714050306
 10
-0.6623800637910335
 20
52.30370260693266
 30
0.0
 10
-0.2837611225636323
 20
52.8133226314919
 30
0.0
 10
0.9675674130324836
 20
53.84382848433575
 30
0.0
 10
3.013857606536689
 20
55.3159797026841
 30
0.0
 10
5.268246221019169
 20
56.59943045427497
 30
0.0
  0
SPLINE
  5
136
330
1F
100
AcDbEntity
  8
GRAVAÇÃO
100
AcDbSpline
210
0.0
220
0.0
230
1.0
 70
     8
 71
     3
 72
    12
 73
     8
 74
     0
 42
0.000000001
 43
0.0000000001
 40
0.0
 40
0.0
 40
0.0
 40
0.0
 40
9.302196692339056
 40
18.60439338467811
 40
27.90659007701717
 40
37.20878676935622
 40
46.51098346169528
 40
46.51098346169528
 40
46.51098346169528
 40
46.51098346169528
 10
-7.79891096272604
 20
48.54137801778288
 30
0.0
 10
-7.215147001151223
 20
49.74034809016509
 30
0.0
 10
-4.971356087649696
 20
52.45505808427804
 30
0.0
 10
-2.25664609353673
 20
55.1420669560021
 30
0.0
 10
0.5688683901318683
 20
57.3304556247258
 30
0.0
 10
3.782198587245162
 20
58.85401735611573
 30
0.0
 10
6.358402969413604
 20
59.93436112928313
 30
0.0
 10
8.905407031366437
 20
60.50598674093223
 30
0.0
  0
SPLINE
  5
137
330
1F
100
AcDbEntity
  8
GRAVAÇÃO
100
AcDbSpline
210
0.0
220
0.0
230
1.0
 70
     8
 71
     3
 72
     9
 73
     5
 74
     0
 42
0.000000001
 43
0.0000000001
 40
0.0
 40
0.0
 40
0.0
 40
0.0
 40
7.329665973492219
 40
14.65933194698444
 40
14.65933194698444
 40
14.65933194698444
 40
14.65933194698444
 10
7.246466999935862
 20
63.95622219951136
 30
0.0
 10
8.048171435136965
 20
63.03688683684081
 30
0.0
 10
8.879205106804207
 20
60.95930265767272
 30
0.0
 10
9.35012418741563
 20
58.68781062178229
 30
0.0
 10
9.321205748076977
 20
57.78078637023351
 30
0.0
  0
SPLINE
  5
138
330
1F
100
AcDbEntity
  8
GRAVAÇÃO
100
AcDbSpline
210
0.0
220
0.0
230
1.0
 70
     8
 71
     3
 72
     8
 73
     4
 74
     0
 42
0.000000001
 43
0.0000000001
 40
0.0
 40
0.0
 40
0.0
 40
0.0
 40
16.1344052963165
 40
16.1344052963165
 40
16.1344052963165
 40
16.1344052963165
 10
-17.7468444697593
 20
60.97315224146371
 30
0.0
 10
-15.93534684615996
 20
61.47073383280579
 30
0.0
 10
-12.7716016581228
 20
61.80730246983101
 30
0.0
 10
-10.47948121672617
 20
61.95924828649501
 30
0.0
  0
SPLINE
  5
139
330
1F
100
AcDbEntity
  8
GRAVAÇÃO
100
AcDbSpline
210
0.0
220
0.0
230
1.0
 70
     8
 71
     2
 72
     6
 73
     3
 74
     0
 42
0.000000001
 43
0.0000000001
 40
0.0
 40
0.0
 40
0.0
 40
5.552632304102341
 40
5.552632304102341
 40
5.552632304102341
 10
7.002157852395598
 20
45.2859178789566
 30
0.0
 10
6.457461901606706
 20
46.21337314651606
 30
0.0
 10
5.463169130068124
 20
47.27761096068926
 30
0.0
  0
SPLINE
  5
13A
330
1F
100
AcDbEntity
  8
GRAVAÇÃO
100
AcDbSpline
210
0.0
220
0.0
230
1.0
 70
     8
 71
     3
 72
     8
 73
     4
 74
     0
 42
0.000000001
 43
0.0000000001
 40
0.0
 40
0.0
 40
0.0
 40
0.0
 40
12.32296043836475
 40
12.32296043836475
 40
12.32296043836475
 40
12.32296043836475
 10
9.3979842230966
 20
40.23891839738327
 30
0.0
 10
9.063169558083288
 20
41.39943866251696
 30
0.0
 10
7.900170095588095
 20
43.93153875807612
 30
0.0
 10
7.002157852395598
 20
45.2859178789566
 30
0.0
  0
SPLINE
  5
13B
330
1F
100
AcDbEntity
  8
GRAVAÇÃO
100
AcDbSpline
210
0.0
220
0.0
230
1.0
 70
     8
 71
     3
 72
    14
 73
    10
 74
     0
 42
0.000000001
 43
0.0000000001
 40
0.0
 40
0.0
 40
0.0
 40
0.0
 40
7.247619534148336
 40
14.49523906829667
 40
21.74285860244501
 40
28.99047813659334
 40
36.23809767074168
 40
43.48571720489002
 40
50.73333673903835
 40
50.73333673903835
 40
50.73333673903835
 40
50.73333673903835
 10
-11.57513901874363
 20
32.92158671639373
 30
0.0
 10
-10.46433101474098
 20
32.92132261879316
 30
0.0
 10
-7.721919898239108
 20
33.4199428217935
 30
0.0
 10
-5.976749187737923
 20
34.00166639196056
 30
0.0
 10
-3.345142560791686
 20
35.44212475618377
 30
0.0
 10
-0.6304325666787207
 20
37.27039883385168
 30
0.0
 10
2.305886406545497
 20
39.79120097124228
 30
0.0
 10
4.646715903038228
 20
42.09134973514067
 30
0.0
 10
6.236639218854449
 20
44.1229184164614
 30
0.0
 10
7.002157852395598
 20
45.2859178789566
 30
0.0
  0
SPLINE
  5
13C
330
1F
100
AcDbEntity
  8
GRAVAÇÃO
100
AcDbSpline
210
0.0
220
0.0
230
1.0
 70
     8
 71
     3
 72
    10
 73
     6
 74
     0
 42
0.000000001
 43
0.0000000001
 40
0.0
 40
0.0
 40
0.0
 40
0.0
 40
5.385304810652999
 40
10.770609621306
 40
16.155914431959
 40
16.155914431959
 40
16.155914431959
 40
16.155914431959
 10
-10.80705585889903
 20
28.843236487332
 30
0.0
 10
-11.2399624416304
 20
29.4863834425686
 30
0.0
 10
-11.51697366551947
 20
30.87143956201399
 30
0.0
 10
-11.71088152224183
 20
32.58890915012627
 30
0.0
 10
-11.35076693118604
 20
34.44488435018309
 30
0.0
 10
-11.06554094558581
 20
35.97901715311963
 30
0.0
  0
SPLINE
  5
13D
330
1F
100
AcDbEntity
  8
GRAVAÇÃO
100
AcDbSpline
210
0.0
220
0.0
230
1.0
 70
     8
 71
     3
 72
    12
 73
     8
 74
     0
 42
0.000000001
 43
0.0000000001
 40
0.0
 40
0.0
 40
0.0
 40
0.0
 40
8.637521753691844
 40
17.27504350738369
 40
25.91256526107553
 40
34.55008701476738
 40
43.18760876845922
 40
43.18760876845922
 40
43.18760876845922
 40
43.18760876845922
 10
-14.20962118737707
 20
54.93973920797572
 30
0.0
 10
-14.04668552806559
 20
53.84596233502764
 30
0.0
 10
-13.54003491281351
 20
52.07268518164534
 30
0.0
 10
-12.52673368230934
 20
49.91942006682397
 30
0.0
 10
-11.21788625957478
 20
47.72393406739828
 30
0.0
 10
-8.853516721731722
 20
45.23290187574219
 30
0.0
 10
-6.742472491514704
 20
42.99519499171215
 30
0.0
 10
-2.661357133744275
 20
39.61837172826114
 30
0.0
  0
SPLINE
  5
13E
330
1F
100
AcDbEntity
  8
GRAVAÇÃO
100
AcDbSpline
210
0.0
220
0.0
230
1.0
 70
     8
 71
     3
 72
    10
 73
     6
 74
     0
 42
0.000000001
 43
0.0000000001
 40
0.0
 40
0.0
 40
0.0
 40
0.0
 40
6.490729826766831
 40
12.98145965353366
 40
19.47218948030049
 40
19.47218948030049
 40
19.47218948030049
 40
19.47218948030049
 10
-7.782643728668987
 20
36.93591544504605
 30
0.0
 10
-7.178006280404887
 20
37.12310711879216
 30
0.0
 10
-5.015216218880767
 20
38.17724008995517
 30
0.0
 10
-2.707028506161748
 20
39.52216836350799
 30
0.0
 10
-0.61693727023507
 20
41.04884370105442
 30
0.0
 10
-0.1911839719557094
 20
41.44375458558531
 30
0.0
  0
SPLINE
  5
13F
330
1F
100
AcDbEntity
  8
GRAVAÇÃO
100
AcDbSpline
210
0.0
220
0.0
230
1.0
 70
     8
 71
     3
 72
     9
 73
     5
 74
     0
 42
0.000000001
 43
0.0000000001
 40
0.0
 40
0.0
 40
0.0
 40
0.0
 40
9.317256793653325
 40
18.63451358730665
 40
18.63451358730665
 40
18.63451358730665
 40
18.63451358730665
 10
-15.63661424079076
 20
45.50292147163925
 30
0.0
 10
-14.79642368113821
 20
44.1250181090271
 30
0.0
 10
-13.0522789381329
 20
41.86788961807906
 30
0.0
 10
-11.13713961248003
 20
40.02114812548521
 30
0.0
 10
-10.22641475112725
 20
38.99692715073373
 30
0.0
  0
SPLINE
  5
140
330
1F
100
AcDbEntity
  8
GRAVAÇÃO
100
AcDbSpline
210
0.0
220
0.0
230
1.0
 70
     8
 71
     3
 72
     9
 73
     5
 74
     0
 42
0.000000001
 43
0.0000000001
 40
0.0
 40
0.0
 40
0.0
 40
0.0
 40
8.335914305309041
 40
16.67182861061808
 40
16.67182861061808
 40
16.67182861061808
 40
16.67182861061808
 10
-10.21226977033827
 20
52.54198647577898
 30
0.0
 10
-9.550405254773096
 20
50.89019091995277
 30
0.0
 10
-8.054544645772083
 20
48.81260674078469
 30
0.0
 10
-6.392477302437598
 20
46.76272368400552
 30
0.0
 10
-5.867974983114564
 20
46.42497041355868
 30
0.0
  0
SPLINE
  5
141
330
1F
100
AcDbEntity
  8
GRAVAÇÃO
100
AcDbSpline
210
0.0
220
0.0
230
1.0
 70
     8
 71
     2
 72
     6
 73
     3
 74
     0
 42
0.000000001
 43
0.0000000001
 40
0.0
 40
0.0
 40
0.0
 40
7.276179219213192
 40
7.276179219213192
 40
7.276179219213192
 10
-7.922256764018613
 20
54.97739713329352
 30
0.0
 10
-6.670751394819391
 20
56.07318156354829
 30
0.0
 10
-5.5070218647339
 20
57.24927601369791
 30
0.0
  0
SPLINE
  5
142
330
1F
100
AcDbEntity
  8
GRAVAÇÃO
100
AcDbSpline
210
0.0
220
0.0
230
1.0
 70
     8
 71
     3
 72
    10
 73
     6
 74
     0
 42
0.000000001
 43
0.0000000001
 40
0.0
 40
0.0
 40
0.0
 40
0.0
 40
5.562221186154731
 40
11.12444237230946
 40
16.68666355846419
 40
16.68666355846419
 40
16.68666355846419
 40
16.68666355846419
 10
-18.6006343364039
 20
53.45314359725575
 30
0.0
 10
-17.08553700084956
 20
54.15506064285692
 30
0.0
 10
-15.78413827101868
 20
54.69357046209728
 30
0.0
 10
-14.37054999551272
 20
54.94038746258245
 30
0.0
 10
-12.82233426519666
 20
55.09745282652756
 30
0.0
 10
-11.28457744790065
 20
55.17731890368651
 30
0.0
  0
SPLINE
  5
143
330
1F
100
AcDbEntity
  8
GRAVAÇÃO
100
AcDbSpline
210
0.0
220
0.0
230
1.0
 70
     8
 71
     3
 72
    23
 73
    19
 74
     0
 42
0.000000001
 43
0.0000000001
 40
0.0
 40
0.0
 40
0.0
 40
0.0
 40
6.021468901231416
 40
12.04293780246283
 40
18.06440670369425
 40
24.08587560492566
 40
30.10734450615708
 40
36.1288134073885
 40
42.15028230861991
 40
48.17175120985133
 40
54.19322011108274
 40
60.21468901231416
 40
66.23615791354558
 40
72.257626814777
 40
78.27909571600841
 40
84.30056461723983
 40
90.32203351847124
 40
96.34350241970266
 40
96.34350241970266
 40
96.34350241970266
 40
96.34350241970266
 10
-19.56259278685799
 20
33.53422205718026
 30
0.0
 10
-20.79388625505263
 20
34.0747940343616
 30
0.0
 10
-22.72354644066395
 20
35.46594440073255
 30
0.0
 10
-24.20444844357495
 20
37.26097713153377
 30
0.0
 10
-25.75266417389101
 20
39.57208177244034
 30
0.0
 10
-26.58757600269269
 20
41.48733737440942
 30
0.0
 10
-27.19700069524865
 20
43.62032379835532
 30
0.0
 10
-27.3632074295821
 20
44.31285185807801
 30
0.0
 10
-27.25240294002648
 20
47.16606746413549
 30
0.0
 10
-26.55987488030378
 20
49.85307633585954
 30
0.0
 10
-25.25792212802511
 20
52.34617735086124
 30
0.0
 10
-22.54321213391216
 20
54.97778397780748
 30
0.0
 10
-19.41298530396558
 20
56.66755244353084
 30
0.0
 10
-17.52930898151986
 20
57.47088499280916
 30
0.0
 10
-14.8145989874069
 20
57.99720631819841
 30
0.0
 10
-11.54586654551578
 20
58.21881529730967
 30
0.0
 10
-8.803455429013923
 20
58.24651641969858
 30
0.0
 10
-6.199549924456591
 20
57.63709172714262
 30
0.0
 10
-5.5070218647339
 20
57.24927601369791
 30
0.0
  0
SPLINE
  5
144
330
1F
100
AcDbEntity
  8
GRAVAÇÃO
100
AcDbSpline
210
0.0
220
0.0
230
1.0
 70
     8
 71
     3
 72
    10
 73
     6
 74
     0
 42
0.000000001
 43
0.0000000001
 40
0.0
 40
0.0
 40
0.0
 40
0.0
 40
6.328541367971202
 40
12.65708273594241
 40
18.98562410391361
 40
18.98562410391361
 40
18.98562410391361
 40
18.98562410391361
 10
-18.87764556029297
 20
37.2479869997448
 30
0.0
 10
-19.34530423519148
 20
35.83534012687922
 30
0.0
 10
-19.59461433669164
 20
33.89626155965568
 30
0.0
 10
-19.59461433669164
 20
31.76327513570979
 30
0.0
 10
-19.51151096952492
 20
30.10120779237533
 30
0.0
 10
-19.22687591260413
 20
28.71279137172058
 30
0.0
  0
SPLINE
  5
146
330
1F
100
AcDbEntity
  8
CORTE
100
AcDbSpline
210
0.0
220
0.0
230
1.0
 70
     8
 71
     3
 72
    10
 73
     6
 74
     0
 42
0.000000001
 43
0.0000000001
 40
0.0
 40
0.0
 40
0.0
 40
0.0
 40
6.695577190497037
 40
13.39115438099407
 40
20.08673157149111
 40
20.08673157149111
 40
20.08673157149111
 40
20.08673157149111
 10
-1.571631290125126
 20
60.11933973742376
 30
0.0
 10
-2.558899292065803
 20
60.54566001098905
 30
0.0
 10
-4.690500659892251
 20
61.26367310330954
 30
0.0
 10
-6.597722936368541
 20
61.57780383119974
 30
0.0
 10
-9.537089033055537
 20
61.91437246822497
 30
0.0
 10
-10.47948121672617
 20
61.95924828649501
 30
0.0
  0
SPLINE
  5
147
330
1F
100
AcDbEntity
  8
CORTE
100
AcDbSpline
210
0.0
220
0.0
230
1.0
 70
     8
 71
     3
 72
     9
 73
     5
 74
     0
 42
0.000000001
 43
0.0000000001
 40
0.0
 40
0.0
 40
0.0
 40
0.0
 40
10.62270677933116
 40
21.24541355866231
 40
21.24541355866231
 40
21.24541355866231
 40
21.24541355866231
 10
7.246466999935862
 20
63.95622219951136
 30
0.0
 10
5.047551904704378
 20
63.37283656200096
 30
0.0
 10
2.62425771812272
 20
62.52019601487039
 30
0.0
 10
0.4702184411612649
 20
61.46561428552468
 30
0.0
 10
-1.571631290125126
 20
60.11933973742376
 30
0.0
  0
SPLINE
  5
148
330
1F
100
AcDbEntity
  8
CORTE
100
AcDbSpline
210
0.0
220
0.0
230
1.0
 70
     8
 71
     3
 72
    13
 73
     9
 74
     0
 42
0.000000001
 43
0.0000000001
 40
0.0
 40
0.0
 40
0.0
 40
0.0
 40
4.181627165441221
 40
8.363254330882443
 40
12.54488149632367
 40
16.72650866176489
 40
20.90813582720611
 40
25.08976299264733
 40
25.08976299264733
 40
25.08976299264733
 40
25.08976299264733
 10
-3.411539839196379
 20
66.6712092048482
 30
0.0
 10
-2.760840474280926
 20
66.44683011349804
 30
0.0
 10
-1.302376380504953
 20
66.11026147647281
 30
0.0
 10
1.704303443587094
 20
65.97563402166271
 30
0.0
 10
3.432022446983282
 20
66.06538565820279
 30
0.0
 10
4.621231631139082
 20
65.88588238512266
 30
0.0
 10
5.810440815294882
 20
65.32493465674729
 30
0.0
 10
6.932336272045646
 20
64.40498038221166
 30
0.0
 10
7.246466999935862
 20
63.95622219951136
 30
0.0
  0
SPLINE
  5
149
330
1F
100
AcDbEntity
  8
CORTE
100
AcDbSpline
210
0.0
220
0.0
230
1.0
 70
     8
 71
     3
 72
     9
 73
     5
 74
     0
 42
0.000000001
 43
0.0000000001
 40
0.0
 40
0.0
 40
0.0
 40
0.0
 40
9.807901337697274
 40
19.61580267539455
 40
19.61580267539455
 40
19.61580267539455
 40
19.61580267539455
 10
-10.47948121672617
 20
61.95924828649501
 30
0.0
 10
-9.469775305650487
 20
63.70940519902619
 30
0.0
 10
-7.203546483013952
 20
65.68394120290753
 30
0.0
 10
-4.421245750272064
 20
66.42439220436303
 30
0.0
 10
-3.411539839196379
 20
66.6712092048482
 30
0.0
  0
SPLINE
  5
14A
330
1F
100
AcDbEntity
  8
CORTE
100
AcDbSpline
210
0.0
220
0.0
230
1.0
 70
     8
 71
     3
 72
     8
 73
     4
 74
     0
 42
0.000000001
 43
0.0000000001
 40
0.0
 40
0.0
 40
0.0
 40
0.0
 40
7.842553396552656
 40
7.842553396552656
 40
7.842553396552656
 40
7.842553396552656
 10
7.113488597456225
 20
37.53194755330256
 30
0.0
 10
7.974086264649529
 20
38.72896067221686
 30
0.0
 10
9.16327576840753
 20
40.14503501550764
 30
0.0
 10
9.3979842230966
 20
40.23891839738327
 30
0.0
  0
SPLINE
  5
14B
330
1F
100
AcDbEntity
  8
CORTE
100
AcDbSpline
210
0.0
220
0.0
230
1.0
 70
     8
 71
     3
 72
     8
 73
     4
 74
     0
 42
0.000000001
 43
0.0000000001
 40
0.0
 40
0.0
 40
0.0
 40
0.0
 40
7.784470482440359
 40
7.784470482440359
 40
7.784470482440359
 40
7.784470482440359
 10
10.43070142372855
 20
36.64005542548406
 30
0.0
 10
9.304100841220972
 20
36.61658458001515
 30
0.0
 10
7.919320958555403
 20
36.93735280142356
 30
0.0
 10
7.113488597456225
 20
37.53194755330256
 30
0.0
  0
SPLINE
  5
14C
330
1F
100
AcDbEntity
  8
CORTE
100
AcDbSpline
210
0.0
220
0.0
230
1.0
 70
     8
 71
     3
 72
     8
 73
     4
 74
     0
 42
0.000000001
 43
0.0000000001
 40
0.0
 40
0.0
 40
0.0
 40
0.0
 40
8.307648618350994
 40
8.307648618350994
 40
8.307648618350994
 40
8.307648618350994
 10
9.3979842230966
 20
40.23891839738327
 30
0.0
 10
10.00822620528821
 20
39.00278720268746
 30
0.0
 10
10.34464165700923
 20
37.72753793221013
 30
0.0
 10
10.43070142372855
 20
36.64005542548406
 30
0.0
  0
SPLINE
  5
14D
330
1F
100
AcDbEntity
  8
CORTE
100
AcDbSpline
210
0.0
220
0.0
230
1.0
 70
     8
 71
     3
 72
    13
 73
     9
 74
     0
 42
0.000000001
 43
0.0000000001
 40
0.0
 40
0.0
 40
0.0
 40
0.0
 40
6.961495844657299
 40
13.9229916893146
 40
20.8844875339719
 40
27.84598337862919
 40
34.80747922328649
 40
41.76897506794379
 40
41.76897506794379
 40
41.76897506794379
 40
41.76897506794379
 10
18.29389811371196
 20
39.24417371998777
 30
0.0
 10
20.09159623966964
 20
41.86771019842392
 30
0.0
 10
21.11756373555512
 20
45.52699426708209
 30
0.0
 10
21.18596156861415
 20
48.39970325556141
 30
0.0
 10
20.57038107108286
 20
51.30661116057024
 30
0.0
 10
19.5786124917269
 20
53.49534181845924
 30
0.0
 10
18.31958751458906
 20
54.97428180695765
 30
0.0
 10
17.45101829576355
 20
55.81340800141621
 30
0.0
 10
16.79623829971233
 20
55.94680738751516
 30
0.0
  0
SPLINE
  5
14E
330
1F
100
AcDbEntity
  8
CORTE
100
AcDbSpline
210
0.0
220
0.0
230
1.0
 70
     8
 71
     3
 72
     8
 73
     4
 74
     0
 42
0.000000001
 43
0.0000000001
 40
0.0
 40
0.0
 40
0.0
 40
0.0
 40
20.91482010887209
 40
20.91482010887209
 40
20.91482010887209
 40
20.91482010887209
 10
14.09452389388059
 20
47.77326633696093
 30
0.0
 10
15.98571040099294
 20
44.47848916300411
 30
0.0
 10
17.38516279374385
 20
41.86133144149593
 30
0.0
 10
18.29389811371196
 20
39.24417371998777
 30
0.0
  0
SPLINE
  5
14F
330
1F
100
AcDbEntity
  8
CORTE
100
AcDbSpline
210
0.0
220
0.0
230
1.0
 70
     8
 71
     3
 72
     8
 73
     4
 74
     0
 42
0.000000001
 43
0.0000000001
 40
0.0
 40
0.0
 40
0.0
 40
0.0
 40
18.99004461821977
 40
18.99004461821977
 40
18.99004461821977
 40
18.99004461821977
 10
16.79623829971233
 20
55.94680738751516
 30
0.0
 10
16.48844805094667
 20
54.03166806186229
 30
0.0
 10
14.84690005752994
 20
49.14122299814156
 30
0.0
 10
14.09452389388059
 20
47.77326633696093
 30
0.0
  0
SPLINE
  5
150
330
1F
100
AcDbEntity
  8
CORTE
100
AcDbSpline
210
0.0
220
0.0
230
1.0
 70
     8
 71
     2
 72
     6
 73
     3
 74
     0
 42
0.000000001
 43
0.0000000001
 40
0.0
 40
0.0
 40
0.0
 40
9.280672548030136
 40
9.280672548030136
 40
9.280672548030136
 10
9.321205748076977
 20
57.78078637023351
 30
0.0
 10
7.485560401741381
 20
57.39911753584691
 30
0.0
 10
5.268246221019169
 20
56.59943045427497
 30
0.0
  0
SPLINE
  5
151
330
1F
100
AcDbEntity
  8
CORTE
100
AcDbSpline
210
0.0
220
0.0
230
1.0
 70
     8
 71
     2
 72
     6
 73
     3
 74
     0
 42
0.000000001
 43
0.0000000001
 40
0.0
 40
0.0
 40
0.0
 40
8.071000165968066
 40
8.071000165968066
 40
8.071000165968066
 10
8.794139262495477
 20
54.14584509036106
 30
0.0
 10
8.921362207291011
 20
55.83609278550176
 30
0.0
 10
9.321205748076977
 20
57.78078637023351
 30
0.0
  0
SPLINE
  5
152
330
1F
100
AcDbEntity
  8
CORTE
100
AcDbSpline
210
0.0
220
0.0
230
1.0
 70
     8
 71
     2
 72
     6
 73
     3
 74
     0
 42
0.000000001
 43
0.0000000001
 40
0.0
 40
0.0
 40
0.0
 40
9.421584889774813
 40
9.421584889774813
 40
9.421584889774813
 10
5.268246221019169
 20
56.59943045427497
 30
0.0
 10
7.085716860955401
 20
55.3817251255177
 30
0.0
 10
8.794139262495477
 20
54.14584509036106
 30
0.0
  0
SPLINE
  5
153
330
1F
100
AcDbEntity
  8
CORTE
100
AcDbSpline
210
0.0
220
0.0
230
1.0
 70
     8
 71
     3
 72
     8
 73
     4
 74
     0
 42
0.000000001
 43
0.0000000001
 40
0.0
 40
0.0
 40
0.0
 40
0.0
 40
17.25127925742764
 40
17.25127925742764
 40
17.25127925742764
 40
17.25127925742764
 10
-0.6623800637910335
 20
52.30370260693266
 30
0.0
 10
-2.524726521997295
 20
50.48623196699643
 30
0.0
 10
-4.005628524908303
 20
48.84826460014033
 30
0.0
 10
-5.867974983114564
 20
46.42497041355868
 30
0.0
  0
SPLINE
  5
154
330
1F
100
AcDbEntity
  8
CORTE
100
AcDbSpline
210
0.0
220
0.0
230
1.0
 70
     8
 71
     3
 72
     8
 73
     4
 74
     0
 42
0.000000001
 43
0.0000000001
 40
0.0
 40
0.0
 40
0.0
 40
0.0
 40
17.49190848160507
 40
17.49190848160507
 40
17.49190848160507
 40
17.49190848160507
 10
5.463169130068124
 20
47.27761096068926
 30
0.0
 10
4.431025309857432
 20
48.60144759965516
 30
0.0
 10
1.558972940575487
 20
50.7554868766166
 30
0.0
 10
-0.6623800637910335
 20
52.30370260693266
 30
0.0
  0
SPLINE
  5
155
330
1F
100
AcDbEntity
  8
CORTE
100
AcDbSpline
210
0.0
220
0.0
230
1.0
 70
     8
 71
     3
 72
     8
 73
     4
 74
     0
 42
0.000000001
 43
0.0000000001
 40
0.0
 40
0.0
 40
0.0
 40
0.0
 40
17.87969861350636
 40
17.87969861350636
 40
17.87969861350636
 40
17.87969861350636
 10
-0.1911839719557094
 20
41.44375458558531
 30
0.0
 10
1.626286667980523
 20
43.08172195244143
 30
0.0
 10
4.004705036292137
 20
45.32551286594294
 30
0.0
 10
5.463169130068124
 20
47.27761096068926
 30
0.0
  0
SPLINE
  5
156
330
1F
100
AcDbEntity
  8
CORTE
100
AcDbSpline
210
0.0
220
0.0
230
1.0
 70
     8
 71
     3
 72
     8
 73
     4
 74
     0
 42
0.000000001
 43
0.0000000001
 40
0.0
 40
0.0
 40
0.0
 40
0.0
 40
16.58717929117636
 40
16.58717929117636
 40
16.58717929117636
 40
16.58717929117636
 10
-5.867974983114564
 20
46.42497041355868
 30
0.0
 10
-4.20756970712344
 20
44.71968931929753
 30
0.0
 10
-1.604772247461668
 20
42.54321213320105
 30
0.0
 10
-0.1911839719557094
 20
41.44375458558531
 30
0.0
  0
SPLINE
  5
157
330
1F
100
AcDbEntity
  8
CORTE
100
AcDbSpline
210
0.0
220
0.0
230
1.0
 70
     8
 71
     2
 72
     6
 73
     3
 74
     0
 42
0.000000001
 43
0.0000000001
 40
0.0
 40
0.0
 40
0.0
 40
7.417170567861288
 40
7.417170567861288
 40
7.417170567861288
 10
-7.922256764018613
 20
54.97739713329352
 30
0.0
 10
-9.612504459159311
 20
55.23184302288459
 30
0.0
 10
-11.28457744790065
 20
55.17731890368651
 30
0.0
  0
SPLINE
  5
158
330
1F
100
AcDbEntity
  8
CORTE
100
AcDbSpline
210
0.0
220
0.0
230
1.0
 70
     8
 71
     2
 72
     6
 73
     3
 74
     0
 42
0.000000001
 43
0.0000000001
 40
0.0
 40
0.0
 40
0.0
 40
7.331013160081959
 40
7.331013160081959
 40
7.331013160081959
 10
-10.21226977033827
 20
52.54198647577898
 30
0.0
 10
-9.285359743970787
 20
53.52342062134454
 30
0.0
 10
-7.922256764018613
 20
54.97739713329352
 30
0.0
  0
SPLINE
  5
159
330
1F
100
AcDbEntity
  8
CORTE
100
AcDbSpline
210
0.0
220
0.0
230
1.0
 70
     8
 71
     2
 72
     6
 73
     3
 74
     0
 42
0.000000001
 43
0.0000000001
 40
0.0
 40
0.0
 40
0.0
 40
6.241509264519671
 40
6.241509264519671
 40
6.241509264519671
 10
-11.28457744790065
 20
55.17731890368651
 30
0.0
 10
-10.90290861351404
 20
54.14136063892286
 30
0.0
 10
-10.21226977033827
 20
52.54198647577898
 30
0.0
  0
SPLINE
  5
15A
330
1F
100
AcDbEntity
  8
CORTE
100
AcDbSpline
210
0.0
220
0.0
230
1.0
 70
     8
 71
     3
 72
    15
 73
    11
 74
     0
 42
0.000000001
 43
0.0000000001
 40
0.0
 40
0.0
 40
0.0
 40
0.0
 40
5.581043271552385
 40
11.16208654310477
 40
16.74312981465716
 40
22.32417308620954
 40
27.90521635776193
 40
33.48625962931431
 40
39.06730290086669
 40
44.64834617241908
 40
44.64834617241908
 40
44.64834617241908
 40
44.64834617241908
 10
-18.6006343364039
 20
53.45314359725575
 30
0.0
 10
-19.81948372151583
 20
52.81601778231087
 30
0.0
 10
-21.28764320812794
 20
51.56946727481002
 30
0.0
 10
-22.42338922607316
 20
50.35061788969809
 30
0.0
 10
-23.3098251425182
 20
48.63314830158582
 30
0.0
 10
-23.97465207985199
 20
46.41705851047321
 30
0.0
 10
-23.94695095746307
 20
44.36717545369405
 30
0.0
 10
-23.39292850968492
 20
42.26189015213707
 30
0.0
 10
-22.25718249173971
 20
40.32281158491354
 30
0.0
 10
-20.4289084140718
 20
38.02361842663421
 30
0.0
 10
-18.87764556029297
 20
37.2479869997448
 30
0.0
  0
SPLINE
  5
15B
330
1F
100
AcDbEntity
  8
CORTE
100
AcDbSpline
210
0.0
220
0.0
230
1.0
 70
     8
 71
     3
 72
     9
 73
     5
 74
     0
 42
0.000000001
 43
0.0000000001
 40
0.0
 40
0.0
 40
0.0
 40
0.0
 40
9.348859838459532
 40
18.69771967691906
 40
18.69771967691906
 40
18.69771967691906
 40
18.69771967691906
 10
-15.63661424079076
 20
45.50292147163925
 30
0.0
 10
-16.52305015723582
 20
47.081885447807
 30
0.0
 10
-17.35408382890304
 20
49.2702741165307
 30
0.0
 10
-18.10201413340356
 20
51.26475492853204
 30
0.0
 10
-18.6006343364039
 20
53.45314359725575
 30
0.0
  0
SPLINE
  5
15C
330
1F
100
AcDbEntity
  8
CORTE
100
AcDbSpline
210
0.0
220
0.0
230
1.0
 70
     8
 71
     3
 72
    10
 73
     6
 74
     0
 42
0.000000001
 43
0.0000000001
 40
0.0
 40
0.0
 40
0.0
 40
0.0
 40
6.531346688014112
 40
13.06269337602822
 40
19.59404006404234
 40
19.59404006404234
 40
19.59404006404234
 40
19.59404006404234
 10
-18.87764556029297
 20
37.2479869997448
 30
0.0
 10
-18.57293321401498
 20
38.85465209830144
 30
0.0
 10
-17.9358073990701
 20
40.59982280880261
 30
0.0
 10
-17.27098046173633
 20
42.53890137602615
 30
0.0
 10
-16.49534903484691
 20
44.1732675969717
 30
0.0
 10
-15.63661424079076
 20
45.50292147163925
 30
0.0
  0
SPLINE
  5
15D
330
1F
100
AcDbEntity
  8
CORTE
100
AcDbSpline
210
0.0
220
0.0
230
1.0
 70
     8
 71
     3
 72
     8
 73
     4
 74
     0
 42
0.000000001
 43
0.0000000001
 40
0.0
 40
0.0
 40
0.0
 40
0.0
 40
7.018359656330231
 40
7.018359656330231
 40
7.018359656330231
 40
7.018359656330231
 10
-7.782643728668987
 20
36.93591544504605
 30
0.0
 10
-8.283175142907439
 20
37.421725347101
 30
0.0
 10
-9.402010068852178
 20
38.27557305374305
 30
0.0
 10
-10.22641475112725
 20
38.99692715073373
 30
0.0
  0
SPLINE
  5
15E
330
1F
100
AcDbEntity
  8
CORTE
100
AcDbSpline
210
0.0
220
0.0
230
1.0
 70
     8
 71
     3
 72
     8
 73
     4
 74
     0
 42
0.000000001
 43
0.0000000001
 40
0.0
 40
0.0
 40
0.0
 40
0.0
 40
7.565948730827927
 40
7.565948730827927
 40
7.565948730827927
 40
7.565948730827927
 10
-11.06554094558581
 20
35.97901715311963
 30
0.0
 10
-9.873098458723646
 20
36.15567529932143
 30
0.0
 10
-8.268453630723954
 20
36.64148520137638
 30
0.0
 10
-7.782643728668987
 20
36.93591544504605
 30
0.0
  0
SPLINE
  5
15F
330
1F
100
AcDbEntity
  8
CORTE
100
AcDbSpline
210
0.0
220
0.0
230
1.0
 70
     8
 71
     3
 72
     8
 73
     4
 74
     0
 42
0.000000001
 43
0.0000000001
 40
0.0
 40
0.0
 40
0.0
 40
0.0
 40
6.909728136957092
 40
6.909728136957092
 40
6.909728136957092
 40
6.909728136957092
 10
-10.22641475112725
 20
38.99692715073373
 30
0.0
 10
-10.66806011663176
 20
38.01058583444034
 30
0.0
 10
-10.91832582375098
 20
36.77397881102773
 30
0.0
 10
-11.06554094558581
 20
35.97901715311963
 30
0.0
  0
SPLINE
  5
160
330
1F
100
AcDbEntity
  8
CORTE
100
AcDbSpline
210
0.0
220
0.0
230
1.0
 70
     8
 71
     3
 72
     9
 73
     5
 74
     0
 42
0.000000001
 43
0.0000000001
 40
0.0
 40
0.0
 40
0.0
 40
0.0
 40
11.99086132079966
 40
23.98172264159932
 40
23.98172264159932
 40
23.98172264159932
 40
23.98172264159932
 10
-0.3431760650850322
 20
31.87731398600736
 30
0.0
 10
-2.374744746405753
 20
30.96458023063139
 30
0.0
 10
-5.642920451139091
 20
29.94879588997103
 30
0.0
 10
-9.117197326441186
 20
29.094948183329
 30
0.0
 10
-10.80705585889903
 20
28.843236487332
 30
0.0
  0
SPLINE
  5
161
330
1F
100
AcDbEntity
  8
CORTE
100
AcDbSpline
210
0.0
220
0.0
230
1.0
 70
     8
 71
     3
 72
    10
 73
     6
 74
     0
 42
0.000000001
 43
0.0000000001
 40
0.0
 40
0.0
 40
0.0
 40
0.0
 40
7.448016495415415
 40
14.89603299083083
 40
22.34404948624625
 40
22.34404948624625
 40
22.34404948624625
 40
22.34404948624625
 10
9.1258716375376
 20
28.25437599999266
 30
0.0
 10
8.268908562252804
 20
28.57969525690708
 30
0.0
 10
6.001795685996356
 20
29.16855574424641
 30
0.0
 10
3.27831593205191
 20
30.08128949962239
 30
0.0
 10
0.3192919831717234
 20
31.39150408395241
 30
0.0
 10
-0.3431760650850322
 20
31.87731398600736
 30
0.0
  0
SPLINE
  5
162
330
1F
100
AcDbEntity
  8
CORTE
100
AcDbSpline
210
0.0
220
0.0
230
1.0
 70
     8
 71
     3
 72
    10
 73
     6
 74
     0
 42
0.000000001
 43
0.0000000001
 40
0.0
 40
0.0
 40
0.0
 40
0.0
 40
5.872003264190724
 40
11.74400652838145
 40
17.61600979257217
 40
17.61600979257217
 40
17.61600979257217
 40
17.61600979257217
 10
2.383419057502167
 20
24.51511190538788
 30
0.0
 10
4.194165056070631
 20
24.80954214905755
 30
0.0
 10
6.505442468877533
 20
25.72227590443352
 30
0.0
 10
7.771492516657119
 20
26.5319590745251
 30
0.0
 10
8.80199836950095
 20
27.62135097610287
 30
0.0
 10
9.1258716375376
 20
28.25437599999266
 30
0.0
  0
SPLINE
  5
163
330
1F
100
AcDbEntity
  8
CORTE
100
AcDbSpline
210
0.0
220
0.0
230
1.0
 70
     8
 71
     3
 72
    16
 73
    12
 74
     0
 42
0.000000001
 43
0.0000000001
 40
0.0
 40
0.0
 40
0.0
 40
0.0
 40
3.599170520495811
 40
7.198341040991622
 40
10.79751156148743
 40
14.39668208198324
 40
17.99585260247905
 40
21.59502312297487
 40
25.19419364347068
 40
28.79336416396649
 40
32.3925346844623
 40
32.3925346844623
 40
32.3925346844623
 40
32.3925346844623
 10
-10.80705585889903
 20
28.843236487332
 30
0.0
 10
-10.49790410304588
 20
28.03355331724041
 30
0.0
 10
-9.452676738018553
 20
26.88527536692871
 30
0.0
 10
-8.907980787229661
 20
26.54668058670859
 30
0.0
 10
-7.700816788184014
 20
25.98726312373622
 30
0.0
 10
-5.47786844847802
 20
25.58978229478216
 30
0.0
 10
-2.916325328551892
 20
25.50145322168126
 30
0.0
 10
-0.8994781594146417
 20
25.5603392704152
 30
0.0
 10
-0.0309089405891285
 20
25.58978229478216
 30
0.0
 10
0.6462806198511117
 20
25.35423809984643
 30
0.0
 10
1.617900423961018
 20
25.05980785617676
 30
0.0
 10
2.383419057502167
 20
24.51511190538788
 30
0.0
  0
ARC
  5
164
330
1F
100
AcDbEntity
  8
CORTE
100
AcDbCircle
 10
3.205757290466224
 20
72.3103454044467
 30
0.0
 40
0.9120065253018366
210
0.0
220
0.0
230
-1.0
100
AcDbArc
 50
64.72719322992815
 51
87.73741329872657
  0
SPLINE
  5
165
330
1F
100
AcDbEntity
  8
CORTE
100
AcDbSpline
210
0.0
220
0.0
230
1.0
 70
     8
 71
     3
 72
    17
 73
    13
 74
     0
 42
0.000000001
 43
0.0000000001
 40
0.0483459169835999
 40
0.0483459169835999
 40
0.0483459169835999
 40
0.0483459169835999
 40
4.932994223681458
 40
9.865988447362916
 40
14.79898267104437
 40
19.73197689472583
 40
24.66497111840729
 40
29.59796534208875
 40
34.5309595657702
 40
39.46395378945166
 40
44.39694801313313
 40
49.20101158062687
 40
49.20101158062687
 40
49.20101158062687
 40
49.20101158062687
 10
15.29097977624316
 20
63.95299992400106
 30
0.0
 10
15.0712752471923
 20
64.71166991991404
 30
0.0
 10
14.24022179353985
 20
66.04788070894757
 30
0.0
 10
13.26199383685774
 20
67.40653064878383
 30
0.0
 10
11.77166791211003
 20
68.96955539912898
 30
0.0
 10
11.117378481733
 20
69.5329712975092
 30
0.0
 10
9.336257254595509
 20
70.82337545186392
 30
0.0
 10
7.373388963464379
 20
71.82298430382885
 30
0.0
 10
5.319647140336443
 20
72.6590207981995
 30
0.0
 10
3.411302968403419
 20
73.00434021978738
 30
0.0
 10
1.483551806373058
 20
73.20252024579051
 30
0.0
 10
-0.9938568855722565
 20
73.31045596294686
 30
0.0
 10
-3.241762692320506
 20
73.22164091811412
 30
0.0
  0
SPLINE
  5
166
330
1F
100
AcDbEntity
  8
CORTE
100
AcDbSpline
210
0.0
220
0.0
230
1.0
 70
     8
 71
     3
 72
     9
 73
     5
 74
     0
 42
0.000000001
 43
0.0000000001
 40
0.2153324740668176
 40
0.2153324740668176
 40
0.2153324740668176
 40
0.2153324740668176
 40
3.195781747519276
 40
6.391563495038552
 40
6.391563495038552
 40
6.391563495038552
 40
6.391563495038552
 10
-3.595119075684167
 20
73.13505947756842
 30
0.0
 10
-4.351957671171846
 20
72.77774287989541
 30
0.0
 10
-5.127473627685887
 20
72.25501267729251
 30
0.0
 10
-5.478721598696197
 20
71.85107751063066
 30
0.0
 10
-5.478721598696197
 20
71.43305926344533
 30
0.0
  0
ARC
  5
167
330
1F
100
AcDbEntity
  8
CORTE
100
AcDbCircle
 10
-16.16699303670434
 20
64.20668608777298
 30
0.0
 40
0.9120065253018367
210
0.0
220
0.0
230
-1.0
100
AcDbArc
 50
340.7565525688888
 51
343.8494227423392
  0
POLYLINE
  5
168
330
1F
100
AcDbEntity
  8
CORTE
100
AcDb2dPolyline
 66
     1
 10
0.0
 20
0.0
 30
0.0
  0
VERTEX
  5
169
330
168
100
AcDbEntity
  8
CORTE
100
AcDbVertex
100
AcDb2dVertex
 10
15.39586211066494
 20
63.64852199395889
 30
0.0
  0
VERTEX
  5
16A
330
168
100
AcDbEntity
  8
CORTE
100
AcDbVertex
100
AcDb2dVertex
 10
15.30594330833084
 20
63.90610453900285
 30
0.0
  0
SEQEND
  5
16B
330
168
100
AcDbEntity
  8
CORTE
  0
ARC
  5
16C
330
1F
100
AcDbEntity
  8
CORTE
100
AcDbCircle
 10
15.70560590437053
 20
62.70459607435025
 30
0.0
 40
0.9120065253018363
100
AcDbArc
 50
83.82459650854157
 51
84.80557109226484
  0
POLYLINE
  5
16D
330
1F
100
AcDbEntity
  8
CORTE
100
AcDb2dPolyline
 66
     1
 10
0.0
 20
0.0
 30
0.0
  0
VERTEX
  5
16E
330
16D
100
AcDbEntity
  8
CORTE
100
AcDbVertex
100
AcDb2dVertex
 10
15.78817509553438
 20
63.61285717715258
 30
0.0
  0
VERTEX
  5
16F
330
16D
100
AcDbEntity
  8
CORTE
100
AcDbVertex
100
AcDb2dVertex
 10
15.39586211066494
 20
63.64852199395889
 30
0.0
  0
SEQEND
  5
170
330
16D
100
AcDbEntity
  8
CORTE
  0
SPLINE
  5
171
330
1F
100
AcDbEntity
  8
CORTE
100
AcDbSpline
210
0.0
220
0.0
230
1.0
 70
     8
 71
     3
 72
    26
 73
    22
 74
     0
 42
0.000000001
 43
0.0000000001
 40
0.0
 40
0.0
 40
0.0
 40
0.0
 40
5.304497051611864
 40
10.60899410322373
 40
15.91349115483559
 40
21.21798820644745
 40
26.52248525805932
 40
31.82698230967118
 40
37.13147936128305
 40
42.43597641289491
 40
47.74047346450677
 40
53.04497051611865
 40
58.34946756773051
 40
63.65396461934237
 40
68.95846167095424
 40
74.2629587225661
 40
79.56745577417796
 40
84.87195282578983
 40
90.1764498774017
 40
95.48094692901356
 40
100.7715255958914
 40
100.7715255958914
 40
100.7715255958914
 40
100.7715255958914
 10
19.29433399870065
 20
29.16671932214851
 30
0.0
 10
20.43934050186046
 20
29.6029122757332
 30
0.0
 10
22.62030526978391
 20
30.80244289809111
 30
0.0
 10
24.7467459185093
 20
32.41999176763434
 30
0.0
 10
26.60965595907143
 20
34.26002174619021
 30
0.0
 10
28.22720482861469
 20
36.84083005489965
 30
0.0
 10
29.04506661658598
 20
38.38568009884543
 30
0.0
 10
29.48125957017068
 20
39.62156013400205
 30
0.0
 10
29.77205487256046
 20
40.89378958195741
 30
0.0
 10
30.28094665174261
 20
43.4018990650694
 30
0.0
 10
30.22642253254453
 20
45.49199030099605
 30
0.0
 10
29.93562723015472
 20
47.85470213291315
 30
0.0
 10
29.42673545097257
 20
50.36281161602513
 30
0.0
 10
28.39077718620894
 20
53.05266816313073
 30
0.0
 10
27.31846950864657
 20
55.0882352798593
 30
0.0
 10
26.15528829908739
 20
56.86935650699679
 30
0.0
 10
24.48321531034607
 20
58.77770067892982
 30
0.0
 10
22.4476481936175
 20
60.52247249326859
 30
0.0
 10
20.30303283849274
 20
61.94009959241885
 30
0.0
 10
18.41451656807369
 20
62.92067534821335
 30
0.0
 10
16.81768519809569
 20
63.50159819137572
 30
0.0
 10
15.8037127870915
 20
63.61131044048543
 30
0.0
  0
ARC
  5
172
330
1F
100
AcDbEntity
  8
CORTE
100
AcDbCircle
 10
-19.29880683273878
 20
28.17766527661382
 30
0.0
 40
0.9120065253018368
210
0.0
220
0.0
230
-1.0
100
AcDbArc
 50
18.75011075030098
 51
66.97450799147202
  0
POLYLINE
  5
173
330
1F
100
AcDbEntity
  8
CORTE
100
AcDb2dPolyline
 66
     1
 10
0.0
 20
0.0
 30
0.0
  0
VERTEX
  5
174
330
173
100
AcDbEntity
  8
CORTE
100
AcDbVertex
100
AcDb2dVertex
 10
18.94208401643353
 20
29.01701307968498
 30
0.0
  0
VERTEX
  5
175
330
173
100
AcDbEntity
  8
CORTE
100
AcDbVertex
100
AcDb2dVertex
 10
19.29433399870065
 20
29.16671932214851
 30
0.0
  0
SEQEND
  5
176
330
173
100
AcDbEntity
  8
CORTE
  0
SPLINE
  5
177
330
1F
100
AcDbEntity
  8
CORTE
100
AcDbSpline
210
0.0
220
0.0
230
1.0
 70
     8
 71
     3
 72
    14
 73
    10
 74
     0
 42
0.000000001
 43
0.0000000001
 40
0.0326912526392689
 40
0.0326912526392689
 40
0.0326912526392689
 40
0.0326912526392689
 40
5.934428954877933
 40
11.86885790975587
 40
17.8032868646338
 40
23.73771581951173
 40
29.67214477438966
 40
35.6065737292676
 40
40.29281728331681
 40
40.29281728331681
 40
40.29281728331681
 40
40.29281728331681
 10
6.205515861612398
 20
15.7648171623822
 30
0.0
 10
7.640077424240658
 20
16.23243305462049
 30
0.0
 10
10.15515991477847
 20
17.3370879722414
 30
0.0
 10
11.62460789816978
 20
18.47999195932353
 30
0.0
 10
13.82374737249262
 20
20.15206494806486
 30
0.0
 10
15.950188021218
 20
22.75104796317365
 30
0.0
 10
17.05884511157909
 20
24.53216919031115
 30
0.0
 10
17.68416290259995
 20
26.2391177549897
 30
0.0
 10
18.25026037942722
 20
27.92600796590801
 30
0.0
 10
18.43520094229184
 20
28.47082183577378
 30
0.0
  0
ARC
  5
178
330
1F
100
AcDbEntity
  8
CORTE
100
AcDbCircle
 10
5.922871166992294
 20
16.63192031587447
 30
0.0
 40
0.9120065253018367
100
AcDbArc
 50
284.9314171781376
 51
288.054120781259
  0
POLYLINE
  5
179
330
1F
100
AcDbEntity
  8
CORTE
100
AcDb2dPolyline
 66
     1
 10
0.0
 20
0.0
 30
0.0
  0
VERTEX
  5
17A
330
179
100
AcDbEntity
  8
CORTE
100
AcDbVertex
100
AcDb2dVertex
 10
5.645060938920707
 20
15.61396101352773
 30
0.0
  0
VERTEX
  5
17B
330
179
100
AcDbEntity
  8
CORTE
100
AcDbVertex
100
AcDb2dVertex
 10
6.157861185629898
 20
15.75070774598351
 30
0.0
  0
SEQEND
  5
17C
330
179
100
AcDbEntity
  8
CORTE
  0
ARC
  5
17D
330
1F
100
AcDbEntity
  8
CORTE
100
AcDbCircle
 10
3.955193138437238
 20
14.09138243227386
 30
0.0
 40
0.9120065253018367
100
AcDbArc
 50
300.4124608783923
 51
306.9126428044438
  0
SPLINE
  5
17E
330
1F
100
AcDbEntity
  8
CORTE
100
AcDbSpline
210
0.0
220
0.0
230
1.0
 70
     8
 71
     3
 72
    10
 73
     6
 74
     0
 42
0.000000001
 43
0.0000000001
 40
0.046049602611029
 40
0.046049602611029
 40
0.046049602611029
 40
0.046049602611029
 40
2.094438861309777
 40
4.188877722619553
 40
6.283316583929331
 40
6.283316583929331
 40
6.283316583929331
 40
6.283316583929331
 10
4.502941218705544
 20
13.36218565310138
 30
0.0
 10
5.119947677654721
 20
13.82566014044922
 30
0.0
 10
5.634360009680435
 20
14.37679217371705
 30
0.0
 10
5.800078462212795
 20
14.77925127272422
 30
0.0
 10
5.740456337869688
 20
15.2681526923377
 30
0.0
 10
5.645060938920707
 20
15.61396101352773
 30
0.0
  0
POLYLINE
  5
17F
330
1F
100
AcDbEntity
  8
CORTE
100
AcDb2dPolyline
 66
     1
 10
0.0
 20
0.0
 30
0.0
  0
VERTEX
  5
180
330
17F
100
AcDbEntity
  8
CORTE
100
AcDbVertex
100
AcDb2dVertex
 10
4.240600907231212
 20
13.20139655066404
 30
0.0
  0
VERTEX
  5
181
330
17F
100
AcDbEntity
  8
CORTE
100
AcDbVertex
100
AcDb2dVertex
 10
4.416870298765829
 20
13.30486472629131
 30
0.0
  0
SEQEND
  5
182
330
17F
100
AcDbEntity
  8
CORTE
  0
ARC
  5
183
330
1F
100
AcDbEntity
  8
CORTE
100
AcDbCircle
 10
3.778923746902436
 20
13.98791425664652
 30
0.0
 40
0.9120065253018366
100
AcDbArc
 50
279.9341671634594
 51
300.4124608784033
  0
SPLINE
  5
184
330
1F
100
AcDbEntity
  8
CORTE
100
AcDbSpline
210
0.0
220
0.0
230
1.0
 70
     8
 71
     3
 72
    16
 73
    12
 74
     0
 42
0.000000001
 43
0.0000000001
 40
0.0461168595746587
 40
0.0461168595746587
 40
0.0461168595746587
 40
0.0461168595746587
 40
7.527182939937297
 40
15.05436587987459
 40
22.58154881981189
 40
30.10873175974919
 40
37.63591469968648
 40
45.16309763962379
 40
52.69028057956108
 40
60.21746351949837
 40
67.34264528835024
 40
67.34264528835024
 40
67.34264528835024
 40
67.34264528835024
 10
-19.17094096264837
 20
28.43349365815899
 30
0.0
 10
-18.4551207709488
 20
25.97944179761769
 30
0.0
 10
-16.91597049305523
 20
22.27354721847992
 30
0.0
 10
-15.5202829923022
 20
20.24612748054393
 30
0.0
 10
-14.15118235923823
 20
18.62676114036076
 30
0.0
 10
-12.22266426320192
 20
16.88962270270972
 30
0.0
 10
-9.661121143275807
 20
15.47635753309532
 30
0.0
 10
-7.467615827936783
 20
14.49001621680193
 30
0.0
 10
-4.199440123203473
 20
13.56256094924248
 30
0.0
 10
0.4275796942986148
 20
12.91188628740625
 30
0.0
 10
2.935770714865342
 20
12.91435360709205
 30
0.0
 10
3.936259938340598
 20
13.08958178753675
 30
0.0
  0
ARC
  5
185
330
1F
100
AcDbEntity
  8
CORTE
100
AcDbCircle
 10
-18.29541997926798
 20
28.68887359052201
 30
0.0
 40
0.9120065253018367
100
AcDbArc
 50
190.3488762280468
 51
196.2613895490367
  0
POLYLINE
  5
186
330
1F
100
AcDbEntity
  8
CORTE
100
AcDb2dPolyline
 66
     1
 10
0.0
 20
0.0
 30
0.0
  0
VERTEX
  5
187
330
186
100
AcDbEntity
  8
CORTE
100
AcDbVertex
100
AcDb2dVertex
 10
-19.22687591260413
 20
28.71279137172058
 30
0.0
  0
VERTEX
  5
188
330
186
100
AcDbEntity
  8
CORTE
100
AcDbVertex
100
AcDb2dVertex
 10
-19.19259012153378
 20
28.52503941209798
 30
0.0
  0
SEQEND
  5
189
330
186
100
AcDbEntity
  8
CORTE
  0
ARC
  5
18A
330
1F
100
AcDbEntity
  8
CORTE
100
AcDbCircle
 10
-17.73998102923117
 20
60.03006497412572
 30
0.0
 40
0.9120065253018367
100
AcDbArc
 50
105.1732534899117
 51
106.8300398933564
  0
SPLINE
  5
18B
330
1F
100
AcDbEntity
  8
CORTE
100
AcDbSpline
210
0.0
220
0.0
230
1.0
 70
     8
 71
     3
 72
    29
 73
    25
 74
     0
 42
0.000000001
 43
0.0000000001
 40
0.0199194665974291
 40
0.0199194665974291
 40
0.0199194665974291
 40
0.0199194665974291
 40
4.503007163532128
 40
9.006014327064255
 40
13.50902149059638
 40
18.01202865412851
 40
22.51503581766064
 40
27.01804298119276
 40
31.52105014472489
 40
36.02405730825702
 40
40.52706447178915
 40
45.03007163532128
 40
49.5330787988534
 40
54.03608596238553
 40
58.53909312591766
 40
63.04210028944978
 40
67.54510745298191
 40
72.04811461651404
 40
76.55112178004617
 40
81.05412894357829
 40
85.55713610711042
 40
90.06014327064256
 40
94.56315043417467
 40
99.0661575977068
 40
99.0661575977068
 40
99.0661575977068
 40
99.0661575977068
 10
-18.00403763018615
 20
60.90300827909188
 30
0.0
 10
-18.96369081901194
 20
60.6127228072921
 30
0.0
 10
-20.60085867266446
 20
59.92891356076844
 30
0.0
 10
-22.25007534954574
 20
59.2055729130135
 30
0.0
 10
-23.78582202837551
 20
58.3845762608089
 30
0.0
 10
-25.13805180847719
 20
57.53460325617355
 30
0.0
 10
-26.69311605559412
 20
56.28862010165129
 30
0.0
 10
-27.97773434669072
 20
55.01366059469828
 30
0.0
 10
-29.36859926336673
 20
53.27507944885326
 30
0.0
 10
-30.27652497286358
 20
51.41093410914166
 30
0.0
 10
-30.74014661175558
 20
50.34846785334749
 30
0.0
 10
-31.11683919335534
 20
48.54227521849738
 30
0.0
 10
-31.54182569567301
 20
46.34973121790394
 30
0.0
 10
-31.61909596882168
 20
45.23897104139185
 30
0.0
 10
-31.69636624197035
 20
42.49587634461415
 30
0.0
 10
-31.47421420666792
 20
40.33230869645146
 30
0.0
 10
-31.02025135191951
 20
38.80622080176528
 30
0.0
 10
-30.03505536927399
 20
36.52674774387959
 30
0.0
 10
-28.88566005618757
 20
34.69157875659873
 30
0.0
 10
-27.26298432006554
 20
32.72118679130772
 30
0.0
 10
-26.1812004959842
 20
31.80360229766729
 30
0.0
 10
-24.18183217826243
 20
30.67352455286802
 30
0.0
 10
-22.43359224827383
 20
29.79457519580193
 30
0.0
 10
-20.44388271469563
 20
28.92528462287942
 30
0.0
 10
-19.22687591260413
 20
28.71279137172058
 30
0.0
  0
POLYLINE
  5
18C
330
1F
100
AcDbEntity
  8
CORTE
100
AcDb2dPolyline
 66
     1
 10
0.0
 20
0.0
 30
0.0
  0
VERTEX
  5
18D
330
18C
100
AcDbEntity
  8
CORTE
100
AcDbVertex
100
AcDb2dVertex
 10
-17.7468444697593
 20
60.97315224146371
 30
0.0
  0
VERTEX
  5
18E
330
18C
100
AcDbEntity
  8
CORTE
100
AcDbVertex
100
AcDb2dVertex
 10
-17.97868840076454
 20
60.91027784211207
 30
0.0
  0
SEQEND
  5
18F
330
18C
100
AcDbEntity
  8
CORTE
  0
ARC
  5
190
330
1F
100
AcDbEntity
  8
CORTE
100
AcDbCircle
 10
-5.790276801906188
 20
70.53451665144745
 30
0.0
 40
0.9120065253018363
100
AcDbArc
 50
87.34572064101141
 51
98.35281507201555
  0
SPLINE
  5
191
330
1F
100
AcDbEntity
  8
CORTE
100
AcDbSpline
210
0.0
220
0.0
230
1.0
 70
     8
 71
     3
 72
    15
 73
    11
 74
     0
 42
0.000000001
 43
0.0000000001
 40
0.1583912090610437
 40
0.1583912090610437
 40
0.1583912090610437
 40
0.1583912090610437
 40
4.554213570387458
 40
9.108427140774916
 40
13.66264071116237
 40
18.21685428154983
 40
22.77106785193729
 40
27.32528142232475
 40
31.87949499271221
 40
36.43370856309966
 40
36.43370856309966
 40
36.43370856309966
 40
36.43370856309966
 10
-5.92276242241455
 20
71.43684888657575
 30
0.0
 10
-6.733038187376906
 20
71.31787952770233
 30
0.0
 10
-8.11801204349132
 20
70.99831238271122
 30
0.0
 10
-9.367232914431312
 20
70.34614618354009
 30
0.0
 10
-10.93977956084812
 20
69.31342898290816
 30
0.0
 10
-13.70947269774142
 20
67.09682138849561
 30
0.0
 10
-14.63671597552543
 20
66.18889567899876
 30
0.0
 10
-15.93099305076562
 20
64.63383143188183
 30
0.0
 10
-16.75198970297021
 20
63.44580098222107
 30
0.0
 10
-17.23492891014938
 20
62.61514554587289
 30
0.0
 10
-17.7468444697593
 20
60.97315224146371
 30
0.0
  0
POLYLINE
  5
192
330
1F
100
AcDbEntity
  8
CORTE
100
AcDb2dPolyline
 66
     1
 10
0.0
 20
0.0
 30
0.0
  0
VERTEX
  5
193
330
192
100
AcDbEntity
  8
CORTE
100
AcDbVertex
100
AcDb2dVertex
 10
-5.478721598696197
 20
71.43305926344533
 30
0.0
  0
VERTEX
  5
194
330
192
100
AcDbEntity
  8
CORTE
100
AcDbVertex
100
AcDb2dVertex
 10
-5.748042376237933
 20
71.44554472756893
 30
0.0
  0
SEQEND
  5
195
330
192
100
AcDbEntity
  8
CORTE
  0
ARC
  5
196
330
1F
100
AcDbEntity
  8
CORTE
100
AcDbCircle
 10
-3.205757290466252
 20
72.31034540444668
 30
0.0
 40
0.9120065253018365
100
AcDbArc
 50
92.26258670126393
 51
115.2728067700688
  0
ENDSEC
  0
SECTION
  2
OBJECTS
  0
DICTIONARY
  5
C
330
0
100
AcDbDictionary
281
     1
  3
ACAD_DETAILVIEWSTYLE
350
1D2
  3
ACAD_GROUP
350
D
  3
ACAD_LAYOUT
350
1A
  3
ACAD_MATERIAL
350
43
  3
ACAD_MLEADERSTYLE
350
6B
  3
ACAD_MLINESTYLE
350
17
  3
ACAD_PLOTSETTINGS
350
19
  3
ACAD_PLOTSTYLENAME
350
E
  3
ACAD_SCALELIST
350
47
  3
ACAD_SECTIONVIEWSTYLE
350
1D3
  3
ACAD_TABLESTYLE
350
69
  3
ACAD_VISUALSTYLE
350
2A
  3
ACDB_RECOMPOSE_DATA
350
1CF
  3
AcDbVariableDictionary
350
197
  0
SUN
  5
6D
330
29
100
AcDbSun
 90
        1
290
     0
 63
     7
421
 16777215
 40
1.0
291
     1
 91
  2455826
 92
 54000000
292
     0
 70
     2
 71
   256
280
     1
  0
DICTIONARY
  5
1D2
102
{ACAD_REACTORS
330
C
102
}
330
C
100
AcDbDictionary
281
     1
  0
DICTIONARY
  5
D
102
{ACAD_REACTORS
330
C
102
}
330
C
100
AcDbDictionary
281
     1
  0
DICTIONARY
  5
1A
102
{ACAD_REACTORS
330
C
102
}
330
C
100
AcDbDictionary
281
     1
  3
Layout1
350
1E
  3
Layout2
350
26
  3
Model
350
22
  0
DICTIONARY
  5
43
102
{ACAD_REACTORS
330
C
102
}
330
C
100
AcDbDictionary
281
     1
  3
ByBlock
350
45
  3
ByLayer
350
44
  3
Global
350
46
  0
DICTIONARY
  5
6B
102
{ACAD_REACTORS
330
C
102
}
330
C
100
AcDbDictionary
281
     1
  3
Standard
350
6C
  0
DICTIONARY
  5
17
102
{ACAD_REACTORS
330
C
102
}
330
C
100
AcDbDictionary
281
     1
  3
Standard
350
18
  0
DICTIONARY
  5
19
102
{ACAD_REACTORS
330
C
102
}
330
C
100
AcDbDictionary
281
     1
  0
ACDBDICTIONARYWDFLT
  5
E
102
{ACAD_REACTORS
330
C
102
}
330
C
100
AcDbDictionary
281
     1
  3
Normal
350
F
100
AcDbDictionaryWithDefault
340
F
  0
DICTIONARY
  5
47
102
{ACAD_REACTORS
330
C
102
}
330
C
100
AcDbDictionary
281
     1
  3
A0
350
48
  3
A1
350
49
  3
A2
350
4A
  3
A3
350
4B
  3
A4
350
4C
  3
A5
350
4D
  3
A6
350
4E
  3
A7
350
4F
  3
A8
350
50
  3
A9
350
51
  3
B0
350
52
  3
B1
350
53
  3
B2
350
54
  3
B3
350
55
  3
B4
350
56
  3
B5
350
57
  3
B6
350
58
  3
B7
350
59
  3
B8
350
5A
  3
B9
350
5B
  3
C0
350
5C
  3
C1
350
5D
  3
C2
350
5E
  3
C3
350
5F
  3
C4
350
60
  3
C5
350
61
  3
C6
350
62
  3
C7
350
63
  3
C8
350
64
  3
C9
350
65
  3
D0
350
66
  3
D1
350
67
  3
D2
350
68
  0
DICTIONARY
  5
1D3
102
{ACAD_REACTORS
330
C
102
}
330
C
100
AcDbDictionary
281
     1
  0
DICTIONARY
  5
69
102
{ACAD_REACTORS
330
C
102
}
330
C
100
AcDbDictionary
281
     1
  3
Standard
350
6A
  0
DICTIONARY
  5
2A
102
{ACAD_REACTORS
330
C
102
}
330
C
100
AcDbDictionary
281
     1
  3
2dWireframe
350
2F
  3
Basic
350
32
  3
Brighten
350
36
  3
ColorChange
350
3A
  3
Conceptual
350
34
  3
Dim
350
35
  3
EdgeColorOff
350
3D
  3
Facepattern
350
39
  3
Flat
350
2B
  3
FlatWithEdges
350
2C
  3
Gouraud
350
2D
  3
GouraudWithEdges
350
2E
  3
Hidden
350
31
  3
JitterOff
350
3B
  3
Linepattern
350
38
  3
OverhangOff
350
3C
  3
Realistic
350
33
  3
Shaded
350
42
  3
Shaded with edges
350
41
  3
Shades of Gray
350
3E
  3
Sketchy
350
3F
  3
Thicken
350
37
  3
Wireframe
350
30
  3
X-Ray
350
40
  0
XRECORD
  5
1CF
102
{ACAD_REACTORS
330
C
102
}
330
C
100
AcDbXrecord
280
     1
 90
        1
330
6A
  0
DICTIONARY
  5
197
102
{ACAD_REACTORS
330
C
102
}
330
C
100
AcDbDictionary
281
     1
  3
CANNOSCALE
350
198
  3
CMLEADERSTYLE
350
1D1
  3
CTABLESTYLE
350
1D0
  3
XCLIPFRAME
350
199
  0
LAYOUT
  5
1E
102
{ACAD_REACTORS
330
1A
102
}
330
1A
100
AcDbPlotSettings
  1

  2
none_device
  4

  6

 40
0.0
 41
0.0
 42
0.0
 43
0.0
 44
0.0
 45
0.0
 46
0.0
 47
0.0
 48
0.0
 49
0.0
140
0.0
141
0.0
142
1.0
143
1.0
 70
   688
 72
     0
 73
     0
 74
     5
  7

 75
    16
 76
     0
 77
     2
 78
   300
147
1.0
148
0.0
149
0.0
100
AcDbLayout
  1
Layout1
 70
     1
 71
     1
 10
0.0
 20
0.0
 11
12.0
 21
9.0
 12
0.0
 22
0.0
 32
0.0
 14
1.000000000000000E+20
 24
1.000000000000000E+20
 34
1.000000000000000E+20
 15
-1.000000000000000E+20
 25
-1.000000000000000E+20
 35
-1.000000000000000E+20
146
0.0
 13
0.0
 23
0.0
 33
0.0
 16
1.0
 26
0.0
 36
0.0
 17
0.0
 27
1.0
 37
0.0
 76
     0
330
1B
  0
LAYOUT
  5
26
102
{ACAD_REACTORS
330
1A
102
}
330
1A
100
AcDbPlotSettings
  1

  2
none_device
  4

  6

 40
0.0
 41
0.0
 42
0.0
 43
0.0
 44
0.0
 45
0.0
 46
0.0
 47
0.0
 48
0.0
 49
0.0
140
0.0
141
0.0
142
1.0
143
1.0
 70
   688
 72
     0
 73
     0
 74
     5
  7

 75
    16
 76
     0
 77
     2
 78
   300
147
1.0
148
0.0
149
0.0
100
AcDbLayout
  1
Layout2
 70
     1
 71
     2
 10
0.0
 20
0.0
 11
0.0
 21
0.0
 12
0.0
 22
0.0
 32
0.0
 14
0.0
 24
0.0
 34
0.0
 15
0.0
 25
0.0
 35
0.0
146
0.0
 13
0.0
 23
0.0
 33
0.0
 16
1.0
 26
0.0
 36
0.0
 17
0.0
 27
1.0
 37
0.0
 76
     0
330
23
  0
LAYOUT
  5
22
102
{ACAD_REACTORS
330
1A
102
}
330
1A
100
AcDbPlotSettings
  1

  2
none_device
  4
Letter_(8.50_x_11.00_Inches)
  6

 40
6.35
 41
6.35
 42
6.35000508
 43
6.35000508
 44
215.9
 45
279.4
 46
0.0
 47
0.0
 48
0.0
 49
0.0
140
0.0
141
0.0
142
1.0
143
1.0
 70
  1712
 72
     0
 73
     0
 74
     0
  7

 75
     0
 76
     0
 77
     2
 78
   300
147
1.0
148
0.0
149
0.0
100
AcDbLayout
  1
Model
 70
     1
 71
     0
 10
0.0
 20
0.0
 11
12.0
 21
9.0
 12
0.0
 22
0.0
 32
0.0
 14
1.000000000000000E+20
 24
1.000000000000000E+20
 34
1.000000000000000E+20
 15
-1.000000000000000E+20
 25
-1.000000000000000E+20
 35
-1.000000000000000E+20
146
0.0
 13
0.0
 23
0.0
 33
0.0
 16
1.0
 26
0.0
 36
0.0
 17
0.0
 27
1.0
 37
0.0
 76
     0
330
1F
331
29
  0
MATERIAL
  5
45
102
{ACAD_REACTORS
330
43
102
}
330
43
100
AcDbMaterial
  1
ByBlock
 72
     1
 94
      127
  0
MATERIAL
  5
44
102
{ACAD_REACTORS
330
43
102
}
330
43
100
AcDbMaterial
  1
ByLayer
 72
     1
 94
      127
  0
MATERIAL
  5
46
102
{ACAD_REACTORS
330
43
102
}
330
43
100
AcDbMaterial
  1
Global
 72
     1
 94
      127
  0
MLEADERSTYLE
  5
6C
102
{ACAD_REACTORS
330
6B
102
}
102
{ACAD_XDICTIONARY
360
1CD
102
}
330
6B
100
AcDbMLeaderStyle
170
     2
171
     1
172
     0
 90
        2
 40
0.0
 41
0.0
173
     1
 91
-1056964608
340
14
 92
       -2
290
     1
 42
0.09
291
     1
 43
0.36
  3
Standard
341
0
 44
0.18
300

342
11
174
     1
178
     6
175
     1
176
     0
 93
-1056964608
 45
0.18
292
     0
297
     0
 46
0.18
343
0
 94
-1056964608
 47
1.0
 49
1.0
140
1.0
293
     1
141
0.0
294
     1
177
     0
142
1.0
295
     0
296
     0
143
0.125
1001
ACAD_MLEADERVER
1070
     2
  0
MLINESTYLE
  5
18
102
{ACAD_REACTORS
330
17
102
}
330
17
100
AcDbMlineStyle
  2
Standard
 70
     0
  3

 62
   256
 51
90.0
 52
90.0
 71
     2
 49
0.5
 62
   256
  6
BYLAYER
 49
-0.5
 62
   256
  6
BYLAYER
  0
ACDBPLACEHOLDER
  5
F
102
{ACAD_REACTORS
330
E
102
}
330
E
  0
SCALE
  5
48
102
{ACAD_REACTORS
330
47
102
}
330
47
100
AcDbScale
 70
     0
300
1:1
140
1.0
141
1.0
290
     1
  0
SCALE
  5
49
102
{ACAD_REACTORS
330
47
102
}
330
47
100
AcDbScale
 70
     0
300
1:2
140
1.0
141
2.0
290
     0
  0
SCALE
  5
4A
102
{ACAD_REACTORS
330
47
102
}
330
47
100
AcDbScale
 70
     0
300
1:4
140
1.0
141
4.0
290
     0
  0
SCALE
  5
4B
102
{ACAD_REACTORS
330
47
102
}
330
47
100
AcDbScale
 70
     0
300
1:5
140
1.0
141
5.0
290
     0
  0
SCALE
  5
4C
102
{ACAD_REACTORS
330
47
102
}
330
47
100
AcDbScale
 70
     0
300
1:8
140
1.0
141
8.0
290
     0
  0
SCALE
  5
4D
102
{ACAD_REACTORS
330
47
102
}
330
47
100
AcDbScale
 70
     0
300
1:10
140
1.0
141
10.0
290
     0
  0
SCALE
  5
4E
102
{ACAD_REACTORS
330
47
102
}
330
47
100
AcDbScale
 70
     0
300
1:16
140
1.0
141
16.0
290
     0
  0
SCALE
  5
4F
102
{ACAD_REACTORS
330
47
102
}
330
47
100
AcDbScale
 70
     0
300
1:20
140
1.0
141
20.0
290
     0
  0
SCALE
  5
50
102
{ACAD_REACTORS
330
47
102
}
330
47
100
AcDbScale
 70
     0
300
1:30
140
1.0
141
30.0
290
     0
  0
SCALE
  5
51
102
{ACAD_REACTORS
330
47
102
}
330
47
100
AcDbScale
 70
     0
300
1:40
140
1.0
141
40.0
290
     0
  0
SCALE
  5
52
102
{ACAD_REACTORS
330
47
102
}
330
47
100
AcDbScale
 70
     0
300
1:50
140
1.0
141
50.0
290
     0
  0
SCALE
  5
53
102
{ACAD_REACTORS
330
47
102
}
330
47
100
AcDbScale
 70
     0
300
1:100
140
1.0
141
100.0
290
     0
  0
SCALE
  5
54
102
{ACAD_REACTORS
330
47
102
}
330
47
100
AcDbScale
 70
     0
300
2:1
140
2.0
141
1.0
290
     0
  0
SCALE
  5
55
102
{ACAD_REACTORS
330
47
102
}
330
47
100
AcDbScale
 70
     0
300
4:1
140
4.0
141
1.0
290
     0
  0
SCALE
  5
56
102
{ACAD_REACTORS
330
47
102
}
330
47
100
AcDbScale
 70
     0
300
8:1
140
8.0
141
1.0
290
     0
  0
SCALE
  5
57
102
{ACAD_REACTORS
330
47
102
}
330
47
100
AcDbScale
 70
     0
300
10:1
140
10.0
141
1.0
290
     0
  0
SCALE
  5
58
102
{ACAD_REACTORS
330
47
102
}
330
47
100
AcDbScale
 70
     0
300
100:1
140
100.0
141
1.0
290
     0
  0
SCALE
  5
59
102
{ACAD_REACTORS
330
47
102
}
330
47
100
AcDbScale
 70
     0
300
1/128" = 1'-0"
140
0.0078125
141
12.0
290
     0
  0
SCALE
  5
5A
102
{ACAD_REACTORS
330
47
102
}
330
47
100
AcDbScale
 70
     0
300
1/64" = 1'-0"
140
0.015625
141
12.0
290
     0
  0
SCALE
  5
5B
102
{ACAD_REACTORS
330
47
102
}
330
47
100
AcDbScale
 70
     0
300
1/32" = 1'-0"
140
0.03125
141
12.0
290
     0
  0
SCALE
  5
5C
102
{ACAD_REACTORS
330
47
102
}
330
47
100
AcDbScale
 70
     0
300
1/16" = 1'-0"
140
0.0625
141
12.0
290
     0
  0
SCALE
  5
5D
102
{ACAD_REACTORS
330
47
102
}
330
47
100
AcDbScale
 70
     0
300
3/32" = 1'-0"
140
0.09375
141
12.0
290
     0
  0
SCALE
  5
5E
102
{ACAD_REACTORS
330
47
102
}
330
47
100
AcDbScale
 70
     0
300
1/8" = 1'-0"
140
0.125
141
12.0
290
     0
  0
SCALE
  5
5F
102
{ACAD_REACTORS
330
47
102
}
330
47
100
AcDbScale
 70
     0
300
3/16" = 1'-0"
140
0.1875
141
12.0
290
     0
  0
SCALE
  5
60
102
{ACAD_REACTORS
330
47
102
}
330
47
100
AcDbScale
 70
     0
300
1/4" = 1'-0"
140
0.25
141
12.0
290
     0
  0
SCALE
  5
61
102
{ACAD_REACTORS
330
47
102
}
330
47
100
AcDbScale
 70
     0
300
3/8" = 1'-0"
140
0.375
141
12.0
290
     0
  0
SCALE
  5
62
102
{ACAD_REACTORS
330
47
102
}
330
47
100
AcDbScale
 70
     0
300
1/2" = 1'-0"
140
0.5
141
12.0
290
     0
  0
SCALE
  5
63
102
{ACAD_REACTORS
330
47
102
}
330
47
100
AcDbScale
 70
     0
300
3/4" = 1'-0"
140
0.75
141
12.0
290
     0
  0
SCALE
  5
64
102
{ACAD_REACTORS
330
47
102
}
330
47
100
AcDbScale
 70
     0
300
1" = 1'-0"
140
1.0
141
12.0
290
     0
  0
SCALE
  5
65
102
{ACAD_REACTORS
330
47
102
}
330
47
100
AcDbScale
 70
     0
300
1-1/2" = 1'-0"
140
1.5
141
12.0
290
     0
  0
SCALE
  5
66
102
{ACAD_REACTORS
330
47
102
}
330
47
100
AcDbScale
 70
     0
300
3" = 1'-0"
140
3.0
141
12.0
290
     0
  0
SCALE
  5
67
102
{ACAD_REACTORS
330
47
102
}
330
47
100
AcDbScale
 70
     0
300
6" = 1'-0"
140
6.0
141
12.0
290
     0
  0
SCALE
  5
68
102
{ACAD_REACTORS
330
47
102
}
330
47
100
AcDbScale
 70
     0
300
1'-0" = 1'-0"
140
12.0
141
12.0
290
     0
  0
TABLESTYLE
  5
6A
102
{ACAD_REACTORS
330
69
102
}
102
{ACAD_XDICTIONARY
360
1CA
102
}
330
69
100
AcDbTableStyle
  3
Standard
 70
     0
 71
     0
 40
0.06
 41
0.06
280
     0
281
     0
  7
Standard
140
0.18
170
     2
 62
     0
 63
   257
283
     0
 90
        4
 91
        0
  1

274
    -2
284
     1
 64
     0
275
    -2
285
     1
 65
     0
276
    -2
286
     1
 66
     0
277
    -2
287
     1
 67
     0
278
    -2
288
     1
 68
     0
279
    -2
289
     1
 69
     0
  7
Standard
140
0.25
170
     5
 62
     0
 63
   257
283
     0
 90
        4
 91
        0
  1

274
    -2
284
     1
 64
     0
275
    -2
285
     1
 65
     0
276
    -2
286
     1
 66
     0
277
    -2
287
     1
 67
     0
278
    -2
288
     1
 68
     0
279
    -2
289
     1
 69
     0
  7
Standard
140
0.18
170
     5
 62
     0
 63
   257
283
     0
 90
        4
 91
        0
  1

274
    -2
284
     1
 64
     0
275
    -2
285
     1
 65
     0
276
    -2
286
     1
 66
     0
277
    -2
287
     1
 67
     0
278
    -2
288
     1
 68
     0
279
    -2
289
     1
 69
     0
  0
VISUALSTYLE
  5
2F
102
{ACAD_REACTORS
330
2A
102
}
102
{ACAD_XDICTIONARY
360
1A2
102
}
330
2A
100
AcDbVisualStyle
  2
2dWireframe
 70
     4
 71
     0
 72
     2
 73
     0
 90
        0
 40
0.6
 41
30.0
 62
     5
 63
     7
421
 16777215
 74
     1
 91
        4
 64
     7
 65
   257
 75
     1
175
     1
 42
1.0
 92
        0
 66
   257
 43
1.0
 76
     1
 77
     6
 78
     2
 67
     7
 79
     5
170
     0
171
     0
290
     0
174
     0
 93
        1
 44
0.0
173
     0
291
     0
 45
0.0
  0
VISUALSTYLE
  5
32
102
{ACAD_REACTORS
330
2A
102
}
102
{ACAD_XDICTIONARY
360
1A8
102
}
330
2A
100
AcDbVisualStyle
  2
Basic
 70
     7
 71
     1
 72
     0
 73
     1
 90
        0
 40
0.6
 41
30.0
 62
     5
 63
     7
421
 16777215
 74
     0
 91
        4
 64
     7
 65
   257
 75
     1
175
     1
 42
1.0
 92
        8
 66
     7
 43
1.0
 76
     1
 77
     6
 78
     2
 67
     7
 79
     5
170
     0
171
     0
290
     0
174
     0
 93
        1
 44
0.0
173
     0
291
     1
 45
0.0
  0
VISUALSTYLE
  5
36
102
{ACAD_REACTORS
330
2A
102
}
102
{ACAD_XDICTIONARY
360
1B0
102
}
330
2A
100
AcDbVisualStyle
  2
Brighten
 70
    12
 71
     2
 72
     2
 73
     0
 90
        0
 40
0.6
 41
30.0
 62
     5
 63
     7
421
 16777215
 74
     1
 91
        4
 64
     7
 65
   257
 75
     1
175
     1
 42
1.0
 92
        8
 66
     7
 43
1.0
 76
     1
 77
     6
 78
     2
 67
     7
 79
     5
170
     0
171
     0
290
     0
174
     0
 93
        1
 44
50.0
173
     0
291
     1
 45
0.0
  0
VISUALSTYLE
  5
3A
102
{ACAD_REACTORS
330
2A
102
}
102
{ACAD_XDICTIONARY
360
1B8
102
}
330
2A
100
AcDbVisualStyle
  2
ColorChange
 70
    16
 71
     2
 72
     2
 73
     3
 90
        0
 40
0.6
 41
30.0
 62
     5
 63
     8
421
  8421504
 74
     1
 91
        4
 64
     7
 65
   257
 75
     1
175
     1
 42
1.0
 92
        8
 66
     8
424
  8421504
 43
1.0
 76
     1
 77
     6
 78
     2
 67
     7
 79
     5
170
     0
171
     0
290
     0
174
     0
 93
        1
 44
0.0
173
     0
291
     1
 45
0.0
  0
VISUALSTYLE
  5
34
102
{ACAD_REACTORS
330
2A
102
}
102
{ACAD_XDICTIONARY
360
1AC
102
}
330
2A
100
AcDbVisualStyle
  2
Conceptual
 70
     9
 71
     3
 72
     2
 73
     0
 90
        0
 40
0.6
 41
30.0
 62
     5
 63
     7
421
 16777215
 74
     2
 91
        2
 64
     7
 65
   257
 75
     1
175
     1
 42
179.0
 92
        8
 66
     7
 43
1.0
 76
     1
 77
     6
 78
     2
 67
     7
 79
     3
170
     0
171
     0
290
     0
174
     0
 93
        1
 44
0.0
173
     0
291
     0
 45
0.0
  0
VISUALSTYLE
  5
35
102
{ACAD_REACTORS
330
2A
102
}
102
{ACAD_XDICTIONARY
360
1AE
102
}
330
2A
100
AcDbVisualStyle
  2
Dim
 70
    11
 71
     2
 72
     2
 73
     0
 90
        0
 40
0.6
 41
30.0
 62
     5
 63
     7
421
 16777215
 74
     1
 91
        4
 64
     7
 65
   257
 75
     1
175
     1
 42
1.0
 92
        8
 66
     7
 43
1.0
 76
     1
 77
     6
 78
     2
 67
     7
 79
     5
170
     0
171
     0
290
     0
174
     0
 93
        1
 44
-50.0
173
     0
291
     1
 45
0.0
  0
VISUALSTYLE
  5
3D
102
{ACAD_REACTORS
330
2A
102
}
102
{ACAD_XDICTIONARY
360
1BE
102
}
330
2A
100
AcDbVisualStyle
  2
EdgeColorOff
 70
    22
 71
     2
 72
     2
 73
     0
 90
        0
 40
0.6
 41
30.0
 62
     5
 63
     7
421
 16777215
 74
     1
 91
        4
 64
     7
 65
   257
 75
     1
175
     1
 42
1.0
 92
        8
 66
     7
 43
1.0
 76
     1
 77
     6
 78
     2
 67
     7
 79
     5
170
     0
171
     0
290
     0
174
     0
 93
        1
 44
0.0
173
     0
291
     1
 45
0.0
  0
VISUALSTYLE
  5
39
102
{ACAD_REACTORS
330
2A
102
}
102
{ACAD_XDICTIONARY
360
1B6
102
}
330
2A
100
AcDbVisualStyle
  2
Facepattern
 70
    15
 71
     2
 72
     2
 73
     0
 90
        0
 40
0.6
 41
30.0
 62
     5
 63
     7
421
 16777215
 74
     1
 91
        4
 64
     7
 65
   257
 75
     1
175
     1
 42
1.0
 92
        8
 66
     7
 43
1.0
 76
     1
 77
     6
 78
     2
 67
     7
 79
     5
170
     0
171
     0
290
     0
174
     0
 93
        1
 44
0.0
173
     0
291
     1
 45
0.0
  0
VISUALSTYLE
  5
2B
102
{ACAD_REACTORS
330
2A
102
}
102
{ACAD_XDICTIONARY
360
19A
102
}
330
2A
100
AcDbVisualStyle
  2
Flat
 70
     0
 71
     2
 72
     1
 73
     1
 90
        2
 40
0.6
 41
30.0
 62
     5
 63
     7
421
 16777215
 74
     0
 91
        0
 64
     7
 65
   257
 75
     1
175
     1
 42
1.0
 92
        8
 66
     7
 43
1.0
 76
     1
 77
     6
 78
     2
 67
     7
 79
     5
170
     0
171
     0
290
     0
174
     0
 93
       13
 44
0.0
173
     0
291
     1
 45
0.0
  0
VISUALSTYLE
  5
2C
102
{ACAD_REACTORS
330
2A
102
}
102
{ACAD_XDICTIONARY
360
19C
102
}
330
2A
100
AcDbVisualStyle
  2
FlatWithEdges
 70
     1
 71
     2
 72
     1
 73
     1
 90
        2
 40
0.6
 41
30.0
 62
     5
 63
     7
421
 16777215
 74
     1
 91
        0
 64
     7
 65
   257
 75
     1
175
     1
 42
1.0
 92
        0
 66
   257
 43
1.0
 76
     1
 77
     6
 78
     2
 67
     7
 79
     5
170
     0
171
     0
290
     0
174
     0
 93
       13
 44
0.0
173
     0
291
     1
 45
0.0
  0
VISUALSTYLE
  5
2D
102
{ACAD_REACTORS
330
2A
102
}
102
{ACAD_XDICTIONARY
360
19E
102
}
330
2A
100
AcDbVisualStyle
  2
Gouraud
 70
     2
 71
     2
 72
     2
 73
     1
 90
        2
 40
0.6
 41
30.0
 62
     5
 63
     7
421
 16777215
 74
     0
 91
        0
 64
     7
 65
   257
 75
     1
175
     1
 42
1.0
 92
        0
 66
     7
 43
1.0
 76
     1
 77
     6
 78
     2
 67
     7
 79
     5
170
     0
171
     0
290
     0
174
     0
 93
       13
 44
0.0
173
     0
291
     1
 45
0.0
  0
VISUALSTYLE
  5
2E
102
{ACAD_REACTORS
330
2A
102
}
102
{ACAD_XDICTIONARY
360
1A0
102
}
330
2A
100
AcDbVisualStyle
  2
GouraudWithEdges
 70
     3
 71
     2
 72
     2
 73
     1
 90
        2
 40
0.6
 41
30.0
 62
     5
 63
     7
421
 16777215
 74
     1
 91
        0
 64
     7
 65
   257
 75
     1
175
     1
 42
1.0
 92
        0
 66
   257
 43
1.0
 76
     1
 77
     6
 78
     2
 67
     7
 79
     5
170
     0
171
     0
290
     0
174
     0
 93
       13
 44
0.0
173
     0
291
     1
 45
0.0
  0
VISUALSTYLE
  5
31
102
{ACAD_REACTORS
330
2A
102
}
102
{ACAD_XDICTIONARY
360
1A6
102
}
330
2A
100
AcDbVisualStyle
  2
Hidden
 70
     6
 71
     1
 72
     2
 73
     2
 90
        0
 40
0.6
 41
30.0
 62
     5
 63
     7
421
 16777215
 74
     2
 91
        2
 64
     7
 65
   257
 75
     2
175
     1
 42
40.0
 92
        0
 66
   257
 43
1.0
 76
     1
 77
     6
 78
     2
 67
     7
 79
     3
170
     0
171
     0
290
     0
174
     0
 93
        1
 44
0.0
173
     0
291
     0
 45
0.0
  0
VISUALSTYLE
  5
3B
102
{ACAD_REACTORS
330
2A
102
}
102
{ACAD_XDICTIONARY
360
1BA
102
}
330
2A
100
AcDbVisualStyle
  2
JitterOff
 70
    20
 71
     2
 72
     2
 73
     0
 90
        0
 40
0.6
 41
30.0
 62
     5
 63
     7
421
 16777215
 74
     1
 91
        4
 64
     7
 65
   257
 75
     1
175
     1
 42
1.0
 92
       10
 66
     7
 43
1.0
 76
     1
 77
     6
 78
     2
 67
     7
 79
     5
170
     0
171
     0
290
     0
174
     0
 93
        1
 44
0.0
173
     0
291
     1
 45
0.0
  0
VISUALSTYLE
  5
38
102
{ACAD_REACTORS
330
2A
102
}
102
{ACAD_XDICTIONARY
360
1B4
102
}
330
2A
100
AcDbVisualStyle
  2
Linepattern
 70
    14
 71
     2
 72
     2
 73
     0
 90
        0
 40
0.6
 41
30.0
 62
     5
 63
     7
421
 16777215
 74
     1
 91
        4
 64
     7
 65
   257
 75
     7
175
     7
 42
1.0
 92
        8
 66
     7
 43
1.0
 76
     1
 77
     6
 78
     2
 67
     7
 79
     5
170
     0
171
     0
290
     0
174
     0
 93
        1
 44
0.0
173
     0
291
     1
 45
0.0
  0
VISUALSTYLE
  5
3C
102
{ACAD_REACTORS
330
2A
102
}
102
{ACAD_XDICTIONARY
360
1BC
102
}
330
2A
100
AcDbVisualStyle
  2
OverhangOff
 70
    21
 71
     2
 72
     2
 73
     0
 90
        0
 40
0.6
 41
30.0
 62
     5
 63
     7
421
 16777215
 74
     1
 91
        4
 64
     7
 65
   257
 75
     1
175
     1
 42
1.0
 92
        9
 66
     7
 43
1.0
 76
     1
 77
     6
 78
     2
 67
     7
 79
     5
170
     0
171
     0
290
     0
174
     0
 93
        1
 44
0.0
173
     0
291
     1
 45
0.0
  0
VISUALSTYLE
  5
33
102
{ACAD_REACTORS
330
2A
102
}
102
{ACAD_XDICTIONARY
360
1AA
102
}
330
2A
100
AcDbVisualStyle
  2
Realistic
 70
     8
 71
     2
 72
     3
 73
     0
 90
        2
 40
0.6
 41
30.0
 62
     5
 63
     7
421
 16777215
 74
     0
 91
        0
 64
     7
 65
   257
 75
     1
175
     1
 42
1.0
 92
        8
 66
   257
 43
1.0
 76
     1
 77
     6
 78
     2
 67
     7
 79
     3
170
     0
171
     0
290
     0
174
     0
 93
       13
 44
0.0
173
     0
291
     0
 45
0.0
  0
VISUALSTYLE
  5
42
102
{ACAD_REACTORS
330
2A
102
}
102
{ACAD_XDICTIONARY
360
1C8
102
}
330
2A
100
AcDbVisualStyle
  2
Shaded
 70
    27
 71
     2
 72
     2
 73
     1
 90
        2
 40
0.6
 41
30.0
 62
     5
 63
     7
421
 16777215
 74
     0
 91
        4
 64
     7
 65
   257
 75
     1
175
     1
 42
1.0
 92
        8
 66
   257
 43
1.0
 76
     1
 77
     6
 78
     2
 67
     8
425
  7895160
 79
     3
170
     0
171
     0
290
     0
174
     0
 93
        5
 44
0.0
173
     0
291
     0
 45
0.0
  0
VISUALSTYLE
  5
41
102
{ACAD_REACTORS
330
2A
102
}
102
{ACAD_XDICTIONARY
360
1C6
102
}
330
2A
100
AcDbVisualStyle
  2
Shaded with edges
 70
    26
 71
     2
 72
     2
 73
     1
 90
        2
 40
0.6
 41
30.0
 62
     5
 63
     7
421
 16777215
 74
     1
 91
       10
 64
     7
 65
   257
 75
     2
175
     1
 42
1.0
 92
        8
 66
   257
 43
1.0
 76
     1
 77
     6
 78
     2
 67
     7
 79
     3
170
     0
171
     0
290
     0
174
     0
 93
        5
 44
0.0
173
     0
291
     0
 45
0.0
  0
VISUALSTYLE
  5
3E
102
{ACAD_REACTORS
330
2A
102
}
102
{ACAD_XDICTIONARY
360
1C0
102
}
330
2A
100
AcDbVisualStyle
  2
Shades of Gray
 70
    23
 71
     2
 72
     2
 73
     3
 90
        0
 40
0.6
 41
30.0
 62
     5
 63
     7
421
 16777215
 74
     2
 91
        2
 64
     7
 65
     7
 75
     1
175
     1
 42
40.0
 92
        8
 66
     7
 43
1.0
 76
     1
 77
     6
 78
     2
 67
     7
 79
     3
170
     0
171
     0
290
     0
174
     0
 93
        1
 44
0.0
173
     0
291
     0
 45
0.0
  0
VISUALSTYLE
  5
3F
102
{ACAD_REACTORS
330
2A
102
}
102
{ACAD_XDICTIONARY
360
1C2
102
}
330
2A
100
AcDbVisualStyle
  2
Sketchy
 70
    24
 71
     1
 72
     2
 73
     2
 90
        0
 40
0.6
 41
30.0
 62
     5
 63
     7
421
 16777215
 74
     2
 91
        2
 64
     7
 65
     7
 75
     1
175
     1
 42
40.0
 92
       11
 66
     7
 43
1.0
 76
     1
 77
     6
 78
     2
 67
     7
 79
     6
170
     0
171
     0
290
     0
174
     0
 93
        1
 44
0.0
173
     0
291
     0
 45
0.0
  0
VISUALSTYLE
  5
37
102
{ACAD_REACTORS
330
2A
102
}
102
{ACAD_XDICTIONARY
360
1B2
102
}
330
2A
100
AcDbVisualStyle
  2
Thicken
 70
    13
 71
     2
 72
     2
 73
     0
 90
        0
 40
0.6
 41
30.0
 62
     5
 63
     7
421
 16777215
 74
     1
 91
        4
 64
     7
 65
   257
 75
     1
175
     1
 42
1.0
 92
       12
 66
     7
 43
1.0
 76
     1
 77
     6
 78
     2
 67
     7
 79
     5
170
     0
171
     0
290
     0
174
     0
 93
        1
 44
0.0
173
     0
291
     1
 45
0.0
  0
VISUALSTYLE
  5
30
102
{ACAD_REACTORS
330
2A
102
}
102
{ACAD_XDICTIONARY
360
1A4
102
}
330
2A
100
AcDbVisualStyle
  2
Wireframe
 70
     5
 71
     0
 72
     2
 73
     0
 90
        0
 40
0.6
 41
30.0
 62
     5
 63
     7
421
 16777215
 74
     1
 91
        4
 64
     7
 65
   257
 75
     1
175
     1
 42
1.0
 92
        0
 66
   257
 43
1.0
 76
     1
 77
     6
 78
     2
 67
     7
 79
     3
170
     0
171
     0
290
     0
174
     0
 93
        1
 44
0.0
173
     0
291
     0
 45
0.0
  0
VISUALSTYLE
  5
40
102
{ACAD_REACTORS
330
2A
102
}
102
{ACAD_XDICTIONARY
360
1C4
102
}
330
2A
100
AcDbVisualStyle
  2
X-Ray
 70
    25
 71
     2
 72
     2
 73
     1
 90
        1
 40
0.5
 41
30.0
 62
     5
 63
     7
421
 16777215
 74
     1
 91
        0
 64
     7
 65
   257
 75
     1
175
     1
 42
1.0
 92
        8
 66
     7
 43
1.0
 76
     1
 77
     6
 78
     2
 67
     7
 79
     3
170
     0
171
     0
290
     0
174
     0
 93
       13
 44
0.0
173
     0
291
     0
 45
0.0
  0
DICTIONARYVAR
  5
198
102
{ACAD_REACTORS
330
197
102
}
330
197
100
DictionaryVariables
280
     0
  1
1:1
  0
DICTIONARYVAR
  5
1D1
102
{ACAD_REACTORS
330
197
102
}
330
197
100
DictionaryVariables
280
     0
  1
Standard
  0
DICTIONARYVAR
  5
1D0
102
{ACAD_REACTORS
330
197
102
}
330
197
100
DictionaryVariables
280
     0
  1
Standard
  0
DICTIONARYVAR
  5
199
102
{ACAD_REACTORS
330
197
102
}
330
197
100
DictionaryVariables
280
     0
  1
2
  0
DICTIONARY
  5
1CD
330
6C
100
AcDbDictionary
280
     1
281
     1
  3
ACAD_XREC_ROUNDTRIP
360
1CE
  0
DICTIONARY
  5
1CA
330
6A
100
AcDbDictionary
280
     1
281
     1
  3
ACAD_ROUNDTRIP_2008_TABLESTYLE_CELLSTYLEMAP
360
1CB
  0
DICTIONARY
  5
1A2
330
2F
100
AcDbDictionary
280
     1
281
     1
  3
ACAD_XREC_ROUNDTRIP
360
1A3
  0
DICTIONARY
  5
1A8
330
32
100
AcDbDictionary
280
     1
281
     1
  3
ACAD_XREC_ROUNDTRIP
360
1A9
  0
DICTIONARY
  5
1B0
330
36
100
AcDbDictionary
280
     1
281
     1
  3
ACAD_XREC_ROUNDTRIP
360
1B1
  0
DICTIONARY
  5
1B8
330
3A
100
AcDbDictionary
280
     1
281
     1
  3
ACAD_XREC_ROUNDTRIP
360
1B9
  0
DICTIONARY
  5
1AC
330
34
100
AcDbDictionary
280
     1
281
     1
  3
ACAD_XREC_ROUNDTRIP
360
1AD
  0
DICTIONARY
  5
1AE
330
35
100
AcDbDictionary
280
     1
281
     1
  3
ACAD_XREC_ROUNDTRIP
360
1AF
  0
DICTIONARY
  5
1BE
330
3D
100
AcDbDictionary
280
     1
281
     1
  3
ACAD_XREC_ROUNDTRIP
360
1BF
  0
DICTIONARY
  5
1B6
330
39
100
AcDbDictionary
280
     1
281
     1
  3
ACAD_XREC_ROUNDTRIP
360
1B7
  0
DICTIONARY
  5
19A
330
2B
100
AcDbDictionary
280
     1
281
     1
  3
ACAD_XREC_ROUNDTRIP
360
19B
  0
DICTIONARY
  5
19C
330
2C
100
AcDbDictionary
280
     1
281
     1
  3
ACAD_XREC_ROUNDTRIP
360
19D
  0
DICTIONARY
  5
19E
330
2D
100
AcDbDictionary
280
     1
281
     1
  3
ACAD_XREC_ROUNDTRIP
360
19F
  0
DICTIONARY
  5
1A0
330
2E
100
AcDbDictionary
280
     1
281
     1
  3
ACAD_XREC_ROUNDTRIP
360
1A1
  0
DICTIONARY
  5
1A6
330
31
100
AcDbDictionary
280
     1
281
     1
  3
ACAD_XREC_ROUNDTRIP
360
1A7
  0
DICTIONARY
  5
1BA
330
3B
100
AcDbDictionary
280
     1
281
     1
  3
ACAD_XREC_ROUNDTRIP
360
1BB
  0
DICTIONARY
  5
1B4
330
38
100
AcDbDictionary
280
     1
281
     1
  3
ACAD_XREC_ROUNDTRIP
360
1B5
  0
DICTIONARY
  5
1BC
330
3C
100
AcDbDictionary
280
     1
281
     1
  3
ACAD_XREC_ROUNDTRIP
360
1BD
  0
DICTIONARY
  5
1AA
330
33
100
AcDbDictionary
280
     1
281
     1
  3
ACAD_XREC_ROUNDTRIP
360
1AB
  0
DICTIONARY
  5
1C8
330
42
100
AcDbDictionary
280
     1
281
     1
  3
ACAD_XREC_ROUNDTRIP
360
1C9
  0
DICTIONARY
  5
1C6
330
41
100
AcDbDictionary
280
     1
281
     1
  3
ACAD_XREC_ROUNDTRIP
360
1C7
  0
DICTIONARY
  5
1C0
330
3E
100
AcDbDictionary
280
     1
281
     1
  3
ACAD_XREC_ROUNDTRIP
360
1C1
  0
DICTIONARY
  5
1C2
330
3F
100
AcDbDictionary
280
     1
281
     1
  3
ACAD_XREC_ROUNDTRIP
360
1C3
  0
DICTIONARY
  5
1B2
330
37
100
AcDbDictionary
280
     1
281
     1
  3
ACAD_XREC_ROUNDTRIP
360
1B3
  0
DICTIONARY
  5
1A4
330
30
100
AcDbDictionary
280
     1
281
     1
  3
ACAD_XREC_ROUNDTRIP
360
1A5
  0
DICTIONARY
  5
1C4
330
40
100
AcDbDictionary
280
     1
281
     1
  3
ACAD_XREC_ROUNDTRIP
360
1C5
  0
XRECORD
  5
1CE
102
{ACAD_REACTORS
330
1CD
102
}
330
1CD
100
AcDbXrecord
280
     1
102
ACAD_ROUNDTRIP_2010_MLEADER_STYLE
  0
CELLSTYLEMAP
  5
1CB
102
{ACAD_REACTORS
330
1CA
102
}
330
1CA
100
AcDbCellStyleMap
 90
        3
300
CELLSTYLE
  1
TABLEFORMAT_BEGIN
 90
        5
170
     1
 91
        0
 92
    32768
 62
   257
 93
        1
300
CONTENTFORMAT
  1
CONTENTFORMAT_BEGIN
 90
        0
 91
        0
 92
        4
 93
        0
300

 40
0.0
140
1.0
 94
        5
 62
     0
340
11
144
0.25
309
CONTENTFORMAT_END
171
     1
301
MARGIN
  1
CELLMARGIN_BEGIN
 40
0.06
 40
0.06
 40
0.06
 40
0.06
 40
0.06
 40
0.06
309
CELLMARGIN_END
 94
        6
 95
        1
302
GRIDFORMAT
  1
GRIDFORMAT_BEGIN
 90
        0
 91
        1
 62
     0
 92
       -2
340
14
 93
        0
 40
0.045
309
GRIDFORMAT_END
 95
        2
302
GRIDFORMAT
  1
GRIDFORMAT_BEGIN
 90
        0
 91
        1
 62
     0
 92
       -2
340
14
 93
        0
 40
0.045
309
GRIDFORMAT_END
 95
        4
302
GRIDFORMAT
  1
GRIDFORMAT_BEGIN
 90
        0
 91
        1
 62
     0
 92
       -2
340
14
 93
        0
 40
0.045
309
GRIDFORMAT_END
 95
        8
302
GRIDFORMAT
  1
GRIDFORMAT_BEGIN
 90
        0
 91
        1
 62
     0
 92
       -2
340
14
 93
        0
 40
0.045
309
GRIDFORMAT_END
 95
       16
302
GRIDFORMAT
  1
GRIDFORMAT_BEGIN
 90
        0
 91
        1
 62
     0
 92
       -2
340
14
 93
        0
 40
0.045
309
GRIDFORMAT_END
 95
       32
302
GRIDFORMAT
  1
GRIDFORMAT_BEGIN
 90
        0
 91
        1
 62
     0
 92
       -2
340
14
 93
        0
 40
0.045
309
GRIDFORMAT_END
309
TABLEFORMAT_END
  1
CELLSTYLE_BEGIN
 90
        1
 91
        1
300
_TITLE
309
CELLSTYLE_END
300
CELLSTYLE
  1
TABLEFORMAT_BEGIN
 90
        5
170
     1
 91
        0
 92
        0
 62
   257
 93
        1
300
CONTENTFORMAT
  1
CONTENTFORMAT_BEGIN
 90
        0
 91
        0
 92
        4
 93
        0
300

 40
0.0
140
1.0
 94
        5
 62
     0
340
11
144
0.18
309
CONTENTFORMAT_END
171
     1
301
MARGIN
  1
CELLMARGIN_BEGIN
 40
0.06
 40
0.06
 40
0.06
 40
0.06
 40
0.06
 40
0.06
309
CELLMARGIN_END
 94
        6
 95
        1
302
GRIDFORMAT
  1
GRIDFORMAT_BEGIN
 90
        0
 91
        1
 62
     0
 92
       -2
340
14
 93
        0
 40
0.045
309
GRIDFORMAT_END
 95
        2
302
GRIDFORMAT
  1
GRIDFORMAT_BEGIN
 90
        0
 91
        1
 62
     0
 92
       -2
340
14
 93
        0
 40
0.045
309
GRIDFORMAT_END
 95
        4
302
GRIDFORMAT
  1
GRIDFORMAT_BEGIN
 90
        0
 91
        1
 62
     0
 92
       -2
340
14
 93
        0
 40
0.045
309
GRIDFORMAT_END
 95
        8
302
GRIDFORMAT
  1
GRIDFORMAT_BEGIN
 90
        0
 91
        1
 62
     0
 92
       -2
340
14
 93
        0
 40
0.045
309
GRIDFORMAT_END
 95
       16
302
GRIDFORMAT
  1
GRIDFORMAT_BEGIN
 90
        0
 91
        1
 62
     0
 92
       -2
340
14
 93
        0
 40
0.045
309
GRIDFORMAT_END
 95
       32
302
GRIDFORMAT
  1
GRIDFORMAT_BEGIN
 90
        0
 91
        1
 62
     0
 92
       -2
340
14
 93
        0
 40
0.045
309
GRIDFORMAT_END
309
TABLEFORMAT_END
  1
CELLSTYLE_BEGIN
 90
        2
 91
        1
300
_HEADER
309
CELLSTYLE_END
300
CELLSTYLE
  1
TABLEFORMAT_BEGIN
 90
        5
170
     1
 91
        0
 92
        0
 62
   257
 93
        1
300
CONTENTFORMAT
  1
CONTENTFORMAT_BEGIN
 90
        0
 91
        0
 92
        4
 93
        0
300

 40
0.0
140
1.0
 94
        2
 62
     0
340
11
144
0.18
309
CONTENTFORMAT_END
171
     1
301
MARGIN
  1
CELLMARGIN_BEGIN
 40
0.06
 40
0.06
 40
0.06
 40
0.06
 40
0.06
 40
0.06
309
CELLMARGIN_END
 94
        6
 95
        1
302
GRIDFORMAT
  1
GRIDFORMAT_BEGIN
 90
        0
 91
        1
 62
     0
 92
       -2
340
14
 93
        0
 40
0.045
309
GRIDFORMAT_END
 95
        2
302
GRIDFORMAT
  1
GRIDFORMAT_BEGIN
 90
        0
 91
        1
 62
     0
 92
       -2
340
14
 93
        0
 40
0.045
309
GRIDFORMAT_END
 95
        4
302
GRIDFORMAT
  1
GRIDFORMAT_BEGIN
 90
        0
 91
        1
 62
     0
 92
       -2
340
14
 93
        0
 40
0.045
309
GRIDFORMAT_END
 95
        8
302
GRIDFORMAT
  1
GRIDFORMAT_BEGIN
 90
        0
 91
        1
 62
     0
 92
       -2
340
14
 93
        0
 40
0.045
309
GRIDFORMAT_END
 95
       16
302
GRIDFORMAT
  1
GRIDFORMAT_BEGIN
 90
        0
 91
        1
 62
     0
 92
       -2
340
14
 93
        0
 40
0.045
309
GRIDFORMAT_END
 95
       32
302
GRIDFORMAT
  1
GRIDFORMAT_BEGIN
 90
        0
 91
        1
 62
     0
 92
       -2
340
14
 93
        0
 40
0.045
309
GRIDFORMAT_END
309
TABLEFORMAT_END
  1
CELLSTYLE_BEGIN
 90
        3
 91
        2
300
_DATA
309
CELLSTYLE_END
  0
XRECORD
  5
1A3
102
{ACAD_REACTORS
330
1A2
102
}
330
1A2
100
AcDbXrecord
280
     1
102
RTVSPropertyOp0
 70
     1
102
RTVSPropertyOp1
 70
     1
102
RTVSPropertyOp2
 70
     1
102
RTVSPropertyOp3
 70
     1
102
RTVSPropertyOp4
 70
     1
102
RTVSPropertyOp5
 70
     1
102
RTVSPropertyOp6
 70
     1
102
RTVSPropertyOp7
 70
     1
102
RTVSPropertyOp8
 70
     1
102
RTVSPropertyOp9
 70
     1
102
RTVSPropertyOp10
 70
     1
102
RTVSPropertyOp11
 70
     1
102
RTVSPropertyOp12
 70
     1
102
RTVSPropertyOp13
 70
     1
102
RTVSPropertyOp14
 70
     1
102
RTVSPropertyOp15
 70
     1
102
RTVSPropertyOp16
 70
     1
102
RTVSPropertyOp17
 70
     1
102
RTVSPropertyOp18
 70
     1
102
RTVSPropertyOp19
 70
     1
102
RTVSPropertyOp20
 70
     1
102
RTVSPropertyOp21
 70
     1
102
RTVSPropertyOp22
 70
     1
102
RTVSPropertyOp23
 70
     1
102
RTVSPropertyOp24
 70
     1
102
RTVSPropertyOp25
 70
     1
102
RTVSPropertyOp26
 70
     1
102
RTVSPropertyOp27
 70
     1
102
RTVSPropertyOp28
 70
     1
102
RTVSPropertyOp29
 70
     1
102
RTVSPropertyOp30
 70
     1
102
RTVSPropertyOp31
 70
     1
102
RTVSPropertyOp32
 70
     1
102
RTVSPropertyOp33
 70
     1
102
RTVSPropertyOp34
 70
     1
102
RTVSPropertyOp35
 70
     1
102
RTVSPropertyOp36
 70
     1
102
RTVSPropertyOp37
 70
     1
102
RTVSPropertyOp38
 70
     1
102
RTVSPropertyOp39
 70
     1
102
RTVSPropertyOp40
 70
     1
102
RTVSPropertyOp41
 70
     1
102
RTVSPropertyOp42
 70
     1
102
RTVSPropertyOp43
 70
     1
102
RTVSPropertyOp44
 70
     1
102
RTVSPropertyOp45
 70
     1
102
RTVSPropertyOp46
 70
     1
102
RTVSPropertyOp47
 70
     1
102
RTVSPropertyOp48
 70
     1
102
RTVSPropertyOp49
 70
     1
102
RTVSPropertyOp50
 70
     1
102
RTVSPropertyOp51
 70
     0
102
RTVSPropertyOp52
 70
     0
102
RTVSPropertyOp53
 70
     1
102
RTVSPropertyOp54
 70
     1
102
RTVSPropertyOp55
 70
     1
102
RTVSPropertyOp56
 70
     1
102
RTVSPropertyOp57
 70
     1
102
RTVSPost2010Prop28
280
     1
102
RTVSPost2010PropOp28
 70
     1
102
RTVSPost2010Prop29
280
     1
102
RTVSPost2010PropOp29
 70
     1
102
RTVSPost2010Prop30
280
     0
102
RTVSPost2010PropOp30
 70
     1
102
RTVSPost2010Prop31
280
     0
102
RTVSPost2010PropOp31
 70
     1
102
RTVSPost2010Prop32
280
     0
102
RTVSPost2010PropOp32
 70
     1
102
RTVSPost2010Prop33
280
     0
102
RTVSPost2010PropOp33
 70
     1
102
RTVSPost2010Prop34
280
     0
102
RTVSPost2010PropOp34
 70
     1
102
RTVSPost2010Prop35
280
     0
102
RTVSPost2010PropOp35
 70
     1
102
RTVSPost2010Prop36
280
     0
102
RTVSPost2010PropOp36
 70
     1
102
RTVSPost2010Prop37
 90
       50
102
RTVSPost2010PropOp37
 70
     1
102
RTVSPost2010Prop38
140
0.0
102
RTVSPost2010PropOp38
 70
     1
102
RTVSPost2010Prop39
140
1.0
102
RTVSPost2010PropOp39
 70
     1
102
RTVSPost2010Prop40
 90
        0
102
RTVSPost2010PropOp40
 70
     1
102
RTVSPost2010Prop41ColorIndex
 90
       18
102
RTVSPost2010Prop41ColorRGB
 90
        0
102
RTVSPost2010PropOp41
 70
     1
102
RTVSPost2010Prop42
 90
       50
102
RTVSPost2010PropOp42
 70
     1
102
RTVSPost2010Prop43
 90
        3
102
RTVSPost2010PropOp43
 70
     1
102
RTVSPost2010Prop44ColorIndex
 90
        5
102
RTVSPost2010Prop44ColorRGB
 90
      255
102
RTVSPost2010PropOp44
 70
     1
102
RTVSPost2010Prop45
280
     0
102
RTVSPost2010PropOp45
 70
     1
102
RTVSPost2010Prop46
 90
       50
102
RTVSPost2010PropOp46
 70
     1
102
RTVSPost2010Prop47
 90
       50
102
RTVSPost2010PropOp47
 70
     1
102
RTVSPost2010Prop48
 90
       50
102
RTVSPost2010PropOp48
 70
     1
102
RTVSPost2010Prop49
280
     0
102
RTVSPost2010PropOp49
 70
     1
102
RTVSPost2010Prop50
 90
       50
102
RTVSPost2010PropOp50
 70
     1
102
RTVSPost2010Prop51ColorIndex
 90
      256
102
RTVSPost2010Prop51ColorRGB
 90
-16777216
102
RTVSPost2010PropOp51
 70
     0
102
RTVSPost2010Prop52
140
1.0
102
RTVSPost2010PropOp52
 70
     0
102
RTVSPost2010Prop53
 90
        2
102
RTVSPost2010PropOp53
 70
     1
102
RTVSPost2010Prop54
  1
strokes_ogs.tif
102
RTVSPost2010PropOp54
 70
     1
102
RTVSPost2010Prop55
280
     0
102
RTVSPost2010PropOp55
 70
     1
102
RTVSPost2010Prop56
140
1.0
102
RTVSPost2010PropOp56
 70
     1
102
RTVSPost2010Prop57
140
1.0
102
RTVSPost2010PropOp57
 70
     1
  0
XRECORD
  5
1A9
102
{ACAD_REACTORS
330
1A8
102
}
330
1A8
100
AcDbXrecord
280
     1
102
RTVSPropertyOp0
 70
     1
102
RTVSPropertyOp1
 70
     1
102
RTVSPropertyOp2
 70
     1
102
RTVSPropertyOp3
 70
     1
102
RTVSPropertyOp4
 70
     1
102
RTVSPropertyOp5
 70
     1
102
RTVSPropertyOp6
 70
     1
102
RTVSPropertyOp7
 70
     1
102
RTVSPropertyOp8
 70
     1
102
RTVSPropertyOp9
 70
     1
102
RTVSPropertyOp10
 70
     1
102
RTVSPropertyOp11
 70
     1
102
RTVSPropertyOp12
 70
     1
102
RTVSPropertyOp13
 70
     1
102
RTVSPropertyOp14
 70
     1
102
RTVSPropertyOp15
 70
     1
102
RTVSPropertyOp16
 70
     1
102
RTVSPropertyOp17
 70
     1
102
RTVSPropertyOp18
 70
     1
102
RTVSPropertyOp19
 70
     1
102
RTVSPropertyOp20
 70
     1
102
RTVSPropertyOp21
 70
     1
102
RTVSPropertyOp22
 70
     1
102
RTVSPropertyOp23
 70
     1
102
RTVSPropertyOp24
 70
     1
102
RTVSPropertyOp25
 70
     1
102
RTVSPropertyOp26
 70
     1
102
RTVSPropertyOp27
 70
     1
102
RTVSPropertyOp28
 70
     1
102
RTVSPropertyOp29
 70
     1
102
RTVSPropertyOp30
 70
     1
102
RTVSPropertyOp31
 70
     1
102
RTVSPropertyOp32
 70
     1
102
RTVSPropertyOp33
 70
     1
102
RTVSPropertyOp34
 70
     1
102
RTVSPropertyOp35
 70
     1
102
RTVSPropertyOp36
 70
     1
102
RTVSPropertyOp37
 70
     1
102
RTVSPropertyOp38
 70
     1
102
RTVSPropertyOp39
 70
     1
102
RTVSPropertyOp40
 70
     1
102
RTVSPropertyOp41
 70
     1
102
RTVSPropertyOp42
 70
     1
102
RTVSPropertyOp43
 70
     1
102
RTVSPropertyOp44
 70
     1
102
RTVSPropertyOp45
 70
     1
102
RTVSPropertyOp46
 70
     1
102
RTVSPropertyOp47
 70
     1
102
RTVSPropertyOp48
 70
     1
102
RTVSPropertyOp49
 70
     1
102
RTVSPropertyOp50
 70
     1
102
RTVSPropertyOp51
 70
     0
102
RTVSPropertyOp52
 70
     0
102
RTVSPropertyOp53
 70
     1
102
RTVSPropertyOp54
 70
     1
102
RTVSPropertyOp55
 70
     1
102
RTVSPropertyOp56
 70
     1
102
RTVSPropertyOp57
 70
     1
102
RTVSPost2010Prop28
280
     0
102
RTVSPost2010PropOp28
 70
     1
102
RTVSPost2010Prop29
280
     1
102
RTVSPost2010PropOp29
 70
     1
102
RTVSPost2010Prop30
280
     1
102
RTVSPost2010PropOp30
 70
     1
102
RTVSPost2010Prop31
280
     0
102
RTVSPost2010PropOp31
 70
     1
102
RTVSPost2010Prop32
280
     0
102
RTVSPost2010PropOp32
 70
     1
102
RTVSPost2010Prop33
280
     0
102
RTVSPost2010PropOp33
 70
     1
102
RTVSPost2010Prop34
280
     0
102
RTVSPost2010PropOp34
 70
     1
102
RTVSPost2010Prop35
280
     0
102
RTVSPost2010PropOp35
 70
     1
102
RTVSPost2010Prop36
280
     0
102
RTVSPost2010PropOp36
 70
     1
102
RTVSPost2010Prop37
 90
       50
102
RTVSPost2010PropOp37
 70
     1
102
RTVSPost2010Prop38
140
0.0
102
RTVSPost2010PropOp38
 70
     1
102
RTVSPost2010Prop39
140
1.0
102
RTVSPost2010PropOp39
 70
     1
102
RTVSPost2010Prop40
 90
        0
102
RTVSPost2010PropOp40
 70
     1
102
RTVSPost2010Prop41ColorIndex
 90
       18
102
RTVSPost2010Prop41ColorRGB
 90
        0
102
RTVSPost2010PropOp41
 70
     1
102
RTVSPost2010Prop42
 90
       50
102
RTVSPost2010PropOp42
 70
     1
102
RTVSPost2010Prop43
 90
        3
102
RTVSPost2010PropOp43
 70
     1
102
RTVSPost2010Prop44ColorIndex
 90
        5
102
RTVSPost2010Prop44ColorRGB
 90
      255
102
RTVSPost2010PropOp44
 70
     1
102
RTVSPost2010Prop45
280
     0
102
RTVSPost2010PropOp45
 70
     1
102
RTVSPost2010Prop46
 90
       50
102
RTVSPost2010PropOp46
 70
     1
102
RTVSPost2010Prop47
 90
       50
102
RTVSPost2010PropOp47
 70
     1
102
RTVSPost2010Prop48
 90
       50
102
RTVSPost2010PropOp48
 70
     1
102
RTVSPost2010Prop49
280
     0
102
RTVSPost2010PropOp49
 70
     1
102
RTVSPost2010Prop50
 90
       50
102
RTVSPost2010PropOp50
 70
     1
102
RTVSPost2010Prop51ColorIndex
 90
      256
102
RTVSPost2010Prop51ColorRGB
 90
-16777216
102
RTVSPost2010PropOp51
 70
     0
102
RTVSPost2010Prop52
140
1.0
102
RTVSPost2010PropOp52
 70
     0
102
RTVSPost2010Prop53
 90
        2
102
RTVSPost2010PropOp53
 70
     1
102
RTVSPost2010Prop54
  1
strokes_ogs.tif
102
RTVSPost2010PropOp54
 70
     1
102
RTVSPost2010Prop55
280
     0
102
RTVSPost2010PropOp55
 70
     1
102
RTVSPost2010Prop56
140
1.0
102
RTVSPost2010PropOp56
 70
     1
102
RTVSPost2010Prop57
140
1.0
102
RTVSPost2010PropOp57
 70
     1
  0
XRECORD
  5
1B1
102
{ACAD_REACTORS
330
1B0
102
}
330
1B0
100
AcDbXrecord
280
     1
102
RTVSPropertyOp0
 70
     1
102
RTVSPropertyOp1
 70
     1
102
RTVSPropertyOp2
 70
     1
102
RTVSPropertyOp3
 70
     1
102
RTVSPropertyOp4
 70
     1
102
RTVSPropertyOp5
 70
     1
102
RTVSPropertyOp6
 70
     1
102
RTVSPropertyOp7
 70
     1
102
RTVSPropertyOp8
 70
     1
102
RTVSPropertyOp9
 70
     1
102
RTVSPropertyOp10
 70
     1
102
RTVSPropertyOp11
 70
     1
102
RTVSPropertyOp12
 70
     1
102
RTVSPropertyOp13
 70
     1
102
RTVSPropertyOp14
 70
     1
102
RTVSPropertyOp15
 70
     1
102
RTVSPropertyOp16
 70
     1
102
RTVSPropertyOp17
 70
     1
102
RTVSPropertyOp18
 70
     1
102
RTVSPropertyOp19
 70
     1
102
RTVSPropertyOp20
 70
     1
102
RTVSPropertyOp21
 70
     1
102
RTVSPropertyOp22
 70
     1
102
RTVSPropertyOp23
 70
     1
102
RTVSPropertyOp24
 70
     1
102
RTVSPropertyOp25
 70
     1
102
RTVSPropertyOp26
 70
     1
102
RTVSPropertyOp27
 70
     1
102
RTVSPropertyOp28
 70
     1
102
RTVSPropertyOp29
 70
     1
102
RTVSPropertyOp30
 70
     1
102
RTVSPropertyOp31
 70
     1
102
RTVSPropertyOp32
 70
     1
102
RTVSPropertyOp33
 70
     1
102
RTVSPropertyOp34
 70
     1
102
RTVSPropertyOp35
 70
     1
102
RTVSPropertyOp36
 70
     1
102
RTVSPropertyOp37
 70
     1
102
RTVSPropertyOp38
 70
     1
102
RTVSPropertyOp39
 70
     1
102
RTVSPropertyOp40
 70
     1
102
RTVSPropertyOp41
 70
     1
102
RTVSPropertyOp42
 70
     1
102
RTVSPropertyOp43
 70
     1
102
RTVSPropertyOp44
 70
     1
102
RTVSPropertyOp45
 70
     1
102
RTVSPropertyOp46
 70
     1
102
RTVSPropertyOp47
 70
     1
102
RTVSPropertyOp48
 70
     1
102
RTVSPropertyOp49
 70
     1
102
RTVSPropertyOp50
 70
     1
102
RTVSPropertyOp51
 70
     0
102
RTVSPropertyOp52
 70
     0
102
RTVSPropertyOp53
 70
     1
102
RTVSPropertyOp54
 70
     1
102
RTVSPropertyOp55
 70
     1
102
RTVSPropertyOp56
 70
     1
102
RTVSPropertyOp57
 70
     1
102
RTVSPost2010Prop28
280
     0
102
RTVSPost2010PropOp28
 70
     1
102
RTVSPost2010Prop29
280
     1
102
RTVSPost2010PropOp29
 70
     1
102
RTVSPost2010Prop30
280
     1
102
RTVSPost2010PropOp30
 70
     1
102
RTVSPost2010Prop31
280
     0
102
RTVSPost2010PropOp31
 70
     1
102
RTVSPost2010Prop32
280
     0
102
RTVSPost2010PropOp32
 70
     1
102
RTVSPost2010Prop33
280
     0
102
RTVSPost2010PropOp33
 70
     1
102
RTVSPost2010Prop34
280
     0
102
RTVSPost2010PropOp34
 70
     1
102
RTVSPost2010Prop35
280
     0
102
RTVSPost2010PropOp35
 70
     1
102
RTVSPost2010Prop36
280
     0
102
RTVSPost2010PropOp36
 70
     1
102
RTVSPost2010Prop37
 90
       50
102
RTVSPost2010PropOp37
 70
     1
102
RTVSPost2010Prop38
140
0.0
102
RTVSPost2010PropOp38
 70
     1
102
RTVSPost2010Prop39
140
1.0
102
RTVSPost2010PropOp39
 70
     1
102
RTVSPost2010Prop40
 90
        0
102
RTVSPost2010PropOp40
 70
     1
102
RTVSPost2010Prop41ColorIndex
 90
       18
102
RTVSPost2010Prop41ColorRGB
 90
        0
102
RTVSPost2010PropOp41
 70
     1
102
RTVSPost2010Prop42
 90
       50
102
RTVSPost2010PropOp42
 70
     1
102
RTVSPost2010Prop43
 90
        3
102
RTVSPost2010PropOp43
 70
     1
102
RTVSPost2010Prop44ColorIndex
 90
        5
102
RTVSPost2010Prop44ColorRGB
 90
      255
102
RTVSPost2010PropOp44
 70
     1
102
RTVSPost2010Prop45
280
     0
102
RTVSPost2010PropOp45
 70
     1
102
RTVSPost2010Prop46
 90
       50
102
RTVSPost2010PropOp46
 70
     1
102
RTVSPost2010Prop47
 90
       50
102
RTVSPost2010PropOp47
 70
     1
102
RTVSPost2010Prop48
 90
       50
102
RTVSPost2010PropOp48
 70
     1
102
RTVSPost2010Prop49
280
     0
102
RTVSPost2010PropOp49
 70
     1
102
RTVSPost2010Prop50
 90
       50
102
RTVSPost2010PropOp50
 70
     1
102
RTVSPost2010Prop51ColorIndex
 90
      256
102
RTVSPost2010Prop51ColorRGB
 90
-16777216
102
RTVSPost2010PropOp51
 70
     0
102
RTVSPost2010Prop52
140
1.0
102
RTVSPost2010PropOp52
 70
     0
102
RTVSPost2010Prop53
 90
        2
102
RTVSPost2010PropOp53
 70
     1
102
RTVSPost2010Prop54
  1
strokes_ogs.tif
102
RTVSPost2010PropOp54
 70
     1
102
RTVSPost2010Prop55
280
     0
102
RTVSPost2010PropOp55
 70
     1
102
RTVSPost2010Prop56
140
1.0
102
RTVSPost2010PropOp56
 70
     1
102
RTVSPost2010Prop57
140
1.0
102
RTVSPost2010PropOp57
 70
     1
  0
XRECORD
  5
1B9
102
{ACAD_REACTORS
330
1B8
102
}
330
1B8
100
AcDbXrecord
280
     1
102
RTVSPropertyOp0
 70
     1
102
RTVSPropertyOp1
 70
     1
102
RTVSPropertyOp2
 70
     1
102
RTVSPropertyOp3
 70
     1
102
RTVSPropertyOp4
 70
     1
102
RTVSPropertyOp5
 70
     1
102
RTVSPropertyOp6
 70
     1
102
RTVSPropertyOp7
 70
     1
102
RTVSPropertyOp8
 70
     1
102
RTVSPropertyOp9
 70
     1
102
RTVSPropertyOp10
 70
     1
102
RTVSPropertyOp11
 70
     1
102
RTVSPropertyOp12
 70
     1
102
RTVSPropertyOp13
 70
     1
102
RTVSPropertyOp14
 70
     1
102
RTVSPropertyOp15
 70
     1
102
RTVSPropertyOp16
 70
     1
102
RTVSPropertyOp17
 70
     1
102
RTVSPropertyOp18
 70
     1
102
RTVSPropertyOp19
 70
     1
102
RTVSPropertyOp20
 70
     1
102
RTVSPropertyOp21
 70
     1
102
RTVSPropertyOp22
 70
     1
102
RTVSPropertyOp23
 70
     1
102
RTVSPropertyOp24
 70
     1
102
RTVSPropertyOp25
 70
     1
102
RTVSPropertyOp26
 70
     1
102
RTVSPropertyOp27
 70
     1
102
RTVSPropertyOp28
 70
     1
102
RTVSPropertyOp29
 70
     1
102
RTVSPropertyOp30
 70
     1
102
RTVSPropertyOp31
 70
     1
102
RTVSPropertyOp32
 70
     1
102
RTVSPropertyOp33
 70
     1
102
RTVSPropertyOp34
 70
     1
102
RTVSPropertyOp35
 70
     1
102
RTVSPropertyOp36
 70
     1
102
RTVSPropertyOp37
 70
     1
102
RTVSPropertyOp38
 70
     1
102
RTVSPropertyOp39
 70
     1
102
RTVSPropertyOp40
 70
     1
102
RTVSPropertyOp41
 70
     1
102
RTVSPropertyOp42
 70
     1
102
RTVSPropertyOp43
 70
     1
102
RTVSPropertyOp44
 70
     1
102
RTVSPropertyOp45
 70
     1
102
RTVSPropertyOp46
 70
     1
102
RTVSPropertyOp47
 70
     1
102
RTVSPropertyOp48
 70
     1
102
RTVSPropertyOp49
 70
     1
102
RTVSPropertyOp50
 70
     1
102
RTVSPropertyOp51
 70
     0
102
RTVSPropertyOp52
 70
     0
102
RTVSPropertyOp53
 70
     1
102
RTVSPropertyOp54
 70
     1
102
RTVSPropertyOp55
 70
     1
102
RTVSPropertyOp56
 70
     1
102
RTVSPropertyOp57
 70
     1
102
RTVSPost2010Prop28
280
     0
102
RTVSPost2010PropOp28
 70
     1
102
RTVSPost2010Prop29
280
     1
102
RTVSPost2010PropOp29
 70
     1
102
RTVSPost2010Prop30
280
     1
102
RTVSPost2010PropOp30
 70
     1
102
RTVSPost2010Prop31
280
     0
102
RTVSPost2010PropOp31
 70
     1
102
RTVSPost2010Prop32
280
     0
102
RTVSPost2010PropOp32
 70
     1
102
RTVSPost2010Prop33
280
     0
102
RTVSPost2010PropOp33
 70
     1
102
RTVSPost2010Prop34
280
     0
102
RTVSPost2010PropOp34
 70
     1
102
RTVSPost2010Prop35
280
     0
102
RTVSPost2010PropOp35
 70
     1
102
RTVSPost2010Prop36
280
     0
102
RTVSPost2010PropOp36
 70
     1
102
RTVSPost2010Prop37
 90
       50
102
RTVSPost2010PropOp37
 70
     1
102
RTVSPost2010Prop38
140
0.0
102
RTVSPost2010PropOp38
 70
     1
102
RTVSPost2010Prop39
140
1.0
102
RTVSPost2010PropOp39
 70
     1
102
RTVSPost2010Prop40
 90
        0
102
RTVSPost2010PropOp40
 70
     1
102
RTVSPost2010Prop41ColorIndex
 90
       18
102
RTVSPost2010Prop41ColorRGB
 90
        0
102
RTVSPost2010PropOp41
 70
     1
102
RTVSPost2010Prop42
 90
       50
102
RTVSPost2010PropOp42
 70
     1
102
RTVSPost2010Prop43
 90
        3
102
RTVSPost2010PropOp43
 70
     1
102
RTVSPost2010Prop44ColorIndex
 90
        5
102
RTVSPost2010Prop44ColorRGB
 90
      255
102
RTVSPost2010PropOp44
 70
     1
102
RTVSPost2010Prop45
280
     0
102
RTVSPost2010PropOp45
 70
     1
102
RTVSPost2010Prop46
 90
       50
102
RTVSPost2010PropOp46
 70
     1
102
RTVSPost2010Prop47
 90
       50
102
RTVSPost2010PropOp47
 70
     1
102
RTVSPost2010Prop48
 90
       50
102
RTVSPost2010PropOp48
 70
     1
102
RTVSPost2010Prop49
280
     0
102
RTVSPost2010PropOp49
 70
     1
102
RTVSPost2010Prop50
 90
       50
102
RTVSPost2010PropOp50
 70
     1
102
RTVSPost2010Prop51ColorIndex
 90
      256
102
RTVSPost2010Prop51ColorRGB
 90
-16777216
102
RTVSPost2010PropOp51
 70
     0
102
RTVSPost2010Prop52
140
1.0
102
RTVSPost2010PropOp52
 70
     0
102
RTVSPost2010Prop53
 90
        2
102
RTVSPost2010PropOp53
 70
     1
102
RTVSPost2010Prop54
  1
strokes_ogs.tif
102
RTVSPost2010PropOp54
 70
     1
102
RTVSPost2010Prop55
280
     0
102
RTVSPost2010PropOp55
 70
     1
102
RTVSPost2010Prop56
140
1.0
102
RTVSPost2010PropOp56
 70
     1
102
RTVSPost2010Prop57
140
1.0
102
RTVSPost2010PropOp57
 70
     1
  0
XRECORD
  5
1AD
102
{ACAD_REACTORS
330
1AC
102
}
330
1AC
100
AcDbXrecord
280
     1
102
RTVSPropertyOp0
 70
     1
102
RTVSPropertyOp1
 70
     1
102
RTVSPropertyOp2
 70
     1
102
RTVSPropertyOp3
 70
     1
102
RTVSPropertyOp4
 70
     1
102
RTVSPropertyOp5
 70
     1
102
RTVSPropertyOp6
 70
     1
102
RTVSPropertyOp7
 70
     1
102
RTVSPropertyOp8
 70
     1
102
RTVSPropertyOp9
 70
     1
102
RTVSPropertyOp10
 70
     1
102
RTVSPropertyOp11
 70
     1
102
RTVSPropertyOp12
 70
     1
102
RTVSPropertyOp13
 70
     1
102
RTVSPropertyOp14
 70
     1
102
RTVSPropertyOp15
 70
     1
102
RTVSPropertyOp16
 70
     1
102
RTVSPropertyOp17
 70
     1
102
RTVSPropertyOp18
 70
     1
102
RTVSPropertyOp19
 70
     1
102
RTVSPropertyOp20
 70
     1
102
RTVSPropertyOp21
 70
     1
102
RTVSPropertyOp22
 70
     1
102
RTVSPropertyOp23
 70
     1
102
RTVSPropertyOp24
 70
     1
102
RTVSPropertyOp25
 70
     1
102
RTVSPropertyOp26
 70
     1
102
RTVSPropertyOp27
 70
     1
102
RTVSPropertyOp28
 70
     1
102
RTVSPropertyOp29
 70
     1
102
RTVSPropertyOp30
 70
     1
102
RTVSPropertyOp31
 70
     1
102
RTVSPropertyOp32
 70
     1
102
RTVSPropertyOp33
 70
     1
102
RTVSPropertyOp34
 70
     1
102
RTVSPropertyOp35
 70
     1
102
RTVSPropertyOp36
 70
     1
102
RTVSPropertyOp37
 70
     1
102
RTVSPropertyOp38
 70
     1
102
RTVSPropertyOp39
 70
     1
102
RTVSPropertyOp40
 70
     1
102
RTVSPropertyOp41
 70
     1
102
RTVSPropertyOp42
 70
     1
102
RTVSPropertyOp43
 70
     1
102
RTVSPropertyOp44
 70
     1
102
RTVSPropertyOp45
 70
     1
102
RTVSPropertyOp46
 70
     1
102
RTVSPropertyOp47
 70
     1
102
RTVSPropertyOp48
 70
     1
102
RTVSPropertyOp49
 70
     1
102
RTVSPropertyOp50
 70
     1
102
RTVSPropertyOp51
 70
     0
102
RTVSPropertyOp52
 70
     0
102
RTVSPropertyOp53
 70
     1
102
RTVSPropertyOp54
 70
     1
102
RTVSPropertyOp55
 70
     1
102
RTVSPropertyOp56
 70
     1
102
RTVSPropertyOp57
 70
     1
102
RTVSPost2010Prop28
280
     0
102
RTVSPost2010PropOp28
 70
     1
102
RTVSPost2010Prop29
280
     1
102
RTVSPost2010PropOp29
 70
     1
102
RTVSPost2010Prop30
280
     1
102
RTVSPost2010PropOp30
 70
     1
102
RTVSPost2010Prop31
280
     0
102
RTVSPost2010PropOp31
 70
     1
102
RTVSPost2010Prop32
280
     0
102
RTVSPost2010PropOp32
 70
     1
102
RTVSPost2010Prop33
280
     0
102
RTVSPost2010PropOp33
 70
     1
102
RTVSPost2010Prop34
280
     0
102
RTVSPost2010PropOp34
 70
     1
102
RTVSPost2010Prop35
280
     0
102
RTVSPost2010PropOp35
 70
     1
102
RTVSPost2010Prop36
280
     0
102
RTVSPost2010PropOp36
 70
     1
102
RTVSPost2010Prop37
 90
       50
102
RTVSPost2010PropOp37
 70
     1
102
RTVSPost2010Prop38
140
0.0
102
RTVSPost2010PropOp38
 70
     1
102
RTVSPost2010Prop39
140
1.0
102
RTVSPost2010PropOp39
 70
     1
102
RTVSPost2010Prop40
 90
        0
102
RTVSPost2010PropOp40
 70
     1
102
RTVSPost2010Prop41ColorIndex
 90
       18
102
RTVSPost2010Prop41ColorRGB
 90
        0
102
RTVSPost2010PropOp41
 70
     1
102
RTVSPost2010Prop42
 90
       50
102
RTVSPost2010PropOp42
 70
     1
102
RTVSPost2010Prop43
 90
        3
102
RTVSPost2010PropOp43
 70
     1
102
RTVSPost2010Prop44ColorIndex
 90
        5
102
RTVSPost2010Prop44ColorRGB
 90
      255
102
RTVSPost2010PropOp44
 70
     1
102
RTVSPost2010Prop45
280
     0
102
RTVSPost2010PropOp45
 70
     1
102
RTVSPost2010Prop46
 90
       50
102
RTVSPost2010PropOp46
 70
     1
102
RTVSPost2010Prop47
 90
       50
102
RTVSPost2010PropOp47
 70
     1
102
RTVSPost2010Prop48
 90
       50
102
RTVSPost2010PropOp48
 70
     1
102
RTVSPost2010Prop49
280
     0
102
RTVSPost2010PropOp49
 70
     1
102
RTVSPost2010Prop50
 90
       50
102
RTVSPost2010PropOp50
 70
     1
102
RTVSPost2010Prop51ColorIndex
 90
      256
102
RTVSPost2010Prop51ColorRGB
 90
-16777216
102
RTVSPost2010PropOp51
 70
     0
102
RTVSPost2010Prop52
140
1.0
102
RTVSPost2010PropOp52
 70
     0
102
RTVSPost2010Prop53
 90
        2
102
RTVSPost2010PropOp53
 70
     1
102
RTVSPost2010Prop54
  1
strokes_ogs.tif
102
RTVSPost2010PropOp54
 70
     1
102
RTVSPost2010Prop55
280
     0
102
RTVSPost2010PropOp55
 70
     1
102
RTVSPost2010Prop56
140
1.0
102
RTVSPost2010PropOp56
 70
     1
102
RTVSPost2010Prop57
140
1.0
102
RTVSPost2010PropOp57
 70
     1
  0
XRECORD
  5
1AF
102
{ACAD_REACTORS
330
1AE
102
}
330
1AE
100
AcDbXrecord
280
     1
102
RTVSPropertyOp0
 70
     1
102
RTVSPropertyOp1
 70
     1
102
RTVSPropertyOp2
 70
     1
102
RTVSPropertyOp3
 70
     1
102
RTVSPropertyOp4
 70
     1
102
RTVSPropertyOp5
 70
     1
102
RTVSPropertyOp6
 70
     1
102
RTVSPropertyOp7
 70
     1
102
RTVSPropertyOp8
 70
     1
102
RTVSPropertyOp9
 70
     1
102
RTVSPropertyOp10
 70
     1
102
RTVSPropertyOp11
 70
     1
102
RTVSPropertyOp12
 70
     1
102
RTVSPropertyOp13
 70
     1
102
RTVSPropertyOp14
 70
     1
102
RTVSPropertyOp15
 70
     1
102
RTVSPropertyOp16
 70
     1
102
RTVSPropertyOp17
 70
     1
102
RTVSPropertyOp18
 70
     1
102
RTVSPropertyOp19
 70
     1
102
RTVSPropertyOp20
 70
     1
102
RTVSPropertyOp21
 70
     1
102
RTVSPropertyOp22
 70
     1
102
RTVSPropertyOp23
 70
     1
102
RTVSPropertyOp24
 70
     1
102
RTVSPropertyOp25
 70
     1
102
RTVSPropertyOp26
 70
     1
102
RTVSPropertyOp27
 70
     1
102
RTVSPropertyOp28
 70
     1
102
RTVSPropertyOp29
 70
     1
102
RTVSPropertyOp30
 70
     1
102
RTVSPropertyOp31
 70
     1
102
RTVSPropertyOp32
 70
     1
102
RTVSPropertyOp33
 70
     1
102
RTVSPropertyOp34
 70
     1
102
RTVSPropertyOp35
 70
     1
102
RTVSPropertyOp36
 70
     1
102
RTVSPropertyOp37
 70
     1
102
RTVSPropertyOp38
 70
     1
102
RTVSPropertyOp39
 70
     1
102
RTVSPropertyOp40
 70
     1
102
RTVSPropertyOp41
 70
     1
102
RTVSPropertyOp42
 70
     1
102
RTVSPropertyOp43
 70
     1
102
RTVSPropertyOp44
 70
     1
102
RTVSPropertyOp45
 70
     1
102
RTVSPropertyOp46
 70
     1
102
RTVSPropertyOp47
 70
     1
102
RTVSPropertyOp48
 70
     1
102
RTVSPropertyOp49
 70
     1
102
RTVSPropertyOp50
 70
     1
102
RTVSPropertyOp51
 70
     0
102
RTVSPropertyOp52
 70
     0
102
RTVSPropertyOp53
 70
     1
102
RTVSPropertyOp54
 70
     1
102
RTVSPropertyOp55
 70
     1
102
RTVSPropertyOp56
 70
     1
102
RTVSPropertyOp57
 70
     1
102
RTVSPost2010Prop28
280
     0
102
RTVSPost2010PropOp28
 70
     1
102
RTVSPost2010Prop29
280
     1
102
RTVSPost2010PropOp29
 70
     1
102
RTVSPost2010Prop30
280
     1
102
RTVSPost2010PropOp30
 70
     1
102
RTVSPost2010Prop31
280
     0
102
RTVSPost2010PropOp31
 70
     1
102
RTVSPost2010Prop32
280
     0
102
RTVSPost2010PropOp32
 70
     1
102
RTVSPost2010Prop33
280
     0
102
RTVSPost2010PropOp33
 70
     1
102
RTVSPost2010Prop34
280
     0
102
RTVSPost2010PropOp34
 70
     1
102
RTVSPost2010Prop35
280
     0
102
RTVSPost2010PropOp35
 70
     1
102
RTVSPost2010Prop36
280
     0
102
RTVSPost2010PropOp36
 70
     1
102
RTVSPost2010Prop37
 90
       50
102
RTVSPost2010PropOp37
 70
     1
102
RTVSPost2010Prop38
140
0.0
102
RTVSPost2010PropOp38
 70
     1
102
RTVSPost2010Prop39
140
1.0
102
RTVSPost2010PropOp39
 70
     1
102
RTVSPost2010Prop40
 90
        0
102
RTVSPost2010PropOp40
 70
     1
102
RTVSPost2010Prop41ColorIndex
 90
       18
102
RTVSPost2010Prop41ColorRGB
 90
        0
102
RTVSPost2010PropOp41
 70
     1
102
RTVSPost2010Prop42
 90
       50
102
RTVSPost2010PropOp42
 70
     1
102
RTVSPost2010Prop43
 90
        3
102
RTVSPost2010PropOp43
 70
     1
102
RTVSPost2010Prop44ColorIndex
 90
        5
102
RTVSPost2010Prop44ColorRGB
 90
      255
102
RTVSPost2010PropOp44
 70
     1
102
RTVSPost2010Prop45
280
     0
102
RTVSPost2010PropOp45
 70
     1
102
RTVSPost2010Prop46
 90
       50
102
RTVSPost2010PropOp46
 70
     1
102
RTVSPost2010Prop47
 90
       50
102
RTVSPost2010PropOp47
 70
     1
102
RTVSPost2010Prop48
 90
       50
102
RTVSPost2010PropOp48
 70
     1
102
RTVSPost2010Prop49
280
     0
102
RTVSPost2010PropOp49
 70
     1
102
RTVSPost2010Prop50
 90
       50
102
RTVSPost2010PropOp50
 70
     1
102
RTVSPost2010Prop51ColorIndex
 90
      256
102
RTVSPost2010Prop51ColorRGB
 90
-16777216
102
RTVSPost2010PropOp51
 70
     0
102
RTVSPost2010Prop52
140
1.0
102
RTVSPost2010PropOp52
 70
     0
102
RTVSPost2010Prop53
 90
        2
102
RTVSPost2010PropOp53
 70
     1
102
RTVSPost2010Prop54
  1
strokes_ogs.tif
102
RTVSPost2010PropOp54
 70
     1
102
RTVSPost2010Prop55
280
     0
102
RTVSPost2010PropOp55
 70
     1
102
RTVSPost2010Prop56
140
1.0
102
RTVSPost2010PropOp56
 70
     1
102
RTVSPost2010Prop57
140
1.0
102
RTVSPost2010PropOp57
 70
     1
  0
XRECORD
  5
1BF
102
{ACAD_REACTORS
330
1BE
102
}
330
1BE
100
AcDbXrecord
280
     1
102
RTVSPropertyOp0
 70
     0
102
RTVSPropertyOp1
 70
     0
102
RTVSPropertyOp2
 70
     0
102
RTVSPropertyOp3
 70
     0
102
RTVSPropertyOp4
 70
     0
102
RTVSPropertyOp5
 70
     0
102
RTVSPropertyOp6
 70
     0
102
RTVSPropertyOp7
 70
     0
102
RTVSPropertyOp8
 70
     0
102
RTVSPropertyOp9
 70
     0
102
RTVSPropertyOp10
 70
     0
102
RTVSPropertyOp11
 70
     0
102
RTVSPropertyOp12
 70
     0
102
RTVSPropertyOp13
 70
     0
102
RTVSPropertyOp14
 70
     2
102
RTVSPropertyOp15
 70
     0
102
RTVSPropertyOp16
 70
     0
102
RTVSPropertyOp17
 70
     0
102
RTVSPropertyOp18
 70
     0
102
RTVSPropertyOp19
 70
     0
102
RTVSPropertyOp20
 70
     0
102
RTVSPropertyOp21
 70
     0
102
RTVSPropertyOp22
 70
     0
102
RTVSPropertyOp23
 70
     0
102
RTVSPropertyOp24
 70
     0
102
RTVSPropertyOp25
 70
     0
102
RTVSPropertyOp26
 70
     0
102
RTVSPropertyOp27
 70
     0
102
RTVSPropertyOp28
 70
     0
102
RTVSPropertyOp29
 70
     0
102
RTVSPropertyOp30
 70
     0
102
RTVSPropertyOp31
 70
     0
102
RTVSPropertyOp32
 70
     0
102
RTVSPropertyOp33
 70
     0
102
RTVSPropertyOp34
 70
     0
102
RTVSPropertyOp35
 70
     0
102
RTVSPropertyOp36
 70
     0
102
RTVSPropertyOp37
 70
     0
102
RTVSPropertyOp38
 70
     0
102
RTVSPropertyOp39
 70
     0
102
RTVSPropertyOp40
 70
     0
102
RTVSPropertyOp41
 70
     0
102
RTVSPropertyOp42
 70
     0
102
RTVSPropertyOp43
 70
     0
102
RTVSPropertyOp44
 70
     0
102
RTVSPropertyOp45
 70
     0
102
RTVSPropertyOp46
 70
     0
102
RTVSPropertyOp47
 70
     0
102
RTVSPropertyOp48
 70
     0
102
RTVSPropertyOp49
 70
     0
102
RTVSPropertyOp50
 70
     0
102
RTVSPropertyOp51
 70
     0
102
RTVSPropertyOp52
 70
     0
102
RTVSPropertyOp53
 70
     0
102
RTVSPropertyOp54
 70
     0
102
RTVSPropertyOp55
 70
     0
102
RTVSPropertyOp56
 70
     0
102
RTVSPropertyOp57
 70
     0
102
RTVSPost2010Prop28
280
     0
102
RTVSPost2010PropOp28
 70
     0
102
RTVSPost2010Prop29
280
     1
102
RTVSPost2010PropOp29
 70
     0
102
RTVSPost2010Prop30
280
     1
102
RTVSPost2010PropOp30
 70
     0
102
RTVSPost2010Prop31
280
     0
102
RTVSPost2010PropOp31
 70
     0
102
RTVSPost2010Prop32
280
     0
102
RTVSPost2010PropOp32
 70
     0
102
RTVSPost2010Prop33
280
     0
102
RTVSPost2010PropOp33
 70
     0
102
RTVSPost2010Prop34
280
     0
102
RTVSPost2010PropOp34
 70
     0
102
RTVSPost2010Prop35
280
     0
102
RTVSPost2010PropOp35
 70
     0
102
RTVSPost2010Prop36
280
     0
102
RTVSPost2010PropOp36
 70
     0
102
RTVSPost2010Prop37
 90
       50
102
RTVSPost2010PropOp37
 70
     0
102
RTVSPost2010Prop38
140
0.0
102
RTVSPost2010PropOp38
 70
     0
102
RTVSPost2010Prop39
140
1.0
102
RTVSPost2010PropOp39
 70
     0
102
RTVSPost2010Prop40
 90
        0
102
RTVSPost2010PropOp40
 70
     0
102
RTVSPost2010Prop41ColorIndex
 90
       18
102
RTVSPost2010Prop41ColorRGB
 90
        0
102
RTVSPost2010PropOp41
 70
     0
102
RTVSPost2010Prop42
 90
       50
102
RTVSPost2010PropOp42
 70
     0
102
RTVSPost2010Prop43
 90
        3
102
RTVSPost2010PropOp43
 70
     0
102
RTVSPost2010Prop44ColorIndex
 90
        5
102
RTVSPost2010Prop44ColorRGB
 90
      255
102
RTVSPost2010PropOp44
 70
     0
102
RTVSPost2010Prop45
280
     0
102
RTVSPost2010PropOp45
 70
     0
102
RTVSPost2010Prop46
 90
       50
102
RTVSPost2010PropOp46
 70
     0
102
RTVSPost2010Prop47
 90
       50
102
RTVSPost2010PropOp47
 70
     0
102
RTVSPost2010Prop48
 90
       50
102
RTVSPost2010PropOp48
 70
     0
102
RTVSPost2010Prop49
280
     0
102
RTVSPost2010PropOp49
 70
     0
102
RTVSPost2010Prop50
 90
       50
102
RTVSPost2010PropOp50
 70
     0
102
RTVSPost2010Prop51ColorIndex
 90
      256
102
RTVSPost2010Prop51ColorRGB
 90
-16777216
102
RTVSPost2010PropOp51
 70
     0
102
RTVSPost2010Prop52
140
1.0
102
RTVSPost2010PropOp52
 70
     0
102
RTVSPost2010Prop53
 90
        2
102
RTVSPost2010PropOp53
 70
     0
102
RTVSPost2010Prop54
  1
strokes_ogs.tif
102
RTVSPost2010PropOp54
 70
     0
102
RTVSPost2010Prop55
280
     0
102
RTVSPost2010PropOp55
 70
     0
102
RTVSPost2010Prop56
140
1.0
102
RTVSPost2010PropOp56
 70
     0
102
RTVSPost2010Prop57
140
1.0
102
RTVSPost2010PropOp57
 70
     0
  0
XRECORD
  5
1B7
102
{ACAD_REACTORS
330
1B6
102
}
330
1B6
100
AcDbXrecord
280
     1
102
RTVSPropertyOp0
 70
     1
102
RTVSPropertyOp1
 70
     1
102
RTVSPropertyOp2
 70
     1
102
RTVSPropertyOp3
 70
     1
102
RTVSPropertyOp4
 70
     1
102
RTVSPropertyOp5
 70
     1
102
RTVSPropertyOp6
 70
     1
102
RTVSPropertyOp7
 70
     1
102
RTVSPropertyOp8
 70
     1
102
RTVSPropertyOp9
 70
     1
102
RTVSPropertyOp10
 70
     1
102
RTVSPropertyOp11
 70
     1
102
RTVSPropertyOp12
 70
     1
102
RTVSPropertyOp13
 70
     1
102
RTVSPropertyOp14
 70
     1
102
RTVSPropertyOp15
 70
     1
102
RTVSPropertyOp16
 70
     1
102
RTVSPropertyOp17
 70
     1
102
RTVSPropertyOp18
 70
     1
102
RTVSPropertyOp19
 70
     1
102
RTVSPropertyOp20
 70
     1
102
RTVSPropertyOp21
 70
     1
102
RTVSPropertyOp22
 70
     1
102
RTVSPropertyOp23
 70
     1
102
RTVSPropertyOp24
 70
     1
102
RTVSPropertyOp25
 70
     1
102
RTVSPropertyOp26
 70
     1
102
RTVSPropertyOp27
 70
     1
102
RTVSPropertyOp28
 70
     1
102
RTVSPropertyOp29
 70
     1
102
RTVSPropertyOp30
 70
     1
102
RTVSPropertyOp31
 70
     1
102
RTVSPropertyOp32
 70
     1
102
RTVSPropertyOp33
 70
     1
102
RTVSPropertyOp34
 70
     1
102
RTVSPropertyOp35
 70
     1
102
RTVSPropertyOp36
 70
     1
102
RTVSPropertyOp37
 70
     1
102
RTVSPropertyOp38
 70
     1
102
RTVSPropertyOp39
 70
     1
102
RTVSPropertyOp40
 70
     1
102
RTVSPropertyOp41
 70
     1
102
RTVSPropertyOp42
 70
     1
102
RTVSPropertyOp43
 70
     1
102
RTVSPropertyOp44
 70
     1
102
RTVSPropertyOp45
 70
     1
102
RTVSPropertyOp46
 70
     1
102
RTVSPropertyOp47
 70
     1
102
RTVSPropertyOp48
 70
     1
102
RTVSPropertyOp49
 70
     1
102
RTVSPropertyOp50
 70
     1
102
RTVSPropertyOp51
 70
     0
102
RTVSPropertyOp52
 70
     0
102
RTVSPropertyOp53
 70
     1
102
RTVSPropertyOp54
 70
     1
102
RTVSPropertyOp55
 70
     1
102
RTVSPropertyOp56
 70
     1
102
RTVSPropertyOp57
 70
     1
102
RTVSPost2010Prop28
280
     0
102
RTVSPost2010PropOp28
 70
     1
102
RTVSPost2010Prop29
280
     1
102
RTVSPost2010PropOp29
 70
     1
102
RTVSPost2010Prop30
280
     1
102
RTVSPost2010PropOp30
 70
     1
102
RTVSPost2010Prop31
280
     0
102
RTVSPost2010PropOp31
 70
     1
102
RTVSPost2010Prop32
280
     0
102
RTVSPost2010PropOp32
 70
     1
102
RTVSPost2010Prop33
280
     0
102
RTVSPost2010PropOp33
 70
     1
102
RTVSPost2010Prop34
280
     0
102
RTVSPost2010PropOp34
 70
     1
102
RTVSPost2010Prop35
280
     0
102
RTVSPost2010PropOp35
 70
     1
102
RTVSPost2010Prop36
280
     0
102
RTVSPost2010PropOp36
 70
     1
102
RTVSPost2010Prop37
 90
       50
102
RTVSPost2010PropOp37
 70
     1
102
RTVSPost2010Prop38
140
0.0
102
RTVSPost2010PropOp38
 70
     1
102
RTVSPost2010Prop39
140
1.0
102
RTVSPost2010PropOp39
 70
     1
102
RTVSPost2010Prop40
 90
        0
102
RTVSPost2010PropOp40
 70
     1
102
RTVSPost2010Prop41ColorIndex
 90
       18
102
RTVSPost2010Prop41ColorRGB
 90
        0
102
RTVSPost2010PropOp41
 70
     1
102
RTVSPost2010Prop42
 90
       50
102
RTVSPost2010PropOp42
 70
     1
102
RTVSPost2010Prop43
 90
        3
102
RTVSPost2010PropOp43
 70
     1
102
RTVSPost2010Prop44ColorIndex
 90
        5
102
RTVSPost2010Prop44ColorRGB
 90
      255
102
RTVSPost2010PropOp44
 70
     1
102
RTVSPost2010Prop45
280
     0
102
RTVSPost2010PropOp45
 70
     1
102
RTVSPost2010Prop46
 90
       50
102
RTVSPost2010PropOp46
 70
     1
102
RTVSPost2010Prop47
 90
       50
102
RTVSPost2010PropOp47
 70
     1
102
RTVSPost2010Prop48
 90
       50
102
RTVSPost2010PropOp48
 70
     1
102
RTVSPost2010Prop49
280
     0
102
RTVSPost2010PropOp49
 70
     1
102
RTVSPost2010Prop50
 90
       50
102
RTVSPost2010PropOp50
 70
     1
102
RTVSPost2010Prop51ColorIndex
 90
      256
102
RTVSPost2010Prop51ColorRGB
 90
-16777216
102
RTVSPost2010PropOp51
 70
     0
102
RTVSPost2010Prop52
140
1.0
102
RTVSPost2010PropOp52
 70
     0
102
RTVSPost2010Prop53
 90
        2
102
RTVSPost2010PropOp53
 70
     1
102
RTVSPost2010Prop54
  1
strokes_ogs.tif
102
RTVSPost2010PropOp54
 70
     1
102
RTVSPost2010Prop55
280
     0
102
RTVSPost2010PropOp55
 70
     1
102
RTVSPost2010Prop56
140
1.0
102
RTVSPost2010PropOp56
 70
     1
102
RTVSPost2010Prop57
140
1.0
102
RTVSPost2010PropOp57
 70
     1
  0
XRECORD
  5
19B
102
{ACAD_REACTORS
330
19A
102
}
330
19A
100
AcDbXrecord
280
     1
102
RTVSPropertyOp0
 70
     1
102
RTVSPropertyOp1
 70
     1
102
RTVSPropertyOp2
 70
     1
102
RTVSPropertyOp3
 70
     1
102
RTVSPropertyOp4
 70
     1
102
RTVSPropertyOp5
 70
     1
102
RTVSPropertyOp6
 70
     1
102
RTVSPropertyOp7
 70
     1
102
RTVSPropertyOp8
 70
     1
102
RTVSPropertyOp9
 70
     1
102
RTVSPropertyOp10
 70
     1
102
RTVSPropertyOp11
 70
     1
102
RTVSPropertyOp12
 70
     1
102
RTVSPropertyOp13
 70
     1
102
RTVSPropertyOp14
 70
     1
102
RTVSPropertyOp15
 70
     1
102
RTVSPropertyOp16
 70
     1
102
RTVSPropertyOp17
 70
     1
102
RTVSPropertyOp18
 70
     1
102
RTVSPropertyOp19
 70
     1
102
RTVSPropertyOp20
 70
     1
102
RTVSPropertyOp21
 70
     1
102
RTVSPropertyOp22
 70
     1
102
RTVSPropertyOp23
 70
     1
102
RTVSPropertyOp24
 70
     1
102
RTVSPropertyOp25
 70
     1
102
RTVSPropertyOp26
 70
     1
102
RTVSPropertyOp27
 70
     1
102
RTVSPropertyOp28
 70
     1
102
RTVSPropertyOp29
 70
     1
102
RTVSPropertyOp30
 70
     1
102
RTVSPropertyOp31
 70
     1
102
RTVSPropertyOp32
 70
     1
102
RTVSPropertyOp33
 70
     1
102
RTVSPropertyOp34
 70
     1
102
RTVSPropertyOp35
 70
     1
102
RTVSPropertyOp36
 70
     1
102
RTVSPropertyOp37
 70
     1
102
RTVSPropertyOp38
 70
     1
102
RTVSPropertyOp39
 70
     1
102
RTVSPropertyOp40
 70
     1
102
RTVSPropertyOp41
 70
     1
102
RTVSPropertyOp42
 70
     1
102
RTVSPropertyOp43
 70
     1
102
RTVSPropertyOp44
 70
     1
102
RTVSPropertyOp45
 70
     1
102
RTVSPropertyOp46
 70
     1
102
RTVSPropertyOp47
 70
     1
102
RTVSPropertyOp48
 70
     1
102
RTVSPropertyOp49
 70
     1
102
RTVSPropertyOp50
 70
     1
102
RTVSPropertyOp51
 70
     0
102
RTVSPropertyOp52
 70
     0
102
RTVSPropertyOp53
 70
     1
102
RTVSPropertyOp54
 70
     1
102
RTVSPropertyOp55
 70
     1
102
RTVSPropertyOp56
 70
     1
102
RTVSPropertyOp57
 70
     1
102
RTVSPost2010Prop28
280
     0
102
RTVSPost2010PropOp28
 70
     1
102
RTVSPost2010Prop29
280
     1
102
RTVSPost2010PropOp29
 70
     1
102
RTVSPost2010Prop30
280
     1
102
RTVSPost2010PropOp30
 70
     1
102
RTVSPost2010Prop31
280
     0
102
RTVSPost2010PropOp31
 70
     1
102
RTVSPost2010Prop32
280
     0
102
RTVSPost2010PropOp32
 70
     1
102
RTVSPost2010Prop33
280
     0
102
RTVSPost2010PropOp33
 70
     1
102
RTVSPost2010Prop34
280
     0
102
RTVSPost2010PropOp34
 70
     1
102
RTVSPost2010Prop35
280
     0
102
RTVSPost2010PropOp35
 70
     1
102
RTVSPost2010Prop36
280
     0
102
RTVSPost2010PropOp36
 70
     1
102
RTVSPost2010Prop37
 90
       50
102
RTVSPost2010PropOp37
 70
     1
102
RTVSPost2010Prop38
140
0.0
102
RTVSPost2010PropOp38
 70
     1
102
RTVSPost2010Prop39
140
1.0
102
RTVSPost2010PropOp39
 70
     1
102
RTVSPost2010Prop40
 90
        0
102
RTVSPost2010PropOp40
 70
     1
102
RTVSPost2010Prop41ColorIndex
 90
       18
102
RTVSPost2010Prop41ColorRGB
 90
        0
102
RTVSPost2010PropOp41
 70
     1
102
RTVSPost2010Prop42
 90
       50
102
RTVSPost2010PropOp42
 70
     1
102
RTVSPost2010Prop43
 90
        3
102
RTVSPost2010PropOp43
 70
     1
102
RTVSPost2010Prop44ColorIndex
 90
        5
102
RTVSPost2010Prop44ColorRGB
 90
      255
102
RTVSPost2010PropOp44
 70
     1
102
RTVSPost2010Prop45
280
     0
102
RTVSPost2010PropOp45
 70
     1
102
RTVSPost2010Prop46
 90
       50
102
RTVSPost2010PropOp46
 70
     1
102
RTVSPost2010Prop47
 90
       50
102
RTVSPost2010PropOp47
 70
     1
102
RTVSPost2010Prop48
 90
       50
102
RTVSPost2010PropOp48
 70
     1
102
RTVSPost2010Prop49
280
     0
102
RTVSPost2010PropOp49
 70
     1
102
RTVSPost2010Prop50
 90
       50
102
RTVSPost2010PropOp50
 70
     1
102
RTVSPost2010Prop51ColorIndex
 90
      256
102
RTVSPost2010Prop51ColorRGB
 90
-16777216
102
RTVSPost2010PropOp51
 70
     0
102
RTVSPost2010Prop52
140
1.0
102
RTVSPost2010PropOp52
 70
     0
102
RTVSPost2010Prop53
 90
        2
102
RTVSPost2010PropOp53
 70
     1
102
RTVSPost2010Prop54
  1
strokes_ogs.tif
102
RTVSPost2010PropOp54
 70
     1
102
RTVSPost2010Prop55
280
     0
102
RTVSPost2010PropOp55
 70
     1
102
RTVSPost2010Prop56
140
1.0
102
RTVSPost2010PropOp56
 70
     1
102
RTVSPost2010Prop57
140
1.0
102
RTVSPost2010PropOp57
 70
     1
  0
XRECORD
  5
19D
102
{ACAD_REACTORS
330
19C
102
}
330
19C
100
AcDbXrecord
280
     1
102
RTVSPropertyOp0
 70
     1
102
RTVSPropertyOp1
 70
     1
102
RTVSPropertyOp2
 70
     1
102
RTVSPropertyOp3
 70
     1
102
RTVSPropertyOp4
 70
     1
102
RTVSPropertyOp5
 70
     1
102
RTVSPropertyOp6
 70
     1
102
RTVSPropertyOp7
 70
     1
102
RTVSPropertyOp8
 70
     1
102
RTVSPropertyOp9
 70
     1
102
RTVSPropertyOp10
 70
     1
102
RTVSPropertyOp11
 70
     1
102
RTVSPropertyOp12
 70
     1
102
RTVSPropertyOp13
 70
     1
102
RTVSPropertyOp14
 70
     1
102
RTVSPropertyOp15
 70
     1
102
RTVSPropertyOp16
 70
     1
102
RTVSPropertyOp17
 70
     1
102
RTVSPropertyOp18
 70
     1
102
RTVSPropertyOp19
 70
     1
102
RTVSPropertyOp20
 70
     1
102
RTVSPropertyOp21
 70
     1
102
RTVSPropertyOp22
 70
     1
102
RTVSPropertyOp23
 70
     1
102
RTVSPropertyOp24
 70
     1
102
RTVSPropertyOp25
 70
     1
102
RTVSPropertyOp26
 70
     1
102
RTVSPropertyOp27
 70
     1
102
RTVSPropertyOp28
 70
     1
102
RTVSPropertyOp29
 70
     1
102
RTVSPropertyOp30
 70
     1
102
RTVSPropertyOp31
 70
     1
102
RTVSPropertyOp32
 70
     1
102
RTVSPropertyOp33
 70
     1
102
RTVSPropertyOp34
 70
     1
102
RTVSPropertyOp35
 70
     1
102
RTVSPropertyOp36
 70
     1
102
RTVSPropertyOp37
 70
     1
102
RTVSPropertyOp38
 70
     1
102
RTVSPropertyOp39
 70
     1
102
RTVSPropertyOp40
 70
     1
102
RTVSPropertyOp41
 70
     1
102
RTVSPropertyOp42
 70
     1
102
RTVSPropertyOp43
 70
     1
102
RTVSPropertyOp44
 70
     1
102
RTVSPropertyOp45
 70
     1
102
RTVSPropertyOp46
 70
     1
102
RTVSPropertyOp47
 70
     1
102
RTVSPropertyOp48
 70
     1
102
RTVSPropertyOp49
 70
     1
102
RTVSPropertyOp50
 70
     1
102
RTVSPropertyOp51
 70
     0
102
RTVSPropertyOp52
 70
     0
102
RTVSPropertyOp53
 70
     1
102
RTVSPropertyOp54
 70
     1
102
RTVSPropertyOp55
 70
     1
102
RTVSPropertyOp56
 70
     1
102
RTVSPropertyOp57
 70
     1
102
RTVSPost2010Prop28
280
     0
102
RTVSPost2010PropOp28
 70
     1
102
RTVSPost2010Prop29
280
     1
102
RTVSPost2010PropOp29
 70
     1
102
RTVSPost2010Prop30
280
     1
102
RTVSPost2010PropOp30
 70
     1
102
RTVSPost2010Prop31
280
     0
102
RTVSPost2010PropOp31
 70
     1
102
RTVSPost2010Prop32
280
     0
102
RTVSPost2010PropOp32
 70
     1
102
RTVSPost2010Prop33
280
     0
102
RTVSPost2010PropOp33
 70
     1
102
RTVSPost2010Prop34
280
     0
102
RTVSPost2010PropOp34
 70
     1
102
RTVSPost2010Prop35
280
     0
102
RTVSPost2010PropOp35
 70
     1
102
RTVSPost2010Prop36
280
     0
102
RTVSPost2010PropOp36
 70
     1
102
RTVSPost2010Prop37
 90
       50
102
RTVSPost2010PropOp37
 70
     1
102
RTVSPost2010Prop38
140
0.0
102
RTVSPost2010PropOp38
 70
     1
102
RTVSPost2010Prop39
140
1.0
102
RTVSPost2010PropOp39
 70
     1
102
RTVSPost2010Prop40
 90
        0
102
RTVSPost2010PropOp40
 70
     1
102
RTVSPost2010Prop41ColorIndex
 90
       18
102
RTVSPost2010Prop41ColorRGB
 90
        0
102
RTVSPost2010PropOp41
 70
     1
102
RTVSPost2010Prop42
 90
       50
102
RTVSPost2010PropOp42
 70
     1
102
RTVSPost2010Prop43
 90
        3
102
RTVSPost2010PropOp43
 70
     1
102
RTVSPost2010Prop44ColorIndex
 90
        5
102
RTVSPost2010Prop44ColorRGB
 90
      255
102
RTVSPost2010PropOp44
 70
     1
102
RTVSPost2010Prop45
280
     0
102
RTVSPost2010PropOp45
 70
     1
102
RTVSPost2010Prop46
 90
       50
102
RTVSPost2010PropOp46
 70
     1
102
RTVSPost2010Prop47
 90
       50
102
RTVSPost2010PropOp47
 70
     1
102
RTVSPost2010Prop48
 90
       50
102
RTVSPost2010PropOp48
 70
     1
102
RTVSPost2010Prop49
280
     0
102
RTVSPost2010PropOp49
 70
     1
102
RTVSPost2010Prop50
 90
       50
102
RTVSPost2010PropOp50
 70
     1
102
RTVSPost2010Prop51ColorIndex
 90
      256
102
RTVSPost2010Prop51ColorRGB
 90
-16777216
102
RTVSPost2010PropOp51
 70
     0
102
RTVSPost2010Prop52
140
1.0
102
RTVSPost2010PropOp52
 70
     0
102
RTVSPost2010Prop53
 90
        2
102
RTVSPost2010PropOp53
 70
     1
102
RTVSPost2010Prop54
  1
strokes_ogs.tif
102
RTVSPost2010PropOp54
 70
     1
102
RTVSPost2010Prop55
280
     0
102
RTVSPost2010PropOp55
 70
     1
102
RTVSPost2010Prop56
140
1.0
102
RTVSPost2010PropOp56
 70
     1
102
RTVSPost2010Prop57
140
1.0
102
RTVSPost2010PropOp57
 70
     1
  0
XRECORD
  5
19F
102
{ACAD_REACTORS
330
19E
102
}
330
19E
100
AcDbXrecord
280
     1
102
RTVSPropertyOp0
 70
     1
102
RTVSPropertyOp1
 70
     1
102
RTVSPropertyOp2
 70
     1
102
RTVSPropertyOp3
 70
     1
102
RTVSPropertyOp4
 70
     1
102
RTVSPropertyOp5
 70
     1
102
RTVSPropertyOp6
 70
     1
102
RTVSPropertyOp7
 70
     1
102
RTVSPropertyOp8
 70
     1
102
RTVSPropertyOp9
 70
     1
102
RTVSPropertyOp10
 70
     1
102
RTVSPropertyOp11
 70
     1
102
RTVSPropertyOp12
 70
     1
102
RTVSPropertyOp13
 70
     1
102
RTVSPropertyOp14
 70
     1
102
RTVSPropertyOp15
 70
     1
102
RTVSPropertyOp16
 70
     1
102
RTVSPropertyOp17
 70
     1
102
RTVSPropertyOp18
 70
     1
102
RTVSPropertyOp19
 70
     1
102
RTVSPropertyOp20
 70
     1
102
RTVSPropertyOp21
 70
     1
102
RTVSPropertyOp22
 70
     1
102
RTVSPropertyOp23
 70
     1
102
RTVSPropertyOp24
 70
     1
102
RTVSPropertyOp25
 70
     1
102
RTVSPropertyOp26
 70
     1
102
RTVSPropertyOp27
 70
     1
102
RTVSPropertyOp28
 70
     1
102
RTVSPropertyOp29
 70
     1
102
RTVSPropertyOp30
 70
     1
102
RTVSPropertyOp31
 70
     1
102
RTVSPropertyOp32
 70
     1
102
RTVSPropertyOp33
 70
     1
102
RTVSPropertyOp34
 70
     1
102
RTVSPropertyOp35
 70
     1
102
RTVSPropertyOp36
 70
     1
102
RTVSPropertyOp37
 70
     1
102
RTVSPropertyOp38
 70
     1
102
RTVSPropertyOp39
 70
     1
102
RTVSPropertyOp40
 70
     1
102
RTVSPropertyOp41
 70
     1
102
RTVSPropertyOp42
 70
     1
102
RTVSPropertyOp43
 70
     1
102
RTVSPropertyOp44
 70
     1
102
RTVSPropertyOp45
 70
     1
102
RTVSPropertyOp46
 70
     1
102
RTVSPropertyOp47
 70
     1
102
RTVSPropertyOp48
 70
     1
102
RTVSPropertyOp49
 70
     1
102
RTVSPropertyOp50
 70
     1
102
RTVSPropertyOp51
 70
     0
102
RTVSPropertyOp52
 70
     0
102
RTVSPropertyOp53
 70
     1
102
RTVSPropertyOp54
 70
     1
102
RTVSPropertyOp55
 70
     1
102
RTVSPropertyOp56
 70
     1
102
RTVSPropertyOp57
 70
     1
102
RTVSPost2010Prop28
280
     0
102
RTVSPost2010PropOp28
 70
     1
102
RTVSPost2010Prop29
280
     1
102
RTVSPost2010PropOp29
 70
     1
102
RTVSPost2010Prop30
280
     1
102
RTVSPost2010PropOp30
 70
     1
102
RTVSPost2010Prop31
280
     0
102
RTVSPost2010PropOp31
 70
     1
102
RTVSPost2010Prop32
280
     0
102
RTVSPost2010PropOp32
 70
     1
102
RTVSPost2010Prop33
280
     0
102
RTVSPost2010PropOp33
 70
     1
102
RTVSPost2010Prop34
280
     0
102
RTVSPost2010PropOp34
 70
     1
102
RTVSPost2010Prop35
280
     0
102
RTVSPost2010PropOp35
 70
     1
102
RTVSPost2010Prop36
280
     0
102
RTVSPost2010PropOp36
 70
     1
102
RTVSPost2010Prop37
 90
       50
102
RTVSPost2010PropOp37
 70
     1
102
RTVSPost2010Prop38
140
0.0
102
RTVSPost2010PropOp38
 70
     1
102
RTVSPost2010Prop39
140
1.0
102
RTVSPost2010PropOp39
 70
     1
102
RTVSPost2010Prop40
 90
        0
102
RTVSPost2010PropOp40
 70
     1
102
RTVSPost2010Prop41ColorIndex
 90
       18
102
RTVSPost2010Prop41ColorRGB
 90
        0
102
RTVSPost2010PropOp41
 70
     1
102
RTVSPost2010Prop42
 90
       50
102
RTVSPost2010PropOp42
 70
     1
102
RTVSPost2010Prop43
 90
        3
102
RTVSPost2010PropOp43
 70
     1
102
RTVSPost2010Prop44ColorIndex
 90
        5
102
RTVSPost2010Prop44ColorRGB
 90
      255
102
RTVSPost2010PropOp44
 70
     1
102
RTVSPost2010Prop45
280
     0
102
RTVSPost2010PropOp45
 70
     1
102
RTVSPost2010Prop46
 90
       50
102
RTVSPost2010PropOp46
 70
     1
102
RTVSPost2010Prop47
 90
       50
102
RTVSPost2010PropOp47
 70
     1
102
RTVSPost2010Prop48
 90
       50
102
RTVSPost2010PropOp48
 70
     1
102
RTVSPost2010Prop49
280
     0
102
RTVSPost2010PropOp49
 70
     1
102
RTVSPost2010Prop50
 90
       50
102
RTVSPost2010PropOp50
 70
     1
102
RTVSPost2010Prop51ColorIndex
 90
      256
102
RTVSPost2010Prop51ColorRGB
 90
-16777216
102
RTVSPost2010PropOp51
 70
     0
102
RTVSPost2010Prop52
140
1.0
102
RTVSPost2010PropOp52
 70
     0
102
RTVSPost2010Prop53
 90
        2
102
RTVSPost2010PropOp53
 70
     1
102
RTVSPost2010Prop54
  1
strokes_ogs.tif
102
RTVSPost2010PropOp54
 70
     1
102
RTVSPost2010Prop55
280
     0
102
RTVSPost2010PropOp55
 70
     1
102
RTVSPost2010Prop56
140
1.0
102
RTVSPost2010PropOp56
 70
     1
102
RTVSPost2010Prop57
140
1.0
102
RTVSPost2010PropOp57
 70
     1
  0
XRECORD
  5
1A1
102
{ACAD_REACTORS
330
1A0
102
}
330
1A0
100
AcDbXrecord
280
     1
102
RTVSPropertyOp0
 70
     1
102
RTVSPropertyOp1
 70
     1
102
RTVSPropertyOp2
 70
     1
102
RTVSPropertyOp3
 70
     1
102
RTVSPropertyOp4
 70
     1
102
RTVSPropertyOp5
 70
     1
102
RTVSPropertyOp6
 70
     1
102
RTVSPropertyOp7
 70
     1
102
RTVSPropertyOp8
 70
     1
102
RTVSPropertyOp9
 70
     1
102
RTVSPropertyOp10
 70
     1
102
RTVSPropertyOp11
 70
     1
102
RTVSPropertyOp12
 70
     1
102
RTVSPropertyOp13
 70
     1
102
RTVSPropertyOp14
 70
     1
102
RTVSPropertyOp15
 70
     1
102
RTVSPropertyOp16
 70
     1
102
RTVSPropertyOp17
 70
     1
102
RTVSPropertyOp18
 70
     1
102
RTVSPropertyOp19
 70
     1
102
RTVSPropertyOp20
 70
     1
102
RTVSPropertyOp21
 70
     1
102
RTVSPropertyOp22
 70
     1
102
RTVSPropertyOp23
 70
     1
102
RTVSPropertyOp24
 70
     1
102
RTVSPropertyOp25
 70
     1
102
RTVSPropertyOp26
 70
     1
102
RTVSPropertyOp27
 70
     1
102
RTVSPropertyOp28
 70
     1
102
RTVSPropertyOp29
 70
     1
102
RTVSPropertyOp30
 70
     1
102
RTVSPropertyOp31
 70
     1
102
RTVSPropertyOp32
 70
     1
102
RTVSPropertyOp33
 70
     1
102
RTVSPropertyOp34
 70
     1
102
RTVSPropertyOp35
 70
     1
102
RTVSPropertyOp36
 70
     1
102
RTVSPropertyOp37
 70
     1
102
RTVSPropertyOp38
 70
     1
102
RTVSPropertyOp39
 70
     1
102
RTVSPropertyOp40
 70
     1
102
RTVSPropertyOp41
 70
     1
102
RTVSPropertyOp42
 70
     1
102
RTVSPropertyOp43
 70
     1
102
RTVSPropertyOp44
 70
     1
102
RTVSPropertyOp45
 70
     1
102
RTVSPropertyOp46
 70
     1
102
RTVSPropertyOp47
 70
     1
102
RTVSPropertyOp48
 70
     1
102
RTVSPropertyOp49
 70
     1
102
RTVSPropertyOp50
 70
     1
102
RTVSPropertyOp51
 70
     0
102
RTVSPropertyOp52
 70
     0
102
RTVSPropertyOp53
 70
     1
102
RTVSPropertyOp54
 70
     1
102
RTVSPropertyOp55
 70
     1
102
RTVSPropertyOp56
 70
     1
102
RTVSPropertyOp57
 70
     1
102
RTVSPost2010Prop28
280
     0
102
RTVSPost2010PropOp28
 70
     1
102
RTVSPost2010Prop29
280
     1
102
RTVSPost2010PropOp29
 70
     1
102
RTVSPost2010Prop30
280
     1
102
RTVSPost2010PropOp30
 70
     1
102
RTVSPost2010Prop31
280
     0
102
RTVSPost2010PropOp31
 70
     1
102
RTVSPost2010Prop32
280
     0
102
RTVSPost2010PropOp32
 70
     1
102
RTVSPost2010Prop33
280
     0
102
RTVSPost2010PropOp33
 70
     1
102
RTVSPost2010Prop34
280
     0
102
RTVSPost2010PropOp34
 70
     1
102
RTVSPost2010Prop35
280
     0
102
RTVSPost2010PropOp35
 70
     1
102
RTVSPost2010Prop36
280
     0
102
RTVSPost2010PropOp36
 70
     1
102
RTVSPost2010Prop37
 90
       50
102
RTVSPost2010PropOp37
 70
     1
102
RTVSPost2010Prop38
140
0.0
102
RTVSPost2010PropOp38
 70
     1
102
RTVSPost2010Prop39
140
1.0
102
RTVSPost2010PropOp39
 70
     1
102
RTVSPost2010Prop40
 90
        0
102
RTVSPost2010PropOp40
 70
     1
102
RTVSPost2010Prop41ColorIndex
 90
       18
102
RTVSPost2010Prop41ColorRGB
 90
        0
102
RTVSPost2010PropOp41
 70
     1
102
RTVSPost2010Prop42
 90
       50
102
RTVSPost2010PropOp42
 70
     1
102
RTVSPost2010Prop43
 90
        3
102
RTVSPost2010PropOp43
 70
     1
102
RTVSPost2010Prop44ColorIndex
 90
        5
102
RTVSPost2010Prop44ColorRGB
 90
      255
102
RTVSPost2010PropOp44
 70
     1
102
RTVSPost2010Prop45
280
     0
102
RTVSPost2010PropOp45
 70
     1
102
RTVSPost2010Prop46
 90
       50
102
RTVSPost2010PropOp46
 70
     1
102
RTVSPost2010Prop47
 90
       50
102
RTVSPost2010PropOp47
 70
     1
102
RTVSPost2010Prop48
 90
       50
102
RTVSPost2010PropOp48
 70
     1
102
RTVSPost2010Prop49
280
     0
102
RTVSPost2010PropOp49
 70
     1
102
RTVSPost2010Prop50
 90
       50
102
RTVSPost2010PropOp50
 70
     1
102
RTVSPost2010Prop51ColorIndex
 90
      256
102
RTVSPost2010Prop51ColorRGB
 90
-16777216
102
RTVSPost2010PropOp51
 70
     0
102
RTVSPost2010Prop52
140
1.0
102
RTVSPost2010PropOp52
 70
     0
102
RTVSPost2010Prop53
 90
        2
102
RTVSPost2010PropOp53
 70
     1
102
RTVSPost2010Prop54
  1
strokes_ogs.tif
102
RTVSPost2010PropOp54
 70
     1
102
RTVSPost2010Prop55
280
     0
102
RTVSPost2010PropOp55
 70
     1
102
RTVSPost2010Prop56
140
1.0
102
RTVSPost2010PropOp56
 70
     1
102
RTVSPost2010Prop57
140
1.0
102
RTVSPost2010PropOp57
 70
     1
  0
XRECORD
  5
1A7
102
{ACAD_REACTORS
330
1A6
102
}
330
1A6
100
AcDbXrecord
280
     1
102
RTVSPropertyOp0
 70
     1
102
RTVSPropertyOp1
 70
     1
102
RTVSPropertyOp2
 70
     1
102
RTVSPropertyOp3
 70
     1
102
RTVSPropertyOp4
 70
     1
102
RTVSPropertyOp5
 70
     1
102
RTVSPropertyOp6
 70
     1
102
RTVSPropertyOp7
 70
     1
102
RTVSPropertyOp8
 70
     1
102
RTVSPropertyOp9
 70
     1
102
RTVSPropertyOp10
 70
     1
102
RTVSPropertyOp11
 70
     1
102
RTVSPropertyOp12
 70
     1
102
RTVSPropertyOp13
 70
     1
102
RTVSPropertyOp14
 70
     1
102
RTVSPropertyOp15
 70
     1
102
RTVSPropertyOp16
 70
     1
102
RTVSPropertyOp17
 70
     1
102
RTVSPropertyOp18
 70
     1
102
RTVSPropertyOp19
 70
     1
102
RTVSPropertyOp20
 70
     1
102
RTVSPropertyOp21
 70
     1
102
RTVSPropertyOp22
 70
     1
102
RTVSPropertyOp23
 70
     1
102
RTVSPropertyOp24
 70
     1
102
RTVSPropertyOp25
 70
     1
102
RTVSPropertyOp26
 70
     1
102
RTVSPropertyOp27
 70
     1
102
RTVSPropertyOp28
 70
     1
102
RTVSPropertyOp29
 70
     1
102
RTVSPropertyOp30
 70
     1
102
RTVSPropertyOp31
 70
     1
102
RTVSPropertyOp32
 70
     1
102
RTVSPropertyOp33
 70
     1
102
RTVSPropertyOp34
 70
     1
102
RTVSPropertyOp35
 70
     1
102
RTVSPropertyOp36
 70
     1
102
RTVSPropertyOp37
 70
     1
102
RTVSPropertyOp38
 70
     1
102
RTVSPropertyOp39
 70
     1
102
RTVSPropertyOp40
 70
     1
102
RTVSPropertyOp41
 70
     1
102
RTVSPropertyOp42
 70
     1
102
RTVSPropertyOp43
 70
     1
102
RTVSPropertyOp44
 70
     1
102
RTVSPropertyOp45
 70
     1
102
RTVSPropertyOp46
 70
     1
102
RTVSPropertyOp47
 70
     1
102
RTVSPropertyOp48
 70
     1
102
RTVSPropertyOp49
 70
     1
102
RTVSPropertyOp50
 70
     1
102
RTVSPropertyOp51
 70
     0
102
RTVSPropertyOp52
 70
     0
102
RTVSPropertyOp53
 70
     1
102
RTVSPropertyOp54
 70
     1
102
RTVSPropertyOp55
 70
     1
102
RTVSPropertyOp56
 70
     1
102
RTVSPropertyOp57
 70
     1
102
RTVSPost2010Prop28
280
     0
102
RTVSPost2010PropOp28
 70
     1
102
RTVSPost2010Prop29
280
     1
102
RTVSPost2010PropOp29
 70
     1
102
RTVSPost2010Prop30
280
     1
102
RTVSPost2010PropOp30
 70
     1
102
RTVSPost2010Prop31
280
     0
102
RTVSPost2010PropOp31
 70
     1
102
RTVSPost2010Prop32
280
     0
102
RTVSPost2010PropOp32
 70
     1
102
RTVSPost2010Prop33
280
     0
102
RTVSPost2010PropOp33
 70
     1
102
RTVSPost2010Prop34
280
     0
102
RTVSPost2010PropOp34
 70
     1
102
RTVSPost2010Prop35
280
     0
102
RTVSPost2010PropOp35
 70
     1
102
RTVSPost2010Prop36
280
     0
102
RTVSPost2010PropOp36
 70
     1
102
RTVSPost2010Prop37
 90
       50
102
RTVSPost2010PropOp37
 70
     1
102
RTVSPost2010Prop38
140
0.0
102
RTVSPost2010PropOp38
 70
     1
102
RTVSPost2010Prop39
140
1.0
102
RTVSPost2010PropOp39
 70
     1
102
RTVSPost2010Prop40
 90
        0
102
RTVSPost2010PropOp40
 70
     1
102
RTVSPost2010Prop41ColorIndex
 90
       18
102
RTVSPost2010Prop41ColorRGB
 90
        0
102
RTVSPost2010PropOp41
 70
     1
102
RTVSPost2010Prop42
 90
       50
102
RTVSPost2010PropOp42
 70
     1
102
RTVSPost2010Prop43
 90
        3
102
RTVSPost2010PropOp43
 70
     1
102
RTVSPost2010Prop44ColorIndex
 90
        5
102
RTVSPost2010Prop44ColorRGB
 90
      255
102
RTVSPost2010PropOp44
 70
     1
102
RTVSPost2010Prop45
280
     0
102
RTVSPost2010PropOp45
 70
     1
102
RTVSPost2010Prop46
 90
       50
102
RTVSPost2010PropOp46
 70
     1
102
RTVSPost2010Prop47
 90
       50
102
RTVSPost2010PropOp47
 70
     1
102
RTVSPost2010Prop48
 90
       50
102
RTVSPost2010PropOp48
 70
     1
102
RTVSPost2010Prop49
280
     0
102
RTVSPost2010PropOp49
 70
     1
102
RTVSPost2010Prop50
 90
       50
102
RTVSPost2010PropOp50
 70
     1
102
RTVSPost2010Prop51ColorIndex
 90
      256
102
RTVSPost2010Prop51ColorRGB
 90
-16777216
102
RTVSPost2010PropOp51
 70
     0
102
RTVSPost2010Prop52
140
1.0
102
RTVSPost2010PropOp52
 70
     0
102
RTVSPost2010Prop53
 90
        2
102
RTVSPost2010PropOp53
 70
     1
102
RTVSPost2010Prop54
  1
strokes_ogs.tif
102
RTVSPost2010PropOp54
 70
     1
102
RTVSPost2010Prop55
280
     0
102
RTVSPost2010PropOp55
 70
     1
102
RTVSPost2010Prop56
140
1.0
102
RTVSPost2010PropOp56
 70
     1
102
RTVSPost2010Prop57
140
1.0
102
RTVSPost2010PropOp57
 70
     1
  0
XRECORD
  5
1BB
102
{ACAD_REACTORS
330
1BA
102
}
330
1BA
100
AcDbXrecord
280
     1
102
RTVSPropertyOp0
 70
     0
102
RTVSPropertyOp1
 70
     0
102
RTVSPropertyOp2
 70
     0
102
RTVSPropertyOp3
 70
     0
102
RTVSPropertyOp4
 70
     0
102
RTVSPropertyOp5
 70
     0
102
RTVSPropertyOp6
 70
     0
102
RTVSPropertyOp7
 70
     0
102
RTVSPropertyOp8
 70
     0
102
RTVSPropertyOp9
 70
     0
102
RTVSPropertyOp10
 70
     0
102
RTVSPropertyOp11
 70
     0
102
RTVSPropertyOp12
 70
     0
102
RTVSPropertyOp13
 70
     0
102
RTVSPropertyOp14
 70
     2
102
RTVSPropertyOp15
 70
     0
102
RTVSPropertyOp16
 70
     0
102
RTVSPropertyOp17
 70
     0
102
RTVSPropertyOp18
 70
     0
102
RTVSPropertyOp19
 70
     0
102
RTVSPropertyOp20
 70
     0
102
RTVSPropertyOp21
 70
     0
102
RTVSPropertyOp22
 70
     0
102
RTVSPropertyOp23
 70
     0
102
RTVSPropertyOp24
 70
     0
102
RTVSPropertyOp25
 70
     0
102
RTVSPropertyOp26
 70
     0
102
RTVSPropertyOp27
 70
     0
102
RTVSPropertyOp28
 70
     0
102
RTVSPropertyOp29
 70
     0
102
RTVSPropertyOp30
 70
     0
102
RTVSPropertyOp31
 70
     0
102
RTVSPropertyOp32
 70
     0
102
RTVSPropertyOp33
 70
     0
102
RTVSPropertyOp34
 70
     0
102
RTVSPropertyOp35
 70
     0
102
RTVSPropertyOp36
 70
     0
102
RTVSPropertyOp37
 70
     0
102
RTVSPropertyOp38
 70
     0
102
RTVSPropertyOp39
 70
     0
102
RTVSPropertyOp40
 70
     0
102
RTVSPropertyOp41
 70
     0
102
RTVSPropertyOp42
 70
     0
102
RTVSPropertyOp43
 70
     0
102
RTVSPropertyOp44
 70
     0
102
RTVSPropertyOp45
 70
     0
102
RTVSPropertyOp46
 70
     0
102
RTVSPropertyOp47
 70
     0
102
RTVSPropertyOp48
 70
     0
102
RTVSPropertyOp49
 70
     0
102
RTVSPropertyOp50
 70
     0
102
RTVSPropertyOp51
 70
     0
102
RTVSPropertyOp52
 70
     0
102
RTVSPropertyOp53
 70
     0
102
RTVSPropertyOp54
 70
     0
102
RTVSPropertyOp55
 70
     0
102
RTVSPropertyOp56
 70
     0
102
RTVSPropertyOp57
 70
     0
102
RTVSPost2010Prop28
280
     0
102
RTVSPost2010PropOp28
 70
     0
102
RTVSPost2010Prop29
280
     1
102
RTVSPost2010PropOp29
 70
     0
102
RTVSPost2010Prop30
280
     1
102
RTVSPost2010PropOp30
 70
     0
102
RTVSPost2010Prop31
280
     0
102
RTVSPost2010PropOp31
 70
     0
102
RTVSPost2010Prop32
280
     0
102
RTVSPost2010PropOp32
 70
     0
102
RTVSPost2010Prop33
280
     0
102
RTVSPost2010PropOp33
 70
     0
102
RTVSPost2010Prop34
280
     0
102
RTVSPost2010PropOp34
 70
     0
102
RTVSPost2010Prop35
280
     0
102
RTVSPost2010PropOp35
 70
     0
102
RTVSPost2010Prop36
280
     0
102
RTVSPost2010PropOp36
 70
     0
102
RTVSPost2010Prop37
 90
       50
102
RTVSPost2010PropOp37
 70
     0
102
RTVSPost2010Prop38
140
0.0
102
RTVSPost2010PropOp38
 70
     0
102
RTVSPost2010Prop39
140
1.0
102
RTVSPost2010PropOp39
 70
     0
102
RTVSPost2010Prop40
 90
        0
102
RTVSPost2010PropOp40
 70
     0
102
RTVSPost2010Prop41ColorIndex
 90
       18
102
RTVSPost2010Prop41ColorRGB
 90
        0
102
RTVSPost2010PropOp41
 70
     0
102
RTVSPost2010Prop42
 90
       50
102
RTVSPost2010PropOp42
 70
     0
102
RTVSPost2010Prop43
 90
        3
102
RTVSPost2010PropOp43
 70
     0
102
RTVSPost2010Prop44ColorIndex
 90
        5
102
RTVSPost2010Prop44ColorRGB
 90
      255
102
RTVSPost2010PropOp44
 70
     0
102
RTVSPost2010Prop45
280
     0
102
RTVSPost2010PropOp45
 70
     0
102
RTVSPost2010Prop46
 90
       50
102
RTVSPost2010PropOp46
 70
     0
102
RTVSPost2010Prop47
 90
       50
102
RTVSPost2010PropOp47
 70
     0
102
RTVSPost2010Prop48
 90
       50
102
RTVSPost2010PropOp48
 70
     0
102
RTVSPost2010Prop49
280
     0
102
RTVSPost2010PropOp49
 70
     0
102
RTVSPost2010Prop50
 90
       50
102
RTVSPost2010PropOp50
 70
     0
102
RTVSPost2010Prop51ColorIndex
 90
      256
102
RTVSPost2010Prop51ColorRGB
 90
-16777216
102
RTVSPost2010PropOp51
 70
     0
102
RTVSPost2010Prop52
140
1.0
102
RTVSPost2010PropOp52
 70
     0
102
RTVSPost2010Prop53
 90
        2
102
RTVSPost2010PropOp53
 70
     0
102
RTVSPost2010Prop54
  1
strokes_ogs.tif
102
RTVSPost2010PropOp54
 70
     0
102
RTVSPost2010Prop55
280
     0
102
RTVSPost2010PropOp55
 70
     0
102
RTVSPost2010Prop56
140
1.0
102
RTVSPost2010PropOp56
 70
     0
102
RTVSPost2010Prop57
140
1.0
102
RTVSPost2010PropOp57
 70
     0
  0
XRECORD
  5
1B5
102
{ACAD_REACTORS
330
1B4
102
}
330
1B4
100
AcDbXrecord
280
     1
102
RTVSPropertyOp0
 70
     1
102
RTVSPropertyOp1
 70
     1
102
RTVSPropertyOp2
 70
     1
102
RTVSPropertyOp3
 70
     1
102
RTVSPropertyOp4
 70
     1
102
RTVSPropertyOp5
 70
     1
102
RTVSPropertyOp6
 70
     1
102
RTVSPropertyOp7
 70
     1
102
RTVSPropertyOp8
 70
     1
102
RTVSPropertyOp9
 70
     1
102
RTVSPropertyOp10
 70
     1
102
RTVSPropertyOp11
 70
     1
102
RTVSPropertyOp12
 70
     1
102
RTVSPropertyOp13
 70
     1
102
RTVSPropertyOp14
 70
     1
102
RTVSPropertyOp15
 70
     1
102
RTVSPropertyOp16
 70
     1
102
RTVSPropertyOp17
 70
     1
102
RTVSPropertyOp18
 70
     1
102
RTVSPropertyOp19
 70
     1
102
RTVSPropertyOp20
 70
     1
102
RTVSPropertyOp21
 70
     1
102
RTVSPropertyOp22
 70
     1
102
RTVSPropertyOp23
 70
     1
102
RTVSPropertyOp24
 70
     1
102
RTVSPropertyOp25
 70
     1
102
RTVSPropertyOp26
 70
     1
102
RTVSPropertyOp27
 70
     1
102
RTVSPropertyOp28
 70
     1
102
RTVSPropertyOp29
 70
     1
102
RTVSPropertyOp30
 70
     1
102
RTVSPropertyOp31
 70
     1
102
RTVSPropertyOp32
 70
     1
102
RTVSPropertyOp33
 70
     1
102
RTVSPropertyOp34
 70
     1
102
RTVSPropertyOp35
 70
     1
102
RTVSPropertyOp36
 70
     1
102
RTVSPropertyOp37
 70
     1
102
RTVSPropertyOp38
 70
     1
102
RTVSPropertyOp39
 70
     1
102
RTVSPropertyOp40
 70
     1
102
RTVSPropertyOp41
 70
     1
102
RTVSPropertyOp42
 70
     1
102
RTVSPropertyOp43
 70
     1
102
RTVSPropertyOp44
 70
     1
102
RTVSPropertyOp45
 70
     1
102
RTVSPropertyOp46
 70
     1
102
RTVSPropertyOp47
 70
     1
102
RTVSPropertyOp48
 70
     1
102
RTVSPropertyOp49
 70
     1
102
RTVSPropertyOp50
 70
     1
102
RTVSPropertyOp51
 70
     0
102
RTVSPropertyOp52
 70
     0
102
RTVSPropertyOp53
 70
     1
102
RTVSPropertyOp54
 70
     1
102
RTVSPropertyOp55
 70
     1
102
RTVSPropertyOp56
 70
     1
102
RTVSPropertyOp57
 70
     1
102
RTVSPost2010Prop28
280
     0
102
RTVSPost2010PropOp28
 70
     1
102
RTVSPost2010Prop29
280
     1
102
RTVSPost2010PropOp29
 70
     1
102
RTVSPost2010Prop30
280
     1
102
RTVSPost2010PropOp30
 70
     1
102
RTVSPost2010Prop31
280
     0
102
RTVSPost2010PropOp31
 70
     1
102
RTVSPost2010Prop32
280
     0
102
RTVSPost2010PropOp32
 70
     1
102
RTVSPost2010Prop33
280
     0
102
RTVSPost2010PropOp33
 70
     1
102
RTVSPost2010Prop34
280
     0
102
RTVSPost2010PropOp34
 70
     1
102
RTVSPost2010Prop35
280
     0
102
RTVSPost2010PropOp35
 70
     1
102
RTVSPost2010Prop36
280
     0
102
RTVSPost2010PropOp36
 70
     1
102
RTVSPost2010Prop37
 90
       50
102
RTVSPost2010PropOp37
 70
     1
102
RTVSPost2010Prop38
140
0.0
102
RTVSPost2010PropOp38
 70
     1
102
RTVSPost2010Prop39
140
1.0
102
RTVSPost2010PropOp39
 70
     1
102
RTVSPost2010Prop40
 90
        0
102
RTVSPost2010PropOp40
 70
     1
102
RTVSPost2010Prop41ColorIndex
 90
       18
102
RTVSPost2010Prop41ColorRGB
 90
        0
102
RTVSPost2010PropOp41
 70
     1
102
RTVSPost2010Prop42
 90
       50
102
RTVSPost2010PropOp42
 70
     1
102
RTVSPost2010Prop43
 90
        3
102
RTVSPost2010PropOp43
 70
     1
102
RTVSPost2010Prop44ColorIndex
 90
        5
102
RTVSPost2010Prop44ColorRGB
 90
      255
102
RTVSPost2010PropOp44
 70
     1
102
RTVSPost2010Prop45
280
     0
102
RTVSPost2010PropOp45
 70
     1
102
RTVSPost2010Prop46
 90
       50
102
RTVSPost2010PropOp46
 70
     1
102
RTVSPost2010Prop47
 90
       50
102
RTVSPost2010PropOp47
 70
     1
102
RTVSPost2010Prop48
 90
       50
102
RTVSPost2010PropOp48
 70
     1
102
RTVSPost2010Prop49
280
     0
102
RTVSPost2010PropOp49
 70
     1
102
RTVSPost2010Prop50
 90
       50
102
RTVSPost2010PropOp50
 70
     1
102
RTVSPost2010Prop51ColorIndex
 90
      256
102
RTVSPost2010Prop51ColorRGB
 90
-16777216
102
RTVSPost2010PropOp51
 70
     0
102
RTVSPost2010Prop52
140
1.0
102
RTVSPost2010PropOp52
 70
     0
102
RTVSPost2010Prop53
 90
        2
102
RTVSPost2010PropOp53
 70
     1
102
RTVSPost2010Prop54
  1
strokes_ogs.tif
102
RTVSPost2010PropOp54
 70
     1
102
RTVSPost2010Prop55
280
     0
102
RTVSPost2010PropOp55
 70
     1
102
RTVSPost2010Prop56
140
1.0
102
RTVSPost2010PropOp56
 70
     1
102
RTVSPost2010Prop57
140
1.0
102
RTVSPost2010PropOp57
 70
     1
  0
XRECORD
  5
1BD
102
{ACAD_REACTORS
330
1BC
102
}
330
1BC
100
AcDbXrecord
280
     1
102
RTVSPropertyOp0
 70
     0
102
RTVSPropertyOp1
 70
     0
102
RTVSPropertyOp2
 70
     0
102
RTVSPropertyOp3
 70
     0
102
RTVSPropertyOp4
 70
     0
102
RTVSPropertyOp5
 70
     0
102
RTVSPropertyOp6
 70
     0
102
RTVSPropertyOp7
 70
     0
102
RTVSPropertyOp8
 70
     0
102
RTVSPropertyOp9
 70
     0
102
RTVSPropertyOp10
 70
     0
102
RTVSPropertyOp11
 70
     0
102
RTVSPropertyOp12
 70
     0
102
RTVSPropertyOp13
 70
     0
102
RTVSPropertyOp14
 70
     2
102
RTVSPropertyOp15
 70
     0
102
RTVSPropertyOp16
 70
     0
102
RTVSPropertyOp17
 70
     0
102
RTVSPropertyOp18
 70
     0
102
RTVSPropertyOp19
 70
     0
102
RTVSPropertyOp20
 70
     0
102
RTVSPropertyOp21
 70
     0
102
RTVSPropertyOp22
 70
     0
102
RTVSPropertyOp23
 70
     0
102
RTVSPropertyOp24
 70
     0
102
RTVSPropertyOp25
 70
     0
102
RTVSPropertyOp26
 70
     0
102
RTVSPropertyOp27
 70
     0
102
RTVSPropertyOp28
 70
     0
102
RTVSPropertyOp29
 70
     0
102
RTVSPropertyOp30
 70
     0
102
RTVSPropertyOp31
 70
     0
102
RTVSPropertyOp32
 70
     0
102
RTVSPropertyOp33
 70
     0
102
RTVSPropertyOp34
 70
     0
102
RTVSPropertyOp35
 70
     0
102
RTVSPropertyOp36
 70
     0
102
RTVSPropertyOp37
 70
     0
102
RTVSPropertyOp38
 70
     0
102
RTVSPropertyOp39
 70
     0
102
RTVSPropertyOp40
 70
     0
102
RTVSPropertyOp41
 70
     0
102
RTVSPropertyOp42
 70
     0
102
RTVSPropertyOp43
 70
     0
102
RTVSPropertyOp44
 70
     0
102
RTVSPropertyOp45
 70
     0
102
RTVSPropertyOp46
 70
     0
102
RTVSPropertyOp47
 70
     0
102
RTVSPropertyOp48
 70
     0
102
RTVSPropertyOp49
 70
     0
102
RTVSPropertyOp50
 70
     0
102
RTVSPropertyOp51
 70
     0
102
RTVSPropertyOp52
 70
     0
102
RTVSPropertyOp53
 70
     0
102
RTVSPropertyOp54
 70
     0
102
RTVSPropertyOp55
 70
     0
102
RTVSPropertyOp56
 70
     0
102
RTVSPropertyOp57
 70
     0
102
RTVSPost2010Prop28
280
     0
102
RTVSPost2010PropOp28
 70
     0
102
RTVSPost2010Prop29
280
     1
102
RTVSPost2010PropOp29
 70
     0
102
RTVSPost2010Prop30
280
     1
102
RTVSPost2010PropOp30
 70
     0
102
RTVSPost2010Prop31
280
     0
102
RTVSPost2010PropOp31
 70
     0
102
RTVSPost2010Prop32
280
     0
102
RTVSPost2010PropOp32
 70
     0
102
RTVSPost2010Prop33
280
     0
102
RTVSPost2010PropOp33
 70
     0
102
RTVSPost2010Prop34
280
     0
102
RTVSPost2010PropOp34
 70
     0
102
RTVSPost2010Prop35
280
     0
102
RTVSPost2010PropOp35
 70
     0
102
RTVSPost2010Prop36
280
     0
102
RTVSPost2010PropOp36
 70
     0
102
RTVSPost2010Prop37
 90
       50
102
RTVSPost2010PropOp37
 70
     0
102
RTVSPost2010Prop38
140
0.0
102
RTVSPost2010PropOp38
 70
     0
102
RTVSPost2010Prop39
140
1.0
102
RTVSPost2010PropOp39
 70
     0
102
RTVSPost2010Prop40
 90
        0
102
RTVSPost2010PropOp40
 70
     0
102
RTVSPost2010Prop41ColorIndex
 90
       18
102
RTVSPost2010Prop41ColorRGB
 90
        0
102
RTVSPost2010PropOp41
 70
     0
102
RTVSPost2010Prop42
 90
       50
102
RTVSPost2010PropOp42
 70
     0
102
RTVSPost2010Prop43
 90
        3
102
RTVSPost2010PropOp43
 70
     0
102
RTVSPost2010Prop44ColorIndex
 90
        5
102
RTVSPost2010Prop44ColorRGB
 90
      255
102
RTVSPost2010PropOp44
 70
     0
102
RTVSPost2010Prop45
280
     0
102
RTVSPost2010PropOp45
 70
     0
102
RTVSPost2010Prop46
 90
       50
102
RTVSPost2010PropOp46
 70
     0
102
RTVSPost2010Prop47
 90
       50
102
RTVSPost2010PropOp47
 70
     0
102
RTVSPost2010Prop48
 90
       50
102
RTVSPost2010PropOp48
 70
     0
102
RTVSPost2010Prop49
280
     0
102
RTVSPost2010PropOp49
 70
     0
102
RTVSPost2010Prop50
 90
       50
102
RTVSPost2010PropOp50
 70
     0
102
RTVSPost2010Prop51ColorIndex
 90
      256
102
RTVSPost2010Prop51ColorRGB
 90
-16777216
102
RTVSPost2010PropOp51
 70
     0
102
RTVSPost2010Prop52
140
1.0
102
RTVSPost2010PropOp52
 70
     0
102
RTVSPost2010Prop53
 90
        2
102
RTVSPost2010PropOp53
 70
     0
102
RTVSPost2010Prop54
  1
strokes_ogs.tif
102
RTVSPost2010PropOp54
 70
     0
102
RTVSPost2010Prop55
280
     0
102
RTVSPost2010PropOp55
 70
     0
102
RTVSPost2010Prop56
140
1.0
102
RTVSPost2010PropOp56
 70
     0
102
RTVSPost2010Prop57
140
1.0
102
RTVSPost2010PropOp57
 70
     0
  0
XRECORD
  5
1AB
102
{ACAD_REACTORS
330
1AA
102
}
330
1AA
100
AcDbXrecord
280
     1
102
RTVSPropertyOp0
 70
     1
102
RTVSPropertyOp1
 70
     1
102
RTVSPropertyOp2
 70
     1
102
RTVSPropertyOp3
 70
     1
102
RTVSPropertyOp4
 70
     1
102
RTVSPropertyOp5
 70
     1
102
RTVSPropertyOp6
 70
     1
102
RTVSPropertyOp7
 70
     1
102
RTVSPropertyOp8
 70
     1
102
RTVSPropertyOp9
 70
     1
102
RTVSPropertyOp10
 70
     1
102
RTVSPropertyOp11
 70
     1
102
RTVSPropertyOp12
 70
     1
102
RTVSPropertyOp13
 70
     1
102
RTVSPropertyOp14
 70
     1
102
RTVSPropertyOp15
 70
     1
102
RTVSPropertyOp16
 70
     1
102
RTVSPropertyOp17
 70
     1
102
RTVSPropertyOp18
 70
     1
102
RTVSPropertyOp19
 70
     1
102
RTVSPropertyOp20
 70
     1
102
RTVSPropertyOp21
 70
     1
102
RTVSPropertyOp22
 70
     1
102
RTVSPropertyOp23
 70
     1
102
RTVSPropertyOp24
 70
     1
102
RTVSPropertyOp25
 70
     1
102
RTVSPropertyOp26
 70
     1
102
RTVSPropertyOp27
 70
     1
102
RTVSPropertyOp28
 70
     1
102
RTVSPropertyOp29
 70
     1
102
RTVSPropertyOp30
 70
     1
102
RTVSPropertyOp31
 70
     1
102
RTVSPropertyOp32
 70
     1
102
RTVSPropertyOp33
 70
     1
102
RTVSPropertyOp34
 70
     1
102
RTVSPropertyOp35
 70
     1
102
RTVSPropertyOp36
 70
     1
102
RTVSPropertyOp37
 70
     1
102
RTVSPropertyOp38
 70
     1
102
RTVSPropertyOp39
 70
     1
102
RTVSPropertyOp40
 70
     1
102
RTVSPropertyOp41
 70
     1
102
RTVSPropertyOp42
 70
     1
102
RTVSPropertyOp43
 70
     1
102
RTVSPropertyOp44
 70
     1
102
RTVSPropertyOp45
 70
     1
102
RTVSPropertyOp46
 70
     1
102
RTVSPropertyOp47
 70
     1
102
RTVSPropertyOp48
 70
     1
102
RTVSPropertyOp49
 70
     1
102
RTVSPropertyOp50
 70
     1
102
RTVSPropertyOp51
 70
     0
102
RTVSPropertyOp52
 70
     0
102
RTVSPropertyOp53
 70
     1
102
RTVSPropertyOp54
 70
     1
102
RTVSPropertyOp55
 70
     1
102
RTVSPropertyOp56
 70
     1
102
RTVSPropertyOp57
 70
     1
102
RTVSPost2010Prop28
280
     0
102
RTVSPost2010PropOp28
 70
     1
102
RTVSPost2010Prop29
280
     1
102
RTVSPost2010PropOp29
 70
     1
102
RTVSPost2010Prop30
280
     1
102
RTVSPost2010PropOp30
 70
     1
102
RTVSPost2010Prop31
280
     0
102
RTVSPost2010PropOp31
 70
     1
102
RTVSPost2010Prop32
280
     0
102
RTVSPost2010PropOp32
 70
     1
102
RTVSPost2010Prop33
280
     0
102
RTVSPost2010PropOp33
 70
     1
102
RTVSPost2010Prop34
280
     0
102
RTVSPost2010PropOp34
 70
     1
102
RTVSPost2010Prop35
280
     0
102
RTVSPost2010PropOp35
 70
     1
102
RTVSPost2010Prop36
280
     0
102
RTVSPost2010PropOp36
 70
     1
102
RTVSPost2010Prop37
 90
       50
102
RTVSPost2010PropOp37
 70
     1
102
RTVSPost2010Prop38
140
0.0
102
RTVSPost2010PropOp38
 70
     1
102
RTVSPost2010Prop39
140
1.0
102
RTVSPost2010PropOp39
 70
     1
102
RTVSPost2010Prop40
 90
        0
102
RTVSPost2010PropOp40
 70
     1
102
RTVSPost2010Prop41ColorIndex
 90
       18
102
RTVSPost2010Prop41ColorRGB
 90
        0
102
RTVSPost2010PropOp41
 70
     1
102
RTVSPost2010Prop42
 90
       50
102
RTVSPost2010PropOp42
 70
     1
102
RTVSPost2010Prop43
 90
        3
102
RTVSPost2010PropOp43
 70
     1
102
RTVSPost2010Prop44ColorIndex
 90
        5
102
RTVSPost2010Prop44ColorRGB
 90
      255
102
RTVSPost2010PropOp44
 70
     1
102
RTVSPost2010Prop45
280
     0
102
RTVSPost2010PropOp45
 70
     1
102
RTVSPost2010Prop46
 90
       50
102
RTVSPost2010PropOp46
 70
     1
102
RTVSPost2010Prop47
 90
       50
102
RTVSPost2010PropOp47
 70
     1
102
RTVSPost2010Prop48
 90
       50
102
RTVSPost2010PropOp48
 70
     1
102
RTVSPost2010Prop49
280
     0
102
RTVSPost2010PropOp49
 70
     1
102
RTVSPost2010Prop50
 90
       50
102
RTVSPost2010PropOp50
 70
     1
102
RTVSPost2010Prop51ColorIndex
 90
      256
102
RTVSPost2010Prop51ColorRGB
 90
-16777216
102
RTVSPost2010PropOp51
 70
     0
102
RTVSPost2010Prop52
140
1.0
102
RTVSPost2010PropOp52
 70
     0
102
RTVSPost2010Prop53
 90
        2
102
RTVSPost2010PropOp53
 70
     1
102
RTVSPost2010Prop54
  1
strokes_ogs.tif
102
RTVSPost2010PropOp54
 70
     1
102
RTVSPost2010Prop55
280
     0
102
RTVSPost2010PropOp55
 70
     1
102
RTVSPost2010Prop56
140
1.0
102
RTVSPost2010PropOp56
 70
     1
102
RTVSPost2010Prop57
140
1.0
102
RTVSPost2010PropOp57
 70
     1
  0
XRECORD
  5
1C9
102
{ACAD_REACTORS
330
1C8
102
}
330
1C8
100
AcDbXrecord
280
     1
102
RTVSPropertyOp0
 70
     1
102
RTVSPropertyOp1
 70
     1
102
RTVSPropertyOp2
 70
     1
102
RTVSPropertyOp3
 70
     1
102
RTVSPropertyOp4
 70
     1
102
RTVSPropertyOp5
 70
     1
102
RTVSPropertyOp6
 70
     1
102
RTVSPropertyOp7
 70
     1
102
RTVSPropertyOp8
 70
     1
102
RTVSPropertyOp9
 70
     1
102
RTVSPropertyOp10
 70
     1
102
RTVSPropertyOp11
 70
     1
102
RTVSPropertyOp12
 70
     1
102
RTVSPropertyOp13
 70
     1
102
RTVSPropertyOp14
 70
     1
102
RTVSPropertyOp15
 70
     1
102
RTVSPropertyOp16
 70
     1
102
RTVSPropertyOp17
 70
     1
102
RTVSPropertyOp18
 70
     1
102
RTVSPropertyOp19
 70
     1
102
RTVSPropertyOp20
 70
     1
102
RTVSPropertyOp21
 70
     1
102
RTVSPropertyOp22
 70
     1
102
RTVSPropertyOp23
 70
     1
102
RTVSPropertyOp24
 70
     1
102
RTVSPropertyOp25
 70
     1
102
RTVSPropertyOp26
 70
     1
102
RTVSPropertyOp27
 70
     1
102
RTVSPropertyOp28
 70
     1
102
RTVSPropertyOp29
 70
     1
102
RTVSPropertyOp30
 70
     1
102
RTVSPropertyOp31
 70
     1
102
RTVSPropertyOp32
 70
     1
102
RTVSPropertyOp33
 70
     1
102
RTVSPropertyOp34
 70
     1
102
RTVSPropertyOp35
 70
     1
102
RTVSPropertyOp36
 70
     1
102
RTVSPropertyOp37
 70
     1
102
RTVSPropertyOp38
 70
     1
102
RTVSPropertyOp39
 70
     1
102
RTVSPropertyOp40
 70
     1
102
RTVSPropertyOp41
 70
     1
102
RTVSPropertyOp42
 70
     1
102
RTVSPropertyOp43
 70
     1
102
RTVSPropertyOp44
 70
     1
102
RTVSPropertyOp45
 70
     1
102
RTVSPropertyOp46
 70
     1
102
RTVSPropertyOp47
 70
     1
102
RTVSPropertyOp48
 70
     1
102
RTVSPropertyOp49
 70
     1
102
RTVSPropertyOp50
 70
     1
102
RTVSPropertyOp51
 70
     0
102
RTVSPropertyOp52
 70
     0
102
RTVSPropertyOp53
 70
     1
102
RTVSPropertyOp54
 70
     1
102
RTVSPropertyOp55
 70
     1
102
RTVSPropertyOp56
 70
     1
102
RTVSPropertyOp57
 70
     1
102
RTVSPost2010Prop28
280
     0
102
RTVSPost2010PropOp28
 70
     1
102
RTVSPost2010Prop29
280
     1
102
RTVSPost2010PropOp29
 70
     1
102
RTVSPost2010Prop30
280
     1
102
RTVSPost2010PropOp30
 70
     1
102
RTVSPost2010Prop31
280
     0
102
RTVSPost2010PropOp31
 70
     1
102
RTVSPost2010Prop32
280
     0
102
RTVSPost2010PropOp32
 70
     1
102
RTVSPost2010Prop33
280
     0
102
RTVSPost2010PropOp33
 70
     1
102
RTVSPost2010Prop34
280
     0
102
RTVSPost2010PropOp34
 70
     1
102
RTVSPost2010Prop35
280
     0
102
RTVSPost2010PropOp35
 70
     1
102
RTVSPost2010Prop36
280
     0
102
RTVSPost2010PropOp36
 70
     1
102
RTVSPost2010Prop37
 90
       50
102
RTVSPost2010PropOp37
 70
     1
102
RTVSPost2010Prop38
140
0.0
102
RTVSPost2010PropOp38
 70
     1
102
RTVSPost2010Prop39
140
1.0
102
RTVSPost2010PropOp39
 70
     1
102
RTVSPost2010Prop40
 90
        0
102
RTVSPost2010PropOp40
 70
     1
102
RTVSPost2010Prop41ColorIndex
 90
       18
102
RTVSPost2010Prop41ColorRGB
 90
        0
102
RTVSPost2010PropOp41
 70
     1
102
RTVSPost2010Prop42
 90
       50
102
RTVSPost2010PropOp42
 70
     1
102
RTVSPost2010Prop43
 90
        3
102
RTVSPost2010PropOp43
 70
     1
102
RTVSPost2010Prop44ColorIndex
 90
        5
102
RTVSPost2010Prop44ColorRGB
 90
      255
102
RTVSPost2010PropOp44
 70
     1
102
RTVSPost2010Prop45
280
     0
102
RTVSPost2010PropOp45
 70
     1
102
RTVSPost2010Prop46
 90
       50
102
RTVSPost2010PropOp46
 70
     1
102
RTVSPost2010Prop47
 90
       50
102
RTVSPost2010PropOp47
 70
     1
102
RTVSPost2010Prop48
 90
       50
102
RTVSPost2010PropOp48
 70
     1
102
RTVSPost2010Prop49
280
     0
102
RTVSPost2010PropOp49
 70
     1
102
RTVSPost2010Prop50
 90
       50
102
RTVSPost2010PropOp50
 70
     1
102
RTVSPost2010Prop51ColorIndex
 90
      256
102
RTVSPost2010Prop51ColorRGB
 90
-16777216
102
RTVSPost2010PropOp51
 70
     0
102
RTVSPost2010Prop52
140
1.0
102
RTVSPost2010PropOp52
 70
     0
102
RTVSPost2010Prop53
 90
        2
102
RTVSPost2010PropOp53
 70
     1
102
RTVSPost2010Prop54
  1
strokes_ogs.tif
102
RTVSPost2010PropOp54
 70
     1
102
RTVSPost2010Prop55
280
     0
102
RTVSPost2010PropOp55
 70
     1
102
RTVSPost2010Prop56
140
1.0
102
RTVSPost2010PropOp56
 70
     1
102
RTVSPost2010Prop57
140
1.0
102
RTVSPost2010PropOp57
 70
     1
  0
XRECORD
  5
1C7
102
{ACAD_REACTORS
330
1C6
102
}
330
1C6
100
AcDbXrecord
280
     1
102
RTVSPropertyOp0
 70
     1
102
RTVSPropertyOp1
 70
     1
102
RTVSPropertyOp2
 70
     1
102
RTVSPropertyOp3
 70
     1
102
RTVSPropertyOp4
 70
     1
102
RTVSPropertyOp5
 70
     1
102
RTVSPropertyOp6
 70
     1
102
RTVSPropertyOp7
 70
     1
102
RTVSPropertyOp8
 70
     1
102
RTVSPropertyOp9
 70
     1
102
RTVSPropertyOp10
 70
     1
102
RTVSPropertyOp11
 70
     1
102
RTVSPropertyOp12
 70
     1
102
RTVSPropertyOp13
 70
     1
102
RTVSPropertyOp14
 70
     1
102
RTVSPropertyOp15
 70
     1
102
RTVSPropertyOp16
 70
     1
102
RTVSPropertyOp17
 70
     1
102
RTVSPropertyOp18
 70
     1
102
RTVSPropertyOp19
 70
     1
102
RTVSPropertyOp20
 70
     1
102
RTVSPropertyOp21
 70
     1
102
RTVSPropertyOp22
 70
     1
102
RTVSPropertyOp23
 70
     1
102
RTVSPropertyOp24
 70
     1
102
RTVSPropertyOp25
 70
     1
102
RTVSPropertyOp26
 70
     1
102
RTVSPropertyOp27
 70
     1
102
RTVSPropertyOp28
 70
     1
102
RTVSPropertyOp29
 70
     1
102
RTVSPropertyOp30
 70
     1
102
RTVSPropertyOp31
 70
     1
102
RTVSPropertyOp32
 70
     1
102
RTVSPropertyOp33
 70
     1
102
RTVSPropertyOp34
 70
     1
102
RTVSPropertyOp35
 70
     1
102
RTVSPropertyOp36
 70
     1
102
RTVSPropertyOp37
 70
     1
102
RTVSPropertyOp38
 70
     1
102
RTVSPropertyOp39
 70
     1
102
RTVSPropertyOp40
 70
     1
102
RTVSPropertyOp41
 70
     1
102
RTVSPropertyOp42
 70
     1
102
RTVSPropertyOp43
 70
     1
102
RTVSPropertyOp44
 70
     1
102
RTVSPropertyOp45
 70
     1
102
RTVSPropertyOp46
 70
     1
102
RTVSPropertyOp47
 70
     1
102
RTVSPropertyOp48
 70
     1
102
RTVSPropertyOp49
 70
     1
102
RTVSPropertyOp50
 70
     1
102
RTVSPropertyOp51
 70
     0
102
RTVSPropertyOp52
 70
     0
102
RTVSPropertyOp53
 70
     1
102
RTVSPropertyOp54
 70
     1
102
RTVSPropertyOp55
 70
     1
102
RTVSPropertyOp56
 70
     1
102
RTVSPropertyOp57
 70
     1
102
RTVSPost2010Prop28
280
     0
102
RTVSPost2010PropOp28
 70
     1
102
RTVSPost2010Prop29
280
     1
102
RTVSPost2010PropOp29
 70
     1
102
RTVSPost2010Prop30
280
     1
102
RTVSPost2010PropOp30
 70
     1
102
RTVSPost2010Prop31
280
     0
102
RTVSPost2010PropOp31
 70
     1
102
RTVSPost2010Prop32
280
     0
102
RTVSPost2010PropOp32
 70
     1
102
RTVSPost2010Prop33
280
     0
102
RTVSPost2010PropOp33
 70
     1
102
RTVSPost2010Prop34
280
     0
102
RTVSPost2010PropOp34
 70
     1
102
RTVSPost2010Prop35
280
     0
102
RTVSPost2010PropOp35
 70
     1
102
RTVSPost2010Prop36
280
     0
102
RTVSPost2010PropOp36
 70
     1
102
RTVSPost2010Prop37
 90
       50
102
RTVSPost2010PropOp37
 70
     1
102
RTVSPost2010Prop38
140
0.0
102
RTVSPost2010PropOp38
 70
     1
102
RTVSPost2010Prop39
140
1.0
102
RTVSPost2010PropOp39
 70
     1
102
RTVSPost2010Prop40
 90
        0
102
RTVSPost2010PropOp40
 70
     1
102
RTVSPost2010Prop41ColorIndex
 90
       18
102
RTVSPost2010Prop41ColorRGB
 90
        0
102
RTVSPost2010PropOp41
 70
     1
102
RTVSPost2010Prop42
 90
       50
102
RTVSPost2010PropOp42
 70
     1
102
RTVSPost2010Prop43
 90
        3
102
RTVSPost2010PropOp43
 70
     1
102
RTVSPost2010Prop44ColorIndex
 90
        5
102
RTVSPost2010Prop44ColorRGB
 90
      255
102
RTVSPost2010PropOp44
 70
     1
102
RTVSPost2010Prop45
280
     0
102
RTVSPost2010PropOp45
 70
     1
102
RTVSPost2010Prop46
 90
       50
102
RTVSPost2010PropOp46
 70
     1
102
RTVSPost2010Prop47
 90
       50
102
RTVSPost2010PropOp47
 70
     1
102
RTVSPost2010Prop48
 90
       50
102
RTVSPost2010PropOp48
 70
     1
102
RTVSPost2010Prop49
280
     0
102
RTVSPost2010PropOp49
 70
     1
102
RTVSPost2010Prop50
 90
       50
102
RTVSPost2010PropOp50
 70
     1
102
RTVSPost2010Prop51ColorIndex
 90
      256
102
RTVSPost2010Prop51ColorRGB
 90
-16777216
102
RTVSPost2010PropOp51
 70
     0
102
RTVSPost2010Prop52
140
1.0
102
RTVSPost2010PropOp52
 70
     0
102
RTVSPost2010Prop53
 90
        2
102
RTVSPost2010PropOp53
 70
     1
102
RTVSPost2010Prop54
  1
strokes_ogs.tif
102
RTVSPost2010PropOp54
 70
     1
102
RTVSPost2010Prop55
280
     0
102
RTVSPost2010PropOp55
 70
     1
102
RTVSPost2010Prop56
140
1.0
102
RTVSPost2010PropOp56
 70
     1
102
RTVSPost2010Prop57
140
1.0
102
RTVSPost2010PropOp57
 70
     1
  0
XRECORD
  5
1C1
102
{ACAD_REACTORS
330
1C0
102
}
330
1C0
100
AcDbXrecord
280
     1
102
RTVSPropertyOp0
 70
     1
102
RTVSPropertyOp1
 70
     1
102
RTVSPropertyOp2
 70
     1
102
RTVSPropertyOp3
 70
     1
102
RTVSPropertyOp4
 70
     1
102
RTVSPropertyOp5
 70
     1
102
RTVSPropertyOp6
 70
     1
102
RTVSPropertyOp7
 70
     1
102
RTVSPropertyOp8
 70
     1
102
RTVSPropertyOp9
 70
     1
102
RTVSPropertyOp10
 70
     1
102
RTVSPropertyOp11
 70
     1
102
RTVSPropertyOp12
 70
     1
102
RTVSPropertyOp13
 70
     1
102
RTVSPropertyOp14
 70
     1
102
RTVSPropertyOp15
 70
     1
102
RTVSPropertyOp16
 70
     1
102
RTVSPropertyOp17
 70
     1
102
RTVSPropertyOp18
 70
     1
102
RTVSPropertyOp19
 70
     1
102
RTVSPropertyOp20
 70
     1
102
RTVSPropertyOp21
 70
     1
102
RTVSPropertyOp22
 70
     1
102
RTVSPropertyOp23
 70
     1
102
RTVSPropertyOp24
 70
     1
102
RTVSPropertyOp25
 70
     1
102
RTVSPropertyOp26
 70
     1
102
RTVSPropertyOp27
 70
     1
102
RTVSPropertyOp28
 70
     1
102
RTVSPropertyOp29
 70
     1
102
RTVSPropertyOp30
 70
     1
102
RTVSPropertyOp31
 70
     1
102
RTVSPropertyOp32
 70
     1
102
RTVSPropertyOp33
 70
     1
102
RTVSPropertyOp34
 70
     1
102
RTVSPropertyOp35
 70
     1
102
RTVSPropertyOp36
 70
     1
102
RTVSPropertyOp37
 70
     1
102
RTVSPropertyOp38
 70
     1
102
RTVSPropertyOp39
 70
     1
102
RTVSPropertyOp40
 70
     1
102
RTVSPropertyOp41
 70
     1
102
RTVSPropertyOp42
 70
     1
102
RTVSPropertyOp43
 70
     1
102
RTVSPropertyOp44
 70
     1
102
RTVSPropertyOp45
 70
     1
102
RTVSPropertyOp46
 70
     1
102
RTVSPropertyOp47
 70
     1
102
RTVSPropertyOp48
 70
     1
102
RTVSPropertyOp49
 70
     1
102
RTVSPropertyOp50
 70
     1
102
RTVSPropertyOp51
 70
     0
102
RTVSPropertyOp52
 70
     0
102
RTVSPropertyOp53
 70
     1
102
RTVSPropertyOp54
 70
     1
102
RTVSPropertyOp55
 70
     1
102
RTVSPropertyOp56
 70
     1
102
RTVSPropertyOp57
 70
     1
102
RTVSPost2010Prop28
280
     0
102
RTVSPost2010PropOp28
 70
     1
102
RTVSPost2010Prop29
280
     1
102
RTVSPost2010PropOp29
 70
     1
102
RTVSPost2010Prop30
280
     1
102
RTVSPost2010PropOp30
 70
     1
102
RTVSPost2010Prop31
280
     0
102
RTVSPost2010PropOp31
 70
     1
102
RTVSPost2010Prop32
280
     0
102
RTVSPost2010PropOp32
 70
     1
102
RTVSPost2010Prop33
280
     0
102
RTVSPost2010PropOp33
 70
     1
102
RTVSPost2010Prop34
280
     0
102
RTVSPost2010PropOp34
 70
     1
102
RTVSPost2010Prop35
280
     0
102
RTVSPost2010PropOp35
 70
     1
102
RTVSPost2010Prop36
280
     0
102
RTVSPost2010PropOp36
 70
     1
102
RTVSPost2010Prop37
 90
       50
102
RTVSPost2010PropOp37
 70
     1
102
RTVSPost2010Prop38
140
0.0
102
RTVSPost2010PropOp38
 70
     1
102
RTVSPost2010Prop39
140
1.0
102
RTVSPost2010PropOp39
 70
     1
102
RTVSPost2010Prop40
 90
        0
102
RTVSPost2010PropOp40
 70
     1
102
RTVSPost2010Prop41ColorIndex
 90
       18
102
RTVSPost2010Prop41ColorRGB
 90
        0
102
RTVSPost2010PropOp41
 70
     1
102
RTVSPost2010Prop42
 90
       50
102
RTVSPost2010PropOp42
 70
     1
102
RTVSPost2010Prop43
 90
        3
102
RTVSPost2010PropOp43
 70
     1
102
RTVSPost2010Prop44ColorIndex
 90
        5
102
RTVSPost2010Prop44ColorRGB
 90
      255
102
RTVSPost2010PropOp44
 70
     1
102
RTVSPost2010Prop45
280
     0
102
RTVSPost2010PropOp45
 70
     1
102
RTVSPost2010Prop46
 90
       50
102
RTVSPost2010PropOp46
 70
     1
102
RTVSPost2010Prop47
 90
       50
102
RTVSPost2010PropOp47
 70
     1
102
RTVSPost2010Prop48
 90
       50
102
RTVSPost2010PropOp48
 70
     1
102
RTVSPost2010Prop49
280
     0
102
RTVSPost2010PropOp49
 70
     1
102
RTVSPost2010Prop50
 90
       50
102
RTVSPost2010PropOp50
 70
     1
102
RTVSPost2010Prop51ColorIndex
 90
      256
102
RTVSPost2010Prop51ColorRGB
 90
-16777216
102
RTVSPost2010PropOp51
 70
     0
102
RTVSPost2010Prop52
140
1.0
102
RTVSPost2010PropOp52
 70
     0
102
RTVSPost2010Prop53
 90
        2
102
RTVSPost2010PropOp53
 70
     1
102
RTVSPost2010Prop54
  1
strokes_ogs.tif
102
RTVSPost2010PropOp54
 70
     1
102
RTVSPost2010Prop55
280
     0
102
RTVSPost2010PropOp55
 70
     1
102
RTVSPost2010Prop56
140
1.0
102
RTVSPost2010PropOp56
 70
     1
102
RTVSPost2010Prop57
140
1.0
102
RTVSPost2010PropOp57
 70
     1
  0
XRECORD
  5
1C3
102
{ACAD_REACTORS
330
1C2
102
}
330
1C2
100
AcDbXrecord
280
     1
102
RTVSPropertyOp0
 70
     1
102
RTVSPropertyOp1
 70
     1
102
RTVSPropertyOp2
 70
     1
102
RTVSPropertyOp3
 70
     1
102
RTVSPropertyOp4
 70
     1
102
RTVSPropertyOp5
 70
     1
102
RTVSPropertyOp6
 70
     1
102
RTVSPropertyOp7
 70
     1
102
RTVSPropertyOp8
 70
     1
102
RTVSPropertyOp9
 70
     1
102
RTVSPropertyOp10
 70
     1
102
RTVSPropertyOp11
 70
     1
102
RTVSPropertyOp12
 70
     1
102
RTVSPropertyOp13
 70
     1
102
RTVSPropertyOp14
 70
     1
102
RTVSPropertyOp15
 70
     1
102
RTVSPropertyOp16
 70
     1
102
RTVSPropertyOp17
 70
     1
102
RTVSPropertyOp18
 70
     1
102
RTVSPropertyOp19
 70
     1
102
RTVSPropertyOp20
 70
     1
102
RTVSPropertyOp21
 70
     1
102
RTVSPropertyOp22
 70
     1
102
RTVSPropertyOp23
 70
     1
102
RTVSPropertyOp24
 70
     1
102
RTVSPropertyOp25
 70
     1
102
RTVSPropertyOp26
 70
     1
102
RTVSPropertyOp27
 70
     1
102
RTVSPropertyOp28
 70
     1
102
RTVSPropertyOp29
 70
     1
102
RTVSPropertyOp30
 70
     1
102
RTVSPropertyOp31
 70
     1
102
RTVSPropertyOp32
 70
     1
102
RTVSPropertyOp33
 70
     1
102
RTVSPropertyOp34
 70
     1
102
RTVSPropertyOp35
 70
     1
102
RTVSPropertyOp36
 70
     1
102
RTVSPropertyOp37
 70
     1
102
RTVSPropertyOp38
 70
     1
102
RTVSPropertyOp39
 70
     1
102
RTVSPropertyOp40
 70
     1
102
RTVSPropertyOp41
 70
     1
102
RTVSPropertyOp42
 70
     1
102
RTVSPropertyOp43
 70
     1
102
RTVSPropertyOp44
 70
     1
102
RTVSPropertyOp45
 70
     1
102
RTVSPropertyOp46
 70
     1
102
RTVSPropertyOp47
 70
     1
102
RTVSPropertyOp48
 70
     1
102
RTVSPropertyOp49
 70
     1
102
RTVSPropertyOp50
 70
     1
102
RTVSPropertyOp51
 70
     0
102
RTVSPropertyOp52
 70
     0
102
RTVSPropertyOp53
 70
     1
102
RTVSPropertyOp54
 70
     1
102
RTVSPropertyOp55
 70
     1
102
RTVSPropertyOp56
 70
     1
102
RTVSPropertyOp57
 70
     1
102
RTVSPost2010Prop28
280
     0
102
RTVSPost2010PropOp28
 70
     1
102
RTVSPost2010Prop29
280
     1
102
RTVSPost2010PropOp29
 70
     1
102
RTVSPost2010Prop30
280
     1
102
RTVSPost2010PropOp30
 70
     1
102
RTVSPost2010Prop31
280
     0
102
RTVSPost2010PropOp31
 70
     1
102
RTVSPost2010Prop32
280
     0
102
RTVSPost2010PropOp32
 70
     1
102
RTVSPost2010Prop33
280
     0
102
RTVSPost2010PropOp33
 70
     1
102
RTVSPost2010Prop34
280
     0
102
RTVSPost2010PropOp34
 70
     1
102
RTVSPost2010Prop35
280
     0
102
RTVSPost2010PropOp35
 70
     1
102
RTVSPost2010Prop36
280
     0
102
RTVSPost2010PropOp36
 70
     1
102
RTVSPost2010Prop37
 90
       50
102
RTVSPost2010PropOp37
 70
     1
102
RTVSPost2010Prop38
140
0.0
102
RTVSPost2010PropOp38
 70
     1
102
RTVSPost2010Prop39
140
1.0
102
RTVSPost2010PropOp39
 70
     1
102
RTVSPost2010Prop40
 90
        0
102
RTVSPost2010PropOp40
 70
     1
102
RTVSPost2010Prop41ColorIndex
 90
       18
102
RTVSPost2010Prop41ColorRGB
 90
        0
102
RTVSPost2010PropOp41
 70
     1
102
RTVSPost2010Prop42
 90
       50
102
RTVSPost2010PropOp42
 70
     1
102
RTVSPost2010Prop43
 90
        3
102
RTVSPost2010PropOp43
 70
     1
102
RTVSPost2010Prop44ColorIndex
 90
        5
102
RTVSPost2010Prop44ColorRGB
 90
      255
102
RTVSPost2010PropOp44
 70
     1
102
RTVSPost2010Prop45
280
     0
102
RTVSPost2010PropOp45
 70
     1
102
RTVSPost2010Prop46
 90
       50
102
RTVSPost2010PropOp46
 70
     1
102
RTVSPost2010Prop47
 90
       50
102
RTVSPost2010PropOp47
 70
     1
102
RTVSPost2010Prop48
 90
       50
102
RTVSPost2010PropOp48
 70
     1
102
RTVSPost2010Prop49
280
     0
102
RTVSPost2010PropOp49
 70
     1
102
RTVSPost2010Prop50
 90
       50
102
RTVSPost2010PropOp50
 70
     1
102
RTVSPost2010Prop51ColorIndex
 90
      256
102
RTVSPost2010Prop51ColorRGB
 90
-16777216
102
RTVSPost2010PropOp51
 70
     0
102
RTVSPost2010Prop52
140
1.0
102
RTVSPost2010PropOp52
 70
     0
102
RTVSPost2010Prop53
 90
        2
102
RTVSPost2010PropOp53
 70
     1
102
RTVSPost2010Prop54
  1
strokes_ogs.tif
102
RTVSPost2010PropOp54
 70
     1
102
RTVSPost2010Prop55
280
     0
102
RTVSPost2010PropOp55
 70
     1
102
RTVSPost2010Prop56
140
1.0
102
RTVSPost2010PropOp56
 70
     1
102
RTVSPost2010Prop57
140
1.0
102
RTVSPost2010PropOp57
 70
     1
  0
XRECORD
  5
1B3
102
{ACAD_REACTORS
330
1B2
102
}
330
1B2
100
AcDbXrecord
280
     1
102
RTVSPropertyOp0
 70
     1
102
RTVSPropertyOp1
 70
     1
102
RTVSPropertyOp2
 70
     1
102
RTVSPropertyOp3
 70
     1
102
RTVSPropertyOp4
 70
     1
102
RTVSPropertyOp5
 70
     1
102
RTVSPropertyOp6
 70
     1
102
RTVSPropertyOp7
 70
     1
102
RTVSPropertyOp8
 70
     1
102
RTVSPropertyOp9
 70
     1
102
RTVSPropertyOp10
 70
     1
102
RTVSPropertyOp11
 70
     1
102
RTVSPropertyOp12
 70
     1
102
RTVSPropertyOp13
 70
     1
102
RTVSPropertyOp14
 70
     1
102
RTVSPropertyOp15
 70
     1
102
RTVSPropertyOp16
 70
     1
102
RTVSPropertyOp17
 70
     1
102
RTVSPropertyOp18
 70
     1
102
RTVSPropertyOp19
 70
     1
102
RTVSPropertyOp20
 70
     1
102
RTVSPropertyOp21
 70
     1
102
RTVSPropertyOp22
 70
     1
102
RTVSPropertyOp23
 70
     1
102
RTVSPropertyOp24
 70
     1
102
RTVSPropertyOp25
 70
     1
102
RTVSPropertyOp26
 70
     1
102
RTVSPropertyOp27
 70
     1
102
RTVSPropertyOp28
 70
     1
102
RTVSPropertyOp29
 70
     1
102
RTVSPropertyOp30
 70
     1
102
RTVSPropertyOp31
 70
     1
102
RTVSPropertyOp32
 70
     1
102
RTVSPropertyOp33
 70
     1
102
RTVSPropertyOp34
 70
     1
102
RTVSPropertyOp35
 70
     1
102
RTVSPropertyOp36
 70
     1
102
RTVSPropertyOp37
 70
     1
102
RTVSPropertyOp38
 70
     1
102
RTVSPropertyOp39
 70
     1
102
RTVSPropertyOp40
 70
     1
102
RTVSPropertyOp41
 70
     1
102
RTVSPropertyOp42
 70
     1
102
RTVSPropertyOp43
 70
     1
102
RTVSPropertyOp44
 70
     1
102
RTVSPropertyOp45
 70
     1
102
RTVSPropertyOp46
 70
     1
102
RTVSPropertyOp47
 70
     1
102
RTVSPropertyOp48
 70
     1
102
RTVSPropertyOp49
 70
     1
102
RTVSPropertyOp50
 70
     1
102
RTVSPropertyOp51
 70
     0
102
RTVSPropertyOp52
 70
     0
102
RTVSPropertyOp53
 70
     1
102
RTVSPropertyOp54
 70
     1
102
RTVSPropertyOp55
 70
     1
102
RTVSPropertyOp56
 70
     1
102
RTVSPropertyOp57
 70
     1
102
RTVSPost2010Prop28
280
     0
102
RTVSPost2010PropOp28
 70
     1
102
RTVSPost2010Prop29
280
     1
102
RTVSPost2010PropOp29
 70
     1
102
RTVSPost2010Prop30
280
     1
102
RTVSPost2010PropOp30
 70
     1
102
RTVSPost2010Prop31
280
     0
102
RTVSPost2010PropOp31
 70
     1
102
RTVSPost2010Prop32
280
     0
102
RTVSPost2010PropOp32
 70
     1
102
RTVSPost2010Prop33
280
     0
102
RTVSPost2010PropOp33
 70
     1
102
RTVSPost2010Prop34
280
     0
102
RTVSPost2010PropOp34
 70
     1
102
RTVSPost2010Prop35
280
     0
102
RTVSPost2010PropOp35
 70
     1
102
RTVSPost2010Prop36
280
     0
102
RTVSPost2010PropOp36
 70
     1
102
RTVSPost2010Prop37
 90
       50
102
RTVSPost2010PropOp37
 70
     1
102
RTVSPost2010Prop38
140
0.0
102
RTVSPost2010PropOp38
 70
     1
102
RTVSPost2010Prop39
140
1.0
102
RTVSPost2010PropOp39
 70
     1
102
RTVSPost2010Prop40
 90
        0
102
RTVSPost2010PropOp40
 70
     1
102
RTVSPost2010Prop41ColorIndex
 90
       18
102
RTVSPost2010Prop41ColorRGB
 90
        0
102
RTVSPost2010PropOp41
 70
     1
102
RTVSPost2010Prop42
 90
       50
102
RTVSPost2010PropOp42
 70
     1
102
RTVSPost2010Prop43
 90
        3
102
RTVSPost2010PropOp43
 70
     1
102
RTVSPost2010Prop44ColorIndex
 90
        5
102
RTVSPost2010Prop44ColorRGB
 90
      255
102
RTVSPost2010PropOp44
 70
     1
102
RTVSPost2010Prop45
280
     0
102
RTVSPost2010PropOp45
 70
     1
102
RTVSPost2010Prop46
 90
       50
102
RTVSPost2010PropOp46
 70
     1
102
RTVSPost2010Prop47
 90
       50
102
RTVSPost2010PropOp47
 70
     1
102
RTVSPost2010Prop48
 90
       50
102
RTVSPost2010PropOp48
 70
     1
102
RTVSPost2010Prop49
280
     0
102
RTVSPost2010PropOp49
 70
     1
102
RTVSPost2010Prop50
 90
       50
102
RTVSPost2010PropOp50
 70
     1
102
RTVSPost2010Prop51ColorIndex
 90
      256
102
RTVSPost2010Prop51ColorRGB
 90
-16777216
102
RTVSPost2010PropOp51
 70
     0
102
RTVSPost2010Prop52
140
1.0
102
RTVSPost2010PropOp52
 70
     0
102
RTVSPost2010Prop53
 90
        2
102
RTVSPost2010PropOp53
 70
     1
102
RTVSPost2010Prop54
  1
strokes_ogs.tif
102
RTVSPost2010PropOp54
 70
     1
102
RTVSPost2010Prop55
280
     0
102
RTVSPost2010PropOp55
 70
     1
102
RTVSPost2010Prop56
140
1.0
102
RTVSPost2010PropOp56
 70
     1
102
RTVSPost2010Prop57
140
1.0
102
RTVSPost2010PropOp57
 70
     1
  0
XRECORD
  5
1A5
102
{ACAD_REACTORS
330
1A4
102
}
330
1A4
100
AcDbXrecord
280
     1
102
RTVSPropertyOp0
 70
     1
102
RTVSPropertyOp1
 70
     1
102
RTVSPropertyOp2
 70
     1
102
RTVSPropertyOp3
 70
     1
102
RTVSPropertyOp4
 70
     1
102
RTVSPropertyOp5
 70
     1
102
RTVSPropertyOp6
 70
     1
102
RTVSPropertyOp7
 70
     1
102
RTVSPropertyOp8
 70
     1
102
RTVSPropertyOp9
 70
     1
102
RTVSPropertyOp10
 70
     1
102
RTVSPropertyOp11
 70
     1
102
RTVSPropertyOp12
 70
     1
102
RTVSPropertyOp13
 70
     1
102
RTVSPropertyOp14
 70
     1
102
RTVSPropertyOp15
 70
     1
102
RTVSPropertyOp16
 70
     1
102
RTVSPropertyOp17
 70
     1
102
RTVSPropertyOp18
 70
     1
102
RTVSPropertyOp19
 70
     1
102
RTVSPropertyOp20
 70
     1
102
RTVSPropertyOp21
 70
     1
102
RTVSPropertyOp22
 70
     1
102
RTVSPropertyOp23
 70
     1
102
RTVSPropertyOp24
 70
     1
102
RTVSPropertyOp25
 70
     1
102
RTVSPropertyOp26
 70
     1
102
RTVSPropertyOp27
 70
     1
102
RTVSPropertyOp28
 70
     1
102
RTVSPropertyOp29
 70
     1
102
RTVSPropertyOp30
 70
     1
102
RTVSPropertyOp31
 70
     1
102
RTVSPropertyOp32
 70
     1
102
RTVSPropertyOp33
 70
     1
102
RTVSPropertyOp34
 70
     1
102
RTVSPropertyOp35
 70
     1
102
RTVSPropertyOp36
 70
     1
102
RTVSPropertyOp37
 70
     1
102
RTVSPropertyOp38
 70
     1
102
RTVSPropertyOp39
 70
     1
102
RTVSPropertyOp40
 70
     1
102
RTVSPropertyOp41
 70
     1
102
RTVSPropertyOp42
 70
     1
102
RTVSPropertyOp43
 70
     1
102
RTVSPropertyOp44
 70
     1
102
RTVSPropertyOp45
 70
     1
102
RTVSPropertyOp46
 70
     1
102
RTVSPropertyOp47
 70
     1
102
RTVSPropertyOp48
 70
     1
102
RTVSPropertyOp49
 70
     1
102
RTVSPropertyOp50
 70
     1
102
RTVSPropertyOp51
 70
     0
102
RTVSPropertyOp52
 70
     0
102
RTVSPropertyOp53
 70
     1
102
RTVSPropertyOp54
 70
     1
102
RTVSPropertyOp55
 70
     1
102
RTVSPropertyOp56
 70
     1
102
RTVSPropertyOp57
 70
     1
102
RTVSPost2010Prop28
280
     0
102
RTVSPost2010PropOp28
 70
     1
102
RTVSPost2010Prop29
280
     1
102
RTVSPost2010PropOp29
 70
     1
102
RTVSPost2010Prop30
280
     1
102
RTVSPost2010PropOp30
 70
     1
102
RTVSPost2010Prop31
280
     0
102
RTVSPost2010PropOp31
 70
     1
102
RTVSPost2010Prop32
280
     0
102
RTVSPost2010PropOp32
 70
     1
102
RTVSPost2010Prop33
280
     0
102
RTVSPost2010PropOp33
 70
     1
102
RTVSPost2010Prop34
280
     0
102
RTVSPost2010PropOp34
 70
     1
102
RTVSPost2010Prop35
280
     0
102
RTVSPost2010PropOp35
 70
     1
102
RTVSPost2010Prop36
280
     0
102
RTVSPost2010PropOp36
 70
     1
102
RTVSPost2010Prop37
 90
       50
102
RTVSPost2010PropOp37
 70
     1
102
RTVSPost2010Prop38
140
0.0
102
RTVSPost2010PropOp38
 70
     1
102
RTVSPost2010Prop39
140
1.0
102
RTVSPost2010PropOp39
 70
     1
102
RTVSPost2010Prop40
 90
        0
102
RTVSPost2010PropOp40
 70
     1
102
RTVSPost2010Prop41ColorIndex
 90
       18
102
RTVSPost2010Prop41ColorRGB
 90
        0
102
RTVSPost2010PropOp41
 70
     1
102
RTVSPost2010Prop42
 90
       50
102
RTVSPost2010PropOp42
 70
     1
102
RTVSPost2010Prop43
 90
        3
102
RTVSPost2010PropOp43
 70
     1
102
RTVSPost2010Prop44ColorIndex
 90
        5
102
RTVSPost2010Prop44ColorRGB
 90
      255
102
RTVSPost2010PropOp44
 70
     1
102
RTVSPost2010Prop45
280
     0
102
RTVSPost2010PropOp45
 70
     1
102
RTVSPost2010Prop46
 90
       50
102
RTVSPost2010PropOp46
 70
     1
102
RTVSPost2010Prop47
 90
       50
102
RTVSPost2010PropOp47
 70
     1
102
RTVSPost2010Prop48
 90
       50
102
RTVSPost2010PropOp48
 70
     1
102
RTVSPost2010Prop49
280
     0
102
RTVSPost2010PropOp49
 70
     1
102
RTVSPost2010Prop50
 90
       50
102
RTVSPost2010PropOp50
 70
     1
102
RTVSPost2010Prop51ColorIndex
 90
      256
102
RTVSPost2010Prop51ColorRGB
 90
-16777216
102
RTVSPost2010PropOp51
 70
     0
102
RTVSPost2010Prop52
140
1.0
102
RTVSPost2010PropOp52
 70
     0
102
RTVSPost2010Prop53
 90
        2
102
RTVSPost2010PropOp53
 70
     1
102
RTVSPost2010Prop54
  1
strokes_ogs.tif
102
RTVSPost2010PropOp54
 70
     1
102
RTVSPost2010Prop55
280
     0
102
RTVSPost2010PropOp55
 70
     1
102
RTVSPost2010Prop56
140
1.0
102
RTVSPost2010PropOp56
 70
     1
102
RTVSPost2010Prop57
140
1.0
102
RTVSPost2010PropOp57
 70
     1
  0
XRECORD
  5
1C5
102
{ACAD_REACTORS
330
1C4
102
}
330
1C4
100
AcDbXrecord
280
     1
102
RTVSPropertyOp0
 70
     1
102
RTVSPropertyOp1
 70
     1
102
RTVSPropertyOp2
 70
     1
102
RTVSPropertyOp3
 70
     1
102
RTVSPropertyOp4
 70
     1
102
RTVSPropertyOp5
 70
     1
102
RTVSPropertyOp6
 70
     1
102
RTVSPropertyOp7
 70
     1
102
RTVSPropertyOp8
 70
     1
102
RTVSPropertyOp9
 70
     1
102
RTVSPropertyOp10
 70
     1
102
RTVSPropertyOp11
 70
     1
102
RTVSPropertyOp12
 70
     1
102
RTVSPropertyOp13
 70
     1
102
RTVSPropertyOp14
 70
     1
102
RTVSPropertyOp15
 70
     1
102
RTVSPropertyOp16
 70
     1
102
RTVSPropertyOp17
 70
     1
102
RTVSPropertyOp18
 70
     1
102
RTVSPropertyOp19
 70
     1
102
RTVSPropertyOp20
 70
     1
102
RTVSPropertyOp21
 70
     1
102
RTVSPropertyOp22
 70
     1
102
RTVSPropertyOp23
 70
     1
102
RTVSPropertyOp24
 70
     1
102
RTVSPropertyOp25
 70
     1
102
RTVSPropertyOp26
 70
     1
102
RTVSPropertyOp27
 70
     1
102
RTVSPropertyOp28
 70
     1
102
RTVSPropertyOp29
 70
     1
102
RTVSPropertyOp30
 70
     1
102
RTVSPropertyOp31
 70
     1
102
RTVSPropertyOp32
 70
     1
102
RTVSPropertyOp33
 70
     1
102
RTVSPropertyOp34
 70
     1
102
RTVSPropertyOp35
 70
     1
102
RTVSPropertyOp36
 70
     1
102
RTVSPropertyOp37
 70
     1
102
RTVSPropertyOp38
 70
     1
102
RTVSPropertyOp39
 70
     1
102
RTVSPropertyOp40
 70
     1
102
RTVSPropertyOp41
 70
     1
102
RTVSPropertyOp42
 70
     1
102
RTVSPropertyOp43
 70
     1
102
RTVSPropertyOp44
 70
     1
102
RTVSPropertyOp45
 70
     1
102
RTVSPropertyOp46
 70
     1
102
RTVSPropertyOp47
 70
     1
102
RTVSPropertyOp48
 70
     1
102
RTVSPropertyOp49
 70
     1
102
RTVSPropertyOp50
 70
     1
102
RTVSPropertyOp51
 70
     0
102
RTVSPropertyOp52
 70
     0
102
RTVSPropertyOp53
 70
     1
102
RTVSPropertyOp54
 70
     1
102
RTVSPropertyOp55
 70
     1
102
RTVSPropertyOp56
 70
     1
102
RTVSPropertyOp57
 70
     1
102
RTVSPost2010Prop28
280
     0
102
RTVSPost2010PropOp28
 70
     1
102
RTVSPost2010Prop29
280
     1
102
RTVSPost2010PropOp29
 70
     1
102
RTVSPost2010Prop30
280
     1
102
RTVSPost2010PropOp30
 70
     1
102
RTVSPost2010Prop31
280
     0
102
RTVSPost2010PropOp31
 70
     1
102
RTVSPost2010Prop32
280
     0
102
RTVSPost2010PropOp32
 70
     1
102
RTVSPost2010Prop33
280
     0
102
RTVSPost2010PropOp33
 70
     1
102
RTVSPost2010Prop34
280
     0
102
RTVSPost2010PropOp34
 70
     1
102
RTVSPost2010Prop35
280
     0
102
RTVSPost2010PropOp35
 70
     1
102
RTVSPost2010Prop36
280
     0
102
RTVSPost2010PropOp36
 70
     1
102
RTVSPost2010Prop37
 90
       50
102
RTVSPost2010PropOp37
 70
     1
102
RTVSPost2010Prop38
140
0.0
102
RTVSPost2010PropOp38
 70
     1
102
RTVSPost2010Prop39
140
1.0
102
RTVSPost2010PropOp39
 70
     1
102
RTVSPost2010Prop40
 90
        0
102
RTVSPost2010PropOp40
 70
     1
102
RTVSPost2010Prop41ColorIndex
 90
       18
102
RTVSPost2010Prop41ColorRGB
 90
        0
102
RTVSPost2010PropOp41
 70
     1
102
RTVSPost2010Prop42
 90
       50
102
RTVSPost2010PropOp42
 70
     1
102
RTVSPost2010Prop43
 90
        3
102
RTVSPost2010PropOp43
 70
     1
102
RTVSPost2010Prop44ColorIndex
 90
        5
102
RTVSPost2010Prop44ColorRGB
 90
      255
102
RTVSPost2010PropOp44
 70
     1
102
RTVSPost2010Prop45
280
     0
102
RTVSPost2010PropOp45
 70
     1
102
RTVSPost2010Prop46
 90
       50
102
RTVSPost2010PropOp46
 70
     1
102
RTVSPost2010Prop47
 90
       50
102
RTVSPost2010PropOp47
 70
     1
102
RTVSPost2010Prop48
 90
       50
102
RTVSPost2010PropOp48
 70
     1
102
RTVSPost2010Prop49
280
     0
102
RTVSPost2010PropOp49
 70
     1
102
RTVSPost2010Prop50
 90
       50
102
RTVSPost2010PropOp50
 70
     1
102
RTVSPost2010Prop51ColorIndex
 90
      256
102
RTVSPost2010Prop51ColorRGB
 90
-16777216
102
RTVSPost2010PropOp51
 70
     0
102
RTVSPost2010Prop52
140
1.0
102
RTVSPost2010PropOp52
 70
     0
102
RTVSPost2010Prop53
 90
        2
102
RTVSPost2010PropOp53
 70
     1
102
RTVSPost2010Prop54
  1
strokes_ogs.tif
102
RTVSPost2010PropOp54
 70
     1
102
RTVSPost2010Prop55
280
     0
102
RTVSPost2010PropOp55
 70
     1
102
RTVSPost2010Prop56
140
1.0
102
RTVSPost2010PropOp56
 70
     1
102
RTVSPost2010Prop57
140
1.0
102
RTVSPost2010PropOp57
 70
     1
  0
ENDSEC
  0
EOF
