  0
SECTION
  2
HEADER
  9
$ACADVER
  1
AC1009
  9
$DWGCODEPAGE
  3
ansi_1252
  9
$INSBASE
 10
0.0
 20
0.0
 30
0.0
  9
$EXTMIN
 10
-1736.845209622582
 20
-2538.4
 30
1.542802548035694
  9
$EXTMAX
 10
-1432.045209622582
 20
-1928.8
 30
3.089688073450816
  9
$LIMMIN
 10
0.0
 20
0.0
  9
$LIMMAX
 10
12.0
 20
9.0
  9
$ORTHOMODE
 70
     0
  9
$REGENMODE
 70
     1
  9
$FILLMODE
 70
     1
  9
$QTEXTMODE
 70
     0
  9
$MIRRTEXT
 70
     1
  9
$DRAGMODE
 70
     2
  9
$LTSCALE
 40
1.0
  9
$OSMODE
 70
    37
  9
$ATTMODE
 70
     1
  9
$TEXTSIZE
 40
0.2
  9
$TRACEWID
 40
0.05
  9
$TEXTSTYLE
  7
STANDARD
  9
$CLAYER
  8
DEFAULT
  9
$CELTYPE
  6
BYLAYER
  9
$CECOLOR
 62
   256
  9
$DIMSCALE
 40
1.0
  9
$DIMASZ
 40
0.18
  9
$DIMEXO
 40
0.0625
  9
$DIMDLI
 40
0.38
  9
$DIMRND
 40
0.0
  9
$DIMDLE
 40
0.0
  9
$DIMEXE
 40
0.18
  9
$DIMTP
 40
0.0
  9
$DIMTM
 40
0.0
  9
$DIMTXT
 40
0.18
  9
$DIMCEN
 40
0.09
  9
$DIMTSZ
 40
0.0
  9
$DIMTOL
 70
     0
  9
$DIMLIM
 70
     0
  9
$DIMTIH
 70
     1
  9
$DIMTOH
 70
     1
  9
$DIMSE1
 70
     0
  9
$DIMSE2
 70
     0
  9
$DIMTAD
 70
     0
  9
$DIMZIN
 70
     0
  9
$DIMBLK
  1

  9
$DIMASO
 70
     1
  9
$DIMSHO
 70
     1
  9
$DIMPOST
  1

  9
$DIMAPOST
  1

  9
$DIMALT
 70
     0
  9
$DIMALTD
 70
     2
  9
$DIMALTF
 40
25.4
  9
$DIMLFAC
 40
1.0
  9
$DIMTOFL
 70
     0
  9
$DIMTVP
 40
0.0
  9
$DIMTIX
 70
     0
  9
$DIMSOXD
 70
     0
  9
$DIMSAH
 70
     0
  9
$DIMBLK1
  1

  9
$DIMBLK2
  1

  9
$DIMSTYLE
  2
STANDARD
  9
$DIMCLRD
 70
     0
  9
$DIMCLRE
 70
     0
  9
$DIMCLRT
 70
     0
  9
$DIMTFAC
 40
1.0
  9
$DIMGAP
 40
0.09
  9
$LUNITS
 70
     2
  9
$LUPREC
 70
     2
  9
$SKETCHINC
 40
0.1
  9
$FILLETRAD
 40
0.5
  9
$AUNITS
 70
     0
  9
$AUPREC
 70
     0
  9
$MENU
  1
.
  9
$ELEVATION
 40
0.0
  9
$PELEVATION
 40
0.0
  9
$THICKNESS
 40
0.0
  9
$LIMCHECK
 70
     0
  9
$CHAMFERA
 40
0.0
  9
$CHAMFERB
 40
0.0
  9
$SKPOLY
 70
     0
  9
$TDCREATE
 40
2458244.63457331
  9
$TDUPDATE
 40
2458244.63459162
  9
$TDINDWG
 40
0.0000000116
  9
$TDUSRTIMER
 40
0.0000000116
  9
$USRTIMER
 70
     1
  9
$ANGBASE
 50
0.0
  9
$ANGDIR
 70
     0
  9
$PDMODE
 70
     0
  9
$PDSIZE
 40
0.0
  9
$PLINEWID
 40
0.0
  9
$COORDS
 70
     1
  9
$SPLFRAME
 70
     0
  9
$SPLINETYPE
 70
     6
  9
$SPLINESEGS
 70
     8
  9
$ATTDIA
 70
     0
  9
$ATTREQ
 70
     1
  9
$HANDLING
 70
     1
  9
$HANDSEED
  5
11A
  9
$SURFTAB1
 70
     6
  9
$SURFTAB2
 70
     6
  9
$SURFTYPE
 70
     6
  9
$SURFU
 70
     6
  9
$SURFV
 70
     6
  9
$UCSNAME
  2

  9
$UCSORG
 10
0.0
 20
0.0
 30
0.0
  9
$UCSXDIR
 10
1.0
 20
0.0
 30
0.0
  9
$UCSYDIR
 10
0.0
 20
1.0
 30
0.0
  9
$PUCSNAME
  2

  9
$PUCSORG
 10
0.0
 20
0.0
 30
0.0
  9
$PUCSXDIR
 10
1.0
 20
0.0
 30
0.0
  9
$PUCSYDIR
 10
0.0
 20
1.0
 30
0.0
  9
$USERI1
 70
     0
  9
$USERI2
 70
     0
  9
$USERI3
 70
     0
  9
$USERI4
 70
     0
  9
$USERI5
 70
     0
  9
$USERR1
 40
0.0
  9
$USERR2
 40
0.0
  9
$USERR3
 40
0.0
  9
$USERR4
 40
0.0
  9
$USERR5
 40
0.0
  9
$WORLDVIEW
 70
     1
  9
$SHADEDGE
 70
     3
  9
$SHADEDIF
 70
    70
  9
$TILEMODE
 70
     1
  9
$MAXACTVP
 70
    64
  9
$PLIMCHECK
 70
     0
  9
$PEXTMIN
 10
1.000000000000000E+20
 20
1.000000000000000E+20
 30
1.000000000000000E+20
  9
$PEXTMAX
 10
-1.000000000000000E+20
 20
-1.000000000000000E+20
 30
-1.000000000000000E+20
  9
$PLIMMIN
 10
0.0
 20
0.0
  9
$PLIMMAX
 10
12.0
 20
9.0
  9
$UNITMODE
 70
     0
  9
$VISRETAIN
 70
     1
  9
$PLINEGEN
 70
     0
  9
$PSLTSCALE
 70
     1
  0
ENDSEC
  0
SECTION
  2
TABLES
  0
TABLE
  2
VPORT
 70
     1
  0
VPORT
  2
*ACTIVE
 70
     0
 10
0.0
 20
0.0
 11
1.0
 21
1.0
 12
-1584.445209622582
 22
-2233.599999999999
 13
0.0
 23
0.0
 14
0.5
 24
0.5
 15
0.5
 25
0.5
 16
0.0
 26
0.0
 36
1.0
 17
0.0
 27
0.0
 37
0.0
 40
621.7920000000001
 41
0.5000000000000002
 42
50.0
 43
0.0
 44
0.0
 50
0.0
 51
0.0
 71
     0
 72
   100
 73
     1
 74
     3
 75
     0
 76
     0
 77
     0
 78
     0
  0
ENDTAB
  0
TABLE
  2
LTYPE
 70
     1
  0
LTYPE
  2
CONTINUOUS
 70
     0
  3
Solid line
 72
    65
 73
     0
 40
0.0
  0
ENDTAB
  0
TABLE
  2
LAYER
 70
     2
  0
LAYER
  2
0
 70
     0
 62
     7
  6
CONTINUOUS
  0
LAYER
  2
DEFAULT
 70
     0
 62
     7
  6
CONTINUOUS
  0
ENDTAB
  0
TABLE
  2
STYLE
 70
     1
  0
STYLE
  2
STANDARD
 70
     0
 40
0.0
 41
1.0
 50
0.0
 71
     0
 42
0.2
  3
txt
  4

  0
ENDTAB
  0
TABLE
  2
VIEW
 70
     0
  0
ENDTAB
  0
TABLE
  2
UCS
 70
     0
  0
ENDTAB
  0
TABLE
  2
APPID
 70
     1
  0
APPID
  2
ACAD
 70
     0
  0
ENDTAB
  0
TABLE
  2
DIMSTYLE
 70
     1
  0
DIMSTYLE
  2
STANDARD
 70
     0
  3

  4

  5

  6

  7

 40
1.0
 41
0.18
 42
0.0625
 43
0.38
 44
0.18
 45
0.0
 46
0.0
 47
0.0
 48
0.0
140
0.18
141
0.09
142
0.0
143
25.4
144
1.0
145
0.0
146
1.0
147
0.09
 71
     0
 72
     0
 73
     1
 74
     1
 75
     0
 76
     0
 77
     0
 78
     0
170
     0
171
     2
172
     0
173
     0
174
     0
175
     0
176
     0
177
     0
178
     0
  0
ENDTAB
  0
ENDSEC
  0
SECTION
  2
BLOCKS
  0
BLOCK
  8
0
  2
$MODEL_SPACE
 70
     0
 10
0.0
 20
0.0
 30
0.0
  3
$MODEL_SPACE
  1

  0
ENDBLK
  5
21
  8
0
  0
BLOCK
 67
     1
  8
0
  2
$PAPER_SPACE
 70
     0
 10
0.0
 20
0.0
 30
0.0
  3
$PAPER_SPACE
  1

  0
ENDBLK
  5
1D
 67
     1
  8
0
  0
ENDSEC
  0
SECTION
  2
ENTITIES
  0
POLYLINE
  5
6F
  8
DEFAULT
 66
     1
 10
0.0
 20
0.0
 30
1.542802548035694
 70
     1
  0
VERTEX
  5
70
  8
DEFAULT
 10
-1432.045209622582
 20
-2538.4
 30
1.542802548035694
  0
VERTEX
  5
71
  8
DEFAULT
 10
-1432.045209622582
 20
-1928.8
 30
1.542802548035694
  0
VERTEX
  5
72
  8
DEFAULT
 10
-1736.845209622582
 20
-1928.8
 30
1.542802548035694
  0
VERTEX
  5
73
  8
DEFAULT
 10
-1736.845209622582
 20
-2538.4
 30
1.542802548035694
  0
SEQEND
  5
74
  8
DEFAULT
  0
POLYLINE
  5
75
  8
DEFAULT
 66
     1
 10
0.0
 20
0.0
 30
3.085556469975018
 70
     1
  0
VERTEX
  5
76
  8
DEFAULT
 10
-1561.068669573055
 20
-2254.12935685232
 30
3.085556469975018
  0
VERTEX
  5
77
  8
DEFAULT
 10
-1525.713330513727
 20
-2218.774017792992
 30
3.085556469975018
  0
VERTEX
  5
78
  8
DEFAULT
 10
-1522.319217964032
 20
-2222.168130342688
 30
3.085556469975018
  0
VERTEX
  5
79
  8
DEFAULT
 10
-1557.674557023359
 20
-2257.523469402015
 30
3.085556469975018
  0
SEQEND
  5
7A
  8
DEFAULT
  0
POLYLINE
  5
7B
  8
DEFAULT
 66
     1
 10
0.0
 20
0.0
 30
3.085556469975018
 70
     1
  0
VERTEX
  5
7C
  8
DEFAULT
 10
-1511.571194889996
 20
-2204.631882169262
 30
3.085556469975018
  0
VERTEX
  5
7D
  8
DEFAULT
 10
-1476.215855830668
 20
-2169.276543109934
 30
3.085556469975018
  0
VERTEX
  5
7E
  8
DEFAULT
 10
-1472.821743280973
 20
-2172.67065565963
 30
3.085556469975018
  0
VERTEX
  5
7F
  8
DEFAULT
 10
-1508.1770823403
 20
-2208.025994718957
 30
3.085556469975018
  0
SEQEND
  5
80
  8
DEFAULT
  0
POLYLINE
  5
81
  8
DEFAULT
 66
     1
 10
0.0
 20
0.0
 30
3.085556469975018
 70
     1
  0
VERTEX
  5
82
  8
DEFAULT
 10
-1456.745209622582
 20
-2243.399993046361
 30
3.085556469975018
  0
VERTEX
  5
83
  8
DEFAULT
 10
-1456.745209622582
 20
-2183.399993046361
 30
3.085556469975018
  0
VERTEX
  5
84
  8
DEFAULT
 10
-1451.945209622582
 20
-2183.399993046361
 30
3.085556469975018
  0
VERTEX
  5
85
  8
DEFAULT
 10
-1451.945209622582
 20
-2243.399993046361
 30
3.085556469975018
  0
SEQEND
  5
86
  8
DEFAULT
  0
POLYLINE
  5
87
  8
DEFAULT
 66
     1
 10
0.0
 20
0.0
 30
3.085556469975018
 70
     1
  0
VERTEX
  5
88
  8
DEFAULT
 10
-1451.945209622582
 20
-2153.400001391011
 30
3.085556469975018
  0
VERTEX
  5
89
  8
DEFAULT
 10
-1571.945209622583
 20
-2153.400001391011
 30
3.085556469975018
 42
0.4142135623730819
  0
VERTEX
  5
8A
  8
DEFAULT
 10
-1581.945209622583
 20
-2163.400001391012
 30
3.085556469975018
  0
VERTEX
  5
8B
  8
DEFAULT
 10
-1581.945209622582
 20
-2263.400001391011
 30
3.085556469975018
 42
0.4142135623731287
  0
VERTEX
  5
8C
  8
DEFAULT
 10
-1571.945209622583
 20
-2273.400001391011
 30
3.085556469975018
  0
VERTEX
  5
8D
  8
DEFAULT
 10
-1451.945209622582
 20
-2273.400001391011
 30
3.085556469975018
 42
0.4142135623730704
  0
VERTEX
  5
8E
  8
DEFAULT
 10
-1441.945209622583
 20
-2263.400001391011
 30
3.085556469975018
  0
VERTEX
  5
8F
  8
DEFAULT
 10
-1441.945209622582
 20
-2163.400001391011
 30
3.085556469975018
 42
0.4142135623730833
  0
SEQEND
  5
90
  8
DEFAULT
  0
POLYLINE
  5
91
  8
DEFAULT
 10
0.0
 20
0.0
 30
0.0
 66
     1
 70
     9
  0
VERTEX
  5
92
  8
DEFAULT
 10
-1511.945209622582
 20
-2143.60000139101
 30
3.089688073381694
 70
    32
  0
VERTEX
  5
93
  8
DEFAULT
 10
-1511.945209622582
 20
-2148.40000139101
 30
3.089688073381694
 70
    32
  0
VERTEX
  5
94
  8
DEFAULT
 10
-1488.445209622583
 20
-2148.40000139101
 30
3.089688073381694
 70
    32
  0
VERTEX
  5
95
  8
DEFAULT
 10
-1488.445209622583
 20
-2143.60000139101
 30
3.089688073381694
 70
    32
  0
VERTEX
  5
96
  8
DEFAULT
 10
-1488.445209622583
 20
-2138.600001686196
 30
3.089670835395282
 70
    32
  0
VERTEX
  5
97
  8
DEFAULT
 10
-1490.945209622582
 20
-2138.600001686196
 30
3.089670835405741
 70
    32
  0
VERTEX
  5
98
  8
DEFAULT
 10
-1490.945209622582
 20
-2132.600001368304
 30
3.089670835405741
 70
    32
  0
VERTEX
  5
99
  8
DEFAULT
 10
-1482.945209622583
 20
-2132.600001368304
 30
3.089670835395282
 70
    32
  0
VERTEX
  5
9A
  8
DEFAULT
 10
-1482.945209622583
 20
-2138.600001686196
 30
3.089670835395282
 70
    32
  0
VERTEX
  5
9B
  8
DEFAULT
 10
-1485.445209622583
 20
-2138.600001686196
 30
3.089670835395282
 70
    32
  0
VERTEX
  5
9C
  8
DEFAULT
 10
-1485.445209622583
 20
-2143.60000139101
 30
3.089688073381694
 70
    32
  0
VERTEX
  5
9D
  8
DEFAULT
 10
-1485.445209622583
 20
-2148.40000139101
 30
3.089688073376692
 70
    32
  0
VERTEX
  5
9E
  8
DEFAULT
 10
-1461.945209622582
 20
-2148.40000139101
 30
3.089688073381694
 70
    32
  0
VERTEX
  5
9F
  8
DEFAULT
 10
-1461.945209622582
 20
-2143.60000139101
 30
3.089688073381694
 70
    32
  0
VERTEX
  5
A0
  8
DEFAULT
 10
-1446.945209622583
 20
-2143.6
 30
3.08967083537982
 70
    32
  0
VERTEX
  5
A1
  8
DEFAULT
 10
-1446.945209622583
 20
-1943.600001391011
 30
3.08967083537982
 70
    32
  0
VERTEX
  5
A2
  8
DEFAULT
 10
-1461.945209622582
 20
-1943.6
 30
3.089688073381694
 70
    32
  0
VERTEX
  5
A3
  8
DEFAULT
 10
-1461.945209622582
 20
-1938.8
 30
3.089688073381694
 70
    32
  0
VERTEX
  5
A4
  8
DEFAULT
 10
-1485.445209622583
 20
-1938.8
 30
3.089688073376692
 70
    32
  0
VERTEX
  5
A5
  8
DEFAULT
 10
-1485.445209622583
 20
-1943.6
 30
3.089688073381694
 70
    32
  0
VERTEX
  5
A6
  8
DEFAULT
 10
-1485.445209622583
 20
-1948.599999704815
 30
3.089670835395282
 70
    32
  0
VERTEX
  5
A7
  8
DEFAULT
 10
-1482.945209622583
 20
-1948.599999704815
 30
3.089670835395282
 70
    32
  0
VERTEX
  5
A8
  8
DEFAULT
 10
-1482.945209622583
 20
-1954.600000022707
 30
3.089670835395282
 70
    32
  0
VERTEX
  5
A9
  8
DEFAULT
 10
-1490.945209622582
 20
-1954.600000022707
 30
3.089670835405741
 70
    32
  0
VERTEX
  5
AA
  8
DEFAULT
 10
-1490.945209622582
 20
-1948.599999704815
 30
3.089670835405741
 70
    32
  0
VERTEX
  5
AB
  8
DEFAULT
 10
-1488.445209622583
 20
-1948.599999704815
 30
3.089670835395282
 70
    32
  0
VERTEX
  5
AC
  8
DEFAULT
 10
-1488.445209622583
 20
-1943.6
 30
3.089688073381694
 70
    32
  0
VERTEX
  5
AD
  8
DEFAULT
 10
-1488.445209622583
 20
-1938.8
 30
3.089688073381694
 70
    32
  0
VERTEX
  5
AE
  8
DEFAULT
 10
-1511.945209622582
 20
-1938.8
 30
3.089688073381694
 70
    32
  0
VERTEX
  5
AF
  8
DEFAULT
 10
-1511.945209622582
 20
-1943.6
 30
3.089688073381694
 70
    32
  0
VERTEX
  5
B0
  8
DEFAULT
 10
-1531.945209622582
 20
-1943.6
 30
3.089688073381694
 70
    32
  0
VERTEX
  5
B1
  8
DEFAULT
 10
-1531.945209622582
 20
-1938.8
 30
3.089688073381694
 70
    32
  0
VERTEX
  5
B2
  8
DEFAULT
 10
-1555.445209622582
 20
-1938.8
 30
3.089688073386924
 70
    32
  0
VERTEX
  5
B3
  8
DEFAULT
 10
-1555.445209622583
 20
-1943.6
 30
3.089688073381694
 70
    32
  0
VERTEX
  5
B4
  8
DEFAULT
 10
-1555.445209622582
 20
-1948.599999704815
 30
3.089670835436436
 70
    32
  0
VERTEX
  5
B5
  8
DEFAULT
 10
-1552.945209622582
 20
-1948.599999704815
 30
3.089670835436436
 70
    32
  0
VERTEX
  5
B6
  8
DEFAULT
 10
-1552.945209622582
 20
-1954.600000022707
 30
3.089670835436436
 70
    32
  0
VERTEX
  5
B7
  8
DEFAULT
 10
-1560.945209622582
 20
-1954.600000022707
 30
3.089670835436436
 70
    32
  0
VERTEX
  5
B8
  8
DEFAULT
 10
-1560.945209622582
 20
-1948.599999704815
 30
3.089670835436436
 70
    32
  0
VERTEX
  5
B9
  8
DEFAULT
 10
-1558.445209622582
 20
-1948.599999704815
 30
3.089670835436436
 70
    32
  0
VERTEX
  5
BA
  8
DEFAULT
 10
-1558.445209622582
 20
-1943.6
 30
3.089688073376692
 70
    32
  0
VERTEX
  5
BB
  8
DEFAULT
 10
-1558.445209622582
 20
-1938.8
 30
3.089688073376692
 70
    32
  0
VERTEX
  5
BC
  8
DEFAULT
 10
-1581.945209622582
 20
-1938.8
 30
3.089688073381694
 70
    32
  0
VERTEX
  5
BD
  8
DEFAULT
 10
-1581.945209622582
 20
-1943.6
 30
3.089688073381694
 70
    32
  0
VERTEX
  5
BE
  8
DEFAULT
 10
-1596.945209622582
 20
-1943.600001391011
 30
3.08967083546213
 70
    32
  0
VERTEX
  5
BF
  8
DEFAULT
 10
-1596.945209622582
 20
-2143.6
 30
3.08967083546213
 70
    32
  0
VERTEX
  5
C0
  8
DEFAULT
 10
-1581.945209622582
 20
-2143.60000139101
 30
3.089688073381694
 70
    32
  0
VERTEX
  5
C1
  8
DEFAULT
 10
-1581.945209622582
 20
-2148.40000139101
 30
3.089688073381694
 70
    32
  0
VERTEX
  5
C2
  8
DEFAULT
 10
-1558.445209622582
 20
-2148.40000139101
 30
3.089688073376692
 70
    32
  0
VERTEX
  5
C3
  8
DEFAULT
 10
-1558.445209622582
 20
-2143.60000139101
 30
3.089688073376692
 70
    32
  0
VERTEX
  5
C4
  8
DEFAULT
 10
-1558.445209622582
 20
-2138.600001686196
 30
3.089670835436436
 70
    32
  0
VERTEX
  5
C5
  8
DEFAULT
 10
-1560.945209622582
 20
-2138.600001686196
 30
3.089670835436436
 70
    32
  0
VERTEX
  5
C6
  8
DEFAULT
 10
-1560.945209622582
 20
-2132.600001368304
 30
3.089670835436436
 70
    32
  0
VERTEX
  5
C7
  8
DEFAULT
 10
-1552.945209622582
 20
-2132.600001368304
 30
3.089670835436436
 70
    32
  0
VERTEX
  5
C8
  8
DEFAULT
 10
-1552.945209622582
 20
-2138.600001686196
 30
3.089670835436436
 70
    32
  0
VERTEX
  5
C9
  8
DEFAULT
 10
-1555.445209622582
 20
-2138.600001686196
 30
3.089670835436436
 70
    32
  0
VERTEX
  5
CA
  8
DEFAULT
 10
-1555.445209622583
 20
-2143.60000139101
 30
3.089688073381694
 70
    32
  0
VERTEX
  5
CB
  8
DEFAULT
 10
-1555.445209622582
 20
-2148.40000139101
 30
3.089688073386924
 70
    32
  0
VERTEX
  5
CC
  8
DEFAULT
 10
-1531.945209622582
 20
-2148.40000139101
 30
3.089688073381694
 70
    32
  0
VERTEX
  5
CD
  8
DEFAULT
 10
-1531.945209622582
 20
-2143.60000139101
 30
3.089688073381694
 70
    32
  0
SEQEND
  5
CE
  8
DEFAULT
  0
POLYLINE
  5
CF
  8
DEFAULT
 66
     1
 10
0.0
 20
0.0
 30
3.085556469975018
 70
     1
  0
VERTEX
  5
D0
  8
DEFAULT
 10
-1706.068669573054
 20
-2254.12935685232
 30
3.085556469975018
  0
VERTEX
  5
D1
  8
DEFAULT
 10
-1670.713330513727
 20
-2218.774017792992
 30
3.085556469975018
  0
VERTEX
  5
D2
  8
DEFAULT
 10
-1667.319217964031
 20
-2222.168130342688
 30
3.085556469975018
  0
VERTEX
  5
D3
  8
DEFAULT
 10
-1702.674557023358
 20
-2257.523469402015
 30
3.085556469975018
  0
SEQEND
  5
D4
  8
DEFAULT
  0
POLYLINE
  5
D5
  8
DEFAULT
 66
     1
 10
0.0
 20
0.0
 30
3.085556469975018
 70
     1
  0
VERTEX
  5
D6
  8
DEFAULT
 10
-1656.571194889995
 20
-2204.631882169262
 30
3.085556469975018
  0
VERTEX
  5
D7
  8
DEFAULT
 10
-1621.215855830668
 20
-2169.276543109934
 30
3.085556469975018
  0
VERTEX
  5
D8
  8
DEFAULT
 10
-1617.821743280972
 20
-2172.67065565963
 30
3.085556469975018
  0
VERTEX
  5
D9
  8
DEFAULT
 10
-1653.1770823403
 20
-2208.025994718957
 30
3.085556469975018
  0
SEQEND
  5
DA
  8
DEFAULT
  0
POLYLINE
  5
DB
  8
DEFAULT
 66
     1
 10
0.0
 20
0.0
 30
3.085556469975018
 70
     1
  0
VERTEX
  5
DC
  8
DEFAULT
 10
-1601.745209622582
 20
-2243.399993046361
 30
3.085556469975018
  0
VERTEX
  5
DD
  8
DEFAULT
 10
-1601.745209622582
 20
-2183.399993046361
 30
3.085556469975018
  0
VERTEX
  5
DE
  8
DEFAULT
 10
-1596.945209622582
 20
-2183.399993046361
 30
3.085556469975018
  0
VERTEX
  5
DF
  8
DEFAULT
 10
-1596.945209622582
 20
-2243.399993046361
 30
3.085556469975018
  0
SEQEND
  5
E0
  8
DEFAULT
  0
POLYLINE
  5
E1
  8
DEFAULT
 66
     1
 10
0.0
 20
0.0
 30
3.085556469975018
 70
     1
  0
VERTEX
  5
E2
  8
DEFAULT
 10
-1596.945209622582
 20
-2153.400001391011
 30
3.085556469975018
  0
VERTEX
  5
E3
  8
DEFAULT
 10
-1716.945209622582
 20
-2153.400001391012
 30
3.085556469975018
 42
0.4142135623730915
  0
VERTEX
  5
E4
  8
DEFAULT
 10
-1726.945209622583
 20
-2163.400001391011
 30
3.085556469975018
  0
VERTEX
  5
E5
  8
DEFAULT
 10
-1726.945209622582
 20
-2263.400001391011
 30
3.085556469975018
 42
0.4142135623729877
  0
VERTEX
  5
E6
  8
DEFAULT
 10
-1716.945209622582
 20
-2273.400001391011
 30
3.085556469975018
  0
VERTEX
  5
E7
  8
DEFAULT
 10
-1596.945209622582
 20
-2273.400001391011
 30
3.085556469975018
 42
0.4142135623730817
  0
VERTEX
  5
E8
  8
DEFAULT
 10
-1586.945209622583
 20
-2263.400001391011
 30
3.085556469975018
  0
VERTEX
  5
E9
  8
DEFAULT
 10
-1586.945209622582
 20
-2163.400001391011
 30
3.085556469975018
 42
0.4142135623730771
  0
SEQEND
  5
EA
  8
DEFAULT
  0
POLYLINE
  5
EB
  8
DEFAULT
 66
     1
 10
0.0
 20
0.0
 30
3.089688073450588
 70
     1
  0
VERTEX
  5
EC
  8
DEFAULT
 10
-1691.945217967233
 20
-1938.800000000001
 30
3.089688073450588
  0
VERTEX
  5
ED
  8
DEFAULT
 10
-1691.945217967233
 20
-1943.600000000001
 30
3.089688073450588
  0
VERTEX
  5
EE
  8
DEFAULT
 10
-1721.945209622582
 20
-1943.600001391011
 30
3.089688073450588
  0
VERTEX
  5
EF
  8
DEFAULT
 10
-1721.945209622582
 20
-2143.600001391011
 30
3.089688073450588
  0
VERTEX
  5
F0
  8
DEFAULT
 10
-1691.945217967233
 20
-2143.600001391011
 30
3.089688073450588
  0
VERTEX
  5
F1
  8
DEFAULT
 10
-1691.945217967233
 20
-2148.400001391011
 30
3.089688073450588
  0
VERTEX
  5
F2
  8
DEFAULT
 10
-1663.445217967233
 20
-2148.400001391011
 30
3.089688073450588
  0
VERTEX
  5
F3
  8
DEFAULT
 10
-1663.445217967233
 20
-2138.600001686196
 30
3.089688073450588
  0
VERTEX
  5
F4
  8
DEFAULT
 10
-1665.945217967233
 20
-2138.600001686196
 30
3.089688073450588
  0
VERTEX
  5
F5
  8
DEFAULT
 10
-1665.945217967233
 20
-2132.600001368305
 30
3.089688073450588
  0
VERTEX
  5
F6
  8
DEFAULT
 10
-1657.945217967233
 20
-2132.600001368305
 30
3.089688073450588
  0
VERTEX
  5
F7
  8
DEFAULT
 10
-1657.945217967233
 20
-2138.600001686196
 30
3.089688073450588
  0
VERTEX
  5
F8
  8
DEFAULT
 10
-1660.445217967233
 20
-2138.600001686196
 30
3.089688073450588
  0
VERTEX
  5
F9
  8
DEFAULT
 10
-1660.445217967233
 20
-2148.400001391011
 30
3.089688073450588
  0
VERTEX
  5
FA
  8
DEFAULT
 10
-1631.945217967233
 20
-2148.400001391011
 30
3.089688073450588
  0
VERTEX
  5
FB
  8
DEFAULT
 10
-1631.945217967233
 20
-2143.600001391011
 30
3.089688073450588
  0
VERTEX
  5
FC
  8
DEFAULT
 10
-1601.945209622582
 20
-2143.600001391011
 30
3.089688073450588
  0
VERTEX
  5
FD
  8
DEFAULT
 10
-1601.945209622582
 20
-1943.600001391011
 30
3.089688073450588
  0
VERTEX
  5
FE
  8
DEFAULT
 10
-1631.945217967233
 20
-1943.600000000001
 30
3.089688073450588
  0
VERTEX
  5
FF
  8
DEFAULT
 10
-1631.945217967233
 20
-1938.800000000001
 30
3.089688073450588
  0
VERTEX
  5
100
  8
DEFAULT
 10
-1660.445217967233
 20
-1938.800000000001
 30
3.089688073450588
  0
VERTEX
  5
101
  8
DEFAULT
 10
-1660.445217967233
 20
-1948.599999704816
 30
3.089688073450588
  0
VERTEX
  5
102
  8
DEFAULT
 10
-1657.945217967233
 20
-1948.599999704816
 30
3.089688073450588
  0
VERTEX
  5
103
  8
DEFAULT
 10
-1657.945217967233
 20
-1954.600000022707
 30
3.089688073450588
  0
VERTEX
  5
104
  8
DEFAULT
 10
-1665.945217967233
 20
-1954.600000022707
 30
3.089688073450588
  0
VERTEX
  5
105
  8
DEFAULT
 10
-1665.945217967233
 20
-1948.599999704816
 30
3.089688073450588
  0
VERTEX
  5
106
  8
DEFAULT
 10
-1663.445217967233
 20
-1948.599999704816
 30
3.089688073450588
  0
VERTEX
  5
107
  8
DEFAULT
 10
-1663.445217967233
 20
-1938.800000000001
 30
3.089688073450588
  0
SEQEND
  5
108
  8
DEFAULT
  0
POLYLINE
  5
109
  8
DEFAULT
 66
     1
 10
0.0
 20
0.0
 30
3.089688073450816
 70
     1
  0
VERTEX
  5
10A
  8
DEFAULT
 10
-1624.945211228771
 20
-1988.600002974126
 30
3.089688073450816
  0
VERTEX
  5
10B
  8
DEFAULT
 10
-1624.945211228771
 20
-2098.599999807896
 30
3.089688073450816
 42
-0.4142135623731075
  0
VERTEX
  5
10C
  8
DEFAULT
 10
-1634.945211228771
 20
-2108.599999807897
 30
3.089688073450816
  0
VERTEX
  5
10D
  8
DEFAULT
 10
-1688.945208016394
 20
-2108.599999807896
 30
3.089688073450816
 42
-0.4142135623730817
  0
VERTEX
  5
10E
  8
DEFAULT
 10
-1698.945208016394
 20
-2098.599999807896
 30
3.089688073450816
  0
VERTEX
  5
10F
  8
DEFAULT
 10
-1698.945208016394
 20
-1988.600002974126
 30
3.089688073450816
 42
-0.4142135623730931
  0
VERTEX
  5
110
  8
DEFAULT
 10
-1688.945208016394
 20
-1978.600002974126
 30
3.089688073450816
  0
VERTEX
  5
111
  8
DEFAULT
 10
-1634.945211228771
 20
-1978.600002974126
 30
3.089688073450816
 42
-0.4142135623730998
  0
SEQEND
  5
112
  8
DEFAULT
  0
ENDSEC
  0
EOF
