  0
SECTION
  2
HEADER
  9
$ACADVER
  1
AC1009
  9
$DWGCODEPAGE
  3
ansi_1252
  9
$INSBASE
 10
0.0
 20
0.0
 30
0.0
  9
$EXTMIN
 10
-95.61073790790847
 20
11.69394433724464
 30
95.59717623622305
  9
$EXTMAX
 10
16.49270298693065
 20
11.69394433724573
 30
235.093264885231
  9
$LIMMIN
 10
0.0
 20
0.0
  9
$LIMMAX
 10
12.0
 20
9.0
  9
$ORTHOMODE
 70
     0
  9
$REGENMODE
 70
     1
  9
$FILLMODE
 70
     1
  9
$QTEXTMODE
 70
     0
  9
$MIRRTEXT
 70
     1
  9
$DRAGMODE
 70
     2
  9
$LTSCALE
 40
1.0
  9
$OSMODE
 70
    37
  9
$ATTMODE
 70
     1
  9
$TEXTSIZE
 40
0.2
  9
$TRACEWID
 40
0.05
  9
$TEXTSTYLE
  7
STANDARD
  9
$CLAYER
  8
DEFAULT
  9
$CELTYPE
  6
BYLAYER
  9
$CECOLOR
 62
   256
  9
$DIMSCALE
 40
1.0
  9
$DIMASZ
 40
0.18
  9
$DIMEXO
 40
0.0625
  9
$DIMDLI
 40
0.38
  9
$DIMRND
 40
0.0
  9
$DIMDLE
 40
0.0
  9
$DIMEXE
 40
0.18
  9
$DIMTP
 40
0.0
  9
$DIMTM
 40
0.0
  9
$DIMTXT
 40
0.18
  9
$DIMCEN
 40
0.09
  9
$DIMTSZ
 40
0.0
  9
$DIMTOL
 70
     0
  9
$DIMLIM
 70
     0
  9
$DIMTIH
 70
     1
  9
$DIMTOH
 70
     1
  9
$DIMSE1
 70
     0
  9
$DIMSE2
 70
     0
  9
$DIMTAD
 70
     0
  9
$DIMZIN
 70
     0
  9
$DIMBLK
  1

  9
$DIMASO
 70
     1
  9
$DIMSHO
 70
     1
  9
$DIMPOST
  1

  9
$DIMAPOST
  1

  9
$DIMALT
 70
     0
  9
$DIMALTD
 70
     2
  9
$DIMALTF
 40
25.4
  9
$DIMLFAC
 40
1.0
  9
$DIMTOFL
 70
     0
  9
$DIMTVP
 40
0.0
  9
$DIMTIX
 70
     0
  9
$DIMSOXD
 70
     0
  9
$DIMSAH
 70
     0
  9
$DIMBLK1
  1

  9
$DIMBLK2
  1

  9
$DIMSTYLE
  2
STANDARD
  9
$DIMCLRD
 70
     0
  9
$DIMCLRE
 70
     0
  9
$DIMCLRT
 70
     0
  9
$DIMTFAC
 40
1.0
  9
$DIMGAP
 40
0.09
  9
$LUNITS
 70
     2
  9
$LUPREC
 70
     2
  9
$SKETCHINC
 40
0.1
  9
$FILLETRAD
 40
0.5
  9
$AUNITS
 70
     0
  9
$AUPREC
 70
     0
  9
$MENU
  1
.
  9
$ELEVATION
 40
0.0
  9
$PELEVATION
 40
0.0
  9
$THICKNESS
 40
0.0
  9
$LIMCHECK
 70
     0
  9
$CHAMFERA
 40
0.5
  9
$CHAMFERB
 40
0.5
  9
$SKPOLY
 70
     0
  9
$TDCREATE
 40
2456079.896324688
  9
$TDUPDATE
 40
2456079.896324699
  9
$TDINDWG
 40
0.0000000116
  9
$TDUSRTIMER
 40
0.0000000116
  9
$USRTIMER
 70
     1
  9
$ANGBASE
 50
0.0
  9
$ANGDIR
 70
     0
  9
$PDMODE
 70
     0
  9
$PDSIZE
 40
0.0
  9
$PLINEWID
 40
0.0
  9
$COORDS
 70
     1
  9
$SPLFRAME
 70
     0
  9
$SPLINETYPE
 70
     6
  9
$SPLINESEGS
 70
     8
  9
$ATTDIA
 70
     0
  9
$ATTREQ
 70
     1
  9
$HANDLING
 70
     1
  9
$HANDSEED
  5
61
  9
$SURFTAB1
 70
     6
  9
$SURFTAB2
 70
     6
  9
$SURFTYPE
 70
     6
  9
$SURFU
 70
     6
  9
$SURFV
 70
     6
  9
$UCSNAME
  2

  9
$UCSORG
 10
0.0
 20
0.0
 30
0.0
  9
$UCSXDIR
 10
1.0
 20
0.0
 30
0.0
  9
$UCSYDIR
 10
0.0
 20
1.0
 30
0.0
  9
$PUCSNAME
  2

  9
$PUCSORG
 10
0.0
 20
0.0
 30
0.0
  9
$PUCSXDIR
 10
1.0
 20
0.0
 30
0.0
  9
$PUCSYDIR
 10
0.0
 20
1.0
 30
0.0
  9
$USERI1
 70
     0
  9
$USERI2
 70
     0
  9
$USERI3
 70
     0
  9
$USERI4
 70
     0
  9
$USERI5
 70
     0
  9
$USERR1
 40
0.0
  9
$USERR2
 40
0.0
  9
$USERR3
 40
0.0
  9
$USERR4
 40
0.0
  9
$USERR5
 40
0.0
  9
$WORLDVIEW
 70
     1
  9
$SHADEDGE
 70
     3
  9
$SHADEDIF
 70
    70
  9
$TILEMODE
 70
     1
  9
$MAXACTVP
 70
    64
  9
$PLIMCHECK
 70
     0
  9
$PEXTMIN
 10
1.000000000000000E+20
 20
1.000000000000000E+20
 30
1.000000000000000E+20
  9
$PEXTMAX
 10
-1.000000000000000E+20
 20
-1.000000000000000E+20
 30
-1.000000000000000E+20
  9
$PLIMMIN
 10
0.0
 20
0.0
  9
$PLIMMAX
 10
12.0
 20
9.0
  9
$UNITMODE
 70
     0
  9
$VISRETAIN
 70
     1
  9
$PLINEGEN
 70
     0
  9
$PSLTSCALE
 70
     1
  0
ENDSEC
  0
SECTION
  2
TABLES
  0
TABLE
  2
VPORT
 70
     1
  0
VPORT
  2
*ACTIVE
 70
     0
 10
0.0
 20
0.0
 11
1.0
 21
1.0
 12
0.0
 22
0.0
 13
0.0
 23
0.0
 14
0.5
 24
0.5
 15
0.5
 25
0.5
 16
0.0
 26
0.0
 36
1.0
 17
-39.55901746048891
 27
11.69394433724518
 37
0.0
 40
0.0000000000011161
 41
102449069529413.1
 42
50.0
 43
0.0
 44
0.0
 50
0.0
 51
0.0
 71
     0
 72
   100
 73
     1
 74
     3
 75
     0
 76
     0
 77
     0
 78
     0
  0
ENDTAB
  0
TABLE
  2
LTYPE
 70
     1
  0
LTYPE
  2
CONTINUOUS
 70
     0
  3
Solid line
 72
    65
 73
     0
 40
0.0
  0
ENDTAB
  0
TABLE
  2
LAYER
 70
     2
  0
LAYER
  2
0
 70
     0
 62
     7
  6
CONTINUOUS
  0
LAYER
  2
DEFAULT
 70
     0
 62
     7
  6
CONTINUOUS
  0
ENDTAB
  0
TABLE
  2
STYLE
 70
     1
  0
STYLE
  2
STANDARD
 70
     0
 40
0.0
 41
1.0
 50
0.0
 71
     0
 42
0.2
  3
txt
  4

  0
ENDTAB
  0
TABLE
  2
VIEW
 70
     0
  0
ENDTAB
  0
TABLE
  2
UCS
 70
     0
  0
ENDTAB
  0
TABLE
  2
APPID
 70
     1
  0
APPID
  2
ACAD
 70
     0
  0
ENDTAB
  0
TABLE
  2
DIMSTYLE
 70
     1
  0
DIMSTYLE
  2
STANDARD
 70
     0
  3

  4

  5

  6

  7

 40
1.0
 41
0.18
 42
0.0625
 43
0.38
 44
0.18
 45
0.0
 46
0.0
 47
0.0
 48
0.0
140
0.18
141
0.09
142
0.0
143
25.4
144
1.0
145
0.0
146
1.0
147
0.09
 71
     0
 72
     0
 73
     1
 74
     1
 75
     0
 76
     0
 77
     0
 78
     0
170
     0
171
     2
172
     0
173
     0
174
     0
175
     0
176
     0
177
     0
178
     0
  0
ENDTAB
  0
ENDSEC
  0
SECTION
  2
BLOCKS
  0
BLOCK
  8
0
  2
$MODEL_SPACE
 70
     0
 10
0.0
 20
0.0
 30
0.0
  3
$MODEL_SPACE
  1

  0
ENDBLK
  5
21
  8
0
  0
BLOCK
 67
     1
  8
0
  2
$PAPER_SPACE
 70
     0
 10
0.0
 20
0.0
 30
0.0
  3
$PAPER_SPACE
  1

  0
ENDBLK
  5
1D
 67
     1
  8
0
  0
ENDSEC
  0
SECTION
  2
ENTITIES
  0
CIRCLE
  5
2B
  8
DEFAULT
 10
59.13735053634852
 20
174.9359080423912
 30
11.69394433724469
 40
9.250000000000028
210
-1.920385772324597E-16
220
1.0
230
1.927303664550551E-16
  0
CIRCLE
  5
2C
  8
DEFAULT
 10
-8.335397923472378
 20
151.4562625433105
 30
11.69394433724464
 40
3.17499999999999
210
0.0
220
1.0
230
0.0
  0
CIRCLE
  5
2D
  8
DEFAULT
 10
39.61073790790844
 20
116.093264885231
 30
11.69394433724451
 40
1.999999999999986
210
-4.440892098500658E-16
220
1.0
230
-1.327450790527837E-15
  0
CIRCLE
  5
2E
  8
DEFAULT
 10
88.61073790790843
 20
116.093264885231
 30
11.69394433724474
 40
1.999999999999972
210
-4.440892098500626E-16
220
1.0
230
4.490140827819254E-16
  0
CIRCLE
  5
2F
  8
DEFAULT
 10
72.61073790790846
 20
116.093264885231
 30
11.69394433724463
 40
2.0
210
-4.440892098500595E-16
220
1.0
230
-4.392183538729590E-16
  0
CIRCLE
  5
30
  8
DEFAULT
 10
-5.389262092091533
 20
116.0932648852309
 30
11.69394433724459
 40
2.000000000000014
210
-4.440892098500641E-16
220
1.0
230
-4.392183538729549E-16
  0
CIRCLE
  5
31
  8
DEFAULT
 10
71.6107379079085
 20
230.0932648852309
 30
11.69394433724437
 40
2.000000000000043
210
-4.440892098500705E-16
220
1.0
230
-1.327450790527801E-15
  0
CIRCLE
  5
32
  8
DEFAULT
 10
88.61073790790849
 20
228.093264885231
 30
11.69394433724458
 40
2.000000000000028
210
-4.440892098500642E-16
220
1.0
230
-4.392183538729574E-16
  0
CIRCLE
  5
33
  8
DEFAULT
 10
0.6107379079084453
 20
210.0932648852309
 30
11.69394433724409
 40
1.999999999999998
210
-8.881784197001444E-16
220
1.0
230
-2.654901581055592E-15
  0
CIRCLE
  5
34
  8
DEFAULT
 10
27.61073790790847
 20
228.0932648852309
 30
11.69394433724447
 40
2.000000000000018
210
-8.881784197001323E-16
220
1.0
230
-8.784367077458827E-16
  0
CIRCLE
  5
35
  8
DEFAULT
 10
5.610737907908453
 20
144.093264885231
 30
11.69394433724458
 40
2.0
210
-4.440892098500627E-16
220
1.0
230
-4.392183538729591E-16
  0
POLYLINE
  5
36
  8
DEFAULT
 66
     1
 10
0.0
 20
0.0
 30
-11.69394433724573
210
0.0
220
-1.0
230
0.0
  0
VERTEX
  5
38
  8
DEFAULT
 10
-95.61073790790847
 20
205.2761712709938
 30
-11.69394433724464
 42
-0.4597079616318144
  0
VERTEX
  5
39
  8
DEFAULT
 10
-95.61073790790846
 20
144.5947203355941
 30
-11.69394433724464
  0
VERTEX
  5
3A
  8
DEFAULT
 10
-95.61073790790846
 20
103.5971762362231
 30
-11.69394433724464
 42
0.4142089080507924
  0
VERTEX
  5
3B
  8
DEFAULT
 10
-87.61073790790846
 20
95.59717623622309
 30
-11.69394433724464
  0
VERTEX
  5
3C
  8
DEFAULT
 10
-68.91127311508058
 20
95.59717623622308
 30
-11.69394433724463
 42
0.4142089080507809
  0
VERTEX
  5
3D
  8
DEFAULT
 10
-60.91127311508063
 20
103.5971762362231
 30
-11.69394433724464
  0
VERTEX
  5
3E
  8
DEFAULT
 10
-60.91127311508063
 20
105.3221349143612
 30
-11.69394433724464
  0
VERTEX
  5
3F
  8
DEFAULT
 10
-43.91127311508063
 20
105.3221349143612
 30
-11.69394433724464
  0
VERTEX
  5
40
  8
DEFAULT
 10
-43.91127311508063
 20
103.5971762362231
 30
-11.69394433724464
 42
0.41420890805078
  0
VERTEX
  5
41
  8
DEFAULT
 10
-35.91127311508072
 20
95.59717623622308
 30
-11.69394433724464
  0
VERTEX
  5
42
  8
DEFAULT
 10
-19.21073790863005
 20
95.59717623622305
 30
-11.69394433724464
  0
VERTEX
  5
43
  8
DEFAULT
 10
-19.21073790863005
 20
107.2939017407114
 30
-11.69394433724464
  0
VERTEX
  5
44
  8
DEFAULT
 10
-21.86073790801669
 20
107.2939017408322
 30
-11.69394433724464
  0
VERTEX
  5
45
  8
DEFAULT
 10
-21.86073790801669
 20
116.0939017408322
 30
-11.69394433724464
  0
VERTEX
  5
46
  8
DEFAULT
 10
-19.41073790826925
 20
116.0939017407825
 30
-11.69394433724464
  0
VERTEX
  5
47
  8
DEFAULT
 10
-19.41073790826925
 20
125.0939017407825
 30
-11.69394433724464
  0
VERTEX
  5
48
  8
DEFAULT
 10
-12.71073790278348
 20
125.0939017406403
 30
-11.69394433724464
  0
VERTEX
  5
49
  8
DEFAULT
 10
-12.71073790278348
 20
116.0939017406403
 30
-11.69394433724464
  0
VERTEX
  5
4A
  8
DEFAULT
 10
-10.26073790303599
 20
116.0939017405907
 30
-11.69394433724464
  0
VERTEX
  5
4B
  8
DEFAULT
 10
-10.26073790303599
 20
107.2939017405907
 30
-11.69394433724464
  0
VERTEX
  5
4C
  8
DEFAULT
 10
-12.91073790242265
 20
107.2939017407114
 30
-11.69394433724464
  0
VERTEX
  5
4D
  8
DEFAULT
 10
-12.91073790242262
 20
95.59717623622315
 30
-11.69394433724464
  0
VERTEX
  5
4E
  8
DEFAULT
 10
8.492702986930396
 20
95.5971762362231
 30
-11.69394433724464
 42
0.4142089080507833
  0
VERTEX
  5
4F
  8
DEFAULT
 10
16.49270298693062
 20
103.597176236223
 30
-11.69394433724464
  0
VERTEX
  5
50
  8
DEFAULT
 10
16.49270298693065
 20
227.093264885231
 30
-11.69394433724465
 42
0.4142089080507839
  0
VERTEX
  5
51
  8
DEFAULT
 10
8.492702986930567
 20
235.093264885231
 30
-11.69394433724464
  0
VERTEX
  5
52
  8
DEFAULT
 10
-7.78702902809124
 20
235.093264885231
 30
-11.69394433724464
  0
VERTEX
  5
53
  8
DEFAULT
 10
-7.78702902809124
 20
227.1346482392777
 30
-11.69394433724464
  0
VERTEX
  5
54
  8
DEFAULT
 10
-5.137029028704603
 20
227.134648239157
 30
-11.69394433724464
  0
VERTEX
  5
55
  8
DEFAULT
 10
-5.137029028704603
 20
218.334648239157
 30
-11.69394433724464
  0
VERTEX
  5
56
  8
DEFAULT
 10
-7.587029028452037
 20
218.3346482392066
 30
-11.69394433724464
  0
VERTEX
  5
57
  8
DEFAULT
 10
-7.587029028452037
 20
209.3346482392066
 30
-11.69394433724464
  0
VERTEX
  5
58
  8
DEFAULT
 10
-14.28702903393781
 20
209.3346482393488
 30
-11.69394433724464
  0
VERTEX
  5
59
  8
DEFAULT
 10
-14.28702903393787
 20
218.3346482393488
 30
-11.69394433724464
  0
VERTEX
  5
5A
  8
DEFAULT
 10
-16.73702903368536
 20
218.3346482393985
 30
-11.69394433724464
  0
VERTEX
  5
5B
  8
DEFAULT
 10
-16.7370290336853
 20
227.1346482393985
 30
-11.69394433724464
  0
VERTEX
  5
5C
  8
DEFAULT
 10
-14.08702903429861
 20
227.1346482392777
 30
-11.69394433724464
  0
VERTEX
  5
5D
  8
DEFAULT
 10
-14.08702903429867
 20
235.093264885231
 30
-11.69394433724464
  0
VERTEX
  5
5E
  8
DEFAULT
 10
-87.61073790790846
 20
235.093264885231
 30
-11.69394433724464
 42
0.4142089080507932
  0
VERTEX
  5
5F
  8
DEFAULT
 10
-95.61073790790846
 20
227.093264885231
 30
-11.69394433724464
  0
VERTEX
  5
60
  8
DEFAULT
 10
-95.61073790790846
 20
205.2761712709938
 30
-11.69394433724464
  0
SEQEND
  5
37
  8
DEFAULT
  0
ENDSEC
  0
EOF
