  0
SECTION
  2
HEADER
  9
$ACADVER
  1
AC1018
  9
$ACADMAINTVER
 70
     0
  9
$DWGCODEPAGE
  3
ANSI_1252
  9
$INSBASE
 10
0.0
 20
0.0
 30
0.0
  9
$EXTMIN
 10
1.000000000000000E+20
 20
1.000000000000000E+20
 30
1.000000000000000E+20
  9
$EXTMAX
 10
-1.000000000000000E+20
 20
-1.000000000000000E+20
 30
-1.000000000000000E+20
  9
$LIMMIN
 10
0.0
 20
0.0
  9
$LIMMAX
 10
420.0
 20
297.0
  9
$ORTHOMODE
 70
     0
  9
$REGENMODE
 70
     1
  9
$FILLMODE
 70
     1
  9
$QTEXTMODE
 70
     0
  9
$MIRRTEXT
 70
     1
  9
$LTSCALE
 40
1.0
  9
$ATTMODE
 70
     1
  9
$TEXTSIZE
 40
2.5
  9
$TRACEWID
 40
1.0
  9
$TEXTSTYLE
  7
Standard
  9
$CLAYER
  8
0
  9
$CELTYPE
  6
ByLayer
  9
$CECOLOR
 62
   256
  9
$CELTSCALE
 40
1.0
  9
$DISPSILH
 70
     0
  9
$DIMSCALE
 40
1.0
  9
$DIMASZ
 40
2.5
  9
$DIMEXO
 40
0.625
  9
$DIMDLI
 40
3.75
  9
$DIMRND
 40
0.0
  9
$DIMDLE
 40
0.0
  9
$DIMEXE
 40
1.25
  9
$DIMTP
 40
0.0
  9
$DIMTM
 40
0.0
  9
$DIMTXT
 40
2.5
  9
$DIMCEN
 40
2.5
  9
$DIMTSZ
 40
0.0
  9
$DIMTOL
 70
     0
  9
$DIMLIM
 70
     0
  9
$DIMTIH
 70
     0
  9
$DIMTOH
 70
     0
  9
$DIMSE1
 70
     0
  9
$DIMSE2
 70
     0
  9
$DIMTAD
 70
     1
  9
$DIMZIN
 70
     8
  9
$DIMBLK
  1

  9
$DIMASO
 70
     1
  9
$DIMSHO
 70
     1
  9
$DIMPOST
  1

  9
$DIMAPOST
  1

  9
$DIMALT
 70
     0
  9
$DIMALTD
 70
     3
  9
$DIMALTF
 40
0.03937007874016
  9
$DIMLFAC
 40
1.0
  9
$DIMTOFL
 70
     1
  9
$DIMTVP
 40
0.0
  9
$DIMTIX
 70
     0
  9
$DIMSOXD
 70
     0
  9
$DIMSAH
 70
     0
  9
$DIMBLK1
  1

  9
$DIMBLK2
  1

  9
$DIMSTYLE
  2
ISO-25
  9
$DIMCLRD
 70
     0
  9
$DIMCLRE
 70
     0
  9
$DIMCLRT
 70
     0
  9
$DIMTFAC
 40
1.0
  9
$DIMGAP
 40
0.625
  9
$DIMJUST
 70
     0
  9
$DIMSD1
 70
     0
  9
$DIMSD2
 70
     0
  9
$DIMTOLJ
 70
     0
  9
$DIMTZIN
 70
     8
  9
$DIMALTZ
 70
     0
  9
$DIMALTTZ
 70
     0
  9
$DIMUPT
 70
     0
  9
$DIMDEC
 70
     2
  9
$DIMTDEC
 70
     2
  9
$DIMALTU
 70
     2
  9
$DIMALTTD
 70
     3
  9
$DIMTXSTY
  7
Standard
  9
$DIMAUNIT
 70
     0
  9
$DIMADEC
 70
     0
  9
$DIMALTRND
 40
0.0
  9
$DIMAZIN
 70
     0
  9
$DIMDSEP
 70
    44
  9
$DIMATFIT
 70
     3
  9
$DIMFRAC
 70
     0
  9
$DIMLDRBLK
  1

  9
$DIMLUNIT
 70
     2
  9
$DIMLWD
 70
    -2
  9
$DIMLWE
 70
    -2
  9
$DIMTMOVE
 70
     0
  9
$LUNITS
 70
     2
  9
$LUPREC
 70
     4
  9
$SKETCHINC
 40
1.0
  9
$FILLETRAD
 40
10.0
  9
$AUNITS
 70
     0
  9
$AUPREC
 70
     0
  9
$MENU
  1
.
  9
$ELEVATION
 40
0.0
  9
$PELEVATION
 40
0.0
  9
$THICKNESS
 40
0.0
  9
$LIMCHECK
 70
     0
  9
$CHAMFERA
 40
10.0
  9
$CHAMFERB
 40
10.0
  9
$CHAMFERC
 40
20.0
  9
$CHAMFERD
 40
0.0
  9
$SKPOLY
 70
     0
  9
$TDCREATE
 40
2459914.53959456
  9
$TDUCREATE
 40
2459914.872927893
  9
$TDUPDATE
 40
2459914.539594572
  9
$TDUUPDATE
 40
2459914.872927905
  9
$TDINDWG
 40
0.0000000116
  9
$TDUSRTIMER
 40
0.0000000116
  9
$USRTIMER
 70
     1
  9
$ANGBASE
 50
0.0
  9
$ANGDIR
 70
     0
  9
$PDMODE
 70
     0
  9
$PDSIZE
 40
0.0
  9
$PLINEWID
 40
0.0
  9
$SPLFRAME
 70
     0
  9
$SPLINETYPE
 70
     6
  9
$SPLINESEGS
 70
     8
  9
$HANDSEED
  5
421
  9
$SURFTAB1
 70
     6
  9
$SURFTAB2
 70
     6
  9
$SURFTYPE
 70
     6
  9
$SURFU
 70
     6
  9
$SURFV
 70
     6
  9
$UCSBASE
  2

  9
$UCSNAME
  2

  9
$UCSORG
 10
0.0
 20
0.0
 30
0.0
  9
$UCSXDIR
 10
1.0
 20
0.0
 30
0.0
  9
$UCSYDIR
 10
0.0
 20
1.0
 30
0.0
  9
$UCSORTHOREF
  2

  9
$UCSORTHOVIEW
 70
     0
  9
$UCSORGTOP
 10
0.0
 20
0.0
 30
0.0
  9
$UCSORGBOTTOM
 10
0.0
 20
0.0
 30
0.0
  9
$UCSORGLEFT
 10
0.0
 20
0.0
 30
0.0
  9
$UCSORGRIGHT
 10
0.0
 20
0.0
 30
0.0
  9
$UCSORGFRONT
 10
0.0
 20
0.0
 30
0.0
  9
$UCSORGBACK
 10
0.0
 20
0.0
 30
0.0
  9
$PUCSBASE
  2

  9
$PUCSNAME
  2

  9
$PUCSORG
 10
0.0
 20
0.0
 30
0.0
  9
$PUCSXDIR
 10
1.0
 20
0.0
 30
0.0
  9
$PUCSYDIR
 10
0.0
 20
1.0
 30
0.0
  9
$PUCSORTHOREF
  2

  9
$PUCSORTHOVIEW
 70
     0
  9
$PUCSORGTOP
 10
0.0
 20
0.0
 30
0.0
  9
$PUCSORGBOTTOM
 10
0.0
 20
0.0
 30
0.0
  9
$PUCSORGLEFT
 10
0.0
 20
0.0
 30
0.0
  9
$PUCSORGRIGHT
 10
0.0
 20
0.0
 30
0.0
  9
$PUCSORGFRONT
 10
0.0
 20
0.0
 30
0.0
  9
$PUCSORGBACK
 10
0.0
 20
0.0
 30
0.0
  9
$USERI1
 70
     0
  9
$USERI2
 70
     0
  9
$USERI3
 70
     0
  9
$USERI4
 70
     0
  9
$USERI5
 70
     0
  9
$USERR1
 40
0.0
  9
$USERR2
 40
0.0
  9
$USERR3
 40
0.0
  9
$USERR4
 40
0.0
  9
$USERR5
 40
0.0
  9
$WORLDVIEW
 70
     1
  9
$SHADEDGE
 70
     3
  9
$SHADEDIF
 70
    70
  9
$TILEMODE
 70
     1
  9
$MAXACTVP
 70
    64
  9
$PINSBASE
 10
0.0
 20
0.0
 30
0.0
  9
$PLIMCHECK
 70
     0
  9
$PEXTMIN
 10
1.000000000000000E+20
 20
1.000000000000000E+20
 30
1.000000000000000E+20
  9
$PEXTMAX
 10
-1.000000000000000E+20
 20
-1.000000000000000E+20
 30
-1.000000000000000E+20
  9
$PLIMMIN
 10
0.0
 20
0.0
  9
$PLIMMAX
 10
420.0
 20
297.0
  9
$UNITMODE
 70
     0
  9
$VISRETAIN
 70
     1
  9
$PLINEGEN
 70
     0
  9
$PSLTSCALE
 70
     1
  9
$TREEDEPTH
 70
  3020
  9
$CMLSTYLE
  2
Standard
  9
$CMLJUST
 70
     0
  9
$CMLSCALE
 40
20.0
  9
$PROXYGRAPHICS
 70
     1
  9
$MEASUREMENT
 70
     1
  9
$CELWEIGHT
370
    -1
  9
$ENDCAPS
280
     0
  9
$JOINSTYLE
280
     0
  9
$LWDISPLAY
290
     0
  9
$INSUNITS
 70
     4
  9
$HYPERLINKBASE
  1

  9
$STYLESHEET
  1

  9
$XEDIT
290
     1
  9
$CEPSNTYPE
380
     0
  9
$PSTYLEMODE
290
     1
  9
$FINGERPRINTGUID
  2
{D575BF4B-C59B-4E6B-B9E9-D96F4435FB0C}
  9
$VERSIONGUID
  2
{FAEB1C32-E019-11D5-929B-00C0DF256EC4}
  9
$EXTNAMES
290
     1
  9
$PSVPSCALE
 40
0.0
  9
$OLESTARTUP
290
     0
  9
$SORTENTS
280
   127
  9
$INDEXCTL
280
     0
  9
$HIDETEXT
280
     1
  9
$XCLIPFRAME
290
     0
  9
$HALOGAP
280
     0
  9
$OBSCOLOR
 70
   257
  9
$OBSLTYPE
280
     0
  9
$INTERSECTIONDISPLAY
280
     0
  9
$INTERSECTIONCOLOR
 70
   257
  9
$DIMASSOC
280
     2
  9
$PROJECTNAME
  1

  0
ENDSEC
  0
SECTION
  2
CLASSES
  0
CLASS
  1
ACDBDICTIONARYWDFLT
  2
AcDbDictionaryWithDefault
  3
ObjectDBX Classes
 90
        0
 91
        4
280
     0
281
     0
  0
CLASS
  1
VISUALSTYLE
  2
AcDbVisualStyle
  3
ObjectDBX Classes
 90
     4095
 91
        4
280
     0
281
     0
  0
ENDSEC
  0
SECTION
  2
TABLES
  0
TABLE
  2
VPORT
  5
8
330
0
100
AcDbSymbolTable
 70
     1
  0
VPORT
  5
29
330
8
100
AcDbSymbolTableRecord
100
AcDbViewportTableRecord
  2
*Active
 70
     0
 10
0.0
 20
0.0
 11
1.0
 21
1.0
 12
344.1869158878504
 22
148.5
 13
0.0
 23
0.0
 14
10.0
 24
10.0
 15
10.0
 25
10.0
 16
0.0
 26
0.0
 36
1.0
 17
0.0
 27
0.0
 37
0.0
 40
297.0
 41
1.972972972850329
 42
50.0
 43
0.0
 44
0.0
 50
0.0
 51
0.0
 71
     0
 72
   100
 73
     1
 74
     3
 75
     0
 76
     0
 77
     0
 78
     0
281
     0
 65
     1
110
0.0
120
0.0
130
0.0
111
1.0
121
0.0
131
0.0
112
0.0
122
1.0
132
0.0
 79
     0
146
0.0
  0
ENDTAB
  0
TABLE
  2
LTYPE
  5
5
330
0
100
AcDbSymbolTable
 70
     1
  0
LTYPE
  5
14
330
5
100
AcDbSymbolTableRecord
100
AcDbLinetypeTableRecord
  2
ByBlock
 70
     0
  3

 72
    65
 73
     0
 40
0.0
  0
LTYPE
  5
15
330
5
100
AcDbSymbolTableRecord
100
AcDbLinetypeTableRecord
  2
ByLayer
 70
     0
  3

 72
    65
 73
     0
 40
0.0
  0
LTYPE
  5
16
330
5
100
AcDbSymbolTableRecord
100
AcDbLinetypeTableRecord
  2
Continuous
 70
     0
  3
Solid line
 72
    65
 73
     0
 40
0.0
  0
ENDTAB
  0
TABLE
  2
LAYER
  5
2
330
0
100
AcDbSymbolTable
 70
     1
  0
LAYER
  5
10
330
2
100
AcDbSymbolTableRecord
100
AcDbLayerTableRecord
  2
0
 70
     0
 62
     7
  6
Continuous
370
    -3
390
F
  0
ENDTAB
  0
TABLE
  2
STYLE
  5
3
330
0
100
AcDbSymbolTable
 70
     1
  0
STYLE
  5
11
330
3
100
AcDbSymbolTableRecord
100
AcDbTextStyleTableRecord
  2
Standard
 70
     0
 40
0.0
 41
1.0
 50
0.0
 71
     0
 42
2.5
  3
txt
  4

  0
ENDTAB
  0
TABLE
  2
VIEW
  5
6
330
0
100
AcDbSymbolTable
 70
     0
  0
ENDTAB
  0
TABLE
  2
UCS
  5
7
330
0
100
AcDbSymbolTable
 70
     0
  0
ENDTAB
  0
TABLE
  2
APPID
  5
9
330
0
100
AcDbSymbolTable
 70
     1
  0
APPID
  5
12
330
9
100
AcDbSymbolTableRecord
100
AcDbRegAppTableRecord
  2
ACAD
 70
     0
  0
ENDTAB
  0
TABLE
  2
DIMSTYLE
  5
A
330
0
100
AcDbSymbolTable
 70
     1
100
AcDbDimStyleTable
  0
DIMSTYLE
105
27
330
A
100
AcDbSymbolTableRecord
100
AcDbDimStyleTableRecord
  2
ISO-25
 70
     0
 41
2.5
 42
0.625
 43
3.75
 44
1.25
 73
     0
 74
     0
 77
     1
 78
     8
140
2.5
141
2.5
143
0.03937007874016
147
0.625
171
     3
172
     1
271
     2
272
     2
274
     3
278
    44
283
     0
284
     8
340
11
  0
ENDTAB
  0
TABLE
  2
BLOCK_RECORD
  5
1
330
0
100
AcDbSymbolTable
 70
     1
  0
BLOCK_RECORD
  5
1F
330
1
100
AcDbSymbolTableRecord
100
AcDbBlockTableRecord
  2
*Model_Space
340
22
  0
BLOCK_RECORD
  5
1B
330
1
100
AcDbSymbolTableRecord
100
AcDbBlockTableRecord
  2
*Paper_Space
340
1E
  0
BLOCK_RECORD
  5
23
330
1
100
AcDbSymbolTableRecord
100
AcDbBlockTableRecord
  2
*Paper_Space0
340
26
  0
ENDTAB
  0
ENDSEC
  0
SECTION
  2
BLOCKS
  0
BLOCK
  5
20
330
1F
100
AcDbEntity
  8
0
100
AcDbBlockBegin
  2
*Model_Space
 70
     0
 10
0.0
 20
0.0
 30
0.0
  3
*Model_Space
  1

  0
ENDBLK
  5
21
330
1F
100
AcDbEntity
  8
0
100
AcDbBlockEnd
  0
BLOCK
  5
1C
330
1B
100
AcDbEntity
 67
     1
  8
0
100
AcDbBlockBegin
  2
*Paper_Space
 70
     0
 10
0.0
 20
0.0
 30
0.0
  3
*Paper_Space
  1

  0
ENDBLK
  5
1D
330
1B
100
AcDbEntity
 67
     1
  8
0
100
AcDbBlockEnd
  0
BLOCK
  5
24
330
23
100
AcDbEntity
  8
0
100
AcDbBlockBegin
  2
*Paper_Space0
 70
     0
 10
0.0
 20
0.0
 30
0.0
  3
*Paper_Space0
  1

  0
ENDBLK
  5
25
330
23
100
AcDbEntity
  8
0
100
AcDbBlockEnd
  0
ENDSEC
  0
SECTION
  2
ENTITIES
  0
SPLINE
  5
3B
330
1F
100
AcDbEntity
  8
0
 62
     7
100
AcDbSpline
210
0.0
220
0.0
230
1.0
 70
    12
 71
     3
 72
     8
 73
     4
 74
     0
 42
0.000000001
 43
0.0
 40
0.0
 40
0.0
 40
0.0
 40
0.0
 40
1.0
 40
1.0
 40
1.0
 40
1.0
 10
63.95649444444444
 20
224.7250888888889
 30
0.0
 41
1.0
 10
63.47213055555554
 20
224.7935277777778
 30
0.0
 41
1.0
 10
62.98988333333333
 20
224.8781944444444
 30
0.0
 41
1.0
 10
62.51151666666667
 20
224.9801472222222
 30
0.0
 41
1.0
  0
POLYLINE
  5
3C
330
1F
100
AcDbEntity
  8
0
 62
     7
100
AcDb2dPolyline
 66
     1
 10
0.0
 20
0.0
 30
0.0
  0
VERTEX
  5
3D
330
3C
100
AcDbEntity
  8
0
100
AcDbVertex
100
AcDb2dVertex
 10
62.51151666666667
 20
224.9801472222222
 30
0.0
  0
VERTEX
  5
3E
330
3C
100
AcDbEntity
  8
0
100
AcDbVertex
100
AcDb2dVertex
 10
62.5108111111111
 20
224.9801472222222
 30
0.0
  0
VERTEX
  5
3F
330
3C
100
AcDbEntity
  8
0
100
AcDbVertex
100
AcDb2dVertex
 10
62.37252222222222
 20
225.3763166666666
 30
0.0
  0
VERTEX
  5
40
330
3C
100
AcDbEntity
  8
0
100
AcDbVertex
100
AcDb2dVertex
 10
62.24481666666667
 20
225.7936527777778
 30
0.0
  0
VERTEX
  5
41
330
3C
100
AcDbEntity
  8
0
100
AcDbVertex
100
AcDb2dVertex
 10
62.14356944444445
 20
226.1852361111111
 30
0.0
  0
VERTEX
  5
42
330
3C
100
AcDbEntity
  8
0
100
AcDbVertex
100
AcDb2dVertex
 10
62.06454722222222
 20
226.5503611111111
 30
0.0
  0
VERTEX
  5
43
330
3C
100
AcDbEntity
  8
0
100
AcDbVertex
100
AcDb2dVertex
 10
62.00739722222222
 20
226.8844416666666
 30
0.0
  0
VERTEX
  5
44
330
3C
100
AcDbEntity
  8
0
100
AcDbVertex
100
AcDb2dVertex
 10
61.96718055555556
 20
227.1945333333333
 30
0.0
  0
VERTEX
  5
45
330
3C
100
AcDbEntity
  8
0
100
AcDbVertex
100
AcDb2dVertex
 10
61.94283888888888
 20
227.4697
 30
0.0
  0
VERTEX
  5
46
330
3C
100
AcDbEntity
  8
0
100
AcDbVertex
100
AcDb2dVertex
 10
61.93225555555555
 20
227.7138222222222
 30
0.0
  0
VERTEX
  5
47
330
3C
100
AcDbEntity
  8
0
100
AcDbVertex
100
AcDb2dVertex
 10
61.93154999999999
 20
227.9307805555555
 30
0.0
  0
VERTEX
  5
48
330
3C
100
AcDbEntity
  8
0
100
AcDbVertex
100
AcDb2dVertex
 10
61.93825277777778
 20
228.1085805555555
 30
0.0
  0
VERTEX
  5
49
330
3C
100
AcDbEntity
  8
0
100
AcDbVertex
100
AcDb2dVertex
 10
61.96471111111111
 20
228.3731638888889
 30
0.0
  0
VERTEX
  5
4A
330
3C
100
AcDbEntity
  8
0
100
AcDbVertex
100
AcDb2dVertex
 10
61.99011111111111
 20
228.5125111111111
 30
0.0
  0
VERTEX
  5
4B
330
3C
100
AcDbEntity
  8
0
100
AcDbVertex
100
AcDb2dVertex
 10
62.05855
 20
228.8060222222222
 30
0.0
  0
VERTEX
  5
4C
330
3C
100
AcDbEntity
  8
0
100
AcDbVertex
100
AcDb2dVertex
 10
62.08818333333333
 20
229.0310944444444
 30
0.0
  0
VERTEX
  5
4D
330
3C
100
AcDbEntity
  8
0
100
AcDbVertex
100
AcDb2dVertex
 10
62.09100555555555
 20
229.2279444444444
 30
0.0
  0
VERTEX
  5
4E
330
3C
100
AcDbEntity
  8
0
100
AcDbVertex
100
AcDb2dVertex
 10
62.06983888888888
 20
229.3948083333333
 30
0.0
  0
VERTEX
  5
4F
330
3C
100
AcDbEntity
  8
0
100
AcDbVertex
100
AcDb2dVertex
 10
62.05149444444444
 20
229.4660694444445
 30
0.0
  0
VERTEX
  5
50
330
3C
100
AcDbEntity
  8
0
100
AcDbVertex
100
AcDb2dVertex
 10
62.02785833333333
 20
229.5292166666667
 30
0.0
  0
VERTEX
  5
51
330
3C
100
AcDbEntity
  8
0
100
AcDbVertex
100
AcDb2dVertex
 10
61.99998888888889
 20
229.5838972222222
 30
0.0
  0
VERTEX
  5
52
330
3C
100
AcDbEntity
  8
0
100
AcDbVertex
100
AcDb2dVertex
 10
61.96718055555556
 20
229.6304638888889
 30
0.0
  0
VERTEX
  5
53
330
3C
100
AcDbEntity
  8
0
100
AcDbVertex
100
AcDb2dVertex
 10
61.93049166666666
 20
229.6675055555555
 30
0.0
  0
VERTEX
  5
54
330
3C
100
AcDbEntity
  8
0
100
AcDbVertex
100
AcDb2dVertex
 10
61.890275
 20
229.6964333333333
 30
0.0
  0
VERTEX
  5
55
330
3C
100
AcDbEntity
  8
0
100
AcDbVertex
100
AcDb2dVertex
 10
61.83559444444444
 20
229.7200694444444
 30
0.0
  0
VERTEX
  5
56
330
3C
100
AcDbEntity
  8
0
100
AcDbVertex
100
AcDb2dVertex
 10
61.1138111111111
 20
229.9648972222222
 30
0.0
  0
VERTEX
  5
57
330
3C
100
AcDbEntity
  8
0
100
AcDbVertex
100
AcDb2dVertex
 10
60.40366944444445
 20
230.2418277777778
 30
0.0
  0
VERTEX
  5
58
330
3C
100
AcDbEntity
  8
0
100
AcDbVertex
100
AcDb2dVertex
 10
60.34651944444444
 20
230.2587611111111
 30
0.0
  0
VERTEX
  5
59
330
3C
100
AcDbEntity
  8
0
100
AcDbVertex
100
AcDb2dVertex
 10
60.29713055555555
 20
230.2622888888889
 30
0.0
  0
VERTEX
  5
5A
330
3C
100
AcDbEntity
  8
0
100
AcDbVertex
100
AcDb2dVertex
 10
60.24456666666666
 20
230.2569972222222
 30
0.0
  0
VERTEX
  5
5B
330
3C
100
AcDbEntity
  8
0
100
AcDbVertex
100
AcDb2dVertex
 10
60.18988611111111
 20
230.2425333333333
 30
0.0
  0
VERTEX
  5
5C
330
3C
100
AcDbEntity
  8
0
100
AcDbVertex
100
AcDb2dVertex
 10
60.13344166666666
 20
230.2181916666667
 30
0.0
  0
VERTEX
  5
5D
330
3C
100
AcDbEntity
  8
0
100
AcDbVertex
100
AcDb2dVertex
 10
60.074175
 20
230.1857361111111
 30
0.0
  0
VERTEX
  5
5E
330
3C
100
AcDbEntity
  8
0
100
AcDbVertex
100
AcDb2dVertex
 10
60.01420277777778
 20
230.1423444444444
 30
0.0
  0
VERTEX
  5
5F
330
3C
100
AcDbEntity
  8
0
100
AcDbVertex
100
AcDb2dVertex
 10
59.89178888888889
 20
230.0280444444444
 30
0.0
  0
VERTEX
  5
60
330
3C
100
AcDbEntity
  8
0
100
AcDbVertex
100
AcDb2dVertex
 10
59.76690555555556
 20
229.8759972222222
 30
0.0
  0
VERTEX
  5
61
330
3C
100
AcDbEntity
  8
0
100
AcDbVertex
100
AcDb2dVertex
 10
59.64449166666666
 20
229.6844388888889
 30
0.0
  0
VERTEX
  5
62
330
3C
100
AcDbEntity
  8
0
100
AcDbVertex
100
AcDb2dVertex
 10
59.50831944444445
 20
229.4152694444444
 30
0.0
  0
VERTEX
  5
63
330
3C
100
AcDbEntity
  8
0
100
AcDbVertex
100
AcDb2dVertex
 10
59.43846944444444
 20
229.2928555555555
 30
0.0
  0
VERTEX
  5
64
330
3C
100
AcDbEntity
  8
0
100
AcDbVertex
100
AcDb2dVertex
 10
59.28853888888889
 20
229.073075
 30
0.0
  0
VERTEX
  5
65
330
3C
100
AcDbEntity
  8
0
100
AcDbVertex
100
AcDb2dVertex
 10
59.17988333333333
 20
228.9323166666667
 30
0.0
  0
VERTEX
  5
66
330
3C
100
AcDbEntity
  8
0
100
AcDbVertex
100
AcDb2dVertex
 10
59.03983055555555
 20
228.7672166666667
 30
0.0
  0
VERTEX
  5
67
330
3C
100
AcDbEntity
  8
0
100
AcDbVertex
100
AcDb2dVertex
 10
58.87437777777778
 20
228.5862416666666
 30
0.0
  0
VERTEX
  5
68
330
3C
100
AcDbEntity
  8
0
100
AcDbVertex
100
AcDb2dVertex
 10
58.67964444444443
 20
228.3915083333333
 30
0.0
  0
VERTEX
  5
69
330
3C
100
AcDbEntity
  8
0
100
AcDbVertex
100
AcDb2dVertex
 10
58.44892777777778
 20
228.1794888888889
 30
0.0
  0
VERTEX
  5
6A
330
3C
100
AcDbEntity
  8
0
100
AcDbVertex
100
AcDb2dVertex
 10
58.19069444444444
 20
227.9604138888889
 30
0.0
  0
VERTEX
  5
6B
330
3C
100
AcDbEntity
  8
0
100
AcDbVertex
100
AcDb2dVertex
 10
57.89541944444444
 20
227.7314611111111
 30
0.0
  0
VERTEX
  5
6C
330
3C
100
AcDbEntity
  8
0
100
AcDbVertex
100
AcDb2dVertex
 10
57.56627777777778
 20
227.4965111111111
 30
0.0
  0
VERTEX
  5
6D
330
3C
100
AcDbEntity
  8
0
100
AcDbVertex
100
AcDb2dVertex
 10
57.19974166666667
 20
227.2583861111111
 30
0.0
  0
VERTEX
  5
6E
330
3C
100
AcDbEntity
  8
0
100
AcDbVertex
100
AcDb2dVertex
 10
56.83920277777777
 20
227.0438972222222
 30
0.0
  0
VERTEX
  5
6F
330
3C
100
AcDbEntity
  8
0
100
AcDbVertex
100
AcDb2dVertex
 10
56.83849722222222
 20
227.0446027777778
 30
0.0
  0
SEQEND
  5
70
330
3C
100
AcDbEntity
  8
0
 62
     7
  0
SPLINE
  5
71
330
1F
100
AcDbEntity
  8
0
 62
     7
100
AcDbSpline
210
0.0
220
0.0
230
1.0
 70
    12
 71
     3
 72
     8
 73
     4
 74
     0
 42
0.000000001
 43
0.0
 40
0.0
 40
0.0
 40
0.0
 40
0.0
 40
1.0
 40
1.0
 40
1.0
 40
1.0
 10
56.83849722222222
 20
227.0446027777778
 30
0.0
 41
1.0
 10
56.40634444444444
 20
227.2742611111111
 30
0.0
 41
1.0
 10
55.98265833333333
 20
227.5194416666666
 30
0.0
 41
1.0
 10
55.56743888888889
 20
227.7780277777778
 30
0.0
 41
1.0
  0
POLYLINE
  5
72
330
1F
100
AcDbEntity
  8
0
 62
     7
100
AcDb2dPolyline
 66
     1
 10
0.0
 20
0.0
 30
0.0
  0
VERTEX
  5
73
330
72
100
AcDbEntity
  8
0
100
AcDbVertex
100
AcDb2dVertex
 10
55.56743888888889
 20
227.7780277777778
 30
0.0
  0
VERTEX
  5
74
330
72
100
AcDbEntity
  8
0
100
AcDbVertex
100
AcDb2dVertex
 10
55.56673333333333
 20
227.7787333333333
 30
0.0
  0
VERTEX
  5
75
330
72
100
AcDbEntity
  8
0
100
AcDbVertex
100
AcDb2dVertex
 10
55.572025
 20
228.1985388888889
 30
0.0
  0
VERTEX
  5
76
330
72
100
AcDbEntity
  8
0
100
AcDbVertex
100
AcDb2dVertex
 10
55.59566111111111
 20
228.6342194444444
 30
0.0
  0
VERTEX
  5
77
330
72
100
AcDbEntity
  8
0
100
AcDbVertex
100
AcDb2dVertex
 10
55.63376111111111
 20
229.0370916666667
 30
0.0
  0
VERTEX
  5
78
330
72
100
AcDbEntity
  8
0
100
AcDbVertex
100
AcDb2dVertex
 10
55.68456111111111
 20
229.4068027777778
 30
0.0
  0
VERTEX
  5
79
330
72
100
AcDbEntity
  8
0
100
AcDbVertex
100
AcDb2dVertex
 10
55.74488611111111
 20
229.7405305555556
 30
0.0
  0
VERTEX
  5
7A
330
72
100
AcDbEntity
  8
0
100
AcDbVertex
100
AcDb2dVertex
 10
55.813325
 20
230.0456833333333
 30
0.0
  0
VERTEX
  5
7B
330
72
100
AcDbEntity
  8
0
100
AcDbVertex
100
AcDb2dVertex
 10
55.8845861111111
 20
230.3127361111111
 30
0.0
  0
VERTEX
  5
7C
330
72
100
AcDbEntity
  8
0
100
AcDbVertex
100
AcDb2dVertex
 10
55.95831666666666
 20
230.5459222222222
 30
0.0
  0
VERTEX
  5
7D
330
72
100
AcDbEntity
  8
0
100
AcDbVertex
100
AcDb2dVertex
 10
56.03134166666666
 20
230.7498277777778
 30
0.0
  0
VERTEX
  5
7E
330
72
100
AcDbEntity
  8
0
100
AcDbVertex
100
AcDb2dVertex
 10
56.099075
 20
230.9142222222222
 30
0.0
  0
VERTEX
  5
7F
330
72
100
AcDbEntity
  8
0
100
AcDbVertex
100
AcDb2dVertex
 10
56.21408055555555
 20
231.1544638888889
 30
0.0
  0
VERTEX
  5
80
330
72
100
AcDbEntity
  8
0
100
AcDbVertex
100
AcDb2dVertex
 10
56.28534166666666
 20
231.2761722222222
 30
0.0
  0
VERTEX
  5
81
330
72
100
AcDbEntity
  8
0
100
AcDbVertex
100
AcDb2dVertex
 10
56.45044166666666
 20
231.5287611111111
 30
0.0
  0
VERTEX
  5
82
330
72
100
AcDbEntity
  8
0
100
AcDbVertex
100
AcDb2dVertex
 10
56.55556944444444
 20
231.7301972222222
 30
0.0
  0
VERTEX
  5
83
330
72
100
AcDbEntity
  8
0
100
AcDbVertex
100
AcDb2dVertex
 10
56.62541944444444
 20
231.9143472222222
 30
0.0
  0
VERTEX
  5
84
330
72
100
AcDbEntity
  8
0
100
AcDbVertex
100
AcDb2dVertex
 10
56.66281388888888
 20
232.0776833333333
 30
0.0
  0
VERTEX
  5
85
330
72
100
AcDbEntity
  8
0
100
AcDbVertex
100
AcDb2dVertex
 10
56.66951666666666
 20
232.1514138888889
 30
0.0
  0
VERTEX
  5
86
330
72
100
AcDbEntity
  8
0
100
AcDbVertex
100
AcDb2dVertex
 10
56.66881111111111
 20
232.2184416666666
 30
0.0
  0
VERTEX
  5
87
330
72
100
AcDbEntity
  8
0
100
AcDbVertex
100
AcDb2dVertex
 10
56.66105
 20
232.279825
 30
0.0
  0
VERTEX
  5
88
330
72
100
AcDbEntity
  8
0
100
AcDbVertex
100
AcDb2dVertex
 10
56.64658611111111
 20
232.3348583333333
 30
0.0
  0
VERTEX
  5
89
330
72
100
AcDbEntity
  8
0
100
AcDbVertex
100
AcDb2dVertex
 10
56.62541944444444
 20
232.3824833333333
 30
0.0
  0
VERTEX
  5
8A
330
72
100
AcDbEntity
  8
0
100
AcDbVertex
100
AcDb2dVertex
 10
56.59719722222222
 20
232.4230527777778
 30
0.0
  0
VERTEX
  5
8B
330
72
100
AcDbEntity
  8
0
100
AcDbVertex
100
AcDb2dVertex
 10
56.55380555555556
 20
232.463975
 30
0.0
  0
VERTEX
  5
8C
330
72
100
AcDbEntity
  8
0
100
AcDbVertex
100
AcDb2dVertex
 10
55.959375
 20
232.9409305555555
 30
0.0
  0
VERTEX
  5
8D
330
72
100
AcDbEntity
  8
0
100
AcDbVertex
100
AcDb2dVertex
 10
55.38575833333333
 20
233.4443444444445
 30
0.0
  0
VERTEX
  5
8E
330
72
100
AcDbEntity
  8
0
100
AcDbVertex
100
AcDb2dVertex
 10
55.33883888888889
 20
233.479975
 30
0.0
  0
VERTEX
  5
8F
330
72
100
AcDbEntity
  8
0
100
AcDbVertex
100
AcDb2dVertex
 10
55.29297777777778
 20
233.4997305555555
 30
0.0
  0
VERTEX
  5
90
330
72
100
AcDbEntity
  8
0
100
AcDbVertex
100
AcDb2dVertex
 10
55.24288333333333
 20
233.5127833333333
 30
0.0
  0
VERTEX
  5
91
330
72
100
AcDbEntity
  8
0
100
AcDbVertex
100
AcDb2dVertex
 10
55.18573333333333
 20
233.5173694444444
 30
0.0
  0
VERTEX
  5
92
330
72
100
AcDbEntity
  8
0
100
AcDbVertex
100
AcDb2dVertex
 10
55.12434999999999
 20
233.5141944444445
 30
0.0
  0
VERTEX
  5
93
330
72
100
AcDbEntity
  8
0
100
AcDbVertex
100
AcDb2dVertex
 10
55.05802777777778
 20
233.5036111111111
 30
0.0
  0
VERTEX
  5
94
330
72
100
AcDbEntity
  8
0
100
AcDbVertex
100
AcDb2dVertex
 10
54.98641388888888
 20
233.4838555555555
 30
0.0
  0
VERTEX
  5
95
330
72
100
AcDbEntity
  8
0
100
AcDbVertex
100
AcDb2dVertex
 10
54.83225
 20
233.4185916666666
 30
0.0
  0
VERTEX
  5
96
330
72
100
AcDbEntity
  8
0
100
AcDbVertex
100
AcDb2dVertex
 10
54.66326944444445
 20
233.31805
 30
0.0
  0
VERTEX
  5
97
330
72
100
AcDbEntity
  8
0
100
AcDbVertex
100
AcDb2dVertex
 10
54.48229444444444
 20
233.1797611111111
 30
0.0
  0
VERTEX
  5
98
330
72
100
AcDbEntity
  8
0
100
AcDbVertex
100
AcDb2dVertex
 10
54.26321944444445
 20
232.9733861111111
 30
0.0
  0
VERTEX
  5
99
330
72
100
AcDbEntity
  8
0
100
AcDbVertex
100
AcDb2dVertex
 10
54.15526944444444
 20
232.8823694444444
 30
0.0
  0
VERTEX
  5
9A
330
72
100
AcDbEntity
  8
0
100
AcDbVertex
100
AcDb2dVertex
 10
53.93936944444444
 20
232.7271472222222
 30
0.0
  0
VERTEX
  5
9B
330
72
100
AcDbEntity
  8
0
100
AcDbVertex
100
AcDb2dVertex
 10
53.78873333333333
 20
232.63225
 30
0.0
  0
VERTEX
  5
9C
330
72
100
AcDbEntity
  8
0
100
AcDbVertex
100
AcDb2dVertex
 10
53.60105555555555
 20
232.5239472222222
 30
0.0
  0
VERTEX
  5
9D
330
72
100
AcDbEntity
  8
0
100
AcDbVertex
100
AcDb2dVertex
 10
53.38339166666666
 20
232.4114111111111
 30
0.0
  0
VERTEX
  5
9E
330
72
100
AcDbEntity
  8
0
100
AcDbVertex
100
AcDb2dVertex
 10
53.13327222222222
 20
232.2953472222222
 30
0.0
  0
VERTEX
  5
9F
330
72
100
AcDbEntity
  8
0
100
AcDbVertex
100
AcDb2dVertex
 10
52.84434722222223
 20
232.1743444444444
 30
0.0
  0
VERTEX
  5
A0
330
72
100
AcDbEntity
  8
0
100
AcDbVertex
100
AcDb2dVertex
 10
52.52649444444444
 20
232.0572222222222
 30
0.0
  0
VERTEX
  5
A1
330
72
100
AcDbEntity
  8
0
100
AcDbVertex
100
AcDb2dVertex
 10
52.17124722222222
 20
231.9429222222222
 30
0.0
  0
VERTEX
  5
A2
330
72
100
AcDbEntity
  8
0
100
AcDbVertex
100
AcDb2dVertex
 10
51.781075
 20
231.8349722222222
 30
0.0
  0
VERTEX
  5
A3
330
72
100
AcDbEntity
  8
0
100
AcDbVertex
100
AcDb2dVertex
 10
51.35597777777777
 20
231.7369
 30
0.0
  0
VERTEX
  5
A4
330
72
100
AcDbEntity
  8
0
100
AcDbVertex
100
AcDb2dVertex
 10
50.942875
 20
231.6585833333333
 30
0.0
  0
VERTEX
  5
A5
330
72
100
AcDbEntity
  8
0
100
AcDbVertex
100
AcDb2dVertex
 10
50.94216944444444
 20
231.6592888888889
 30
0.0
  0
SEQEND
  5
A6
330
72
100
AcDbEntity
  8
0
 62
     7
  0
SPLINE
  5
A7
330
1F
100
AcDbEntity
  8
0
 62
     7
100
AcDbSpline
210
0.0
220
0.0
230
1.0
 70
    12
 71
     3
 72
     8
 73
     4
 74
     0
 42
0.000000001
 43
0.0
 40
0.0
 40
0.0
 40
0.0
 40
0.0
 40
1.0
 40
1.0
 40
1.0
 40
1.0
 10
50.94216944444444
 20
231.6592888888889
 30
0.0
 41
1.0
 10
50.61514444444445
 20
232.0230027777778
 30
0.0
 41
1.0
 10
50.30117222222222
 20
232.3980055555555
 30
0.0
 41
1.0
 10
49.99919444444444
 20
232.7825333333333
 30
0.0
 41
1.0
  0
POLYLINE
  5
A8
330
1F
100
AcDbEntity
  8
0
 62
     7
100
AcDb2dPolyline
 66
     1
 10
0.0
 20
0.0
 30
0.0
  0
VERTEX
  5
A9
330
A8
100
AcDbEntity
  8
0
100
AcDbVertex
100
AcDb2dVertex
 10
49.99919444444444
 20
232.7825333333333
 30
0.0
  0
VERTEX
  5
AA
330
A8
100
AcDbEntity
  8
0
100
AcDbVertex
100
AcDb2dVertex
 10
49.99919444444444
 20
232.7835916666667
 30
0.0
  0
VERTEX
  5
AB
330
A8
100
AcDbEntity
  8
0
100
AcDbVertex
100
AcDb2dVertex
 10
50.14771388888889
 20
233.1758805555555
 30
0.0
  0
VERTEX
  5
AC
330
A8
100
AcDbEntity
  8
0
100
AcDbVertex
100
AcDb2dVertex
 10
50.31881111111111
 20
233.5780472222222
 30
0.0
  0
VERTEX
  5
AD
330
A8
100
AcDbEntity
  8
0
100
AcDbVertex
100
AcDb2dVertex
 10
50.49273055555555
 20
233.9431722222222
 30
0.0
  0
VERTEX
  5
AE
330
A8
100
AcDbEntity
  8
0
100
AcDbVertex
100
AcDb2dVertex
 10
50.66700277777777
 20
234.2733722222222
 30
0.0
  0
VERTEX
  5
AF
330
A8
100
AcDbEntity
  8
0
100
AcDbVertex
100
AcDb2dVertex
 10
50.83739444444444
 20
234.5661777777778
 30
0.0
  0
VERTEX
  5
B0
330
A8
100
AcDbEntity
  8
0
100
AcDbVertex
100
AcDb2dVertex
 10
51.00602222222221
 20
234.8300555555556
 30
0.0
  0
VERTEX
  5
B1
330
A8
100
AcDbEntity
  8
0
100
AcDbVertex
100
AcDb2dVertex
 10
51.16441944444444
 20
235.0558333333333
 30
0.0
  0
VERTEX
  5
B2
330
A8
100
AcDbEntity
  8
0
100
AcDbVertex
100
AcDb2dVertex
 10
51.31329166666666
 20
235.2505666666667
 30
0.0
  0
VERTEX
  5
B3
330
A8
100
AcDbEntity
  8
0
100
AcDbVertex
100
AcDb2dVertex
 10
51.45193333333333
 20
235.4163722222222
 30
0.0
  0
VERTEX
  5
B4
330
A8
100
AcDbEntity
  8
0
100
AcDbVertex
100
AcDb2dVertex
 10
51.57187777777777
 20
235.5486638888889
 30
0.0
  0
VERTEX
  5
B5
330
A8
100
AcDbEntity
  8
0
100
AcDbVertex
100
AcDb2dVertex
 10
51.76202499999999
 20
235.734225
 30
0.0
  0
VERTEX
  5
B6
330
A8
100
AcDbEntity
  8
0
100
AcDbVertex
100
AcDb2dVertex
 10
51.87068055555556
 20
235.8245361111111
 30
0.0
  0
VERTEX
  5
B7
330
A8
100
AcDbEntity
  8
0
100
AcDbVertex
100
AcDb2dVertex
 10
52.11198055555555
 20
236.0048055555555
 30
0.0
  0
VERTEX
  5
B8
330
A8
100
AcDbEntity
  8
0
100
AcDbVertex
100
AcDb2dVertex
 10
52.27919722222222
 20
236.1593222222222
 30
0.0
  0
VERTEX
  5
B9
330
A8
100
AcDbEntity
  8
0
100
AcDbVertex
100
AcDb2dVertex
 10
52.40760833333333
 20
236.3074888888889
 30
0.0
  0
VERTEX
  5
BA
330
A8
100
AcDbEntity
  8
0
100
AcDbVertex
100
AcDb2dVertex
 10
52.49897777777777
 20
236.4489527777777
 30
0.0
  0
VERTEX
  5
BB
330
A8
100
AcDbEntity
  8
0
100
AcDbVertex
100
AcDb2dVertex
 10
52.53108055555555
 20
236.515275
 30
0.0
  0
VERTEX
  5
BC
330
A8
100
AcDbEntity
  8
0
100
AcDbVertex
100
AcDb2dVertex
 10
52.55295277777778
 20
236.5791277777778
 30
0.0
  0
VERTEX
  5
BD
330
A8
100
AcDbEntity
  8
0
100
AcDbVertex
100
AcDb2dVertex
 10
52.5667111111111
 20
236.6391
 30
0.0
  0
VERTEX
  5
BE
330
A8
100
AcDbEntity
  8
0
100
AcDbVertex
100
AcDb2dVertex
 10
52.57200277777778
 20
236.6955444444444
 30
0.0
  0
VERTEX
  5
BF
330
A8
100
AcDbEntity
  8
0
100
AcDbVertex
100
AcDb2dVertex
 10
52.56812222222222
 20
236.7477555555555
 30
0.0
  0
VERTEX
  5
C0
330
A8
100
AcDbEntity
  8
0
100
AcDbVertex
100
AcDb2dVertex
 10
52.55612777777777
 20
236.7957333333333
 30
0.0
  0
VERTEX
  5
C1
330
A8
100
AcDbEntity
  8
0
100
AcDbVertex
100
AcDb2dVertex
 10
52.52931666666667
 20
236.8490027777778
 30
0.0
  0
VERTEX
  5
C2
330
A8
100
AcDbEntity
  8
0
100
AcDbVertex
100
AcDb2dVertex
 10
52.13314722222222
 20
237.5009361111111
 30
0.0
  0
VERTEX
  5
C3
330
A8
100
AcDbEntity
  8
0
100
AcDbVertex
100
AcDb2dVertex
 10
51.76661111111111
 20
238.1690972222222
 30
0.0
  0
VERTEX
  5
C4
330
A8
100
AcDbEntity
  8
0
100
AcDbVertex
100
AcDb2dVertex
 10
51.73380277777778
 20
238.2188388888889
 30
0.0
  0
VERTEX
  5
C5
330
A8
100
AcDbEntity
  8
0
100
AcDbVertex
100
AcDb2dVertex
 10
51.69887777777777
 20
238.2537638888889
 30
0.0
  0
VERTEX
  5
C6
330
A8
100
AcDbEntity
  8
0
100
AcDbVertex
100
AcDb2dVertex
 10
51.65548611111111
 20
238.2826916666667
 30
0.0
  0
VERTEX
  5
C7
330
A8
100
AcDbEntity
  8
0
100
AcDbVertex
100
AcDb2dVertex
 10
51.60398055555555
 20
238.3070333333333
 30
0.0
  0
VERTEX
  5
C8
330
A8
100
AcDbEntity
  8
0
100
AcDbVertex
100
AcDb2dVertex
 10
51.54541944444444
 20
238.325025
 30
0.0
  0
VERTEX
  5
C9
330
A8
100
AcDbEntity
  8
0
100
AcDbVertex
100
AcDb2dVertex
 10
51.47839166666666
 20
238.3373722222222
 30
0.0
  0
VERTEX
  5
CA
330
A8
100
AcDbEntity
  8
0
100
AcDbVertex
100
AcDb2dVertex
 10
51.40536666666667
 20
238.3433694444444
 30
0.0
  0
VERTEX
  5
CB
330
A8
100
AcDbEntity
  8
0
100
AcDbVertex
100
AcDb2dVertex
 10
51.23744444444444
 20
238.3349027777778
 30
0.0
  0
VERTEX
  5
CC
330
A8
100
AcDbEntity
  8
0
100
AcDbVertex
100
AcDb2dVertex
 10
51.04412222222222
 20
238.2978611111111
 30
0.0
  0
VERTEX
  5
CD
330
A8
100
AcDbEntity
  8
0
100
AcDbVertex
100
AcDb2dVertex
 10
50.82751666666666
 20
238.2301277777778
 30
0.0
  0
VERTEX
  5
CE
330
A8
100
AcDbEntity
  8
0
100
AcDbVertex
100
AcDb2dVertex
 10
50.55058611111111
 20
238.1115944444444
 30
0.0
  0
VERTEX
  5
CF
330
A8
100
AcDbEntity
  8
0
100
AcDbVertex
100
AcDb2dVertex
 10
50.41758888888889
 20
238.0618527777777
 30
0.0
  0
VERTEX
  5
D0
330
A8
100
AcDbEntity
  8
0
100
AcDbVertex
100
AcDb2dVertex
 10
50.161825
 20
237.9905916666666
 30
0.0
  0
VERTEX
  5
D1
330
A8
100
AcDbEntity
  8
0
100
AcDbVertex
100
AcDb2dVertex
 10
49.98790555555555
 20
237.9524916666666
 30
0.0
  0
VERTEX
  5
D2
330
A8
100
AcDbEntity
  8
0
100
AcDbVertex
100
AcDb2dVertex
 10
49.77482777777777
 20
237.9161555555555
 30
0.0
  0
VERTEX
  5
D3
330
A8
100
AcDbEntity
  8
0
100
AcDbVertex
100
AcDb2dVertex
 10
49.5314111111111
 20
237.8840527777778
 30
0.0
  0
VERTEX
  5
D4
330
A8
100
AcDbEntity
  8
0
100
AcDbVertex
100
AcDb2dVertex
 10
49.25695
 20
237.8597111111111
 30
0.0
  0
VERTEX
  5
D5
330
A8
100
AcDbEntity
  8
0
100
AcDbVertex
100
AcDb2dVertex
 10
48.94438888888889
 20
237.8452472222222
 30
0.0
  0
VERTEX
  5
D6
330
A8
100
AcDbEntity
  8
0
100
AcDbVertex
100
AcDb2dVertex
 10
48.60536944444444
 20
237.8438361111111
 30
0.0
  0
VERTEX
  5
D7
330
A8
100
AcDbEntity
  8
0
100
AcDbVertex
100
AcDb2dVertex
 10
48.23248333333333
 20
237.8583
 30
0.0
  0
VERTEX
  5
D8
330
A8
100
AcDbEntity
  8
0
100
AcDbVertex
100
AcDb2dVertex
 10
47.82890555555555
 20
237.89005
 30
0.0
  0
VERTEX
  5
D9
330
A8
100
AcDbEntity
  8
0
100
AcDbVertex
100
AcDb2dVertex
 10
47.39534166666666
 20
237.9433194444445
 30
0.0
  0
VERTEX
  5
DA
330
A8
100
AcDbEntity
  8
0
100
AcDbVertex
100
AcDb2dVertex
 10
46.98082777777778
 20
238.0110527777778
 30
0.0
  0
VERTEX
  5
DB
330
A8
100
AcDbEntity
  8
0
100
AcDbVertex
100
AcDb2dVertex
 10
46.98082777777778
 20
238.0117583333333
 30
0.0
  0
SEQEND
  5
DC
330
A8
100
AcDbEntity
  8
0
 62
     7
  0
SPLINE
  5
DD
330
1F
100
AcDbEntity
  8
0
 62
     7
100
AcDbSpline
210
0.0
220
0.0
230
1.0
 70
    12
 71
     3
 72
     8
 73
     4
 74
     0
 42
0.000000001
 43
0.0
 40
0.0
 40
0.0
 40
0.0
 40
0.0
 40
1.0
 40
1.0
 40
1.0
 40
1.0
 10
46.98082777777778
 20
238.0117583333333
 30
0.0
 41
1.0
 10
46.79773611111111
 20
238.4650777777777
 30
0.0
 41
1.0
 10
46.63016666666667
 20
238.9251
 30
0.0
 41
1.0
 10
46.478825
 20
239.3907666666667
 30
0.0
 41
1.0
  0
POLYLINE
  5
DE
330
1F
100
AcDbEntity
  8
0
 62
     7
100
AcDb2dPolyline
 66
     1
 10
0.0
 20
0.0
 30
0.0
  0
VERTEX
  5
DF
330
DE
100
AcDbEntity
  8
0
100
AcDbVertex
100
AcDb2dVertex
 10
46.478825
 20
239.3907666666667
 30
0.0
  0
VERTEX
  5
E0
330
DE
100
AcDbEntity
  8
0
100
AcDbVertex
100
AcDb2dVertex
 10
46.478825
 20
239.3914722222222
 30
0.0
  0
VERTEX
  5
E1
330
DE
100
AcDbEntity
  8
0
100
AcDbVertex
100
AcDb2dVertex
 10
46.75258055555555
 20
239.709325
 30
0.0
  0
VERTEX
  5
E2
330
DE
100
AcDbEntity
  8
0
100
AcDbVertex
100
AcDb2dVertex
 10
47.05067777777778
 20
240.0278833333333
 30
0.0
  0
VERTEX
  5
E3
330
DE
100
AcDbEntity
  8
0
100
AcDbVertex
100
AcDb2dVertex
 10
47.33889722222222
 20
240.3122222222222
 30
0.0
  0
VERTEX
  5
E4
330
DE
100
AcDbEntity
  8
0
100
AcDbVertex
100
AcDb2dVertex
 10
47.61582777777777
 20
240.5626944444444
 30
0.0
  0
VERTEX
  5
E5
330
DE
100
AcDbEntity
  8
0
100
AcDbVertex
100
AcDb2dVertex
 10
47.875825
 20
240.7800055555555
 30
0.0
  0
VERTEX
  5
E6
330
DE
100
AcDbEntity
  8
0
100
AcDbVertex
100
AcDb2dVertex
 10
48.12453333333333
 20
240.9694472222222
 30
0.0
  0
VERTEX
  5
E7
330
DE
100
AcDbEntity
  8
0
100
AcDbVertex
100
AcDb2dVertex
 10
48.35136944444444
 20
241.1274916666667
 30
0.0
  0
VERTEX
  5
E8
330
DE
100
AcDbEntity
  8
0
100
AcDbVertex
100
AcDb2dVertex
 10
48.55739166666666
 20
241.2597833333333
 30
0.0
  0
VERTEX
  5
E9
330
DE
100
AcDbEntity
  8
0
100
AcDbVertex
100
AcDb2dVertex
 10
48.74436388888888
 20
241.3687916666667
 30
0.0
  0
VERTEX
  5
EA
330
DE
100
AcDbEntity
  8
0
100
AcDbVertex
100
AcDb2dVertex
 10
48.90170277777777
 20
241.4516944444445
 30
0.0
  0
VERTEX
  5
EB
330
DE
100
AcDbEntity
  8
0
100
AcDbVertex
100
AcDb2dVertex
 10
49.14441388888888
 20
241.5610555555556
 30
0.0
  0
VERTEX
  5
EC
330
DE
100
AcDbEntity
  8
0
100
AcDbVertex
100
AcDb2dVertex
 10
49.27741111111111
 20
241.6083277777778
 30
0.0
  0
VERTEX
  5
ED
330
DE
100
AcDbEntity
  8
0
100
AcDbVertex
100
AcDb2dVertex
 10
49.56563055555556
 20
241.6958166666667
 30
0.0
  0
VERTEX
  5
EE
330
DE
100
AcDbEntity
  8
0
100
AcDbVertex
100
AcDb2dVertex
 10
49.77553333333334
 20
241.7829527777778
 30
0.0
  0
VERTEX
  5
EF
330
DE
100
AcDbEntity
  8
0
100
AcDbVertex
100
AcDb2dVertex
 10
49.94768888888888
 20
241.8789083333333
 30
0.0
  0
VERTEX
  5
F0
330
DE
100
AcDbEntity
  8
0
100
AcDbVertex
100
AcDb2dVertex
 10
50.08139166666666
 20
241.9801555555555
 30
0.0
  0
VERTEX
  5
F1
330
DE
100
AcDbEntity
  8
0
100
AcDbVertex
100
AcDb2dVertex
 10
50.13395555555555
 20
242.0316611111111
 30
0.0
  0
VERTEX
  5
F2
330
DE
100
AcDbEntity
  8
0
100
AcDbVertex
100
AcDb2dVertex
 10
50.17734722222222
 20
242.084225
 30
0.0
  0
VERTEX
  5
F3
330
DE
100
AcDbEntity
  8
0
100
AcDbVertex
100
AcDb2dVertex
 10
50.21050833333333
 20
242.1360833333333
 30
0.0
  0
VERTEX
  5
F4
330
DE
100
AcDbEntity
  8
0
100
AcDbVertex
100
AcDb2dVertex
 10
50.23414444444445
 20
242.1868833333333
 30
0.0
  0
VERTEX
  5
F5
330
DE
100
AcDbEntity
  8
0
100
AcDbVertex
100
AcDb2dVertex
 10
50.24860833333333
 20
242.2380361111111
 30
0.0
  0
VERTEX
  5
F6
330
DE
100
AcDbEntity
  8
0
100
AcDbVertex
100
AcDb2dVertex
 10
50.25319444444445
 20
242.2867194444445
 30
0.0
  0
VERTEX
  5
F7
330
DE
100
AcDbEntity
  8
0
100
AcDbVertex
100
AcDb2dVertex
 10
50.24649166666666
 20
242.3459861111111
 30
0.0
  0
VERTEX
  5
F8
330
DE
100
AcDbEntity
  8
0
100
AcDbVertex
100
AcDb2dVertex
 10
50.09726666666666
 20
243.0935222222222
 30
0.0
  0
VERTEX
  5
F9
330
DE
100
AcDbEntity
  8
0
100
AcDbVertex
100
AcDb2dVertex
 10
49.98190833333333
 20
243.8470555555556
 30
0.0
  0
VERTEX
  5
FA
330
DE
100
AcDbEntity
  8
0
100
AcDbVertex
100
AcDb2dVertex
 10
49.96814999999999
 20
243.9056166666666
 30
0.0
  0
VERTEX
  5
FB
330
DE
100
AcDbEntity
  8
0
100
AcDbVertex
100
AcDb2dVertex
 10
49.94663055555555
 20
243.9497138888889
 30
0.0
  0
VERTEX
  5
FC
330
DE
100
AcDbEntity
  8
0
100
AcDbVertex
100
AcDb2dVertex
 10
49.91558611111111
 20
243.9924
 30
0.0
  0
VERTEX
  5
FD
330
DE
100
AcDbEntity
  8
0
100
AcDbVertex
100
AcDb2dVertex
 10
49.876075
 20
244.0319111111111
 30
0.0
  0
VERTEX
  5
FE
330
DE
100
AcDbEntity
  8
0
100
AcDbVertex
100
AcDb2dVertex
 10
49.82668611111111
 20
244.0700111111111
 30
0.0
  0
VERTEX
  5
FF
330
DE
100
AcDbEntity
  8
0
100
AcDbVertex
100
AcDb2dVertex
 10
49.76883055555555
 20
244.103525
 30
0.0
  0
VERTEX
  5
100
330
DE
100
AcDbEntity
  8
0
100
AcDbVertex
100
AcDb2dVertex
 10
49.70180277777777
 20
244.1345694444445
 30
0.0
  0
VERTEX
  5
101
330
DE
100
AcDbEntity
  8
0
100
AcDbVertex
100
AcDb2dVertex
 10
49.54128888888889
 20
244.1839583333333
 30
0.0
  0
VERTEX
  5
102
330
DE
100
AcDbEntity
  8
0
100
AcDbVertex
100
AcDb2dVertex
 10
49.34690833333333
 20
244.2153555555555
 30
0.0
  0
VERTEX
  5
103
330
DE
100
AcDbEntity
  8
0
100
AcDbVertex
100
AcDb2dVertex
 10
49.12007222222222
 20
244.2259388888889
 30
0.0
  0
VERTEX
  5
104
330
DE
100
AcDbEntity
  8
0
100
AcDbVertex
100
AcDb2dVertex
 10
48.8188
 20
244.2090055555555
 30
0.0
  0
VERTEX
  5
105
330
DE
100
AcDbEntity
  8
0
100
AcDbVertex
100
AcDb2dVertex
 10
48.67768888888888
 20
244.2083
 30
0.0
  0
VERTEX
  5
106
330
DE
100
AcDbEntity
  8
0
100
AcDbVertex
100
AcDb2dVertex
 10
48.41204722222222
 20
244.2280555555556
 30
0.0
  0
VERTEX
  5
107
330
DE
100
AcDbEntity
  8
0
100
AcDbVertex
100
AcDb2dVertex
 10
48.23636388888888
 20
244.2523972222222
 30
0.0
  0
VERTEX
  5
108
330
DE
100
AcDbEntity
  8
0
100
AcDbVertex
100
AcDb2dVertex
 10
48.02258055555555
 20
244.2904972222222
 30
0.0
  0
VERTEX
  5
109
330
DE
100
AcDbEntity
  8
0
100
AcDbVertex
100
AcDb2dVertex
 10
47.78410277777778
 20
244.3437666666667
 30
0.0
  0
VERTEX
  5
10A
330
DE
100
AcDbEntity
  8
0
100
AcDbVertex
100
AcDb2dVertex
 10
47.51775555555555
 20
244.4150277777778
 30
0.0
  0
VERTEX
  5
10B
330
DE
100
AcDbEntity
  8
0
100
AcDbVertex
100
AcDb2dVertex
 10
47.21895277777777
 20
244.5088666666666
 30
0.0
  0
VERTEX
  5
10C
330
DE
100
AcDbEntity
  8
0
100
AcDbVertex
100
AcDb2dVertex
 10
46.8993361111111
 20
244.6228138888889
 30
0.0
  0
VERTEX
  5
10D
330
DE
100
AcDbEntity
  8
0
100
AcDbVertex
100
AcDb2dVertex
 10
46.55431944444445
 20
244.7642777777778
 30
0.0
  0
VERTEX
  5
10E
330
DE
100
AcDbEntity
  8
0
100
AcDbVertex
100
AcDb2dVertex
 10
46.18601944444444
 20
244.9322
 30
0.0
  0
VERTEX
  5
10F
330
DE
100
AcDbEntity
  8
0
100
AcDbVertex
100
AcDb2dVertex
 10
45.79690555555555
 20
245.1301083333333
 30
0.0
  0
VERTEX
  5
110
330
DE
100
AcDbEntity
  8
0
100
AcDbVertex
100
AcDb2dVertex
 10
45.431075
 20
245.335425
 30
0.0
  0
VERTEX
  5
111
330
DE
100
AcDbEntity
  8
0
100
AcDbVertex
100
AcDb2dVertex
 10
45.431075
 20
245.3361305555555
 30
0.0
  0
SEQEND
  5
112
330
DE
100
AcDbEntity
  8
0
 62
     7
  0
SPLINE
  5
113
330
1F
100
AcDbEntity
  8
0
 62
     7
100
AcDbSpline
210
0.0
220
0.0
230
1.0
 70
    12
 71
     3
 72
     8
 73
     4
 74
     0
 42
0.000000001
 43
0.0
 40
0.0
 40
0.0
 40
0.0
 40
0.0
 40
1.0
 40
1.0
 40
1.0
 40
1.0
 10
45.431075
 20
245.3361305555555
 30
0.0
 41
1.0
 10
45.41414166666667
 20
245.8250805555556
 30
0.0
 41
1.0
 10
45.41414166666667
 20
246.3140305555555
 30
0.0
 41
1.0
 10
45.431075
 20
246.8029805555555
 30
0.0
 41
1.0
  0
POLYLINE
  5
114
330
1F
100
AcDbEntity
  8
0
 62
     7
100
AcDb2dPolyline
 66
     1
 10
0.0
 20
0.0
 30
0.0
  0
VERTEX
  5
115
330
114
100
AcDbEntity
  8
0
100
AcDbVertex
100
AcDb2dVertex
 10
45.431075
 20
246.8029805555555
 30
0.0
  0
VERTEX
  5
116
330
114
100
AcDbEntity
  8
0
100
AcDbVertex
100
AcDb2dVertex
 10
45.431075
 20
246.8040388888889
 30
0.0
  0
VERTEX
  5
117
330
114
100
AcDbEntity
  8
0
100
AcDbVertex
100
AcDb2dVertex
 10
45.79690555555555
 20
247.0093555555555
 30
0.0
  0
VERTEX
  5
118
330
114
100
AcDbEntity
  8
0
100
AcDbVertex
100
AcDb2dVertex
 10
46.18601944444444
 20
247.2069111111111
 30
0.0
  0
VERTEX
  5
119
330
114
100
AcDbEntity
  8
0
100
AcDbVertex
100
AcDb2dVertex
 10
46.55431944444445
 20
247.3758916666667
 30
0.0
  0
VERTEX
  5
11A
330
114
100
AcDbEntity
  8
0
100
AcDbVertex
100
AcDb2dVertex
 10
46.8993361111111
 20
247.51665
 30
0.0
  0
VERTEX
  5
11B
330
114
100
AcDbEntity
  8
0
100
AcDbVertex
100
AcDb2dVertex
 10
47.21895277777777
 20
247.6313027777778
 30
0.0
  0
VERTEX
  5
11C
330
114
100
AcDbEntity
  8
0
100
AcDbVertex
100
AcDb2dVertex
 10
47.51775555555555
 20
247.7240833333333
 30
0.0
  0
VERTEX
  5
11D
330
114
100
AcDbEntity
  8
0
100
AcDbVertex
100
AcDb2dVertex
 10
47.78410277777778
 20
247.7956972222222
 30
0.0
  0
VERTEX
  5
11E
330
114
100
AcDbEntity
  8
0
100
AcDbVertex
100
AcDb2dVertex
 10
48.02258055555555
 20
247.8489666666666
 30
0.0
  0
VERTEX
  5
11F
330
114
100
AcDbEntity
  8
0
100
AcDbVertex
100
AcDb2dVertex
 10
48.23636388888888
 20
247.8867138888889
 30
0.0
  0
VERTEX
  5
120
330
114
100
AcDbEntity
  8
0
100
AcDbVertex
100
AcDb2dVertex
 10
48.41204722222222
 20
247.9110555555555
 30
0.0
  0
VERTEX
  5
121
330
114
100
AcDbEntity
  8
0
100
AcDbVertex
100
AcDb2dVertex
 10
48.67768888888888
 20
247.9318694444444
 30
0.0
  0
VERTEX
  5
122
330
114
100
AcDbEntity
  8
0
100
AcDbVertex
100
AcDb2dVertex
 10
48.8188
 20
247.9308111111111
 30
0.0
  0
VERTEX
  5
123
330
114
100
AcDbEntity
  8
0
100
AcDbVertex
100
AcDb2dVertex
 10
49.12007222222222
 20
247.913525
 30
0.0
  0
VERTEX
  5
124
330
114
100
AcDbEntity
  8
0
100
AcDbVertex
100
AcDb2dVertex
 10
49.34690833333333
 20
247.9241083333334
 30
0.0
  0
VERTEX
  5
125
330
114
100
AcDbEntity
  8
0
100
AcDbVertex
100
AcDb2dVertex
 10
49.54128888888889
 20
247.9551527777778
 30
0.0
  0
VERTEX
  5
126
330
114
100
AcDbEntity
  8
0
100
AcDbVertex
100
AcDb2dVertex
 10
49.70180277777777
 20
248.0048944444444
 30
0.0
  0
VERTEX
  5
127
330
114
100
AcDbEntity
  8
0
100
AcDbVertex
100
AcDb2dVertex
 10
49.76883055555555
 20
248.0359388888889
 30
0.0
  0
VERTEX
  5
128
330
114
100
AcDbEntity
  8
0
100
AcDbVertex
100
AcDb2dVertex
 10
49.82668611111111
 20
248.0701583333333
 30
0.0
  0
VERTEX
  5
129
330
114
100
AcDbEntity
  8
0
100
AcDbVertex
100
AcDb2dVertex
 10
49.876075
 20
248.1075527777778
 30
0.0
  0
VERTEX
  5
12A
330
114
100
AcDbEntity
  8
0
100
AcDbVertex
100
AcDb2dVertex
 10
49.91558611111111
 20
248.1470638888889
 30
0.0
  0
VERTEX
  5
12B
330
114
100
AcDbEntity
  8
0
100
AcDbVertex
100
AcDb2dVertex
 10
49.94663055555555
 20
248.1893972222222
 30
0.0
  0
VERTEX
  5
12C
330
114
100
AcDbEntity
  8
0
100
AcDbVertex
100
AcDb2dVertex
 10
49.96814999999999
 20
248.2345527777778
 30
0.0
  0
VERTEX
  5
12D
330
114
100
AcDbEntity
  8
0
100
AcDbVertex
100
AcDb2dVertex
 10
49.98190833333333
 20
248.2920555555555
 30
0.0
  0
VERTEX
  5
12E
330
114
100
AcDbEntity
  8
0
100
AcDbVertex
100
AcDb2dVertex
 10
50.09726666666666
 20
249.0459416666667
 30
0.0
  0
VERTEX
  5
12F
330
114
100
AcDbEntity
  8
0
100
AcDbVertex
100
AcDb2dVertex
 10
50.24649166666666
 20
249.7934777777778
 30
0.0
  0
VERTEX
  5
130
330
114
100
AcDbEntity
  8
0
100
AcDbVertex
100
AcDb2dVertex
 10
50.25319444444445
 20
249.8527444444444
 30
0.0
  0
VERTEX
  5
131
330
114
100
AcDbEntity
  8
0
100
AcDbVertex
100
AcDb2dVertex
 10
50.24860833333333
 20
249.9014277777778
 30
0.0
  0
VERTEX
  5
132
330
114
100
AcDbEntity
  8
0
100
AcDbVertex
100
AcDb2dVertex
 10
50.23414444444445
 20
249.9522277777778
 30
0.0
  0
VERTEX
  5
133
330
114
100
AcDbEntity
  8
0
100
AcDbVertex
100
AcDb2dVertex
 10
50.21050833333333
 20
250.0033805555555
 30
0.0
  0
VERTEX
  5
134
330
114
100
AcDbEntity
  8
0
100
AcDbVertex
100
AcDb2dVertex
 10
50.17734722222222
 20
250.0548861111111
 30
0.0
  0
VERTEX
  5
135
330
114
100
AcDbEntity
  8
0
100
AcDbVertex
100
AcDb2dVertex
 10
50.13395555555555
 20
250.10745
 30
0.0
  0
VERTEX
  5
136
330
114
100
AcDbEntity
  8
0
100
AcDbVertex
100
AcDb2dVertex
 10
50.08139166666666
 20
250.1593083333333
 30
0.0
  0
VERTEX
  5
137
330
114
100
AcDbEntity
  8
0
100
AcDbVertex
100
AcDb2dVertex
 10
49.94768888888888
 20
250.2602027777777
 30
0.0
  0
VERTEX
  5
138
330
114
100
AcDbEntity
  8
0
100
AcDbVertex
100
AcDb2dVertex
 10
49.77553333333334
 20
250.3561583333333
 30
0.0
  0
VERTEX
  5
139
330
114
100
AcDbEntity
  8
0
100
AcDbVertex
100
AcDb2dVertex
 10
49.56563055555556
 20
250.4436472222222
 30
0.0
  0
VERTEX
  5
13A
330
114
100
AcDbEntity
  8
0
100
AcDbVertex
100
AcDb2dVertex
 10
49.27741111111111
 20
250.5311361111111
 30
0.0
  0
VERTEX
  5
13B
330
114
100
AcDbEntity
  8
0
100
AcDbVertex
100
AcDb2dVertex
 10
49.14441388888888
 20
250.5784083333333
 30
0.0
  0
VERTEX
  5
13C
330
114
100
AcDbEntity
  8
0
100
AcDbVertex
100
AcDb2dVertex
 10
48.90170277777777
 20
250.688475
 30
0.0
  0
VERTEX
  5
13D
330
114
100
AcDbEntity
  8
0
100
AcDbVertex
100
AcDb2dVertex
 10
48.74436388888888
 20
250.7713777777778
 30
0.0
  0
VERTEX
  5
13E
330
114
100
AcDbEntity
  8
0
100
AcDbVertex
100
AcDb2dVertex
 10
48.55739166666666
 20
250.8800333333333
 30
0.0
  0
VERTEX
  5
13F
330
114
100
AcDbEntity
  8
0
100
AcDbVertex
100
AcDb2dVertex
 10
48.35136944444444
 20
251.0116194444444
 30
0.0
  0
VERTEX
  5
140
330
114
100
AcDbEntity
  8
0
100
AcDbVertex
100
AcDb2dVertex
 10
48.12453333333333
 20
251.1700166666667
 30
0.0
  0
VERTEX
  5
141
330
114
100
AcDbEntity
  8
0
100
AcDbVertex
100
AcDb2dVertex
 10
47.875825
 20
251.3601638888889
 30
0.0
  0
VERTEX
  5
142
330
114
100
AcDbEntity
  8
0
100
AcDbVertex
100
AcDb2dVertex
 10
47.61582777777777
 20
251.5767694444444
 30
0.0
  0
VERTEX
  5
143
330
114
100
AcDbEntity
  8
0
100
AcDbVertex
100
AcDb2dVertex
 10
47.33889722222222
 20
251.8268888888889
 30
0.0
  0
VERTEX
  5
144
330
114
100
AcDbEntity
  8
0
100
AcDbVertex
100
AcDb2dVertex
 10
47.05067777777778
 20
252.1112277777778
 30
0.0
  0
VERTEX
  5
145
330
114
100
AcDbEntity
  8
0
100
AcDbVertex
100
AcDb2dVertex
 10
46.75258055555555
 20
252.4301388888889
 30
0.0
  0
VERTEX
  5
146
330
114
100
AcDbEntity
  8
0
100
AcDbVertex
100
AcDb2dVertex
 10
46.478825
 20
252.7486972222222
 30
0.0
  0
VERTEX
  5
147
330
114
100
AcDbEntity
  8
0
100
AcDbVertex
100
AcDb2dVertex
 10
46.478825
 20
252.7494027777778
 30
0.0
  0
SEQEND
  5
148
330
114
100
AcDbEntity
  8
0
 62
     7
  0
SPLINE
  5
149
330
1F
100
AcDbEntity
  8
0
 62
     7
100
AcDbSpline
210
0.0
220
0.0
230
1.0
 70
    12
 71
     3
 72
     8
 73
     4
 74
     0
 42
0.000000001
 43
0.0
 40
0.0
 40
0.0
 40
0.0
 40
0.0
 40
1.0
 40
1.0
 40
1.0
 40
1.0
 10
46.478825
 20
252.7494027777778
 30
0.0
 41
1.0
 10
46.63016666666667
 20
253.2140111111111
 30
0.0
 41
1.0
 10
46.79773611111111
 20
253.6743861111111
 30
0.0
 41
1.0
 10
46.98082777777778
 20
254.1273527777778
 30
0.0
 41
1.0
  0
POLYLINE
  5
14A
330
1F
100
AcDbEntity
  8
0
 62
     7
100
AcDb2dPolyline
 66
     1
 10
0.0
 20
0.0
 30
0.0
  0
VERTEX
  5
14B
330
14A
100
AcDbEntity
  8
0
100
AcDbVertex
100
AcDb2dVertex
 10
46.98082777777778
 20
254.1273527777778
 30
0.0
  0
VERTEX
  5
14C
330
14A
100
AcDbEntity
  8
0
100
AcDbVertex
100
AcDb2dVertex
 10
46.98082777777778
 20
254.1280583333333
 30
0.0
  0
VERTEX
  5
14D
330
14A
100
AcDbEntity
  8
0
100
AcDbVertex
100
AcDb2dVertex
 10
47.39534166666666
 20
254.1957916666667
 30
0.0
  0
VERTEX
  5
14E
330
14A
100
AcDbEntity
  8
0
100
AcDbVertex
100
AcDb2dVertex
 10
47.82890555555555
 20
254.2490611111111
 30
0.0
  0
VERTEX
  5
14F
330
14A
100
AcDbEntity
  8
0
100
AcDbVertex
100
AcDb2dVertex
 10
48.23248333333333
 20
254.2811638888889
 30
0.0
  0
VERTEX
  5
150
330
14A
100
AcDbEntity
  8
0
100
AcDbVertex
100
AcDb2dVertex
 10
48.60536944444444
 20
254.2956277777778
 30
0.0
  0
VERTEX
  5
151
330
14A
100
AcDbEntity
  8
0
100
AcDbVertex
100
AcDb2dVertex
 10
48.94438888888889
 20
254.2938638888889
 30
0.0
  0
VERTEX
  5
152
330
14A
100
AcDbEntity
  8
0
100
AcDbVertex
100
AcDb2dVertex
 10
49.25695
 20
254.2794
 30
0.0
  0
VERTEX
  5
153
330
14A
100
AcDbEntity
  8
0
100
AcDbVertex
100
AcDb2dVertex
 10
49.5314111111111
 20
254.2554111111111
 30
0.0
  0
VERTEX
  5
154
330
14A
100
AcDbEntity
  8
0
100
AcDbVertex
100
AcDb2dVertex
 10
49.77482777777777
 20
254.2240138888889
 30
0.0
  0
VERTEX
  5
155
330
14A
100
AcDbEntity
  8
0
100
AcDbVertex
100
AcDb2dVertex
 10
49.98790555555555
 20
254.1866194444444
 30
0.0
  0
VERTEX
  5
156
330
14A
100
AcDbEntity
  8
0
100
AcDbVertex
100
AcDb2dVertex
 10
50.161825
 20
254.1488722222222
 30
0.0
  0
VERTEX
  5
157
330
14A
100
AcDbEntity
  8
0
100
AcDbVertex
100
AcDb2dVertex
 10
50.41758888888889
 20
254.0772583333333
 30
0.0
  0
VERTEX
  5
158
330
14A
100
AcDbEntity
  8
0
100
AcDbVertex
100
AcDb2dVertex
 10
50.55058611111111
 20
254.028575
 30
0.0
  0
VERTEX
  5
159
330
14A
100
AcDbEntity
  8
0
100
AcDbVertex
100
AcDb2dVertex
 10
50.82751666666666
 20
253.9093361111111
 30
0.0
  0
VERTEX
  5
15A
330
14A
100
AcDbEntity
  8
0
100
AcDbVertex
100
AcDb2dVertex
 10
51.04412222222222
 20
253.8416027777778
 30
0.0
  0
VERTEX
  5
15B
330
14A
100
AcDbEntity
  8
0
100
AcDbVertex
100
AcDb2dVertex
 10
51.23744444444444
 20
253.8042083333333
 30
0.0
  0
VERTEX
  5
15C
330
14A
100
AcDbEntity
  8
0
100
AcDbVertex
100
AcDb2dVertex
 10
51.40536666666667
 20
253.7968
 30
0.0
  0
VERTEX
  5
15D
330
14A
100
AcDbEntity
  8
0
100
AcDbVertex
100
AcDb2dVertex
 10
51.47839166666666
 20
253.8020916666666
 30
0.0
  0
VERTEX
  5
15E
330
14A
100
AcDbEntity
  8
0
100
AcDbVertex
100
AcDb2dVertex
 10
51.54541944444444
 20
253.8140861111111
 30
0.0
  0
VERTEX
  5
15F
330
14A
100
AcDbEntity
  8
0
100
AcDbVertex
100
AcDb2dVertex
 10
51.60398055555555
 20
253.8324305555556
 30
0.0
  0
VERTEX
  5
160
330
14A
100
AcDbEntity
  8
0
100
AcDbVertex
100
AcDb2dVertex
 10
51.65548611111111
 20
253.8567722222222
 30
0.0
  0
VERTEX
  5
161
330
14A
100
AcDbEntity
  8
0
100
AcDbVertex
100
AcDb2dVertex
 10
51.69887777777777
 20
253.8857
 30
0.0
  0
VERTEX
  5
162
330
14A
100
AcDbEntity
  8
0
100
AcDbVertex
100
AcDb2dVertex
 10
51.73380277777778
 20
253.920625
 30
0.0
  0
VERTEX
  5
163
330
14A
100
AcDbEntity
  8
0
100
AcDbVertex
100
AcDb2dVertex
 10
51.76661111111111
 20
253.9700138888889
 30
0.0
  0
VERTEX
  5
164
330
14A
100
AcDbEntity
  8
0
100
AcDbVertex
100
AcDb2dVertex
 10
52.13314722222222
 20
254.6385277777778
 30
0.0
  0
VERTEX
  5
165
330
14A
100
AcDbEntity
  8
0
100
AcDbVertex
100
AcDb2dVertex
 10
52.52931666666667
 20
255.2901083333333
 30
0.0
  0
VERTEX
  5
166
330
14A
100
AcDbEntity
  8
0
100
AcDbVertex
100
AcDb2dVertex
 10
52.55612777777777
 20
255.3433777777778
 30
0.0
  0
VERTEX
  5
167
330
14A
100
AcDbEntity
  8
0
100
AcDbVertex
100
AcDb2dVertex
 10
52.56812222222222
 20
255.3913555555555
 30
0.0
  0
VERTEX
  5
168
330
14A
100
AcDbEntity
  8
0
100
AcDbVertex
100
AcDb2dVertex
 10
52.57200277777778
 20
255.4439194444444
 30
0.0
  0
VERTEX
  5
169
330
14A
100
AcDbEntity
  8
0
100
AcDbVertex
100
AcDb2dVertex
 10
52.5667111111111
 20
255.5000111111111
 30
0.0
  0
VERTEX
  5
16A
330
14A
100
AcDbEntity
  8
0
100
AcDbVertex
100
AcDb2dVertex
 10
52.55295277777778
 20
255.5603361111111
 30
0.0
  0
VERTEX
  5
16B
330
14A
100
AcDbEntity
  8
0
100
AcDbVertex
100
AcDb2dVertex
 10
52.53108055555555
 20
255.6241888888889
 30
0.0
  0
VERTEX
  5
16C
330
14A
100
AcDbEntity
  8
0
100
AcDbVertex
100
AcDb2dVertex
 10
52.49897777777777
 20
255.6901583333333
 30
0.0
  0
VERTEX
  5
16D
330
14A
100
AcDbEntity
  8
0
100
AcDbVertex
100
AcDb2dVertex
 10
52.40760833333333
 20
255.8316222222222
 30
0.0
  0
VERTEX
  5
16E
330
14A
100
AcDbEntity
  8
0
100
AcDbVertex
100
AcDb2dVertex
 10
52.27919722222222
 20
255.9808472222222
 30
0.0
  0
VERTEX
  5
16F
330
14A
100
AcDbEntity
  8
0
100
AcDbVertex
100
AcDb2dVertex
 10
52.11198055555555
 20
256.1343055555556
 30
0.0
  0
VERTEX
  5
170
330
14A
100
AcDbEntity
  8
0
100
AcDbVertex
100
AcDb2dVertex
 10
51.87068055555556
 20
256.314575
 30
0.0
  0
VERTEX
  5
171
330
14A
100
AcDbEntity
  8
0
100
AcDbVertex
100
AcDb2dVertex
 10
51.76202499999999
 20
256.4052388888889
 30
0.0
  0
VERTEX
  5
172
330
14A
100
AcDbEntity
  8
0
100
AcDbVertex
100
AcDb2dVertex
 10
51.57187777777777
 20
256.5915055555556
 30
0.0
  0
VERTEX
  5
173
330
14A
100
AcDbEntity
  8
0
100
AcDbVertex
100
AcDb2dVertex
 10
51.45193333333333
 20
256.7230916666666
 30
0.0
  0
VERTEX
  5
174
330
14A
100
AcDbEntity
  8
0
100
AcDbVertex
100
AcDb2dVertex
 10
51.31329166666666
 20
256.8888972222222
 30
0.0
  0
VERTEX
  5
175
330
14A
100
AcDbEntity
  8
0
100
AcDbVertex
100
AcDb2dVertex
 10
51.16441944444444
 20
257.0836305555555
 30
0.0
  0
VERTEX
  5
176
330
14A
100
AcDbEntity
  8
0
100
AcDbVertex
100
AcDb2dVertex
 10
51.00602222222221
 20
257.3094083333333
 30
0.0
  0
VERTEX
  5
177
330
14A
100
AcDbEntity
  8
0
100
AcDbVertex
100
AcDb2dVertex
 10
50.83739444444444
 20
257.5732861111111
 30
0.0
  0
VERTEX
  5
178
330
14A
100
AcDbEntity
  8
0
100
AcDbVertex
100
AcDb2dVertex
 10
50.66700277777777
 20
257.8660916666666
 30
0.0
  0
VERTEX
  5
179
330
14A
100
AcDbEntity
  8
0
100
AcDbVertex
100
AcDb2dVertex
 10
50.49273055555555
 20
258.1962916666666
 30
0.0
  0
VERTEX
  5
17A
330
14A
100
AcDbEntity
  8
0
100
AcDbVertex
100
AcDb2dVertex
 10
50.31881111111111
 20
258.5610638888888
 30
0.0
  0
VERTEX
  5
17B
330
14A
100
AcDbEntity
  8
0
100
AcDbVertex
100
AcDb2dVertex
 10
50.14771388888889
 20
258.9635833333334
 30
0.0
  0
VERTEX
  5
17C
330
14A
100
AcDbEntity
  8
0
100
AcDbVertex
100
AcDb2dVertex
 10
49.99919444444444
 20
259.3558722222222
 30
0.0
  0
VERTEX
  5
17D
330
14A
100
AcDbEntity
  8
0
100
AcDbVertex
100
AcDb2dVertex
 10
49.99919444444444
 20
259.3565777777778
 30
0.0
  0
SEQEND
  5
17E
330
14A
100
AcDbEntity
  8
0
 62
     7
  0
SPLINE
  5
17F
330
1F
100
AcDbEntity
  8
0
 62
     7
100
AcDbSpline
210
0.0
220
0.0
230
1.0
 70
    12
 71
     3
 72
     8
 73
     4
 74
     0
 42
0.000000001
 43
0.0
 40
0.0
 40
0.0
 40
0.0
 40
0.0
 40
1.0
 40
1.0
 40
1.0
 40
1.0
 10
49.99919444444444
 20
259.3565777777778
 30
0.0
 41
1.0
 10
50.30117222222222
 20
259.7414583333334
 30
0.0
 41
1.0
 10
50.61514444444445
 20
260.1164611111111
 30
0.0
 41
1.0
 10
50.94216944444444
 20
260.4805277777778
 30
0.0
 41
1.0
  0
POLYLINE
  5
180
330
1F
100
AcDbEntity
  8
0
 62
     7
100
AcDb2dPolyline
 66
     1
 10
0.0
 20
0.0
 30
0.0
  0
VERTEX
  5
181
330
180
100
AcDbEntity
  8
0
100
AcDbVertex
100
AcDb2dVertex
 10
50.94216944444444
 20
260.4805277777778
 30
0.0
  0
VERTEX
  5
182
330
180
100
AcDbEntity
  8
0
100
AcDbVertex
100
AcDb2dVertex
 10
50.942875
 20
260.4805277777778
 30
0.0
  0
VERTEX
  5
183
330
180
100
AcDbEntity
  8
0
100
AcDbVertex
100
AcDb2dVertex
 10
51.35597777777777
 20
260.4029166666667
 30
0.0
  0
VERTEX
  5
184
330
180
100
AcDbEntity
  8
0
100
AcDbVertex
100
AcDb2dVertex
 10
51.781075
 20
260.3041388888889
 30
0.0
  0
VERTEX
  5
185
330
180
100
AcDbEntity
  8
0
100
AcDbVertex
100
AcDb2dVertex
 10
52.17124722222222
 20
260.1961888888889
 30
0.0
  0
VERTEX
  5
186
330
180
100
AcDbEntity
  8
0
100
AcDbVertex
100
AcDb2dVertex
 10
52.52649444444444
 20
260.0822416666666
 30
0.0
  0
VERTEX
  5
187
330
180
100
AcDbEntity
  8
0
100
AcDbVertex
100
AcDb2dVertex
 10
52.84434722222223
 20
259.9651194444444
 30
0.0
  0
VERTEX
  5
188
330
180
100
AcDbEntity
  8
0
100
AcDbVertex
100
AcDb2dVertex
 10
53.13327222222222
 20
259.8448222222222
 30
0.0
  0
VERTEX
  5
189
330
180
100
AcDbEntity
  8
0
100
AcDbVertex
100
AcDb2dVertex
 10
53.38339166666666
 20
259.7277
 30
0.0
  0
VERTEX
  5
18A
330
180
100
AcDbEntity
  8
0
100
AcDbVertex
100
AcDb2dVertex
 10
53.60105555555555
 20
259.6151638888889
 30
0.0
  0
VERTEX
  5
18B
330
180
100
AcDbEntity
  8
0
100
AcDbVertex
100
AcDb2dVertex
 10
53.78873333333333
 20
259.5072138888889
 30
0.0
  0
VERTEX
  5
18C
330
180
100
AcDbEntity
  8
0
100
AcDbVertex
100
AcDb2dVertex
 10
53.93936944444444
 20
259.4123166666667
 30
0.0
  0
VERTEX
  5
18D
330
180
100
AcDbEntity
  8
0
100
AcDbVertex
100
AcDb2dVertex
 10
54.15526944444444
 20
259.2578
 30
0.0
  0
VERTEX
  5
18E
330
180
100
AcDbEntity
  8
0
100
AcDbVertex
100
AcDb2dVertex
 10
54.26321944444445
 20
259.165725
 30
0.0
  0
VERTEX
  5
18F
330
180
100
AcDbEntity
  8
0
100
AcDbVertex
100
AcDb2dVertex
 10
54.48229444444444
 20
258.9597027777777
 30
0.0
  0
VERTEX
  5
190
330
180
100
AcDbEntity
  8
0
100
AcDbVertex
100
AcDb2dVertex
 10
54.66326944444445
 20
258.8221194444444
 30
0.0
  0
VERTEX
  5
191
330
180
100
AcDbEntity
  8
0
100
AcDbVertex
100
AcDb2dVertex
 10
54.83225
 20
258.7208722222222
 30
0.0
  0
VERTEX
  5
192
330
180
100
AcDbEntity
  8
0
100
AcDbVertex
100
AcDb2dVertex
 10
54.98641388888888
 20
258.6556083333334
 30
0.0
  0
VERTEX
  5
193
330
180
100
AcDbEntity
  8
0
100
AcDbVertex
100
AcDb2dVertex
 10
55.05802777777778
 20
258.6358527777778
 30
0.0
  0
VERTEX
  5
194
330
180
100
AcDbEntity
  8
0
100
AcDbVertex
100
AcDb2dVertex
 10
55.12434999999999
 20
258.6249166666666
 30
0.0
  0
VERTEX
  5
195
330
180
100
AcDbEntity
  8
0
100
AcDbVertex
100
AcDb2dVertex
 10
55.18573333333333
 20
258.6220944444444
 30
0.0
  0
VERTEX
  5
196
330
180
100
AcDbEntity
  8
0
100
AcDbVertex
100
AcDb2dVertex
 10
55.24288333333333
 20
258.6266805555555
 30
0.0
  0
VERTEX
  5
197
330
180
100
AcDbEntity
  8
0
100
AcDbVertex
100
AcDb2dVertex
 10
55.29297777777778
 20
258.6393805555555
 30
0.0
  0
VERTEX
  5
198
330
180
100
AcDbEntity
  8
0
100
AcDbVertex
100
AcDb2dVertex
 10
55.33883888888889
 20
258.6601944444445
 30
0.0
  0
VERTEX
  5
199
330
180
100
AcDbEntity
  8
0
100
AcDbVertex
100
AcDb2dVertex
 10
55.38575833333333
 20
258.6951194444444
 30
0.0
  0
VERTEX
  5
19A
330
180
100
AcDbEntity
  8
0
100
AcDbVertex
100
AcDb2dVertex
 10
55.959375
 20
259.1985333333333
 30
0.0
  0
VERTEX
  5
19B
330
180
100
AcDbEntity
  8
0
100
AcDbVertex
100
AcDb2dVertex
 10
56.55380555555556
 20
259.6751361111111
 30
0.0
  0
VERTEX
  5
19C
330
180
100
AcDbEntity
  8
0
100
AcDbVertex
100
AcDb2dVertex
 10
56.59719722222222
 20
259.7164111111111
 30
0.0
  0
VERTEX
  5
19D
330
180
100
AcDbEntity
  8
0
100
AcDbVertex
100
AcDb2dVertex
 10
56.62541944444444
 20
259.7566277777778
 30
0.0
  0
VERTEX
  5
19E
330
180
100
AcDbEntity
  8
0
100
AcDbVertex
100
AcDb2dVertex
 10
56.64658611111111
 20
259.8046055555555
 30
0.0
  0
VERTEX
  5
19F
330
180
100
AcDbEntity
  8
0
100
AcDbVertex
100
AcDb2dVertex
 10
56.66105
 20
259.8592861111111
 30
0.0
  0
VERTEX
  5
1A0
330
180
100
AcDbEntity
  8
0
100
AcDbVertex
100
AcDb2dVertex
 10
56.66881111111111
 20
259.9210222222222
 30
0.0
  0
VERTEX
  5
1A1
330
180
100
AcDbEntity
  8
0
100
AcDbVertex
100
AcDb2dVertex
 10
56.66951666666666
 20
259.9876972222222
 30
0.0
  0
VERTEX
  5
1A2
330
180
100
AcDbEntity
  8
0
100
AcDbVertex
100
AcDb2dVertex
 10
56.66281388888888
 20
260.0617805555556
 30
0.0
  0
VERTEX
  5
1A3
330
180
100
AcDbEntity
  8
0
100
AcDbVertex
100
AcDb2dVertex
 10
56.62541944444444
 20
260.2251166666666
 30
0.0
  0
VERTEX
  5
1A4
330
180
100
AcDbEntity
  8
0
100
AcDbVertex
100
AcDb2dVertex
 10
56.55556944444444
 20
260.4092666666667
 30
0.0
  0
VERTEX
  5
1A5
330
180
100
AcDbEntity
  8
0
100
AcDbVertex
100
AcDb2dVertex
 10
56.45044166666666
 20
260.6107027777778
 30
0.0
  0
VERTEX
  5
1A6
330
180
100
AcDbEntity
  8
0
100
AcDbVertex
100
AcDb2dVertex
 10
56.28534166666666
 20
260.8632916666667
 30
0.0
  0
VERTEX
  5
1A7
330
180
100
AcDbEntity
  8
0
100
AcDbVertex
100
AcDb2dVertex
 10
56.21408055555555
 20
260.9857055555556
 30
0.0
  0
VERTEX
  5
1A8
330
180
100
AcDbEntity
  8
0
100
AcDbVertex
100
AcDb2dVertex
 10
56.099075
 20
261.2252416666666
 30
0.0
  0
VERTEX
  5
1A9
330
180
100
AcDbEntity
  8
0
100
AcDbVertex
100
AcDb2dVertex
 10
56.03134166666666
 20
261.3892833333333
 30
0.0
  0
VERTEX
  5
1AA
330
180
100
AcDbEntity
  8
0
100
AcDbVertex
100
AcDb2dVertex
 10
55.95831666666666
 20
261.5931888888888
 30
0.0
  0
VERTEX
  5
1AB
330
180
100
AcDbEntity
  8
0
100
AcDbVertex
100
AcDb2dVertex
 10
55.8845861111111
 20
261.8267277777778
 30
0.0
  0
VERTEX
  5
1AC
330
180
100
AcDbEntity
  8
0
100
AcDbVertex
100
AcDb2dVertex
 10
55.813325
 20
262.0937805555556
 30
0.0
  0
VERTEX
  5
1AD
330
180
100
AcDbEntity
  8
0
100
AcDbVertex
100
AcDb2dVertex
 10
55.74488611111111
 20
262.3985805555556
 30
0.0
  0
VERTEX
  5
1AE
330
180
100
AcDbEntity
  8
0
100
AcDbVertex
100
AcDb2dVertex
 10
55.68456111111111
 20
262.7323083333333
 30
0.0
  0
VERTEX
  5
1AF
330
180
100
AcDbEntity
  8
0
100
AcDbVertex
100
AcDb2dVertex
 10
55.63376111111111
 20
263.1020194444444
 30
0.0
  0
VERTEX
  5
1B0
330
180
100
AcDbEntity
  8
0
100
AcDbVertex
100
AcDb2dVertex
 10
55.59566111111111
 20
263.5052444444444
 30
0.0
  0
VERTEX
  5
1B1
330
180
100
AcDbEntity
  8
0
100
AcDbVertex
100
AcDb2dVertex
 10
55.572025
 20
263.940925
 30
0.0
  0
VERTEX
  5
1B2
330
180
100
AcDbEntity
  8
0
100
AcDbVertex
100
AcDb2dVertex
 10
55.56673333333333
 20
264.3607305555555
 30
0.0
  0
VERTEX
  5
1B3
330
180
100
AcDbEntity
  8
0
100
AcDbVertex
100
AcDb2dVertex
 10
55.56743888888889
 20
264.3614361111111
 30
0.0
  0
SEQEND
  5
1B4
330
180
100
AcDbEntity
  8
0
 62
     7
  0
SPLINE
  5
1B5
330
1F
100
AcDbEntity
  8
0
 62
     7
100
AcDbSpline
210
0.0
220
0.0
230
1.0
 70
    12
 71
     3
 72
     8
 73
     4
 74
     0
 42
0.000000001
 43
0.0
 40
0.0
 40
0.0
 40
0.0
 40
0.0
 40
1.0
 40
1.0
 40
1.0
 40
1.0
 10
55.56743888888889
 20
264.3614361111111
 30
0.0
 41
1.0
 10
55.98265833333333
 20
264.6200222222222
 30
0.0
 41
1.0
 10
56.40634444444444
 20
264.86485
 30
0.0
 41
1.0
 10
56.83849722222222
 20
265.0945083333333
 30
0.0
 41
1.0
  0
POLYLINE
  5
1B6
330
1F
100
AcDbEntity
  8
0
 62
     7
100
AcDb2dPolyline
 66
     1
 10
0.0
 20
0.0
 30
0.0
  0
VERTEX
  5
1B7
330
1B6
100
AcDbEntity
  8
0
100
AcDbVertex
100
AcDb2dVertex
 10
56.83849722222222
 20
265.0945083333333
 30
0.0
  0
VERTEX
  5
1B8
330
1B6
100
AcDbEntity
  8
0
100
AcDbVertex
100
AcDb2dVertex
 10
56.83920277777777
 20
265.0952138888888
 30
0.0
  0
VERTEX
  5
1B9
330
1B6
100
AcDbEntity
  8
0
100
AcDbVertex
100
AcDb2dVertex
 10
57.19974166666667
 20
264.880725
 30
0.0
  0
VERTEX
  5
1BA
330
1B6
100
AcDbEntity
  8
0
100
AcDbVertex
100
AcDb2dVertex
 10
57.56627777777778
 20
264.6429527777777
 30
0.0
  0
VERTEX
  5
1BB
330
1B6
100
AcDbEntity
  8
0
100
AcDbVertex
100
AcDb2dVertex
 10
57.89541944444444
 20
264.4080027777778
 30
0.0
  0
VERTEX
  5
1BC
330
1B6
100
AcDbEntity
  8
0
100
AcDbVertex
100
AcDb2dVertex
 10
58.19069444444444
 20
264.17905
 30
0.0
  0
VERTEX
  5
1BD
330
1B6
100
AcDbEntity
  8
0
100
AcDbVertex
100
AcDb2dVertex
 10
58.44892777777778
 20
263.959975
 30
0.0
  0
VERTEX
  5
1BE
330
1B6
100
AcDbEntity
  8
0
100
AcDbVertex
100
AcDb2dVertex
 10
58.67964444444443
 20
263.7486611111111
 30
0.0
  0
VERTEX
  5
1BF
330
1B6
100
AcDbEntity
  8
0
100
AcDbVertex
100
AcDb2dVertex
 10
58.87437777777778
 20
263.5528694444444
 30
0.0
  0
VERTEX
  5
1C0
330
1B6
100
AcDbEntity
  8
0
100
AcDbVertex
100
AcDb2dVertex
 10
59.03983055555555
 20
263.3729527777778
 30
0.0
  0
VERTEX
  5
1C1
330
1B6
100
AcDbEntity
  8
0
100
AcDbVertex
100
AcDb2dVertex
 10
59.17988333333333
 20
263.2071472222222
 30
0.0
  0
VERTEX
  5
1C2
330
1B6
100
AcDbEntity
  8
0
100
AcDbVertex
100
AcDb2dVertex
 10
59.28853888888889
 20
263.0663888888889
 30
0.0
  0
VERTEX
  5
1C3
330
1B6
100
AcDbEntity
  8
0
100
AcDbVertex
100
AcDb2dVertex
 10
59.43846944444444
 20
262.8473138888888
 30
0.0
  0
VERTEX
  5
1C4
330
1B6
100
AcDbEntity
  8
0
100
AcDbVertex
100
AcDb2dVertex
 10
59.50831944444445
 20
262.7241944444444
 30
0.0
  0
VERTEX
  5
1C5
330
1B6
100
AcDbEntity
  8
0
100
AcDbVertex
100
AcDb2dVertex
 10
59.64449166666666
 20
262.455025
 30
0.0
  0
VERTEX
  5
1C6
330
1B6
100
AcDbEntity
  8
0
100
AcDbVertex
100
AcDb2dVertex
 10
59.76690555555556
 20
262.2641722222222
 30
0.0
  0
VERTEX
  5
1C7
330
1B6
100
AcDbEntity
  8
0
100
AcDbVertex
100
AcDb2dVertex
 10
59.89178888888889
 20
262.1110666666667
 30
0.0
  0
VERTEX
  5
1C8
330
1B6
100
AcDbEntity
  8
0
100
AcDbVertex
100
AcDb2dVertex
 10
60.01420277777778
 20
261.9971194444444
 30
0.0
  0
VERTEX
  5
1C9
330
1B6
100
AcDbEntity
  8
0
100
AcDbVertex
100
AcDb2dVertex
 10
60.074175
 20
261.9544333333333
 30
0.0
  0
VERTEX
  5
1CA
330
1B6
100
AcDbEntity
  8
0
100
AcDbVertex
100
AcDb2dVertex
 10
60.13344166666666
 20
261.9209194444445
 30
0.0
  0
VERTEX
  5
1CB
330
1B6
100
AcDbEntity
  8
0
100
AcDbVertex
100
AcDb2dVertex
 10
60.18988611111111
 20
261.8965777777777
 30
0.0
  0
VERTEX
  5
1CC
330
1B6
100
AcDbEntity
  8
0
100
AcDbVertex
100
AcDb2dVertex
 10
60.24456666666666
 20
261.8821138888889
 30
0.0
  0
VERTEX
  5
1CD
330
1B6
100
AcDbEntity
  8
0
100
AcDbVertex
100
AcDb2dVertex
 10
60.29713055555555
 20
261.8768222222222
 30
0.0
  0
VERTEX
  5
1CE
330
1B6
100
AcDbEntity
  8
0
100
AcDbVertex
100
AcDb2dVertex
 10
60.34651944444444
 20
261.8807027777777
 30
0.0
  0
VERTEX
  5
1CF
330
1B6
100
AcDbEntity
  8
0
100
AcDbVertex
100
AcDb2dVertex
 10
60.40366944444445
 20
261.8972833333333
 30
0.0
  0
VERTEX
  5
1D0
330
1B6
100
AcDbEntity
  8
0
100
AcDbVertex
100
AcDb2dVertex
 10
61.1138111111111
 20
262.1742138888889
 30
0.0
  0
VERTEX
  5
1D1
330
1B6
100
AcDbEntity
  8
0
100
AcDbVertex
100
AcDb2dVertex
 10
61.83559444444444
 20
262.4190416666667
 30
0.0
  0
VERTEX
  5
1D2
330
1B6
100
AcDbEntity
  8
0
100
AcDbVertex
100
AcDb2dVertex
 10
61.890275
 20
262.4426777777778
 30
0.0
  0
VERTEX
  5
1D3
330
1B6
100
AcDbEntity
  8
0
100
AcDbVertex
100
AcDb2dVertex
 10
61.93049166666666
 20
262.4716055555555
 30
0.0
  0
VERTEX
  5
1D4
330
1B6
100
AcDbEntity
  8
0
100
AcDbVertex
100
AcDb2dVertex
 10
61.96718055555556
 20
262.509
 30
0.0
  0
VERTEX
  5
1D5
330
1B6
100
AcDbEntity
  8
0
100
AcDbVertex
100
AcDb2dVertex
 10
61.99998888888889
 20
262.5552138888889
 30
0.0
  0
VERTEX
  5
1D6
330
1B6
100
AcDbEntity
  8
0
100
AcDbVertex
100
AcDb2dVertex
 10
62.02785833333333
 20
262.6109527777778
 30
0.0
  0
VERTEX
  5
1D7
330
1B6
100
AcDbEntity
  8
0
100
AcDbVertex
100
AcDb2dVertex
 10
62.05149444444444
 20
262.6737472222222
 30
0.0
  0
VERTEX
  5
1D8
330
1B6
100
AcDbEntity
  8
0
100
AcDbVertex
100
AcDb2dVertex
 10
62.06983888888888
 20
262.7453611111111
 30
0.0
  0
VERTEX
  5
1D9
330
1B6
100
AcDbEntity
  8
0
100
AcDbVertex
100
AcDb2dVertex
 10
62.09100555555555
 20
262.9111666666666
 30
0.0
  0
VERTEX
  5
1DA
330
1B6
100
AcDbEntity
  8
0
100
AcDbVertex
100
AcDb2dVertex
 10
62.08818333333333
 20
263.1080166666666
 30
0.0
  0
VERTEX
  5
1DB
330
1B6
100
AcDbEntity
  8
0
100
AcDbVertex
100
AcDb2dVertex
 10
62.05855
 20
263.3341472222222
 30
0.0
  0
VERTEX
  5
1DC
330
1B6
100
AcDbEntity
  8
0
100
AcDbVertex
100
AcDb2dVertex
 10
61.99011111111111
 20
263.6269527777778
 30
0.0
  0
VERTEX
  5
1DD
330
1B6
100
AcDbEntity
  8
0
100
AcDbVertex
100
AcDb2dVertex
 10
61.96471111111111
 20
263.7659472222222
 30
0.0
  0
VERTEX
  5
1DE
330
1B6
100
AcDbEntity
  8
0
100
AcDbVertex
100
AcDb2dVertex
 10
61.93825277777778
 20
264.0305305555556
 30
0.0
  0
VERTEX
  5
1DF
330
1B6
100
AcDbEntity
  8
0
100
AcDbVertex
100
AcDb2dVertex
 10
61.93154999999999
 20
264.2086833333333
 30
0.0
  0
VERTEX
  5
1E0
330
1B6
100
AcDbEntity
  8
0
100
AcDbVertex
100
AcDb2dVertex
 10
61.93225555555555
 20
264.4252888888889
 30
0.0
  0
VERTEX
  5
1E1
330
1B6
100
AcDbEntity
  8
0
100
AcDbVertex
100
AcDb2dVertex
 10
61.94283888888888
 20
264.6694111111111
 30
0.0
  0
VERTEX
  5
1E2
330
1B6
100
AcDbEntity
  8
0
100
AcDbVertex
100
AcDb2dVertex
 10
61.96718055555556
 20
264.9445777777777
 30
0.0
  0
VERTEX
  5
1E3
330
1B6
100
AcDbEntity
  8
0
100
AcDbVertex
100
AcDb2dVertex
 10
62.00739722222222
 20
265.2550222222222
 30
0.0
  0
VERTEX
  5
1E4
330
1B6
100
AcDbEntity
  8
0
100
AcDbVertex
100
AcDb2dVertex
 10
62.06454722222222
 20
265.58875
 30
0.0
  0
VERTEX
  5
1E5
330
1B6
100
AcDbEntity
  8
0
100
AcDbVertex
100
AcDb2dVertex
 10
62.14356944444445
 20
265.953875
 30
0.0
  0
VERTEX
  5
1E6
330
1B6
100
AcDbEntity
  8
0
100
AcDbVertex
100
AcDb2dVertex
 10
62.24481666666667
 20
266.3454583333333
 30
0.0
  0
VERTEX
  5
1E7
330
1B6
100
AcDbEntity
  8
0
100
AcDbVertex
100
AcDb2dVertex
 10
62.37252222222222
 20
266.7631472222222
 30
0.0
  0
VERTEX
  5
1E8
330
1B6
100
AcDbEntity
  8
0
100
AcDbVertex
100
AcDb2dVertex
 10
62.5108111111111
 20
267.1593166666667
 30
0.0
  0
VERTEX
  5
1E9
330
1B6
100
AcDbEntity
  8
0
100
AcDbVertex
100
AcDb2dVertex
 10
62.51151666666667
 20
267.1600222222222
 30
0.0
  0
SEQEND
  5
1EA
330
1B6
100
AcDbEntity
  8
0
 62
     7
  0
SPLINE
  5
1EB
330
1F
100
AcDbEntity
  8
0
 62
     7
100
AcDbSpline
210
0.0
220
0.0
230
1.0
 70
    12
 71
     3
 72
     8
 73
     4
 74
     0
 42
0.000000001
 43
0.0
 40
0.0
 40
0.0
 40
0.0
 40
0.0
 40
1.0
 40
1.0
 40
1.0
 40
1.0
 10
62.51151666666667
 20
267.1600222222222
 30
0.0
 41
1.0
 10
62.98988333333333
 20
267.2612694444445
 30
0.0
 41
1.0
 10
63.47213055555554
 20
267.3462888888889
 30
0.0
 41
1.0
 10
63.95649444444444
 20
267.4147277777778
 30
0.0
 41
1.0
  0
POLYLINE
  5
1EC
330
1F
100
AcDbEntity
  8
0
 62
     7
100
AcDb2dPolyline
 66
     1
 10
0.0
 20
0.0
 30
0.0
  0
VERTEX
  5
1ED
330
1EC
100
AcDbEntity
  8
0
100
AcDbVertex
100
AcDb2dVertex
 10
63.95649444444444
 20
267.4147277777778
 30
0.0
  0
VERTEX
  5
1EE
330
1EC
100
AcDbEntity
  8
0
100
AcDbVertex
100
AcDb2dVertex
 10
63.95719999999999
 20
267.4147277777778
 30
0.0
  0
VERTEX
  5
1EF
330
1EC
100
AcDbEntity
  8
0
100
AcDbVertex
100
AcDb2dVertex
 10
64.22284166666667
 20
267.0894666666666
 30
0.0
  0
VERTEX
  5
1F0
330
1EC
100
AcDbEntity
  8
0
100
AcDbVertex
100
AcDb2dVertex
 10
64.48601388888889
 20
266.7409222222222
 30
0.0
  0
VERTEX
  5
1F1
330
1EC
100
AcDbEntity
  8
0
100
AcDbVertex
100
AcDb2dVertex
 10
64.71567222222221
 20
266.4071944444444
 30
0.0
  0
VERTEX
  5
1F2
330
1EC
100
AcDbEntity
  8
0
100
AcDbVertex
100
AcDb2dVertex
 10
64.91393333333333
 20
266.0914583333333
 30
0.0
  0
VERTEX
  5
1F3
330
1EC
100
AcDbEntity
  8
0
100
AcDbVertex
100
AcDb2dVertex
 10
65.08220833333333
 20
265.7972416666667
 30
0.0
  0
VERTEX
  5
1F4
330
1EC
100
AcDbEntity
  8
0
100
AcDbVertex
100
AcDb2dVertex
 10
65.22578888888889
 20
265.5196055555555
 30
0.0
  0
VERTEX
  5
1F5
330
1EC
100
AcDbEntity
  8
0
100
AcDbVertex
100
AcDb2dVertex
 10
65.34220555555555
 20
265.2694861111111
 30
0.0
  0
VERTEX
  5
1F6
330
1EC
100
AcDbEntity
  8
0
100
AcDbVertex
100
AcDb2dVertex
 10
65.43639722222221
 20
265.0430027777778
 30
0.0
  0
VERTEX
  5
1F7
330
1EC
100
AcDbEntity
  8
0
100
AcDbVertex
100
AcDb2dVertex
 10
65.5111861111111
 20
264.8398027777778
 30
0.0
  0
VERTEX
  5
1F8
330
1EC
100
AcDbEntity
  8
0
100
AcDbVertex
100
AcDb2dVertex
 10
65.56586666666666
 20
264.6701166666667
 30
0.0
  0
VERTEX
  5
1F9
330
1EC
100
AcDbEntity
  8
0
100
AcDbVertex
100
AcDb2dVertex
 10
65.63113055555554
 20
264.4132944444444
 30
0.0
  0
VERTEX
  5
1FA
330
1EC
100
AcDbEntity
  8
0
100
AcDbVertex
100
AcDb2dVertex
 10
65.65547222222222
 20
264.2732416666666
 30
0.0
  0
VERTEX
  5
1FB
330
1EC
100
AcDbEntity
  8
0
100
AcDbVertex
100
AcDb2dVertex
 10
65.69039722222222
 20
263.9744388888889
 30
0.0
  0
VERTEX
  5
1FC
330
1EC
100
AcDbEntity
  8
0
100
AcDbVertex
100
AcDb2dVertex
 10
65.74084444444445
 20
263.7521888888888
 30
0.0
  0
VERTEX
  5
1FD
330
1EC
100
AcDbEntity
  8
0
100
AcDbVertex
100
AcDb2dVertex
 10
65.80540277777777
 20
263.5666277777777
 30
0.0
  0
VERTEX
  5
1FE
330
1EC
100
AcDbEntity
  8
0
100
AcDbVertex
100
AcDb2dVertex
 10
65.88125
 20
263.41705
 30
0.0
  0
VERTEX
  5
1FF
330
1EC
100
AcDbEntity
  8
0
100
AcDbVertex
100
AcDb2dVertex
 10
65.92323055555555
 20
263.3560194444444
 30
0.0
  0
VERTEX
  5
200
330
1EC
100
AcDbEntity
  8
0
100
AcDbVertex
100
AcDb2dVertex
 10
65.96732777777777
 20
263.3052194444444
 30
0.0
  0
VERTEX
  5
201
330
1EC
100
AcDbEntity
  8
0
100
AcDbVertex
100
AcDb2dVertex
 10
66.01213055555554
 20
263.2632388888889
 30
0.0
  0
VERTEX
  5
202
330
1EC
100
AcDbEntity
  8
0
100
AcDbVertex
100
AcDb2dVertex
 10
66.05869722222222
 20
263.2304305555555
 30
0.0
  0
VERTEX
  5
203
330
1EC
100
AcDbEntity
  8
0
100
AcDbVertex
100
AcDb2dVertex
 10
66.10561666666666
 20
263.2078527777778
 30
0.0
  0
VERTEX
  5
204
330
1EC
100
AcDbEntity
  8
0
100
AcDbVertex
100
AcDb2dVertex
 10
66.15359444444444
 20
263.1940944444444
 30
0.0
  0
VERTEX
  5
205
330
1EC
100
AcDbEntity
  8
0
100
AcDbVertex
100
AcDb2dVertex
 10
66.21286111111111
 20
263.1909194444444
 30
0.0
  0
VERTEX
  5
206
330
1EC
100
AcDbEntity
  8
0
100
AcDbVertex
100
AcDb2dVertex
 10
66.97591944444444
 20
263.2078527777778
 30
0.0
  0
VERTEX
  5
207
330
1EC
100
AcDbEntity
  8
0
100
AcDbVertex
100
AcDb2dVertex
 10
67.73791944444444
 20
263.1909194444444
 30
0.0
  0
VERTEX
  5
208
330
1EC
100
AcDbEntity
  8
0
100
AcDbVertex
100
AcDb2dVertex
 10
67.7971861111111
 20
263.1940944444444
 30
0.0
  0
VERTEX
  5
209
330
1EC
100
AcDbEntity
  8
0
100
AcDbVertex
100
AcDb2dVertex
 10
67.84516388888889
 20
263.2078527777778
 30
0.0
  0
VERTEX
  5
20A
330
1EC
100
AcDbEntity
  8
0
100
AcDbVertex
100
AcDb2dVertex
 10
67.89208333333333
 20
263.2304305555555
 30
0.0
  0
VERTEX
  5
20B
330
1EC
100
AcDbEntity
  8
0
100
AcDbVertex
100
AcDb2dVertex
 10
67.93865
 20
263.2632388888889
 30
0.0
  0
VERTEX
  5
20C
330
1EC
100
AcDbEntity
  8
0
100
AcDbVertex
100
AcDb2dVertex
 10
67.98345277777777
 20
263.3052194444444
 30
0.0
  0
VERTEX
  5
20D
330
1EC
100
AcDbEntity
  8
0
100
AcDbVertex
100
AcDb2dVertex
 10
68.02754999999999
 20
263.3560194444444
 30
0.0
  0
VERTEX
  5
20E
330
1EC
100
AcDbEntity
  8
0
100
AcDbVertex
100
AcDb2dVertex
 10
68.06917777777778
 20
263.41705
 30
0.0
  0
VERTEX
  5
20F
330
1EC
100
AcDbEntity
  8
0
100
AcDbVertex
100
AcDb2dVertex
 10
68.14537777777778
 20
263.5666277777777
 30
0.0
  0
VERTEX
  5
210
330
1EC
100
AcDbEntity
  8
0
100
AcDbVertex
100
AcDb2dVertex
 10
68.2099361111111
 20
263.7521888888888
 30
0.0
  0
VERTEX
  5
211
330
1EC
100
AcDbEntity
  8
0
100
AcDbVertex
100
AcDb2dVertex
 10
68.26038333333332
 20
263.9744388888889
 30
0.0
  0
VERTEX
  5
212
330
1EC
100
AcDbEntity
  8
0
100
AcDbVertex
100
AcDb2dVertex
 10
68.29530833333334
 20
264.2732416666666
 30
0.0
  0
VERTEX
  5
213
330
1EC
100
AcDbEntity
  8
0
100
AcDbVertex
100
AcDb2dVertex
 10
68.31965
 20
264.4132944444444
 30
0.0
  0
VERTEX
  5
214
330
1EC
100
AcDbEntity
  8
0
100
AcDbVertex
100
AcDb2dVertex
 10
68.38491388888889
 20
264.6701166666667
 30
0.0
  0
VERTEX
  5
215
330
1EC
100
AcDbEntity
  8
0
100
AcDbVertex
100
AcDb2dVertex
 10
68.43959444444444
 20
264.8398027777778
 30
0.0
  0
VERTEX
  5
216
330
1EC
100
AcDbEntity
  8
0
100
AcDbVertex
100
AcDb2dVertex
 10
68.51438333333333
 20
265.0430027777778
 30
0.0
  0
VERTEX
  5
217
330
1EC
100
AcDbEntity
  8
0
100
AcDbVertex
100
AcDb2dVertex
 10
68.60857499999999
 20
265.2694861111111
 30
0.0
  0
VERTEX
  5
218
330
1EC
100
AcDbEntity
  8
0
100
AcDbVertex
100
AcDb2dVertex
 10
68.72499166666665
 20
265.5196055555555
 30
0.0
  0
VERTEX
  5
219
330
1EC
100
AcDbEntity
  8
0
100
AcDbVertex
100
AcDb2dVertex
 10
68.86857222222223
 20
265.7972416666667
 30
0.0
  0
VERTEX
  5
21A
330
1EC
100
AcDbEntity
  8
0
100
AcDbVertex
100
AcDb2dVertex
 10
69.03684722222222
 20
266.0914583333333
 30
0.0
  0
VERTEX
  5
21B
330
1EC
100
AcDbEntity
  8
0
100
AcDbVertex
100
AcDb2dVertex
 10
69.23510833333333
 20
266.4071944444444
 30
0.0
  0
VERTEX
  5
21C
330
1EC
100
AcDbEntity
  8
0
100
AcDbVertex
100
AcDb2dVertex
 10
69.46476666666666
 20
266.7409222222222
 30
0.0
  0
VERTEX
  5
21D
330
1EC
100
AcDbEntity
  8
0
100
AcDbVertex
100
AcDb2dVertex
 10
69.72793888888889
 20
267.0894666666666
 30
0.0
  0
VERTEX
  5
21E
330
1EC
100
AcDbEntity
  8
0
100
AcDbVertex
100
AcDb2dVertex
 10
69.99322777777778
 20
267.4147277777778
 30
0.0
  0
VERTEX
  5
21F
330
1EC
100
AcDbEntity
  8
0
100
AcDbVertex
100
AcDb2dVertex
 10
69.99428611111111
 20
267.4147277777778
 30
0.0
  0
SEQEND
  5
220
330
1EC
100
AcDbEntity
  8
0
 62
     7
  0
SPLINE
  5
221
330
1F
100
AcDbEntity
  8
0
 62
     7
100
AcDbSpline
210
0.0
220
0.0
230
1.0
 70
    12
 71
     3
 72
     8
 73
     4
 74
     0
 42
0.000000001
 43
0.0
 40
0.0
 40
0.0
 40
0.0
 40
0.0
 40
1.0
 40
1.0
 40
1.0
 40
1.0
 10
69.99428611111111
 20
267.4147277777778
 30
0.0
 41
1.0
 10
70.47865
 20
267.3462888888889
 30
0.0
 41
1.0
 10
70.96089722222221
 20
267.2612694444445
 30
0.0
 41
1.0
 10
71.43926388888889
 20
267.1600222222222
 30
0.0
 41
1.0
  0
POLYLINE
  5
222
330
1F
100
AcDbEntity
  8
0
 62
     7
100
AcDb2dPolyline
 66
     1
 10
0.0
 20
0.0
 30
0.0
  0
VERTEX
  5
223
330
222
100
AcDbEntity
  8
0
100
AcDbVertex
100
AcDb2dVertex
 10
71.43926388888889
 20
267.1600222222222
 30
0.0
  0
VERTEX
  5
224
330
222
100
AcDbEntity
  8
0
100
AcDbVertex
100
AcDb2dVertex
 10
71.43996944444444
 20
267.1593166666667
 30
0.0
  0
VERTEX
  5
225
330
222
100
AcDbEntity
  8
0
100
AcDbVertex
100
AcDb2dVertex
 10
71.57825833333332
 20
266.7631472222222
 30
0.0
  0
VERTEX
  5
226
330
222
100
AcDbEntity
  8
0
100
AcDbVertex
100
AcDb2dVertex
 10
71.70596388888887
 20
266.3454583333333
 30
0.0
  0
VERTEX
  5
227
330
222
100
AcDbEntity
  8
0
100
AcDbVertex
100
AcDb2dVertex
 10
71.8072111111111
 20
265.953875
 30
0.0
  0
VERTEX
  5
228
330
222
100
AcDbEntity
  8
0
100
AcDbVertex
100
AcDb2dVertex
 10
71.88623333333334
 20
265.58875
 30
0.0
  0
VERTEX
  5
229
330
222
100
AcDbEntity
  8
0
100
AcDbVertex
100
AcDb2dVertex
 10
71.94338333333333
 20
265.2550222222222
 30
0.0
  0
VERTEX
  5
22A
330
222
100
AcDbEntity
  8
0
100
AcDbVertex
100
AcDb2dVertex
 10
71.9836
 20
264.9445777777777
 30
0.0
  0
VERTEX
  5
22B
330
222
100
AcDbEntity
  8
0
100
AcDbVertex
100
AcDb2dVertex
 10
72.00794166666667
 20
264.6694111111111
 30
0.0
  0
VERTEX
  5
22C
330
222
100
AcDbEntity
  8
0
100
AcDbVertex
100
AcDb2dVertex
 10
72.018525
 20
264.4252888888889
 30
0.0
  0
VERTEX
  5
22D
330
222
100
AcDbEntity
  8
0
100
AcDbVertex
100
AcDb2dVertex
 10
72.01923055555555
 20
264.2086833333333
 30
0.0
  0
VERTEX
  5
22E
330
222
100
AcDbEntity
  8
0
100
AcDbVertex
100
AcDb2dVertex
 10
72.01252777777778
 20
264.0305305555556
 30
0.0
  0
VERTEX
  5
22F
330
222
100
AcDbEntity
  8
0
100
AcDbVertex
100
AcDb2dVertex
 10
71.98606944444444
 20
263.7659472222222
 30
0.0
  0
VERTEX
  5
230
330
222
100
AcDbEntity
  8
0
100
AcDbVertex
100
AcDb2dVertex
 10
71.96066944444443
 20
263.6269527777778
 30
0.0
  0
VERTEX
  5
231
330
222
100
AcDbEntity
  8
0
100
AcDbVertex
100
AcDb2dVertex
 10
71.89223055555556
 20
263.3341472222222
 30
0.0
  0
VERTEX
  5
232
330
222
100
AcDbEntity
  8
0
100
AcDbVertex
100
AcDb2dVertex
 10
71.86259722222222
 20
263.1080166666666
 30
0.0
  0
VERTEX
  5
233
330
222
100
AcDbEntity
  8
0
100
AcDbVertex
100
AcDb2dVertex
 10
71.859775
 20
262.9111666666666
 30
0.0
  0
VERTEX
  5
234
330
222
100
AcDbEntity
  8
0
100
AcDbVertex
100
AcDb2dVertex
 10
71.88094166666666
 20
262.7453611111111
 30
0.0
  0
VERTEX
  5
235
330
222
100
AcDbEntity
  8
0
100
AcDbVertex
100
AcDb2dVertex
 10
71.89928611111111
 20
262.6737472222222
 30
0.0
  0
VERTEX
  5
236
330
222
100
AcDbEntity
  8
0
100
AcDbVertex
100
AcDb2dVertex
 10
71.92292222222221
 20
262.6109527777778
 30
0.0
  0
VERTEX
  5
237
330
222
100
AcDbEntity
  8
0
100
AcDbVertex
100
AcDb2dVertex
 10
71.95079166666666
 20
262.5552138888889
 30
0.0
  0
VERTEX
  5
238
330
222
100
AcDbEntity
  8
0
100
AcDbVertex
100
AcDb2dVertex
 10
71.9836
 20
262.509
 30
0.0
  0
VERTEX
  5
239
330
222
100
AcDbEntity
  8
0
100
AcDbVertex
100
AcDb2dVertex
 10
72.02028888888889
 20
262.4716055555555
 30
0.0
  0
VERTEX
  5
23A
330
222
100
AcDbEntity
  8
0
100
AcDbVertex
100
AcDb2dVertex
 10
72.06050555555555
 20
262.4426777777778
 30
0.0
  0
VERTEX
  5
23B
330
222
100
AcDbEntity
  8
0
100
AcDbVertex
100
AcDb2dVertex
 10
72.1151861111111
 20
262.4190416666667
 30
0.0
  0
VERTEX
  5
23C
330
222
100
AcDbEntity
  8
0
100
AcDbVertex
100
AcDb2dVertex
 10
72.83696944444443
 20
262.1742138888889
 30
0.0
  0
VERTEX
  5
23D
330
222
100
AcDbEntity
  8
0
100
AcDbVertex
100
AcDb2dVertex
 10
73.54711111111111
 20
261.8972833333333
 30
0.0
  0
VERTEX
  5
23E
330
222
100
AcDbEntity
  8
0
100
AcDbVertex
100
AcDb2dVertex
 10
73.60426111111111
 20
261.8807027777777
 30
0.0
  0
VERTEX
  5
23F
330
222
100
AcDbEntity
  8
0
100
AcDbVertex
100
AcDb2dVertex
 10
73.65365
 20
261.8768222222222
 30
0.0
  0
VERTEX
  5
240
330
222
100
AcDbEntity
  8
0
100
AcDbVertex
100
AcDb2dVertex
 10
73.70621388888888
 20
261.8821138888889
 30
0.0
  0
VERTEX
  5
241
330
222
100
AcDbEntity
  8
0
100
AcDbVertex
100
AcDb2dVertex
 10
73.76089444444443
 20
261.8965777777777
 30
0.0
  0
VERTEX
  5
242
330
222
100
AcDbEntity
  8
0
100
AcDbVertex
100
AcDb2dVertex
 10
73.81733888888888
 20
261.9209194444445
 30
0.0
  0
VERTEX
  5
243
330
222
100
AcDbEntity
  8
0
100
AcDbVertex
100
AcDb2dVertex
 10
73.87660555555556
 20
261.9544333333333
 30
0.0
  0
VERTEX
  5
244
330
222
100
AcDbEntity
  8
0
100
AcDbVertex
100
AcDb2dVertex
 10
73.93657777777777
 20
261.9971194444444
 30
0.0
  0
VERTEX
  5
245
330
222
100
AcDbEntity
  8
0
100
AcDbVertex
100
AcDb2dVertex
 10
74.05899166666666
 20
262.1110666666667
 30
0.0
  0
VERTEX
  5
246
330
222
100
AcDbEntity
  8
0
100
AcDbVertex
100
AcDb2dVertex
 10
74.183875
 20
262.2641722222222
 30
0.0
  0
VERTEX
  5
247
330
222
100
AcDbEntity
  8
0
100
AcDbVertex
100
AcDb2dVertex
 10
74.30628888888889
 20
262.455025
 30
0.0
  0
VERTEX
  5
248
330
222
100
AcDbEntity
  8
0
100
AcDbVertex
100
AcDb2dVertex
 10
74.4424611111111
 20
262.7241944444444
 30
0.0
  0
VERTEX
  5
249
330
222
100
AcDbEntity
  8
0
100
AcDbVertex
100
AcDb2dVertex
 10
74.5123111111111
 20
262.8473138888888
 30
0.0
  0
VERTEX
  5
24A
330
222
100
AcDbEntity
  8
0
100
AcDbVertex
100
AcDb2dVertex
 10
74.66224166666666
 20
263.0663888888889
 30
0.0
  0
VERTEX
  5
24B
330
222
100
AcDbEntity
  8
0
100
AcDbVertex
100
AcDb2dVertex
 10
74.77089722222222
 20
263.2071472222222
 30
0.0
  0
VERTEX
  5
24C
330
222
100
AcDbEntity
  8
0
100
AcDbVertex
100
AcDb2dVertex
 10
74.91059722222222
 20
263.3729527777778
 30
0.0
  0
VERTEX
  5
24D
330
222
100
AcDbEntity
  8
0
100
AcDbVertex
100
AcDb2dVertex
 10
75.07640277777777
 20
263.5528694444444
 30
0.0
  0
VERTEX
  5
24E
330
222
100
AcDbEntity
  8
0
100
AcDbVertex
100
AcDb2dVertex
 10
75.2711361111111
 20
263.7486611111111
 30
0.0
  0
VERTEX
  5
24F
330
222
100
AcDbEntity
  8
0
100
AcDbVertex
100
AcDb2dVertex
 10
75.5015
 20
263.959975
 30
0.0
  0
VERTEX
  5
250
330
222
100
AcDbEntity
  8
0
100
AcDbVertex
100
AcDb2dVertex
 10
75.76008611111111
 20
264.17905
 30
0.0
  0
VERTEX
  5
251
330
222
100
AcDbEntity
  8
0
100
AcDbVertex
100
AcDb2dVertex
 10
76.05536111111111
 20
264.4080027777778
 30
0.0
  0
VERTEX
  5
252
330
222
100
AcDbEntity
  8
0
100
AcDbVertex
100
AcDb2dVertex
 10
76.38450277777777
 20
264.6429527777777
 30
0.0
  0
VERTEX
  5
253
330
222
100
AcDbEntity
  8
0
100
AcDbVertex
100
AcDb2dVertex
 10
76.75103888888889
 20
264.880725
 30
0.0
  0
VERTEX
  5
254
330
222
100
AcDbEntity
  8
0
100
AcDbVertex
100
AcDb2dVertex
 10
77.11157777777777
 20
265.0952138888888
 30
0.0
  0
VERTEX
  5
255
330
222
100
AcDbEntity
  8
0
100
AcDbVertex
100
AcDb2dVertex
 10
77.11228333333332
 20
265.0945083333333
 30
0.0
  0
SEQEND
  5
256
330
222
100
AcDbEntity
  8
0
 62
     7
  0
SPLINE
  5
257
330
1F
100
AcDbEntity
  8
0
 62
     7
100
AcDbSpline
210
0.0
220
0.0
230
1.0
 70
    12
 71
     3
 72
     8
 73
     4
 74
     0
 42
0.000000001
 43
0.0
 40
0.0
 40
0.0
 40
0.0
 40
0.0
 40
1.0
 40
1.0
 40
1.0
 40
1.0
 10
77.11228333333332
 20
265.0945083333333
 30
0.0
 41
1.0
 10
77.5444361111111
 20
264.86485
 30
0.0
 41
1.0
 10
77.96776944444444
 20
264.6200222222222
 30
0.0
 41
1.0
 10
78.38334166666667
 20
264.3614361111111
 30
0.0
 41
1.0
  0
POLYLINE
  5
258
330
1F
100
AcDbEntity
  8
0
 62
     7
100
AcDb2dPolyline
 66
     1
 10
0.0
 20
0.0
 30
0.0
  0
VERTEX
  5
259
330
258
100
AcDbEntity
  8
0
100
AcDbVertex
100
AcDb2dVertex
 10
78.38334166666667
 20
264.3614361111111
 30
0.0
  0
VERTEX
  5
25A
330
258
100
AcDbEntity
  8
0
100
AcDbVertex
100
AcDb2dVertex
 10
78.38404722222221
 20
264.3607305555555
 30
0.0
  0
VERTEX
  5
25B
330
258
100
AcDbEntity
  8
0
100
AcDbVertex
100
AcDb2dVertex
 10
78.37875555555554
 20
263.940925
 30
0.0
  0
VERTEX
  5
25C
330
258
100
AcDbEntity
  8
0
100
AcDbVertex
100
AcDb2dVertex
 10
78.35511944444444
 20
263.5052444444444
 30
0.0
  0
VERTEX
  5
25D
330
258
100
AcDbEntity
  8
0
100
AcDbVertex
100
AcDb2dVertex
 10
78.31701944444444
 20
263.1020194444444
 30
0.0
  0
VERTEX
  5
25E
330
258
100
AcDbEntity
  8
0
100
AcDbVertex
100
AcDb2dVertex
 10
78.26621944444445
 20
262.7323083333333
 30
0.0
  0
VERTEX
  5
25F
330
258
100
AcDbEntity
  8
0
100
AcDbVertex
100
AcDb2dVertex
 10
78.20589444444444
 20
262.3985805555556
 30
0.0
  0
VERTEX
  5
260
330
258
100
AcDbEntity
  8
0
100
AcDbVertex
100
AcDb2dVertex
 10
78.13745555555555
 20
262.0937805555556
 30
0.0
  0
VERTEX
  5
261
330
258
100
AcDbEntity
  8
0
100
AcDbVertex
100
AcDb2dVertex
 10
78.06619444444445
 20
261.8267277777778
 30
0.0
  0
VERTEX
  5
262
330
258
100
AcDbEntity
  8
0
100
AcDbVertex
100
AcDb2dVertex
 10
77.99211111111111
 20
261.5931888888888
 30
0.0
  0
VERTEX
  5
263
330
258
100
AcDbEntity
  8
0
100
AcDbVertex
100
AcDb2dVertex
 10
77.91943888888888
 20
261.3892833333333
 30
0.0
  0
VERTEX
  5
264
330
258
100
AcDbEntity
  8
0
100
AcDbVertex
100
AcDb2dVertex
 10
77.85170555555555
 20
261.2252416666666
 30
0.0
  0
VERTEX
  5
265
330
258
100
AcDbEntity
  8
0
100
AcDbVertex
100
AcDb2dVertex
 10
77.7367
 20
260.9857055555556
 30
0.0
  0
VERTEX
  5
266
330
258
100
AcDbEntity
  8
0
100
AcDbVertex
100
AcDb2dVertex
 10
77.66543888888889
 20
260.8632916666667
 30
0.0
  0
VERTEX
  5
267
330
258
100
AcDbEntity
  8
0
100
AcDbVertex
100
AcDb2dVertex
 10
77.50033888888888
 20
260.6107027777778
 30
0.0
  0
VERTEX
  5
268
330
258
100
AcDbEntity
  8
0
100
AcDbVertex
100
AcDb2dVertex
 10
77.3952111111111
 20
260.4092666666667
 30
0.0
  0
VERTEX
  5
269
330
258
100
AcDbEntity
  8
0
100
AcDbVertex
100
AcDb2dVertex
 10
77.3253611111111
 20
260.2251166666666
 30
0.0
  0
VERTEX
  5
26A
330
258
100
AcDbEntity
  8
0
100
AcDbVertex
100
AcDb2dVertex
 10
77.28796666666666
 20
260.0617805555556
 30
0.0
  0
VERTEX
  5
26B
330
258
100
AcDbEntity
  8
0
100
AcDbVertex
100
AcDb2dVertex
 10
77.28126388888889
 20
259.9876972222222
 30
0.0
  0
VERTEX
  5
26C
330
258
100
AcDbEntity
  8
0
100
AcDbVertex
100
AcDb2dVertex
 10
77.28196944444444
 20
259.9210222222222
 30
0.0
  0
VERTEX
  5
26D
330
258
100
AcDbEntity
  8
0
100
AcDbVertex
100
AcDb2dVertex
 10
77.28973055555555
 20
259.8592861111111
 30
0.0
  0
VERTEX
  5
26E
330
258
100
AcDbEntity
  8
0
100
AcDbVertex
100
AcDb2dVertex
 10
77.30419444444445
 20
259.8046055555555
 30
0.0
  0
VERTEX
  5
26F
330
258
100
AcDbEntity
  8
0
100
AcDbVertex
100
AcDb2dVertex
 10
77.3253611111111
 20
259.7566277777778
 30
0.0
  0
VERTEX
  5
270
330
258
100
AcDbEntity
  8
0
100
AcDbVertex
100
AcDb2dVertex
 10
77.35358333333333
 20
259.7164111111111
 30
0.0
  0
VERTEX
  5
271
330
258
100
AcDbEntity
  8
0
100
AcDbVertex
100
AcDb2dVertex
 10
77.39697499999998
 20
259.6751361111111
 30
0.0
  0
VERTEX
  5
272
330
258
100
AcDbEntity
  8
0
100
AcDbVertex
100
AcDb2dVertex
 10
77.99140555555554
 20
259.1985333333333
 30
0.0
  0
VERTEX
  5
273
330
258
100
AcDbEntity
  8
0
100
AcDbVertex
100
AcDb2dVertex
 10
78.56502222222221
 20
258.6951194444444
 30
0.0
  0
VERTEX
  5
274
330
258
100
AcDbEntity
  8
0
100
AcDbVertex
100
AcDb2dVertex
 10
78.61194166666667
 20
258.6601944444445
 30
0.0
  0
VERTEX
  5
275
330
258
100
AcDbEntity
  8
0
100
AcDbVertex
100
AcDb2dVertex
 10
78.65780277777777
 20
258.6393805555555
 30
0.0
  0
VERTEX
  5
276
330
258
100
AcDbEntity
  8
0
100
AcDbVertex
100
AcDb2dVertex
 10
78.70789722222221
 20
258.6266805555555
 30
0.0
  0
VERTEX
  5
277
330
258
100
AcDbEntity
  8
0
100
AcDbVertex
100
AcDb2dVertex
 10
78.76504722222221
 20
258.6220944444444
 30
0.0
  0
VERTEX
  5
278
330
258
100
AcDbEntity
  8
0
100
AcDbVertex
100
AcDb2dVertex
 10
78.82643055555556
 20
258.6249166666666
 30
0.0
  0
VERTEX
  5
279
330
258
100
AcDbEntity
  8
0
100
AcDbVertex
100
AcDb2dVertex
 10
78.89275277777777
 20
258.6358527777778
 30
0.0
  0
VERTEX
  5
27A
330
258
100
AcDbEntity
  8
0
100
AcDbVertex
100
AcDb2dVertex
 10
78.96436666666666
 20
258.6556083333334
 30
0.0
  0
VERTEX
  5
27B
330
258
100
AcDbEntity
  8
0
100
AcDbVertex
100
AcDb2dVertex
 10
79.11853055555555
 20
258.7208722222222
 30
0.0
  0
VERTEX
  5
27C
330
258
100
AcDbEntity
  8
0
100
AcDbVertex
100
AcDb2dVertex
 10
79.28751111111112
 20
258.8221194444444
 30
0.0
  0
VERTEX
  5
27D
330
258
100
AcDbEntity
  8
0
100
AcDbVertex
100
AcDb2dVertex
 10
79.4684861111111
 20
258.9597027777777
 30
0.0
  0
VERTEX
  5
27E
330
258
100
AcDbEntity
  8
0
100
AcDbVertex
100
AcDb2dVertex
 10
79.68756111111111
 20
259.165725
 30
0.0
  0
VERTEX
  5
27F
330
258
100
AcDbEntity
  8
0
100
AcDbVertex
100
AcDb2dVertex
 10
79.79551111111111
 20
259.2578
 30
0.0
  0
VERTEX
  5
280
330
258
100
AcDbEntity
  8
0
100
AcDbVertex
100
AcDb2dVertex
 10
80.0114111111111
 20
259.4123166666667
 30
0.0
  0
VERTEX
  5
281
330
258
100
AcDbEntity
  8
0
100
AcDbVertex
100
AcDb2dVertex
 10
80.16204722222221
 20
259.5072138888889
 30
0.0
  0
VERTEX
  5
282
330
258
100
AcDbEntity
  8
0
100
AcDbVertex
100
AcDb2dVertex
 10
80.34972499999999
 20
259.6151638888889
 30
0.0
  0
VERTEX
  5
283
330
258
100
AcDbEntity
  8
0
100
AcDbVertex
100
AcDb2dVertex
 10
80.56738888888889
 20
259.7277
 30
0.0
  0
VERTEX
  5
284
330
258
100
AcDbEntity
  8
0
100
AcDbVertex
100
AcDb2dVertex
 10
80.81750833333332
 20
259.8448222222222
 30
0.0
  0
VERTEX
  5
285
330
258
100
AcDbEntity
  8
0
100
AcDbVertex
100
AcDb2dVertex
 10
81.10643333333333
 20
259.9651194444444
 30
0.0
  0
VERTEX
  5
286
330
258
100
AcDbEntity
  8
0
100
AcDbVertex
100
AcDb2dVertex
 10
81.4242861111111
 20
260.0822416666666
 30
0.0
  0
VERTEX
  5
287
330
258
100
AcDbEntity
  8
0
100
AcDbVertex
100
AcDb2dVertex
 10
81.77953333333332
 20
260.1961888888889
 30
0.0
  0
VERTEX
  5
288
330
258
100
AcDbEntity
  8
0
100
AcDbVertex
100
AcDb2dVertex
 10
82.16970555555555
 20
260.3041388888889
 30
0.0
  0
VERTEX
  5
289
330
258
100
AcDbEntity
  8
0
100
AcDbVertex
100
AcDb2dVertex
 10
82.59480277777777
 20
260.4029166666667
 30
0.0
  0
VERTEX
  5
28A
330
258
100
AcDbEntity
  8
0
100
AcDbVertex
100
AcDb2dVertex
 10
83.00790555555554
 20
260.4805277777778
 30
0.0
  0
VERTEX
  5
28B
330
258
100
AcDbEntity
  8
0
100
AcDbVertex
100
AcDb2dVertex
 10
83.00861111111111
 20
260.4805277777778
 30
0.0
  0
SEQEND
  5
28C
330
258
100
AcDbEntity
  8
0
 62
     7
  0
SPLINE
  5
28D
330
1F
100
AcDbEntity
  8
0
 62
     7
100
AcDbSpline
210
0.0
220
0.0
230
1.0
 70
    12
 71
     3
 72
     8
 73
     4
 74
     0
 42
0.000000001
 43
0.0
 40
0.0
 40
0.0
 40
0.0
 40
0.0
 40
1.0
 40
1.0
 40
1.0
 40
1.0
 10
83.00861111111111
 20
260.4805277777778
 30
0.0
 41
1.0
 10
83.33563611111111
 20
260.1164611111111
 30
0.0
 41
1.0
 10
83.64960833333333
 20
259.7414583333334
 30
0.0
 41
1.0
 10
83.9515861111111
 20
259.3565777777778
 30
0.0
 41
1.0
  0
POLYLINE
  5
28E
330
1F
100
AcDbEntity
  8
0
 62
     7
100
AcDb2dPolyline
 66
     1
 10
0.0
 20
0.0
 30
0.0
  0
VERTEX
  5
28F
330
28E
100
AcDbEntity
  8
0
100
AcDbVertex
100
AcDb2dVertex
 10
83.9515861111111
 20
259.3565777777778
 30
0.0
  0
VERTEX
  5
290
330
28E
100
AcDbEntity
  8
0
100
AcDbVertex
100
AcDb2dVertex
 10
83.9515861111111
 20
259.3558722222222
 30
0.0
  0
VERTEX
  5
291
330
28E
100
AcDbEntity
  8
0
100
AcDbVertex
100
AcDb2dVertex
 10
83.80306666666667
 20
258.9635833333334
 30
0.0
  0
VERTEX
  5
292
330
28E
100
AcDbEntity
  8
0
100
AcDbVertex
100
AcDb2dVertex
 10
83.63196944444444
 20
258.5610638888888
 30
0.0
  0
VERTEX
  5
293
330
28E
100
AcDbEntity
  8
0
100
AcDbVertex
100
AcDb2dVertex
 10
83.45805
 20
258.1962916666666
 30
0.0
  0
VERTEX
  5
294
330
28E
100
AcDbEntity
  8
0
100
AcDbVertex
100
AcDb2dVertex
 10
83.28377777777777
 20
257.8660916666666
 30
0.0
  0
VERTEX
  5
295
330
28E
100
AcDbEntity
  8
0
100
AcDbVertex
100
AcDb2dVertex
 10
83.11338611111111
 20
257.5732861111111
 30
0.0
  0
VERTEX
  5
296
330
28E
100
AcDbEntity
  8
0
100
AcDbVertex
100
AcDb2dVertex
 10
82.94475833333333
 20
257.3094083333333
 30
0.0
  0
VERTEX
  5
297
330
28E
100
AcDbEntity
  8
0
100
AcDbVertex
100
AcDb2dVertex
 10
82.7863611111111
 20
257.0836305555555
 30
0.0
  0
VERTEX
  5
298
330
28E
100
AcDbEntity
  8
0
100
AcDbVertex
100
AcDb2dVertex
 10
82.63748888888888
 20
256.8888972222222
 30
0.0
  0
VERTEX
  5
299
330
28E
100
AcDbEntity
  8
0
100
AcDbVertex
100
AcDb2dVertex
 10
82.49884722222222
 20
256.7230916666666
 30
0.0
  0
VERTEX
  5
29A
330
28E
100
AcDbEntity
  8
0
100
AcDbVertex
100
AcDb2dVertex
 10
82.37890277777778
 20
256.5915055555556
 30
0.0
  0
VERTEX
  5
29B
330
28E
100
AcDbEntity
  8
0
100
AcDbVertex
100
AcDb2dVertex
 10
82.18875555555555
 20
256.4052388888889
 30
0.0
  0
VERTEX
  5
29C
330
28E
100
AcDbEntity
  8
0
100
AcDbVertex
100
AcDb2dVertex
 10
82.08009999999999
 20
256.314575
 30
0.0
  0
VERTEX
  5
29D
330
28E
100
AcDbEntity
  8
0
100
AcDbVertex
100
AcDb2dVertex
 10
81.83879999999999
 20
256.1343055555556
 30
0.0
  0
VERTEX
  5
29E
330
28E
100
AcDbEntity
  8
0
100
AcDbVertex
100
AcDb2dVertex
 10
81.67158333333333
 20
255.9808472222222
 30
0.0
  0
VERTEX
  5
29F
330
28E
100
AcDbEntity
  8
0
100
AcDbVertex
100
AcDb2dVertex
 10
81.54317222222221
 20
255.8316222222222
 30
0.0
  0
VERTEX
  5
2A0
330
28E
100
AcDbEntity
  8
0
100
AcDbVertex
100
AcDb2dVertex
 10
81.45180277777777
 20
255.6901583333333
 30
0.0
  0
VERTEX
  5
2A1
330
28E
100
AcDbEntity
  8
0
100
AcDbVertex
100
AcDb2dVertex
 10
81.41969999999999
 20
255.6241888888889
 30
0.0
  0
VERTEX
  5
2A2
330
28E
100
AcDbEntity
  8
0
100
AcDbVertex
100
AcDb2dVertex
 10
81.39782777777778
 20
255.5603361111111
 30
0.0
  0
VERTEX
  5
2A3
330
28E
100
AcDbEntity
  8
0
100
AcDbVertex
100
AcDb2dVertex
 10
81.38406944444445
 20
255.5000111111111
 30
0.0
  0
VERTEX
  5
2A4
330
28E
100
AcDbEntity
  8
0
100
AcDbVertex
100
AcDb2dVertex
 10
81.37877777777778
 20
255.4439194444444
 30
0.0
  0
VERTEX
  5
2A5
330
28E
100
AcDbEntity
  8
0
100
AcDbVertex
100
AcDb2dVertex
 10
81.38265833333332
 20
255.3913555555555
 30
0.0
  0
VERTEX
  5
2A6
330
28E
100
AcDbEntity
  8
0
100
AcDbVertex
100
AcDb2dVertex
 10
81.39465277777778
 20
255.3433777777778
 30
0.0
  0
VERTEX
  5
2A7
330
28E
100
AcDbEntity
  8
0
100
AcDbVertex
100
AcDb2dVertex
 10
81.42146388888888
 20
255.2901083333333
 30
0.0
  0
VERTEX
  5
2A8
330
28E
100
AcDbEntity
  8
0
100
AcDbVertex
100
AcDb2dVertex
 10
81.81763333333333
 20
254.6385277777778
 30
0.0
  0
VERTEX
  5
2A9
330
28E
100
AcDbEntity
  8
0
100
AcDbVertex
100
AcDb2dVertex
 10
82.18416944444444
 20
253.9700138888889
 30
0.0
  0
VERTEX
  5
2AA
330
28E
100
AcDbEntity
  8
0
100
AcDbVertex
100
AcDb2dVertex
 10
82.21697777777777
 20
253.920625
 30
0.0
  0
VERTEX
  5
2AB
330
28E
100
AcDbEntity
  8
0
100
AcDbVertex
100
AcDb2dVertex
 10
82.25190277777777
 20
253.8857
 30
0.0
  0
VERTEX
  5
2AC
330
28E
100
AcDbEntity
  8
0
100
AcDbVertex
100
AcDb2dVertex
 10
82.29529444444444
 20
253.8567722222222
 30
0.0
  0
VERTEX
  5
2AD
330
28E
100
AcDbEntity
  8
0
100
AcDbVertex
100
AcDb2dVertex
 10
82.3468
 20
253.8324305555556
 30
0.0
  0
VERTEX
  5
2AE
330
28E
100
AcDbEntity
  8
0
100
AcDbVertex
100
AcDb2dVertex
 10
82.4053611111111
 20
253.8140861111111
 30
0.0
  0
VERTEX
  5
2AF
330
28E
100
AcDbEntity
  8
0
100
AcDbVertex
100
AcDb2dVertex
 10
82.47238888888889
 20
253.8020916666666
 30
0.0
  0
VERTEX
  5
2B0
330
28E
100
AcDbEntity
  8
0
100
AcDbVertex
100
AcDb2dVertex
 10
82.54541388888889
 20
253.7968
 30
0.0
  0
VERTEX
  5
2B1
330
28E
100
AcDbEntity
  8
0
100
AcDbVertex
100
AcDb2dVertex
 10
82.7133361111111
 20
253.8042083333333
 30
0.0
  0
VERTEX
  5
2B2
330
28E
100
AcDbEntity
  8
0
100
AcDbVertex
100
AcDb2dVertex
 10
82.90665833333333
 20
253.8416027777778
 30
0.0
  0
VERTEX
  5
2B3
330
28E
100
AcDbEntity
  8
0
100
AcDbVertex
100
AcDb2dVertex
 10
83.12326388888889
 20
253.9093361111111
 30
0.0
  0
VERTEX
  5
2B4
330
28E
100
AcDbEntity
  8
0
100
AcDbVertex
100
AcDb2dVertex
 10
83.40019444444444
 20
254.028575
 30
0.0
  0
VERTEX
  5
2B5
330
28E
100
AcDbEntity
  8
0
100
AcDbVertex
100
AcDb2dVertex
 10
83.53319166666667
 20
254.0772583333333
 30
0.0
  0
VERTEX
  5
2B6
330
28E
100
AcDbEntity
  8
0
100
AcDbVertex
100
AcDb2dVertex
 10
83.78860277777777
 20
254.1488722222222
 30
0.0
  0
VERTEX
  5
2B7
330
28E
100
AcDbEntity
  8
0
100
AcDbVertex
100
AcDb2dVertex
 10
83.962875
 20
254.1866194444444
 30
0.0
  0
VERTEX
  5
2B8
330
28E
100
AcDbEntity
  8
0
100
AcDbVertex
100
AcDb2dVertex
 10
84.17595277777777
 20
254.2240138888889
 30
0.0
  0
VERTEX
  5
2B9
330
28E
100
AcDbEntity
  8
0
100
AcDbVertex
100
AcDb2dVertex
 10
84.41936944444444
 20
254.2554111111111
 30
0.0
  0
VERTEX
  5
2BA
330
28E
100
AcDbEntity
  8
0
100
AcDbVertex
100
AcDb2dVertex
 10
84.69383055555555
 20
254.2794
 30
0.0
  0
VERTEX
  5
2BB
330
28E
100
AcDbEntity
  8
0
100
AcDbVertex
100
AcDb2dVertex
 10
85.00639166666666
 20
254.2938638888889
 30
0.0
  0
VERTEX
  5
2BC
330
28E
100
AcDbEntity
  8
0
100
AcDbVertex
100
AcDb2dVertex
 10
85.3454111111111
 20
254.2956277777778
 30
0.0
  0
VERTEX
  5
2BD
330
28E
100
AcDbEntity
  8
0
100
AcDbVertex
100
AcDb2dVertex
 10
85.71829722222222
 20
254.2811638888889
 30
0.0
  0
VERTEX
  5
2BE
330
28E
100
AcDbEntity
  8
0
100
AcDbVertex
100
AcDb2dVertex
 10
86.121875
 20
254.2490611111111
 30
0.0
  0
VERTEX
  5
2BF
330
28E
100
AcDbEntity
  8
0
100
AcDbVertex
100
AcDb2dVertex
 10
86.55543888888889
 20
254.1957916666667
 30
0.0
  0
VERTEX
  5
2C0
330
28E
100
AcDbEntity
  8
0
100
AcDbVertex
100
AcDb2dVertex
 10
86.96995277777778
 20
254.1280583333333
 30
0.0
  0
VERTEX
  5
2C1
330
28E
100
AcDbEntity
  8
0
100
AcDbVertex
100
AcDb2dVertex
 10
86.96995277777778
 20
254.1273527777778
 30
0.0
  0
SEQEND
  5
2C2
330
28E
100
AcDbEntity
  8
0
 62
     7
  0
SPLINE
  5
2C3
330
1F
100
AcDbEntity
  8
0
 62
     7
100
AcDbSpline
210
0.0
220
0.0
230
1.0
 70
    12
 71
     3
 72
     8
 73
     4
 74
     0
 42
0.000000001
 43
0.0
 40
0.0
 40
0.0
 40
0.0
 40
0.0
 40
1.0
 40
1.0
 40
1.0
 40
1.0
 10
86.96995277777778
 20
254.1273527777778
 30
0.0
 41
1.0
 10
87.15304444444443
 20
253.6743861111111
 30
0.0
 41
1.0
 10
87.32061388888887
 20
253.2140111111111
 30
0.0
 41
1.0
 10
87.47195555555555
 20
252.7494027777778
 30
0.0
 41
1.0
  0
POLYLINE
  5
2C4
330
1F
100
AcDbEntity
  8
0
 62
     7
100
AcDb2dPolyline
 66
     1
 10
0.0
 20
0.0
 30
0.0
  0
VERTEX
  5
2C5
330
2C4
100
AcDbEntity
  8
0
100
AcDbVertex
100
AcDb2dVertex
 10
87.47195555555555
 20
252.7494027777778
 30
0.0
  0
VERTEX
  5
2C6
330
2C4
100
AcDbEntity
  8
0
100
AcDbVertex
100
AcDb2dVertex
 10
87.47195555555555
 20
252.7486972222222
 30
0.0
  0
VERTEX
  5
2C7
330
2C4
100
AcDbEntity
  8
0
100
AcDbVertex
100
AcDb2dVertex
 10
87.19819999999999
 20
252.4301388888889
 30
0.0
  0
VERTEX
  5
2C8
330
2C4
100
AcDbEntity
  8
0
100
AcDbVertex
100
AcDb2dVertex
 10
86.90010277777778
 20
252.1112277777778
 30
0.0
  0
VERTEX
  5
2C9
330
2C4
100
AcDbEntity
  8
0
100
AcDbVertex
100
AcDb2dVertex
 10
86.61188333333332
 20
251.8268888888889
 30
0.0
  0
VERTEX
  5
2CA
330
2C4
100
AcDbEntity
  8
0
100
AcDbVertex
100
AcDb2dVertex
 10
86.33495277777777
 20
251.5767694444444
 30
0.0
  0
VERTEX
  5
2CB
330
2C4
100
AcDbEntity
  8
0
100
AcDbVertex
100
AcDb2dVertex
 10
86.07495555555555
 20
251.3601638888889
 30
0.0
  0
VERTEX
  5
2CC
330
2C4
100
AcDbEntity
  8
0
100
AcDbVertex
100
AcDb2dVertex
 10
85.82624722222222
 20
251.1700166666667
 30
0.0
  0
VERTEX
  5
2CD
330
2C4
100
AcDbEntity
  8
0
100
AcDbVertex
100
AcDb2dVertex
 10
85.59941111111111
 20
251.0116194444444
 30
0.0
  0
VERTEX
  5
2CE
330
2C4
100
AcDbEntity
  8
0
100
AcDbVertex
100
AcDb2dVertex
 10
85.3933888888889
 20
250.8800333333333
 30
0.0
  0
VERTEX
  5
2CF
330
2C4
100
AcDbEntity
  8
0
100
AcDbVertex
100
AcDb2dVertex
 10
85.20641666666667
 20
250.7713777777778
 30
0.0
  0
VERTEX
  5
2D0
330
2C4
100
AcDbEntity
  8
0
100
AcDbVertex
100
AcDb2dVertex
 10
85.04907777777777
 20
250.688475
 30
0.0
  0
VERTEX
  5
2D1
330
2C4
100
AcDbEntity
  8
0
100
AcDbVertex
100
AcDb2dVertex
 10
84.80636666666666
 20
250.5784083333333
 30
0.0
  0
VERTEX
  5
2D2
330
2C4
100
AcDbEntity
  8
0
100
AcDbVertex
100
AcDb2dVertex
 10
84.67336944444443
 20
250.5311361111111
 30
0.0
  0
VERTEX
  5
2D3
330
2C4
100
AcDbEntity
  8
0
100
AcDbVertex
100
AcDb2dVertex
 10
84.38515
 20
250.4436472222222
 30
0.0
  0
VERTEX
  5
2D4
330
2C4
100
AcDbEntity
  8
0
100
AcDbVertex
100
AcDb2dVertex
 10
84.17524722222223
 20
250.3561583333333
 30
0.0
  0
VERTEX
  5
2D5
330
2C4
100
AcDbEntity
  8
0
100
AcDbVertex
100
AcDb2dVertex
 10
84.00309166666666
 20
250.2602027777777
 30
0.0
  0
VERTEX
  5
2D6
330
2C4
100
AcDbEntity
  8
0
100
AcDbVertex
100
AcDb2dVertex
 10
83.86938888888889
 20
250.1593083333333
 30
0.0
  0
VERTEX
  5
2D7
330
2C4
100
AcDbEntity
  8
0
100
AcDbVertex
100
AcDb2dVertex
 10
83.816825
 20
250.10745
 30
0.0
  0
VERTEX
  5
2D8
330
2C4
100
AcDbEntity
  8
0
100
AcDbVertex
100
AcDb2dVertex
 10
83.77343333333333
 20
250.0548861111111
 30
0.0
  0
VERTEX
  5
2D9
330
2C4
100
AcDbEntity
  8
0
100
AcDbVertex
100
AcDb2dVertex
 10
83.73991944444444
 20
250.0033805555555
 30
0.0
  0
VERTEX
  5
2DA
330
2C4
100
AcDbEntity
  8
0
100
AcDbVertex
100
AcDb2dVertex
 10
83.71663611111111
 20
249.9522277777778
 30
0.0
  0
VERTEX
  5
2DB
330
2C4
100
AcDbEntity
  8
0
100
AcDbVertex
100
AcDb2dVertex
 10
83.70217222222222
 20
249.9014277777778
 30
0.0
  0
VERTEX
  5
2DC
330
2C4
100
AcDbEntity
  8
0
100
AcDbVertex
100
AcDb2dVertex
 10
83.69758611111111
 20
249.8527444444444
 30
0.0
  0
VERTEX
  5
2DD
330
2C4
100
AcDbEntity
  8
0
100
AcDbVertex
100
AcDb2dVertex
 10
83.70428888888888
 20
249.7934777777778
 30
0.0
  0
VERTEX
  5
2DE
330
2C4
100
AcDbEntity
  8
0
100
AcDbVertex
100
AcDb2dVertex
 10
83.85351388888888
 20
249.0459416666667
 30
0.0
  0
VERTEX
  5
2DF
330
2C4
100
AcDbEntity
  8
0
100
AcDbVertex
100
AcDb2dVertex
 10
83.96887222222222
 20
248.2920555555555
 30
0.0
  0
VERTEX
  5
2E0
330
2C4
100
AcDbEntity
  8
0
100
AcDbVertex
100
AcDb2dVertex
 10
83.98263055555555
 20
248.2345527777778
 30
0.0
  0
VERTEX
  5
2E1
330
2C4
100
AcDbEntity
  8
0
100
AcDbVertex
100
AcDb2dVertex
 10
84.00415
 20
248.1893972222222
 30
0.0
  0
VERTEX
  5
2E2
330
2C4
100
AcDbEntity
  8
0
100
AcDbVertex
100
AcDb2dVertex
 10
84.03519444444444
 20
248.1470638888889
 30
0.0
  0
VERTEX
  5
2E3
330
2C4
100
AcDbEntity
  8
0
100
AcDbVertex
100
AcDb2dVertex
 10
84.07470555555555
 20
248.1075527777778
 30
0.0
  0
VERTEX
  5
2E4
330
2C4
100
AcDbEntity
  8
0
100
AcDbVertex
100
AcDb2dVertex
 10
84.12409444444444
 20
248.0701583333333
 30
0.0
  0
VERTEX
  5
2E5
330
2C4
100
AcDbEntity
  8
0
100
AcDbVertex
100
AcDb2dVertex
 10
84.18194999999999
 20
248.0359388888889
 30
0.0
  0
VERTEX
  5
2E6
330
2C4
100
AcDbEntity
  8
0
100
AcDbVertex
100
AcDb2dVertex
 10
84.24897777777777
 20
248.0048944444444
 30
0.0
  0
VERTEX
  5
2E7
330
2C4
100
AcDbEntity
  8
0
100
AcDbVertex
100
AcDb2dVertex
 10
84.40949166666665
 20
247.9551527777778
 30
0.0
  0
VERTEX
  5
2E8
330
2C4
100
AcDbEntity
  8
0
100
AcDbVertex
100
AcDb2dVertex
 10
84.60387222222222
 20
247.9241083333334
 30
0.0
  0
VERTEX
  5
2E9
330
2C4
100
AcDbEntity
  8
0
100
AcDbVertex
100
AcDb2dVertex
 10
84.83070833333333
 20
247.913525
 30
0.0
  0
VERTEX
  5
2EA
330
2C4
100
AcDbEntity
  8
0
100
AcDbVertex
100
AcDb2dVertex
 10
85.13162777777777
 20
247.9308111111111
 30
0.0
  0
VERTEX
  5
2EB
330
2C4
100
AcDbEntity
  8
0
100
AcDbVertex
100
AcDb2dVertex
 10
85.27309166666666
 20
247.9318694444444
 30
0.0
  0
VERTEX
  5
2EC
330
2C4
100
AcDbEntity
  8
0
100
AcDbVertex
100
AcDb2dVertex
 10
85.53873333333333
 20
247.9110555555555
 30
0.0
  0
VERTEX
  5
2ED
330
2C4
100
AcDbEntity
  8
0
100
AcDbVertex
100
AcDb2dVertex
 10
85.71441666666666
 20
247.8867138888889
 30
0.0
  0
VERTEX
  5
2EE
330
2C4
100
AcDbEntity
  8
0
100
AcDbVertex
100
AcDb2dVertex
 10
85.92819999999999
 20
247.8489666666666
 30
0.0
  0
VERTEX
  5
2EF
330
2C4
100
AcDbEntity
  8
0
100
AcDbVertex
100
AcDb2dVertex
 10
86.16667777777778
 20
247.7956972222222
 30
0.0
  0
VERTEX
  5
2F0
330
2C4
100
AcDbEntity
  8
0
100
AcDbVertex
100
AcDb2dVertex
 10
86.433025
 20
247.7240833333333
 30
0.0
  0
VERTEX
  5
2F1
330
2C4
100
AcDbEntity
  8
0
100
AcDbVertex
100
AcDb2dVertex
 10
86.73182777777777
 20
247.6313027777778
 30
0.0
  0
VERTEX
  5
2F2
330
2C4
100
AcDbEntity
  8
0
100
AcDbVertex
100
AcDb2dVertex
 10
87.05144444444444
 20
247.51665
 30
0.0
  0
VERTEX
  5
2F3
330
2C4
100
AcDbEntity
  8
0
100
AcDbVertex
100
AcDb2dVertex
 10
87.3964611111111
 20
247.3758916666667
 30
0.0
  0
VERTEX
  5
2F4
330
2C4
100
AcDbEntity
  8
0
100
AcDbVertex
100
AcDb2dVertex
 10
87.76476111111111
 20
247.2069111111111
 30
0.0
  0
VERTEX
  5
2F5
330
2C4
100
AcDbEntity
  8
0
100
AcDbVertex
100
AcDb2dVertex
 10
88.153875
 20
247.0093555555555
 30
0.0
  0
VERTEX
  5
2F6
330
2C4
100
AcDbEntity
  8
0
100
AcDbVertex
100
AcDb2dVertex
 10
88.51970555555555
 20
246.8040388888889
 30
0.0
  0
VERTEX
  5
2F7
330
2C4
100
AcDbEntity
  8
0
100
AcDbVertex
100
AcDb2dVertex
 10
88.51970555555555
 20
246.8029805555555
 30
0.0
  0
SEQEND
  5
2F8
330
2C4
100
AcDbEntity
  8
0
 62
     7
  0
SPLINE
  5
2F9
330
1F
100
AcDbEntity
  8
0
 62
     7
100
AcDbSpline
210
0.0
220
0.0
230
1.0
 70
    12
 71
     3
 72
     8
 73
     4
 74
     0
 42
0.000000001
 43
0.0
 40
0.0
 40
0.0
 40
0.0
 40
0.0
 40
1.0
 40
1.0
 40
1.0
 40
1.0
 10
88.51970555555555
 20
246.8029805555555
 30
0.0
 41
1.0
 10
88.53663888888889
 20
246.3140305555555
 30
0.0
 41
1.0
 10
88.53663888888889
 20
245.8250805555556
 30
0.0
 41
1.0
 10
88.51970555555555
 20
245.3361305555555
 30
0.0
 41
1.0
  0
POLYLINE
  5
2FA
330
1F
100
AcDbEntity
  8
0
 62
     7
100
AcDb2dPolyline
 66
     1
 10
0.0
 20
0.0
 30
0.0
  0
VERTEX
  5
2FB
330
2FA
100
AcDbEntity
  8
0
100
AcDbVertex
100
AcDb2dVertex
 10
88.51970555555555
 20
245.3361305555555
 30
0.0
  0
VERTEX
  5
2FC
330
2FA
100
AcDbEntity
  8
0
100
AcDbVertex
100
AcDb2dVertex
 10
88.51970555555555
 20
245.335425
 30
0.0
  0
VERTEX
  5
2FD
330
2FA
100
AcDbEntity
  8
0
100
AcDbVertex
100
AcDb2dVertex
 10
88.153875
 20
245.1301083333333
 30
0.0
  0
VERTEX
  5
2FE
330
2FA
100
AcDbEntity
  8
0
100
AcDbVertex
100
AcDb2dVertex
 10
87.76476111111111
 20
244.9322
 30
0.0
  0
VERTEX
  5
2FF
330
2FA
100
AcDbEntity
  8
0
100
AcDbVertex
100
AcDb2dVertex
 10
87.3964611111111
 20
244.7642777777778
 30
0.0
  0
VERTEX
  5
300
330
2FA
100
AcDbEntity
  8
0
100
AcDbVertex
100
AcDb2dVertex
 10
87.05144444444444
 20
244.6228138888889
 30
0.0
  0
VERTEX
  5
301
330
2FA
100
AcDbEntity
  8
0
100
AcDbVertex
100
AcDb2dVertex
 10
86.73182777777777
 20
244.5088666666666
 30
0.0
  0
VERTEX
  5
302
330
2FA
100
AcDbEntity
  8
0
100
AcDbVertex
100
AcDb2dVertex
 10
86.433025
 20
244.4150277777778
 30
0.0
  0
VERTEX
  5
303
330
2FA
100
AcDbEntity
  8
0
100
AcDbVertex
100
AcDb2dVertex
 10
86.16667777777778
 20
244.3437666666667
 30
0.0
  0
VERTEX
  5
304
330
2FA
100
AcDbEntity
  8
0
100
AcDbVertex
100
AcDb2dVertex
 10
85.92819999999999
 20
244.2904972222222
 30
0.0
  0
VERTEX
  5
305
330
2FA
100
AcDbEntity
  8
0
100
AcDbVertex
100
AcDb2dVertex
 10
85.71441666666666
 20
244.2523972222222
 30
0.0
  0
VERTEX
  5
306
330
2FA
100
AcDbEntity
  8
0
100
AcDbVertex
100
AcDb2dVertex
 10
85.53873333333333
 20
244.2280555555556
 30
0.0
  0
VERTEX
  5
307
330
2FA
100
AcDbEntity
  8
0
100
AcDbVertex
100
AcDb2dVertex
 10
85.27309166666666
 20
244.2083
 30
0.0
  0
VERTEX
  5
308
330
2FA
100
AcDbEntity
  8
0
100
AcDbVertex
100
AcDb2dVertex
 10
85.13162777777777
 20
244.2090055555555
 30
0.0
  0
VERTEX
  5
309
330
2FA
100
AcDbEntity
  8
0
100
AcDbVertex
100
AcDb2dVertex
 10
84.83070833333333
 20
244.2259388888889
 30
0.0
  0
VERTEX
  5
30A
330
2FA
100
AcDbEntity
  8
0
100
AcDbVertex
100
AcDb2dVertex
 10
84.60387222222222
 20
244.2153555555555
 30
0.0
  0
VERTEX
  5
30B
330
2FA
100
AcDbEntity
  8
0
100
AcDbVertex
100
AcDb2dVertex
 10
84.40949166666665
 20
244.1839583333333
 30
0.0
  0
VERTEX
  5
30C
330
2FA
100
AcDbEntity
  8
0
100
AcDbVertex
100
AcDb2dVertex
 10
84.24897777777777
 20
244.1345694444445
 30
0.0
  0
VERTEX
  5
30D
330
2FA
100
AcDbEntity
  8
0
100
AcDbVertex
100
AcDb2dVertex
 10
84.18194999999999
 20
244.103525
 30
0.0
  0
VERTEX
  5
30E
330
2FA
100
AcDbEntity
  8
0
100
AcDbVertex
100
AcDb2dVertex
 10
84.12409444444444
 20
244.0700111111111
 30
0.0
  0
VERTEX
  5
30F
330
2FA
100
AcDbEntity
  8
0
100
AcDbVertex
100
AcDb2dVertex
 10
84.07470555555555
 20
244.0319111111111
 30
0.0
  0
VERTEX
  5
310
330
2FA
100
AcDbEntity
  8
0
100
AcDbVertex
100
AcDb2dVertex
 10
84.03519444444444
 20
243.9924
 30
0.0
  0
VERTEX
  5
311
330
2FA
100
AcDbEntity
  8
0
100
AcDbVertex
100
AcDb2dVertex
 10
84.00415
 20
243.9497138888889
 30
0.0
  0
VERTEX
  5
312
330
2FA
100
AcDbEntity
  8
0
100
AcDbVertex
100
AcDb2dVertex
 10
83.98263055555555
 20
243.9056166666666
 30
0.0
  0
VERTEX
  5
313
330
2FA
100
AcDbEntity
  8
0
100
AcDbVertex
100
AcDb2dVertex
 10
83.96887222222222
 20
243.8470555555556
 30
0.0
  0
VERTEX
  5
314
330
2FA
100
AcDbEntity
  8
0
100
AcDbVertex
100
AcDb2dVertex
 10
83.85351388888888
 20
243.0935222222222
 30
0.0
  0
VERTEX
  5
315
330
2FA
100
AcDbEntity
  8
0
100
AcDbVertex
100
AcDb2dVertex
 10
83.70428888888888
 20
242.3459861111111
 30
0.0
  0
VERTEX
  5
316
330
2FA
100
AcDbEntity
  8
0
100
AcDbVertex
100
AcDb2dVertex
 10
83.69758611111111
 20
242.2867194444445
 30
0.0
  0
VERTEX
  5
317
330
2FA
100
AcDbEntity
  8
0
100
AcDbVertex
100
AcDb2dVertex
 10
83.70217222222222
 20
242.2380361111111
 30
0.0
  0
VERTEX
  5
318
330
2FA
100
AcDbEntity
  8
0
100
AcDbVertex
100
AcDb2dVertex
 10
83.71663611111111
 20
242.1868833333333
 30
0.0
  0
VERTEX
  5
319
330
2FA
100
AcDbEntity
  8
0
100
AcDbVertex
100
AcDb2dVertex
 10
83.73991944444444
 20
242.1360833333333
 30
0.0
  0
VERTEX
  5
31A
330
2FA
100
AcDbEntity
  8
0
100
AcDbVertex
100
AcDb2dVertex
 10
83.77343333333333
 20
242.084225
 30
0.0
  0
VERTEX
  5
31B
330
2FA
100
AcDbEntity
  8
0
100
AcDbVertex
100
AcDb2dVertex
 10
83.816825
 20
242.0316611111111
 30
0.0
  0
VERTEX
  5
31C
330
2FA
100
AcDbEntity
  8
0
100
AcDbVertex
100
AcDb2dVertex
 10
83.86938888888889
 20
241.9801555555555
 30
0.0
  0
VERTEX
  5
31D
330
2FA
100
AcDbEntity
  8
0
100
AcDbVertex
100
AcDb2dVertex
 10
84.00309166666666
 20
241.8789083333333
 30
0.0
  0
VERTEX
  5
31E
330
2FA
100
AcDbEntity
  8
0
100
AcDbVertex
100
AcDb2dVertex
 10
84.17524722222223
 20
241.7829527777778
 30
0.0
  0
VERTEX
  5
31F
330
2FA
100
AcDbEntity
  8
0
100
AcDbVertex
100
AcDb2dVertex
 10
84.38515
 20
241.6958166666667
 30
0.0
  0
VERTEX
  5
320
330
2FA
100
AcDbEntity
  8
0
100
AcDbVertex
100
AcDb2dVertex
 10
84.67336944444443
 20
241.6083277777778
 30
0.0
  0
VERTEX
  5
321
330
2FA
100
AcDbEntity
  8
0
100
AcDbVertex
100
AcDb2dVertex
 10
84.80636666666666
 20
241.5610555555556
 30
0.0
  0
VERTEX
  5
322
330
2FA
100
AcDbEntity
  8
0
100
AcDbVertex
100
AcDb2dVertex
 10
85.04907777777777
 20
241.4516944444445
 30
0.0
  0
VERTEX
  5
323
330
2FA
100
AcDbEntity
  8
0
100
AcDbVertex
100
AcDb2dVertex
 10
85.20641666666667
 20
241.3687916666667
 30
0.0
  0
VERTEX
  5
324
330
2FA
100
AcDbEntity
  8
0
100
AcDbVertex
100
AcDb2dVertex
 10
85.3933888888889
 20
241.2597833333333
 30
0.0
  0
VERTEX
  5
325
330
2FA
100
AcDbEntity
  8
0
100
AcDbVertex
100
AcDb2dVertex
 10
85.59941111111111
 20
241.1274916666667
 30
0.0
  0
VERTEX
  5
326
330
2FA
100
AcDbEntity
  8
0
100
AcDbVertex
100
AcDb2dVertex
 10
85.82624722222222
 20
240.9694472222222
 30
0.0
  0
VERTEX
  5
327
330
2FA
100
AcDbEntity
  8
0
100
AcDbVertex
100
AcDb2dVertex
 10
86.07495555555555
 20
240.7800055555555
 30
0.0
  0
VERTEX
  5
328
330
2FA
100
AcDbEntity
  8
0
100
AcDbVertex
100
AcDb2dVertex
 10
86.33495277777777
 20
240.5626944444444
 30
0.0
  0
VERTEX
  5
329
330
2FA
100
AcDbEntity
  8
0
100
AcDbVertex
100
AcDb2dVertex
 10
86.61188333333332
 20
240.3122222222222
 30
0.0
  0
VERTEX
  5
32A
330
2FA
100
AcDbEntity
  8
0
100
AcDbVertex
100
AcDb2dVertex
 10
86.90010277777778
 20
240.0278833333333
 30
0.0
  0
VERTEX
  5
32B
330
2FA
100
AcDbEntity
  8
0
100
AcDbVertex
100
AcDb2dVertex
 10
87.19819999999999
 20
239.709325
 30
0.0
  0
VERTEX
  5
32C
330
2FA
100
AcDbEntity
  8
0
100
AcDbVertex
100
AcDb2dVertex
 10
87.47195555555555
 20
239.3914722222222
 30
0.0
  0
VERTEX
  5
32D
330
2FA
100
AcDbEntity
  8
0
100
AcDbVertex
100
AcDb2dVertex
 10
87.47195555555555
 20
239.3907666666667
 30
0.0
  0
SEQEND
  5
32E
330
2FA
100
AcDbEntity
  8
0
 62
     7
  0
SPLINE
  5
32F
330
1F
100
AcDbEntity
  8
0
 62
     7
100
AcDbSpline
210
0.0
220
0.0
230
1.0
 70
    12
 71
     3
 72
     8
 73
     4
 74
     0
 42
0.000000001
 43
0.0
 40
0.0
 40
0.0
 40
0.0
 40
0.0
 40
1.0
 40
1.0
 40
1.0
 40
1.0
 10
87.47195555555555
 20
239.3907666666667
 30
0.0
 41
1.0
 10
87.32061388888887
 20
238.9251
 30
0.0
 41
1.0
 10
87.15304444444443
 20
238.4650777777777
 30
0.0
 41
1.0
 10
86.96995277777778
 20
238.0117583333333
 30
0.0
 41
1.0
  0
POLYLINE
  5
330
330
1F
100
AcDbEntity
  8
0
 62
     7
100
AcDb2dPolyline
 66
     1
 10
0.0
 20
0.0
 30
0.0
  0
VERTEX
  5
331
330
330
100
AcDbEntity
  8
0
100
AcDbVertex
100
AcDb2dVertex
 10
86.96995277777778
 20
238.0117583333333
 30
0.0
  0
VERTEX
  5
332
330
330
100
AcDbEntity
  8
0
100
AcDbVertex
100
AcDb2dVertex
 10
86.96995277777778
 20
238.0110527777778
 30
0.0
  0
VERTEX
  5
333
330
330
100
AcDbEntity
  8
0
100
AcDbVertex
100
AcDb2dVertex
 10
86.55543888888889
 20
237.9433194444445
 30
0.0
  0
VERTEX
  5
334
330
330
100
AcDbEntity
  8
0
100
AcDbVertex
100
AcDb2dVertex
 10
86.121875
 20
237.89005
 30
0.0
  0
VERTEX
  5
335
330
330
100
AcDbEntity
  8
0
100
AcDbVertex
100
AcDb2dVertex
 10
85.71829722222222
 20
237.8583
 30
0.0
  0
VERTEX
  5
336
330
330
100
AcDbEntity
  8
0
100
AcDbVertex
100
AcDb2dVertex
 10
85.3454111111111
 20
237.8438361111111
 30
0.0
  0
VERTEX
  5
337
330
330
100
AcDbEntity
  8
0
100
AcDbVertex
100
AcDb2dVertex
 10
85.00639166666666
 20
237.8452472222222
 30
0.0
  0
VERTEX
  5
338
330
330
100
AcDbEntity
  8
0
100
AcDbVertex
100
AcDb2dVertex
 10
84.69383055555555
 20
237.8597111111111
 30
0.0
  0
VERTEX
  5
339
330
330
100
AcDbEntity
  8
0
100
AcDbVertex
100
AcDb2dVertex
 10
84.41936944444444
 20
237.8840527777778
 30
0.0
  0
VERTEX
  5
33A
330
330
100
AcDbEntity
  8
0
100
AcDbVertex
100
AcDb2dVertex
 10
84.17595277777777
 20
237.9161555555555
 30
0.0
  0
VERTEX
  5
33B
330
330
100
AcDbEntity
  8
0
100
AcDbVertex
100
AcDb2dVertex
 10
83.962875
 20
237.9524916666666
 30
0.0
  0
VERTEX
  5
33C
330
330
100
AcDbEntity
  8
0
100
AcDbVertex
100
AcDb2dVertex
 10
83.78860277777777
 20
237.9905916666666
 30
0.0
  0
VERTEX
  5
33D
330
330
100
AcDbEntity
  8
0
100
AcDbVertex
100
AcDb2dVertex
 10
83.53319166666667
 20
238.0618527777777
 30
0.0
  0
VERTEX
  5
33E
330
330
100
AcDbEntity
  8
0
100
AcDbVertex
100
AcDb2dVertex
 10
83.40019444444444
 20
238.1115944444444
 30
0.0
  0
VERTEX
  5
33F
330
330
100
AcDbEntity
  8
0
100
AcDbVertex
100
AcDb2dVertex
 10
83.12326388888889
 20
238.2301277777778
 30
0.0
  0
VERTEX
  5
340
330
330
100
AcDbEntity
  8
0
100
AcDbVertex
100
AcDb2dVertex
 10
82.90665833333333
 20
238.2978611111111
 30
0.0
  0
VERTEX
  5
341
330
330
100
AcDbEntity
  8
0
100
AcDbVertex
100
AcDb2dVertex
 10
82.7133361111111
 20
238.3349027777778
 30
0.0
  0
VERTEX
  5
342
330
330
100
AcDbEntity
  8
0
100
AcDbVertex
100
AcDb2dVertex
 10
82.54541388888889
 20
238.3433694444444
 30
0.0
  0
VERTEX
  5
343
330
330
100
AcDbEntity
  8
0
100
AcDbVertex
100
AcDb2dVertex
 10
82.47238888888889
 20
238.3373722222222
 30
0.0
  0
VERTEX
  5
344
330
330
100
AcDbEntity
  8
0
100
AcDbVertex
100
AcDb2dVertex
 10
82.4053611111111
 20
238.325025
 30
0.0
  0
VERTEX
  5
345
330
330
100
AcDbEntity
  8
0
100
AcDbVertex
100
AcDb2dVertex
 10
82.3468
 20
238.3070333333333
 30
0.0
  0
VERTEX
  5
346
330
330
100
AcDbEntity
  8
0
100
AcDbVertex
100
AcDb2dVertex
 10
82.29529444444444
 20
238.2826916666667
 30
0.0
  0
VERTEX
  5
347
330
330
100
AcDbEntity
  8
0
100
AcDbVertex
100
AcDb2dVertex
 10
82.25190277777777
 20
238.2537638888889
 30
0.0
  0
VERTEX
  5
348
330
330
100
AcDbEntity
  8
0
100
AcDbVertex
100
AcDb2dVertex
 10
82.21697777777777
 20
238.2188388888889
 30
0.0
  0
VERTEX
  5
349
330
330
100
AcDbEntity
  8
0
100
AcDbVertex
100
AcDb2dVertex
 10
82.18416944444444
 20
238.1690972222222
 30
0.0
  0
VERTEX
  5
34A
330
330
100
AcDbEntity
  8
0
100
AcDbVertex
100
AcDb2dVertex
 10
81.81763333333333
 20
237.5009361111111
 30
0.0
  0
VERTEX
  5
34B
330
330
100
AcDbEntity
  8
0
100
AcDbVertex
100
AcDb2dVertex
 10
81.42146388888888
 20
236.8490027777778
 30
0.0
  0
VERTEX
  5
34C
330
330
100
AcDbEntity
  8
0
100
AcDbVertex
100
AcDb2dVertex
 10
81.39465277777778
 20
236.7957333333333
 30
0.0
  0
VERTEX
  5
34D
330
330
100
AcDbEntity
  8
0
100
AcDbVertex
100
AcDb2dVertex
 10
81.38265833333332
 20
236.7477555555555
 30
0.0
  0
VERTEX
  5
34E
330
330
100
AcDbEntity
  8
0
100
AcDbVertex
100
AcDb2dVertex
 10
81.37877777777778
 20
236.6955444444444
 30
0.0
  0
VERTEX
  5
34F
330
330
100
AcDbEntity
  8
0
100
AcDbVertex
100
AcDb2dVertex
 10
81.38406944444445
 20
236.6391
 30
0.0
  0
VERTEX
  5
350
330
330
100
AcDbEntity
  8
0
100
AcDbVertex
100
AcDb2dVertex
 10
81.39782777777778
 20
236.5791277777778
 30
0.0
  0
VERTEX
  5
351
330
330
100
AcDbEntity
  8
0
100
AcDbVertex
100
AcDb2dVertex
 10
81.41969999999999
 20
236.515275
 30
0.0
  0
VERTEX
  5
352
330
330
100
AcDbEntity
  8
0
100
AcDbVertex
100
AcDb2dVertex
 10
81.45180277777777
 20
236.4489527777777
 30
0.0
  0
VERTEX
  5
353
330
330
100
AcDbEntity
  8
0
100
AcDbVertex
100
AcDb2dVertex
 10
81.54317222222221
 20
236.3074888888889
 30
0.0
  0
VERTEX
  5
354
330
330
100
AcDbEntity
  8
0
100
AcDbVertex
100
AcDb2dVertex
 10
81.67158333333333
 20
236.1593222222222
 30
0.0
  0
VERTEX
  5
355
330
330
100
AcDbEntity
  8
0
100
AcDbVertex
100
AcDb2dVertex
 10
81.83879999999999
 20
236.0048055555555
 30
0.0
  0
VERTEX
  5
356
330
330
100
AcDbEntity
  8
0
100
AcDbVertex
100
AcDb2dVertex
 10
82.08009999999999
 20
235.8245361111111
 30
0.0
  0
VERTEX
  5
357
330
330
100
AcDbEntity
  8
0
100
AcDbVertex
100
AcDb2dVertex
 10
82.18875555555555
 20
235.734225
 30
0.0
  0
VERTEX
  5
358
330
330
100
AcDbEntity
  8
0
100
AcDbVertex
100
AcDb2dVertex
 10
82.37890277777778
 20
235.5486638888889
 30
0.0
  0
VERTEX
  5
359
330
330
100
AcDbEntity
  8
0
100
AcDbVertex
100
AcDb2dVertex
 10
82.49884722222222
 20
235.4163722222222
 30
0.0
  0
VERTEX
  5
35A
330
330
100
AcDbEntity
  8
0
100
AcDbVertex
100
AcDb2dVertex
 10
82.63748888888888
 20
235.2505666666667
 30
0.0
  0
VERTEX
  5
35B
330
330
100
AcDbEntity
  8
0
100
AcDbVertex
100
AcDb2dVertex
 10
82.7863611111111
 20
235.0558333333333
 30
0.0
  0
VERTEX
  5
35C
330
330
100
AcDbEntity
  8
0
100
AcDbVertex
100
AcDb2dVertex
 10
82.94475833333333
 20
234.8300555555556
 30
0.0
  0
VERTEX
  5
35D
330
330
100
AcDbEntity
  8
0
100
AcDbVertex
100
AcDb2dVertex
 10
83.11338611111111
 20
234.5661777777778
 30
0.0
  0
VERTEX
  5
35E
330
330
100
AcDbEntity
  8
0
100
AcDbVertex
100
AcDb2dVertex
 10
83.28377777777777
 20
234.2733722222222
 30
0.0
  0
VERTEX
  5
35F
330
330
100
AcDbEntity
  8
0
100
AcDbVertex
100
AcDb2dVertex
 10
83.45805
 20
233.9431722222222
 30
0.0
  0
VERTEX
  5
360
330
330
100
AcDbEntity
  8
0
100
AcDbVertex
100
AcDb2dVertex
 10
83.63196944444444
 20
233.5780472222222
 30
0.0
  0
VERTEX
  5
361
330
330
100
AcDbEntity
  8
0
100
AcDbVertex
100
AcDb2dVertex
 10
83.80306666666667
 20
233.1758805555555
 30
0.0
  0
VERTEX
  5
362
330
330
100
AcDbEntity
  8
0
100
AcDbVertex
100
AcDb2dVertex
 10
83.9515861111111
 20
232.7835916666667
 30
0.0
  0
VERTEX
  5
363
330
330
100
AcDbEntity
  8
0
100
AcDbVertex
100
AcDb2dVertex
 10
83.9515861111111
 20
232.7825333333333
 30
0.0
  0
SEQEND
  5
364
330
330
100
AcDbEntity
  8
0
 62
     7
  0
SPLINE
  5
365
330
1F
100
AcDbEntity
  8
0
 62
     7
100
AcDbSpline
210
0.0
220
0.0
230
1.0
 70
    12
 71
     3
 72
     8
 73
     4
 74
     0
 42
0.000000001
 43
0.0
 40
0.0
 40
0.0
 40
0.0
 40
0.0
 40
1.0
 40
1.0
 40
1.0
 40
1.0
 10
83.9515861111111
 20
232.7825333333333
 30
0.0
 41
1.0
 10
83.64960833333333
 20
232.3980055555555
 30
0.0
 41
1.0
 10
83.33563611111111
 20
232.0230027777778
 30
0.0
 41
1.0
 10
83.00861111111111
 20
231.6592888888889
 30
0.0
 41
1.0
  0
POLYLINE
  5
366
330
1F
100
AcDbEntity
  8
0
 62
     7
100
AcDb2dPolyline
 66
     1
 10
0.0
 20
0.0
 30
0.0
  0
VERTEX
  5
367
330
366
100
AcDbEntity
  8
0
100
AcDbVertex
100
AcDb2dVertex
 10
83.00861111111111
 20
231.6592888888889
 30
0.0
  0
VERTEX
  5
368
330
366
100
AcDbEntity
  8
0
100
AcDbVertex
100
AcDb2dVertex
 10
83.00790555555554
 20
231.6585833333333
 30
0.0
  0
VERTEX
  5
369
330
366
100
AcDbEntity
  8
0
100
AcDbVertex
100
AcDb2dVertex
 10
82.59480277777777
 20
231.7369
 30
0.0
  0
VERTEX
  5
36A
330
366
100
AcDbEntity
  8
0
100
AcDbVertex
100
AcDb2dVertex
 10
82.16970555555555
 20
231.8349722222222
 30
0.0
  0
VERTEX
  5
36B
330
366
100
AcDbEntity
  8
0
100
AcDbVertex
100
AcDb2dVertex
 10
81.77953333333332
 20
231.9429222222222
 30
0.0
  0
VERTEX
  5
36C
330
366
100
AcDbEntity
  8
0
100
AcDbVertex
100
AcDb2dVertex
 10
81.4242861111111
 20
232.0572222222222
 30
0.0
  0
VERTEX
  5
36D
330
366
100
AcDbEntity
  8
0
100
AcDbVertex
100
AcDb2dVertex
 10
81.10643333333333
 20
232.1743444444444
 30
0.0
  0
VERTEX
  5
36E
330
366
100
AcDbEntity
  8
0
100
AcDbVertex
100
AcDb2dVertex
 10
80.81750833333332
 20
232.2953472222222
 30
0.0
  0
VERTEX
  5
36F
330
366
100
AcDbEntity
  8
0
100
AcDbVertex
100
AcDb2dVertex
 10
80.56738888888889
 20
232.4114111111111
 30
0.0
  0
VERTEX
  5
370
330
366
100
AcDbEntity
  8
0
100
AcDbVertex
100
AcDb2dVertex
 10
80.34972499999999
 20
232.5239472222222
 30
0.0
  0
VERTEX
  5
371
330
366
100
AcDbEntity
  8
0
100
AcDbVertex
100
AcDb2dVertex
 10
80.16204722222221
 20
232.63225
 30
0.0
  0
VERTEX
  5
372
330
366
100
AcDbEntity
  8
0
100
AcDbVertex
100
AcDb2dVertex
 10
80.0114111111111
 20
232.7271472222222
 30
0.0
  0
VERTEX
  5
373
330
366
100
AcDbEntity
  8
0
100
AcDbVertex
100
AcDb2dVertex
 10
79.79551111111111
 20
232.8823694444444
 30
0.0
  0
VERTEX
  5
374
330
366
100
AcDbEntity
  8
0
100
AcDbVertex
100
AcDb2dVertex
 10
79.68756111111111
 20
232.9733861111111
 30
0.0
  0
VERTEX
  5
375
330
366
100
AcDbEntity
  8
0
100
AcDbVertex
100
AcDb2dVertex
 10
79.4684861111111
 20
233.1797611111111
 30
0.0
  0
VERTEX
  5
376
330
366
100
AcDbEntity
  8
0
100
AcDbVertex
100
AcDb2dVertex
 10
79.28751111111112
 20
233.31805
 30
0.0
  0
VERTEX
  5
377
330
366
100
AcDbEntity
  8
0
100
AcDbVertex
100
AcDb2dVertex
 10
79.11853055555555
 20
233.4185916666666
 30
0.0
  0
VERTEX
  5
378
330
366
100
AcDbEntity
  8
0
100
AcDbVertex
100
AcDb2dVertex
 10
78.96436666666666
 20
233.4838555555555
 30
0.0
  0
VERTEX
  5
379
330
366
100
AcDbEntity
  8
0
100
AcDbVertex
100
AcDb2dVertex
 10
78.89275277777777
 20
233.5036111111111
 30
0.0
  0
VERTEX
  5
37A
330
366
100
AcDbEntity
  8
0
100
AcDbVertex
100
AcDb2dVertex
 10
78.82643055555556
 20
233.5141944444445
 30
0.0
  0
VERTEX
  5
37B
330
366
100
AcDbEntity
  8
0
100
AcDbVertex
100
AcDb2dVertex
 10
78.76504722222221
 20
233.5173694444444
 30
0.0
  0
VERTEX
  5
37C
330
366
100
AcDbEntity
  8
0
100
AcDbVertex
100
AcDb2dVertex
 10
78.70789722222221
 20
233.5127833333333
 30
0.0
  0
VERTEX
  5
37D
330
366
100
AcDbEntity
  8
0
100
AcDbVertex
100
AcDb2dVertex
 10
78.65780277777777
 20
233.4997305555555
 30
0.0
  0
VERTEX
  5
37E
330
366
100
AcDbEntity
  8
0
100
AcDbVertex
100
AcDb2dVertex
 10
78.61194166666667
 20
233.479975
 30
0.0
  0
VERTEX
  5
37F
330
366
100
AcDbEntity
  8
0
100
AcDbVertex
100
AcDb2dVertex
 10
78.56502222222221
 20
233.4443444444445
 30
0.0
  0
VERTEX
  5
380
330
366
100
AcDbEntity
  8
0
100
AcDbVertex
100
AcDb2dVertex
 10
77.99140555555554
 20
232.9409305555555
 30
0.0
  0
VERTEX
  5
381
330
366
100
AcDbEntity
  8
0
100
AcDbVertex
100
AcDb2dVertex
 10
77.39697499999998
 20
232.463975
 30
0.0
  0
VERTEX
  5
382
330
366
100
AcDbEntity
  8
0
100
AcDbVertex
100
AcDb2dVertex
 10
77.35358333333333
 20
232.4230527777778
 30
0.0
  0
VERTEX
  5
383
330
366
100
AcDbEntity
  8
0
100
AcDbVertex
100
AcDb2dVertex
 10
77.3253611111111
 20
232.3824833333333
 30
0.0
  0
VERTEX
  5
384
330
366
100
AcDbEntity
  8
0
100
AcDbVertex
100
AcDb2dVertex
 10
77.30419444444445
 20
232.3348583333333
 30
0.0
  0
VERTEX
  5
385
330
366
100
AcDbEntity
  8
0
100
AcDbVertex
100
AcDb2dVertex
 10
77.28973055555555
 20
232.279825
 30
0.0
  0
VERTEX
  5
386
330
366
100
AcDbEntity
  8
0
100
AcDbVertex
100
AcDb2dVertex
 10
77.28196944444444
 20
232.2184416666666
 30
0.0
  0
VERTEX
  5
387
330
366
100
AcDbEntity
  8
0
100
AcDbVertex
100
AcDb2dVertex
 10
77.28126388888889
 20
232.1514138888889
 30
0.0
  0
VERTEX
  5
388
330
366
100
AcDbEntity
  8
0
100
AcDbVertex
100
AcDb2dVertex
 10
77.28796666666666
 20
232.0776833333333
 30
0.0
  0
VERTEX
  5
389
330
366
100
AcDbEntity
  8
0
100
AcDbVertex
100
AcDb2dVertex
 10
77.3253611111111
 20
231.9143472222222
 30
0.0
  0
VERTEX
  5
38A
330
366
100
AcDbEntity
  8
0
100
AcDbVertex
100
AcDb2dVertex
 10
77.3952111111111
 20
231.7301972222222
 30
0.0
  0
VERTEX
  5
38B
330
366
100
AcDbEntity
  8
0
100
AcDbVertex
100
AcDb2dVertex
 10
77.50033888888888
 20
231.5287611111111
 30
0.0
  0
VERTEX
  5
38C
330
366
100
AcDbEntity
  8
0
100
AcDbVertex
100
AcDb2dVertex
 10
77.66543888888889
 20
231.2761722222222
 30
0.0
  0
VERTEX
  5
38D
330
366
100
AcDbEntity
  8
0
100
AcDbVertex
100
AcDb2dVertex
 10
77.7367
 20
231.1544638888889
 30
0.0
  0
VERTEX
  5
38E
330
366
100
AcDbEntity
  8
0
100
AcDbVertex
100
AcDb2dVertex
 10
77.85170555555555
 20
230.9142222222222
 30
0.0
  0
VERTEX
  5
38F
330
366
100
AcDbEntity
  8
0
100
AcDbVertex
100
AcDb2dVertex
 10
77.91943888888888
 20
230.7498277777778
 30
0.0
  0
VERTEX
  5
390
330
366
100
AcDbEntity
  8
0
100
AcDbVertex
100
AcDb2dVertex
 10
77.99211111111111
 20
230.5459222222222
 30
0.0
  0
VERTEX
  5
391
330
366
100
AcDbEntity
  8
0
100
AcDbVertex
100
AcDb2dVertex
 10
78.06619444444445
 20
230.3127361111111
 30
0.0
  0
VERTEX
  5
392
330
366
100
AcDbEntity
  8
0
100
AcDbVertex
100
AcDb2dVertex
 10
78.13745555555555
 20
230.0456833333333
 30
0.0
  0
VERTEX
  5
393
330
366
100
AcDbEntity
  8
0
100
AcDbVertex
100
AcDb2dVertex
 10
78.20589444444444
 20
229.7405305555556
 30
0.0
  0
VERTEX
  5
394
330
366
100
AcDbEntity
  8
0
100
AcDbVertex
100
AcDb2dVertex
 10
78.26621944444445
 20
229.4068027777778
 30
0.0
  0
VERTEX
  5
395
330
366
100
AcDbEntity
  8
0
100
AcDbVertex
100
AcDb2dVertex
 10
78.31701944444444
 20
229.0370916666667
 30
0.0
  0
VERTEX
  5
396
330
366
100
AcDbEntity
  8
0
100
AcDbVertex
100
AcDb2dVertex
 10
78.35511944444444
 20
228.6342194444444
 30
0.0
  0
VERTEX
  5
397
330
366
100
AcDbEntity
  8
0
100
AcDbVertex
100
AcDb2dVertex
 10
78.37875555555554
 20
228.1985388888889
 30
0.0
  0
VERTEX
  5
398
330
366
100
AcDbEntity
  8
0
100
AcDbVertex
100
AcDb2dVertex
 10
78.38404722222221
 20
227.7787333333333
 30
0.0
  0
VERTEX
  5
399
330
366
100
AcDbEntity
  8
0
100
AcDbVertex
100
AcDb2dVertex
 10
78.38334166666667
 20
227.7780277777778
 30
0.0
  0
SEQEND
  5
39A
330
366
100
AcDbEntity
  8
0
 62
     7
  0
SPLINE
  5
39B
330
1F
100
AcDbEntity
  8
0
 62
     7
100
AcDbSpline
210
0.0
220
0.0
230
1.0
 70
    12
 71
     3
 72
     8
 73
     4
 74
     0
 42
0.000000001
 43
0.0
 40
0.0
 40
0.0
 40
0.0
 40
0.0
 40
1.0
 40
1.0
 40
1.0
 40
1.0
 10
78.38334166666667
 20
227.7780277777778
 30
0.0
 41
1.0
 10
77.96776944444444
 20
227.5194416666666
 30
0.0
 41
1.0
 10
77.5444361111111
 20
227.2742611111111
 30
0.0
 41
1.0
 10
77.11228333333332
 20
227.0446027777778
 30
0.0
 41
1.0
  0
POLYLINE
  5
39C
330
1F
100
AcDbEntity
  8
0
 62
     7
100
AcDb2dPolyline
 66
     1
 10
0.0
 20
0.0
 30
0.0
  0
VERTEX
  5
39D
330
39C
100
AcDbEntity
  8
0
100
AcDbVertex
100
AcDb2dVertex
 10
77.11228333333332
 20
227.0446027777778
 30
0.0
  0
VERTEX
  5
39E
330
39C
100
AcDbEntity
  8
0
100
AcDbVertex
100
AcDb2dVertex
 10
77.11157777777777
 20
227.0438972222222
 30
0.0
  0
VERTEX
  5
39F
330
39C
100
AcDbEntity
  8
0
100
AcDbVertex
100
AcDb2dVertex
 10
76.75103888888889
 20
227.2583861111111
 30
0.0
  0
VERTEX
  5
3A0
330
39C
100
AcDbEntity
  8
0
100
AcDbVertex
100
AcDb2dVertex
 10
76.38450277777777
 20
227.4965111111111
 30
0.0
  0
VERTEX
  5
3A1
330
39C
100
AcDbEntity
  8
0
100
AcDbVertex
100
AcDb2dVertex
 10
76.05536111111111
 20
227.7314611111111
 30
0.0
  0
VERTEX
  5
3A2
330
39C
100
AcDbEntity
  8
0
100
AcDbVertex
100
AcDb2dVertex
 10
75.76008611111111
 20
227.9604138888889
 30
0.0
  0
VERTEX
  5
3A3
330
39C
100
AcDbEntity
  8
0
100
AcDbVertex
100
AcDb2dVertex
 10
75.5015
 20
228.1794888888889
 30
0.0
  0
VERTEX
  5
3A4
330
39C
100
AcDbEntity
  8
0
100
AcDbVertex
100
AcDb2dVertex
 10
75.2711361111111
 20
228.3915083333333
 30
0.0
  0
VERTEX
  5
3A5
330
39C
100
AcDbEntity
  8
0
100
AcDbVertex
100
AcDb2dVertex
 10
75.07640277777777
 20
228.5862416666666
 30
0.0
  0
VERTEX
  5
3A6
330
39C
100
AcDbEntity
  8
0
100
AcDbVertex
100
AcDb2dVertex
 10
74.91059722222222
 20
228.7672166666667
 30
0.0
  0
VERTEX
  5
3A7
330
39C
100
AcDbEntity
  8
0
100
AcDbVertex
100
AcDb2dVertex
 10
74.77089722222222
 20
228.9323166666667
 30
0.0
  0
VERTEX
  5
3A8
330
39C
100
AcDbEntity
  8
0
100
AcDbVertex
100
AcDb2dVertex
 10
74.66224166666666
 20
229.073075
 30
0.0
  0
VERTEX
  5
3A9
330
39C
100
AcDbEntity
  8
0
100
AcDbVertex
100
AcDb2dVertex
 10
74.5123111111111
 20
229.2928555555555
 30
0.0
  0
VERTEX
  5
3AA
330
39C
100
AcDbEntity
  8
0
100
AcDbVertex
100
AcDb2dVertex
 10
74.4424611111111
 20
229.4152694444444
 30
0.0
  0
VERTEX
  5
3AB
330
39C
100
AcDbEntity
  8
0
100
AcDbVertex
100
AcDb2dVertex
 10
74.30628888888889
 20
229.6844388888889
 30
0.0
  0
VERTEX
  5
3AC
330
39C
100
AcDbEntity
  8
0
100
AcDbVertex
100
AcDb2dVertex
 10
74.183875
 20
229.8759972222222
 30
0.0
  0
VERTEX
  5
3AD
330
39C
100
AcDbEntity
  8
0
100
AcDbVertex
100
AcDb2dVertex
 10
74.05899166666666
 20
230.0280444444444
 30
0.0
  0
VERTEX
  5
3AE
330
39C
100
AcDbEntity
  8
0
100
AcDbVertex
100
AcDb2dVertex
 10
73.93657777777777
 20
230.1423444444444
 30
0.0
  0
VERTEX
  5
3AF
330
39C
100
AcDbEntity
  8
0
100
AcDbVertex
100
AcDb2dVertex
 10
73.87660555555556
 20
230.1857361111111
 30
0.0
  0
VERTEX
  5
3B0
330
39C
100
AcDbEntity
  8
0
100
AcDbVertex
100
AcDb2dVertex
 10
73.81733888888888
 20
230.2181916666667
 30
0.0
  0
VERTEX
  5
3B1
330
39C
100
AcDbEntity
  8
0
100
AcDbVertex
100
AcDb2dVertex
 10
73.76089444444443
 20
230.2425333333333
 30
0.0
  0
VERTEX
  5
3B2
330
39C
100
AcDbEntity
  8
0
100
AcDbVertex
100
AcDb2dVertex
 10
73.70621388888888
 20
230.2569972222222
 30
0.0
  0
VERTEX
  5
3B3
330
39C
100
AcDbEntity
  8
0
100
AcDbVertex
100
AcDb2dVertex
 10
73.65365
 20
230.2622888888889
 30
0.0
  0
VERTEX
  5
3B4
330
39C
100
AcDbEntity
  8
0
100
AcDbVertex
100
AcDb2dVertex
 10
73.60426111111111
 20
230.2587611111111
 30
0.0
  0
VERTEX
  5
3B5
330
39C
100
AcDbEntity
  8
0
100
AcDbVertex
100
AcDb2dVertex
 10
73.54711111111111
 20
230.2418277777778
 30
0.0
  0
VERTEX
  5
3B6
330
39C
100
AcDbEntity
  8
0
100
AcDbVertex
100
AcDb2dVertex
 10
72.83696944444443
 20
229.9648972222222
 30
0.0
  0
VERTEX
  5
3B7
330
39C
100
AcDbEntity
  8
0
100
AcDbVertex
100
AcDb2dVertex
 10
72.1151861111111
 20
229.7200694444444
 30
0.0
  0
VERTEX
  5
3B8
330
39C
100
AcDbEntity
  8
0
100
AcDbVertex
100
AcDb2dVertex
 10
72.06050555555555
 20
229.6964333333333
 30
0.0
  0
VERTEX
  5
3B9
330
39C
100
AcDbEntity
  8
0
100
AcDbVertex
100
AcDb2dVertex
 10
72.02028888888889
 20
229.6675055555555
 30
0.0
  0
VERTEX
  5
3BA
330
39C
100
AcDbEntity
  8
0
100
AcDbVertex
100
AcDb2dVertex
 10
71.9836
 20
229.6304638888889
 30
0.0
  0
VERTEX
  5
3BB
330
39C
100
AcDbEntity
  8
0
100
AcDbVertex
100
AcDb2dVertex
 10
71.95079166666666
 20
229.5838972222222
 30
0.0
  0
VERTEX
  5
3BC
330
39C
100
AcDbEntity
  8
0
100
AcDbVertex
100
AcDb2dVertex
 10
71.92292222222221
 20
229.5292166666667
 30
0.0
  0
VERTEX
  5
3BD
330
39C
100
AcDbEntity
  8
0
100
AcDbVertex
100
AcDb2dVertex
 10
71.89928611111111
 20
229.4660694444445
 30
0.0
  0
VERTEX
  5
3BE
330
39C
100
AcDbEntity
  8
0
100
AcDbVertex
100
AcDb2dVertex
 10
71.88094166666666
 20
229.3948083333333
 30
0.0
  0
VERTEX
  5
3BF
330
39C
100
AcDbEntity
  8
0
100
AcDbVertex
100
AcDb2dVertex
 10
71.859775
 20
229.2279444444444
 30
0.0
  0
VERTEX
  5
3C0
330
39C
100
AcDbEntity
  8
0
100
AcDbVertex
100
AcDb2dVertex
 10
71.86259722222222
 20
229.0310944444444
 30
0.0
  0
VERTEX
  5
3C1
330
39C
100
AcDbEntity
  8
0
100
AcDbVertex
100
AcDb2dVertex
 10
71.89223055555556
 20
228.8060222222222
 30
0.0
  0
VERTEX
  5
3C2
330
39C
100
AcDbEntity
  8
0
100
AcDbVertex
100
AcDb2dVertex
 10
71.96066944444443
 20
228.5125111111111
 30
0.0
  0
VERTEX
  5
3C3
330
39C
100
AcDbEntity
  8
0
100
AcDbVertex
100
AcDb2dVertex
 10
71.98606944444444
 20
228.3731638888889
 30
0.0
  0
VERTEX
  5
3C4
330
39C
100
AcDbEntity
  8
0
100
AcDbVertex
100
AcDb2dVertex
 10
72.01252777777778
 20
228.1085805555555
 30
0.0
  0
VERTEX
  5
3C5
330
39C
100
AcDbEntity
  8
0
100
AcDbVertex
100
AcDb2dVertex
 10
72.01923055555555
 20
227.9307805555555
 30
0.0
  0
VERTEX
  5
3C6
330
39C
100
AcDbEntity
  8
0
100
AcDbVertex
100
AcDb2dVertex
 10
72.018525
 20
227.7138222222222
 30
0.0
  0
VERTEX
  5
3C7
330
39C
100
AcDbEntity
  8
0
100
AcDbVertex
100
AcDb2dVertex
 10
72.00794166666667
 20
227.4697
 30
0.0
  0
VERTEX
  5
3C8
330
39C
100
AcDbEntity
  8
0
100
AcDbVertex
100
AcDb2dVertex
 10
71.9836
 20
227.1945333333333
 30
0.0
  0
VERTEX
  5
3C9
330
39C
100
AcDbEntity
  8
0
100
AcDbVertex
100
AcDb2dVertex
 10
71.94338333333333
 20
226.8844416666666
 30
0.0
  0
VERTEX
  5
3CA
330
39C
100
AcDbEntity
  8
0
100
AcDbVertex
100
AcDb2dVertex
 10
71.88623333333334
 20
226.5503611111111
 30
0.0
  0
VERTEX
  5
3CB
330
39C
100
AcDbEntity
  8
0
100
AcDbVertex
100
AcDb2dVertex
 10
71.8072111111111
 20
226.1852361111111
 30
0.0
  0
VERTEX
  5
3CC
330
39C
100
AcDbEntity
  8
0
100
AcDbVertex
100
AcDb2dVertex
 10
71.70596388888887
 20
225.7936527777778
 30
0.0
  0
VERTEX
  5
3CD
330
39C
100
AcDbEntity
  8
0
100
AcDbVertex
100
AcDb2dVertex
 10
71.57825833333332
 20
225.3763166666666
 30
0.0
  0
VERTEX
  5
3CE
330
39C
100
AcDbEntity
  8
0
100
AcDbVertex
100
AcDb2dVertex
 10
71.43996944444444
 20
224.9801472222222
 30
0.0
  0
VERTEX
  5
3CF
330
39C
100
AcDbEntity
  8
0
100
AcDbVertex
100
AcDb2dVertex
 10
71.43926388888889
 20
224.9801472222222
 30
0.0
  0
SEQEND
  5
3D0
330
39C
100
AcDbEntity
  8
0
 62
     7
  0
SPLINE
  5
3D1
330
1F
100
AcDbEntity
  8
0
 62
     7
100
AcDbSpline
210
0.0
220
0.0
230
1.0
 70
    12
 71
     3
 72
     8
 73
     4
 74
     0
 42
0.000000001
 43
0.0
 40
0.0
 40
0.0
 40
0.0
 40
0.0
 40
1.0
 40
1.0
 40
1.0
 40
1.0
 10
71.43926388888889
 20
224.9801472222222
 30
0.0
 41
1.0
 10
70.96089722222221
 20
224.8781944444444
 30
0.0
 41
1.0
 10
70.47865
 20
224.7935277777778
 30
0.0
 41
1.0
 10
69.99428611111111
 20
224.7250888888889
 30
0.0
 41
1.0
  0
POLYLINE
  5
3D2
330
1F
100
AcDbEntity
  8
0
 62
     7
100
AcDb2dPolyline
 66
     1
 10
0.0
 20
0.0
 30
0.0
  0
VERTEX
  5
3D3
330
3D2
100
AcDbEntity
  8
0
100
AcDbVertex
100
AcDb2dVertex
 10
69.99428611111111
 20
224.7250888888889
 30
0.0
  0
VERTEX
  5
3D4
330
3D2
100
AcDbEntity
  8
0
100
AcDbVertex
100
AcDb2dVertex
 10
69.99322777777778
 20
224.7243833333333
 30
0.0
  0
VERTEX
  5
3D5
330
3D2
100
AcDbEntity
  8
0
100
AcDbVertex
100
AcDb2dVertex
 10
69.72793888888889
 20
225.0499972222222
 30
0.0
  0
VERTEX
  5
3D6
330
3D2
100
AcDbEntity
  8
0
100
AcDbVertex
100
AcDb2dVertex
 10
69.46476666666666
 20
225.3981888888889
 30
0.0
  0
VERTEX
  5
3D7
330
3D2
100
AcDbEntity
  8
0
100
AcDbVertex
100
AcDb2dVertex
 10
69.23510833333333
 20
225.7322694444444
 30
0.0
  0
VERTEX
  5
3D8
330
3D2
100
AcDbEntity
  8
0
100
AcDbVertex
100
AcDb2dVertex
 10
69.03684722222222
 20
226.0476527777778
 30
0.0
  0
VERTEX
  5
3D9
330
3D2
100
AcDbEntity
  8
0
100
AcDbVertex
100
AcDb2dVertex
 10
68.86857222222223
 20
226.3418694444444
 30
0.0
  0
VERTEX
  5
3DA
330
3D2
100
AcDbEntity
  8
0
100
AcDbVertex
100
AcDb2dVertex
 10
68.72499166666665
 20
226.6202111111111
 30
0.0
  0
VERTEX
  5
3DB
330
3D2
100
AcDbEntity
  8
0
100
AcDbVertex
100
AcDb2dVertex
 10
68.60857499999999
 20
226.8706833333333
 30
0.0
  0
VERTEX
  5
3DC
330
3D2
100
AcDbEntity
  8
0
100
AcDbVertex
100
AcDb2dVertex
 10
68.51438333333333
 20
227.0964611111111
 30
0.0
  0
VERTEX
  5
3DD
330
3D2
100
AcDbEntity
  8
0
100
AcDbVertex
100
AcDb2dVertex
 10
68.43959444444444
 20
227.2996611111111
 30
0.0
  0
VERTEX
  5
3DE
330
3D2
100
AcDbEntity
  8
0
100
AcDbVertex
100
AcDb2dVertex
 10
68.38491388888889
 20
227.4689944444444
 30
0.0
  0
VERTEX
  5
3DF
330
3D2
100
AcDbEntity
  8
0
100
AcDbVertex
100
AcDb2dVertex
 10
68.31965
 20
227.726875
 30
0.0
  0
VERTEX
  5
3E0
330
3D2
100
AcDbEntity
  8
0
100
AcDbVertex
100
AcDb2dVertex
 10
68.29530833333334
 20
227.8662222222222
 30
0.0
  0
VERTEX
  5
3E1
330
3D2
100
AcDbEntity
  8
0
100
AcDbVertex
100
AcDb2dVertex
 10
68.26038333333332
 20
228.165025
 30
0.0
  0
VERTEX
  5
3E2
330
3D2
100
AcDbEntity
  8
0
100
AcDbVertex
100
AcDb2dVertex
 10
68.2099361111111
 20
228.3869222222222
 30
0.0
  0
VERTEX
  5
3E3
330
3D2
100
AcDbEntity
  8
0
100
AcDbVertex
100
AcDb2dVertex
 10
68.14537777777778
 20
228.5731888888889
 30
0.0
  0
VERTEX
  5
3E4
330
3D2
100
AcDbEntity
  8
0
100
AcDbVertex
100
AcDb2dVertex
 10
68.06917777777778
 20
228.7224138888889
 30
0.0
  0
VERTEX
  5
3E5
330
3D2
100
AcDbEntity
  8
0
100
AcDbVertex
100
AcDb2dVertex
 10
68.02754999999999
 20
228.7830916666666
 30
0.0
  0
VERTEX
  5
3E6
330
3D2
100
AcDbEntity
  8
0
100
AcDbVertex
100
AcDb2dVertex
 10
67.98345277777777
 20
228.8342444444444
 30
0.0
  0
VERTEX
  5
3E7
330
3D2
100
AcDbEntity
  8
0
100
AcDbVertex
100
AcDb2dVertex
 10
67.93865
 20
228.8758722222222
 30
0.0
  0
VERTEX
  5
3E8
330
3D2
100
AcDbEntity
  8
0
100
AcDbVertex
100
AcDb2dVertex
 10
67.89208333333333
 20
228.9086805555555
 30
0.0
  0
VERTEX
  5
3E9
330
3D2
100
AcDbEntity
  8
0
100
AcDbVertex
100
AcDb2dVertex
 10
67.84516388888889
 20
228.9316111111111
 30
0.0
  0
VERTEX
  5
3EA
330
3D2
100
AcDbEntity
  8
0
100
AcDbVertex
100
AcDb2dVertex
 10
67.7971861111111
 20
228.9453694444445
 30
0.0
  0
VERTEX
  5
3EB
330
3D2
100
AcDbEntity
  8
0
100
AcDbVertex
100
AcDb2dVertex
 10
67.73791944444444
 20
228.9481916666666
 30
0.0
  0
VERTEX
  5
3EC
330
3D2
100
AcDbEntity
  8
0
100
AcDbVertex
100
AcDb2dVertex
 10
66.97591944444444
 20
228.9316111111111
 30
0.0
  0
VERTEX
  5
3ED
330
3D2
100
AcDbEntity
  8
0
100
AcDbVertex
100
AcDb2dVertex
 10
66.21286111111111
 20
228.9481916666666
 30
0.0
  0
VERTEX
  5
3EE
330
3D2
100
AcDbEntity
  8
0
100
AcDbVertex
100
AcDb2dVertex
 10
66.15359444444444
 20
228.9453694444445
 30
0.0
  0
VERTEX
  5
3EF
330
3D2
100
AcDbEntity
  8
0
100
AcDbVertex
100
AcDb2dVertex
 10
66.10561666666666
 20
228.9316111111111
 30
0.0
  0
VERTEX
  5
3F0
330
3D2
100
AcDbEntity
  8
0
100
AcDbVertex
100
AcDb2dVertex
 10
66.05869722222222
 20
228.9086805555555
 30
0.0
  0
VERTEX
  5
3F1
330
3D2
100
AcDbEntity
  8
0
100
AcDbVertex
100
AcDb2dVertex
 10
66.01213055555554
 20
228.8758722222222
 30
0.0
  0
VERTEX
  5
3F2
330
3D2
100
AcDbEntity
  8
0
100
AcDbVertex
100
AcDb2dVertex
 10
65.96732777777777
 20
228.8342444444444
 30
0.0
  0
VERTEX
  5
3F3
330
3D2
100
AcDbEntity
  8
0
100
AcDbVertex
100
AcDb2dVertex
 10
65.92323055555555
 20
228.7830916666666
 30
0.0
  0
VERTEX
  5
3F4
330
3D2
100
AcDbEntity
  8
0
100
AcDbVertex
100
AcDb2dVertex
 10
65.88125
 20
228.7224138888889
 30
0.0
  0
VERTEX
  5
3F5
330
3D2
100
AcDbEntity
  8
0
100
AcDbVertex
100
AcDb2dVertex
 10
65.80540277777777
 20
228.5731888888889
 30
0.0
  0
VERTEX
  5
3F6
330
3D2
100
AcDbEntity
  8
0
100
AcDbVertex
100
AcDb2dVertex
 10
65.74084444444445
 20
228.3869222222222
 30
0.0
  0
VERTEX
  5
3F7
330
3D2
100
AcDbEntity
  8
0
100
AcDbVertex
100
AcDb2dVertex
 10
65.69039722222222
 20
228.165025
 30
0.0
  0
VERTEX
  5
3F8
330
3D2
100
AcDbEntity
  8
0
100
AcDbVertex
100
AcDb2dVertex
 10
65.65547222222222
 20
227.8662222222222
 30
0.0
  0
VERTEX
  5
3F9
330
3D2
100
AcDbEntity
  8
0
100
AcDbVertex
100
AcDb2dVertex
 10
65.63113055555554
 20
227.726875
 30
0.0
  0
VERTEX
  5
3FA
330
3D2
100
AcDbEntity
  8
0
100
AcDbVertex
100
AcDb2dVertex
 10
65.56586666666666
 20
227.4689944444444
 30
0.0
  0
VERTEX
  5
3FB
330
3D2
100
AcDbEntity
  8
0
100
AcDbVertex
100
AcDb2dVertex
 10
65.5111861111111
 20
227.2996611111111
 30
0.0
  0
VERTEX
  5
3FC
330
3D2
100
AcDbEntity
  8
0
100
AcDbVertex
100
AcDb2dVertex
 10
65.43639722222221
 20
227.0964611111111
 30
0.0
  0
VERTEX
  5
3FD
330
3D2
100
AcDbEntity
  8
0
100
AcDbVertex
100
AcDb2dVertex
 10
65.34220555555555
 20
226.8706833333333
 30
0.0
  0
VERTEX
  5
3FE
330
3D2
100
AcDbEntity
  8
0
100
AcDbVertex
100
AcDb2dVertex
 10
65.22578888888889
 20
226.6202111111111
 30
0.0
  0
VERTEX
  5
3FF
330
3D2
100
AcDbEntity
  8
0
100
AcDbVertex
100
AcDb2dVertex
 10
65.08220833333333
 20
226.3418694444444
 30
0.0
  0
VERTEX
  5
400
330
3D2
100
AcDbEntity
  8
0
100
AcDbVertex
100
AcDb2dVertex
 10
64.91393333333333
 20
226.0476527777778
 30
0.0
  0
VERTEX
  5
401
330
3D2
100
AcDbEntity
  8
0
100
AcDbVertex
100
AcDb2dVertex
 10
64.71567222222221
 20
225.7322694444444
 30
0.0
  0
VERTEX
  5
402
330
3D2
100
AcDbEntity
  8
0
100
AcDbVertex
100
AcDb2dVertex
 10
64.48601388888889
 20
225.3981888888889
 30
0.0
  0
VERTEX
  5
403
330
3D2
100
AcDbEntity
  8
0
100
AcDbVertex
100
AcDb2dVertex
 10
64.22284166666667
 20
225.0499972222222
 30
0.0
  0
VERTEX
  5
404
330
3D2
100
AcDbEntity
  8
0
100
AcDbVertex
100
AcDb2dVertex
 10
63.95719999999999
 20
224.7243833333333
 30
0.0
  0
VERTEX
  5
405
330
3D2
100
AcDbEntity
  8
0
100
AcDbVertex
100
AcDb2dVertex
 10
63.95649444444444
 20
224.7250888888889
 30
0.0
  0
SEQEND
  5
406
330
3D2
100
AcDbEntity
  8
0
 62
     7
  0
SPLINE
  5
407
330
1F
100
AcDbEntity
  8
0
 62
     7
100
AcDbSpline
210
0.0
220
0.0
230
1.0
 70
    12
 71
     3
 72
     8
 73
     4
 74
     0
 42
0.000000001
 43
0.0
 40
0.0
 40
0.0
 40
0.0
 40
0.0
 40
1.0
 40
1.0
 40
1.0
 40
1.0
 10
79.4720138888889
 20
245.0768388888889
 30
0.0
 41
1.0
 10
78.91991666666667
 20
245.0768388888889
 30
0.0
 41
1.0
 10
78.47224166666666
 20
245.5245138888889
 30
0.0
 41
1.0
 10
78.47224166666666
 20
246.0766111111111
 30
0.0
 41
1.0
  0
SPLINE
  5
408
330
1F
100
AcDbEntity
  8
0
 62
     7
100
AcDbSpline
210
0.0
220
0.0
230
1.0
 70
    12
 71
     3
 72
     8
 73
     4
 74
     0
 42
0.000000001
 43
0.0
 40
0.0
 40
0.0
 40
0.0
 40
0.0
 40
1.0
 40
1.0
 40
1.0
 40
1.0
 10
78.47224166666666
 20
246.0766111111111
 30
0.0
 41
1.0
 10
78.47224166666666
 20
246.6287083333333
 30
0.0
 41
1.0
 10
78.91991666666667
 20
247.0763833333333
 30
0.0
 41
1.0
 10
79.4720138888889
 20
247.0763833333333
 30
0.0
 41
1.0
  0
SPLINE
  5
409
330
1F
100
AcDbEntity
  8
0
 62
     7
100
AcDbSpline
210
0.0
220
0.0
230
1.0
 70
    12
 71
     3
 72
     8
 73
     4
 74
     0
 42
0.000000001
 43
0.0
 40
0.0
 40
0.0
 40
0.0
 40
0.0
 40
1.0
 40
1.0
 40
1.0
 40
1.0
 10
79.4720138888889
 20
247.0763833333333
 30
0.0
 41
1.0
 10
80.02411111111111
 20
247.0763833333333
 30
0.0
 41
1.0
 10
80.4717861111111
 20
246.6287083333333
 30
0.0
 41
1.0
 10
80.4717861111111
 20
246.0766111111111
 30
0.0
 41
1.0
  0
SPLINE
  5
40A
330
1F
100
AcDbEntity
  8
0
 62
     7
100
AcDbSpline
210
0.0
220
0.0
230
1.0
 70
    12
 71
     3
 72
     8
 73
     4
 74
     0
 42
0.000000001
 43
0.0
 40
0.0
 40
0.0
 40
0.0
 40
0.0
 40
1.0
 40
1.0
 40
1.0
 40
1.0
 10
80.4717861111111
 20
246.0766111111111
 30
0.0
 41
1.0
 10
80.4717861111111
 20
245.5245138888889
 30
0.0
 41
1.0
 10
80.02411111111111
 20
245.0768388888889
 30
0.0
 41
1.0
 10
79.4720138888889
 20
245.0768388888889
 30
0.0
 41
1.0
  0
SPLINE
  5
40B
330
1F
100
AcDbEntity
  8
0
 62
     7
100
AcDbSpline
210
0.0
220
0.0
230
1.0
 70
    12
 71
     3
 72
     8
 73
     4
 74
     0
 42
0.000000001
 43
0.0
 40
0.0
 40
0.0
 40
0.0
 40
0.0
 40
1.0
 40
1.0
 40
1.0
 40
1.0
 10
54.48194166666666
 20
245.0778972222222
 30
0.0
 41
1.0
 10
53.92984444444444
 20
245.0778972222222
 30
0.0
 41
1.0
 10
53.48216944444444
 20
245.5255722222222
 30
0.0
 41
1.0
 10
53.48216944444444
 20
246.0776694444444
 30
0.0
 41
1.0
  0
SPLINE
  5
40C
330
1F
100
AcDbEntity
  8
0
 62
     7
100
AcDbSpline
210
0.0
220
0.0
230
1.0
 70
    12
 71
     3
 72
     8
 73
     4
 74
     0
 42
0.000000001
 43
0.0
 40
0.0
 40
0.0
 40
0.0
 40
0.0
 40
1.0
 40
1.0
 40
1.0
 40
1.0
 10
53.48216944444444
 20
246.0776694444444
 30
0.0
 41
1.0
 10
53.48216944444444
 20
246.6297666666667
 30
0.0
 41
1.0
 10
53.92984444444444
 20
247.0774416666667
 30
0.0
 41
1.0
 10
54.48194166666666
 20
247.0774416666667
 30
0.0
 41
1.0
  0
SPLINE
  5
40D
330
1F
100
AcDbEntity
  8
0
 62
     7
100
AcDbSpline
210
0.0
220
0.0
230
1.0
 70
    12
 71
     3
 72
     8
 73
     4
 74
     0
 42
0.000000001
 43
0.0
 40
0.0
 40
0.0
 40
0.0
 40
0.0
 40
1.0
 40
1.0
 40
1.0
 40
1.0
 10
54.48194166666666
 20
247.0774416666667
 30
0.0
 41
1.0
 10
55.03403888888889
 20
247.0774416666667
 30
0.0
 41
1.0
 10
55.48171388888889
 20
246.6297666666667
 30
0.0
 41
1.0
 10
55.48171388888889
 20
246.0776694444444
 30
0.0
 41
1.0
  0
SPLINE
  5
40E
330
1F
100
AcDbEntity
  8
0
 62
     7
100
AcDbSpline
210
0.0
220
0.0
230
1.0
 70
    12
 71
     3
 72
     8
 73
     4
 74
     0
 42
0.000000001
 43
0.0
 40
0.0
 40
0.0
 40
0.0
 40
0.0
 40
1.0
 40
1.0
 40
1.0
 40
1.0
 10
55.48171388888889
 20
246.0776694444444
 30
0.0
 41
1.0
 10
55.48171388888889
 20
245.5255722222222
 30
0.0
 41
1.0
 10
55.03403888888889
 20
245.0778972222222
 30
0.0
 41
1.0
 10
54.48194166666666
 20
245.0778972222222
 30
0.0
 41
1.0
  0
POLYLINE
  5
40F
330
1F
100
AcDbEntity
  8
0
 62
     7
100
AcDb2dPolyline
 66
     1
 10
0.0
 20
0.0
 30
0.0
  0
VERTEX
  5
410
330
40F
100
AcDbEntity
  8
0
100
AcDbVertex
100
AcDb2dVertex
 10
67.13361111111111
 20
244.0760083333333
 30
0.0
  0
VERTEX
  5
411
330
40F
100
AcDbEntity
  8
0
100
AcDbVertex
100
AcDb2dVertex
 10
66.81752222222222
 20
244.0760083333333
 30
0.0
  0
SEQEND
  5
412
330
40F
100
AcDbEntity
  8
0
 62
     7
  0
SPLINE
  5
413
330
1F
100
AcDbEntity
  8
0
 62
     7
100
AcDbSpline
210
0.0
220
0.0
230
1.0
 70
    12
 71
     3
 72
     8
 73
     4
 74
     0
 42
0.000000001
 43
0.0
 40
0.0
 40
0.0
 40
0.0
 40
0.0
 40
1.0
 40
1.0
 40
1.0
 40
1.0
 10
66.81752222222222
 20
244.0760083333333
 30
0.0
 41
1.0
 10
66.38219444444445
 20
244.1102277777778
 30
0.0
 41
1.0
 10
65.98637777777778
 20
244.2830888888889
 30
0.0
 41
1.0
 10
65.67416944444444
 20
244.5508472222222
 30
0.0
 41
1.0
  0
POLYLINE
  5
414
330
1F
100
AcDbEntity
  8
0
 62
     7
100
AcDb2dPolyline
 66
     1
 10
0.0
 20
0.0
 30
0.0
  0
VERTEX
  5
415
330
414
100
AcDbEntity
  8
0
100
AcDbVertex
100
AcDb2dVertex
 10
65.67416944444444
 20
244.5508472222222
 30
0.0
  0
VERTEX
  5
416
330
414
100
AcDbEntity
  8
0
100
AcDbVertex
100
AcDb2dVertex
 10
65.67416944444444
 20
247.5886166666666
 30
0.0
  0
SEQEND
  5
417
330
414
100
AcDbEntity
  8
0
 62
     7
  0
SPLINE
  5
418
330
1F
100
AcDbEntity
  8
0
 62
     7
100
AcDbSpline
210
0.0
220
0.0
230
1.0
 70
    12
 71
     3
 72
     8
 73
     4
 74
     0
 42
0.000000001
 43
0.0
 40
0.0
 40
0.0
 40
0.0
 40
0.0
 40
1.0
 40
1.0
 40
1.0
 40
1.0
 10
65.67416944444444
 20
247.5886166666666
 30
0.0
 41
1.0
 10
66.02377222222222
 20
247.8884777777778
 30
0.0
 41
1.0
 10
66.47850277777778
 20
248.0694527777777
 30
0.0
 41
1.0
 10
66.97556666666667
 20
248.0694527777777
 30
0.0
 41
1.0
  0
SPLINE
  5
419
330
1F
100
AcDbEntity
  8
0
 62
     7
100
AcDbSpline
210
0.0
220
0.0
230
1.0
 70
    12
 71
     3
 72
     8
 73
     4
 74
     0
 42
0.000000001
 43
0.0
 40
0.0
 40
0.0
 40
0.0
 40
0.0
 40
1.0
 40
1.0
 40
1.0
 40
1.0
 10
66.97556666666667
 20
248.0694527777777
 30
0.0
 41
1.0
 10
68.05577222222222
 20
248.0694527777777
 30
0.0
 41
1.0
 10
68.93595277777777
 20
247.2129083333333
 30
0.0
 41
1.0
 10
68.9737
 20
246.141875
 30
0.0
 41
1.0
  0
POLYLINE
  5
41A
330
1F
100
AcDbEntity
  8
0
 62
     7
100
AcDb2dPolyline
 66
     1
 10
0.0
 20
0.0
 30
0.0
  0
VERTEX
  5
41B
330
41A
100
AcDbEntity
  8
0
100
AcDbVertex
100
AcDb2dVertex
 10
68.9737
 20
246.141875
 30
0.0
  0
VERTEX
  5
41C
330
41A
100
AcDbEntity
  8
0
100
AcDbVertex
100
AcDb2dVertex
 10
68.9737
 20
245.9979416666667
 30
0.0
  0
SEQEND
  5
41D
330
41A
100
AcDbEntity
  8
0
 62
     7
  0
SPLINE
  5
41E
330
1F
100
AcDbEntity
  8
0
 62
     7
100
AcDbSpline
210
0.0
220
0.0
230
1.0
 70
    12
 71
     3
 72
     8
 73
     4
 74
     0
 42
0.000000001
 43
0.0
 40
0.0
 40
0.0
 40
0.0
 40
0.0
 40
1.0
 40
1.0
 40
1.0
 40
1.0
 10
68.9737
 20
245.9979416666667
 30
0.0
 41
1.0
 10
68.93771666666666
 20
244.979825
 30
0.0
 41
1.0
 10
68.14008611111112
 20
244.1546777777778
 30
0.0
 41
1.0
 10
67.13361111111111
 20
244.0760083333333
 30
0.0
 41
1.0
  0
ENDSEC
  0
SECTION
  2
OBJECTS
  0
DICTIONARY
  5
C
330
0
100
AcDbDictionary
281
     1
  3
ACAD_GROUP
350
D
  3
ACAD_LAYOUT
350
1A
  3
ACAD_MLEADERSTYLE
350
420
  3
ACAD_MLINESTYLE
350
17
  3
ACAD_PLOTSETTINGS
350
19
  3
ACAD_PLOTSTYLENAME
350
E
  3
ACAD_TABLESTYLE
350
41F
  3
ACAD_VISUALSTYLE
350
2A
  0
DICTIONARY
  5
D
102
{ACAD_REACTORS
330
C
102
}
330
C
100
AcDbDictionary
281
     1
  0
DICTIONARY
  5
1A
102
{ACAD_REACTORS
330
C
102
}
330
C
100
AcDbDictionary
281
     1
  3
Layout1
350
1E
  3
Layout2
350
26
  3
Model
350
22
  0
DICTIONARY
  5
420
102
{ACAD_REACTORS
330
C
102
}
330
C
100
AcDbDictionary
281
     1
  0
DICTIONARY
  5
17
102
{ACAD_REACTORS
330
C
102
}
330
C
100
AcDbDictionary
281
     1
  3
Standard
350
18
  0
DICTIONARY
  5
19
102
{ACAD_REACTORS
330
C
102
}
330
C
100
AcDbDictionary
281
     1
  0
ACDBDICTIONARYWDFLT
  5
E
102
{ACAD_REACTORS
330
C
102
}
330
C
100
AcDbDictionary
281
     1
  3
Normal
350
F
100
AcDbDictionaryWithDefault
340
F
  0
DICTIONARY
  5
41F
102
{ACAD_REACTORS
330
C
102
}
330
C
100
AcDbDictionary
281
     1
  0
DICTIONARY
  5
2A
102
{ACAD_REACTORS
330
C
102
}
330
C
100
AcDbDictionary
281
     1
  3
2dWireframe
350
2F
  3
3D Hidden
350
31
  3
3dWireframe
350
30
  3
Basic
350
32
  3
Brighten
350
36
  3
ColorChange
350
3A
  3
Conceptual
350
34
  3
Dim
350
35
  3
Facepattern
350
39
  3
Flat
350
2B
  3
FlatWithEdges
350
2C
  3
Gouraud
350
2D
  3
GouraudWithEdges
350
2E
  3
Linepattern
350
38
  3
Realistic
350
33
  3
Thicken
350
37
  0
LAYOUT
  5
1E
102
{ACAD_REACTORS
330
1A
102
}
330
1A
100
AcDbPlotSettings
  1

  2
none_device
  4

  6

 40
0.0
 41
0.0
 42
0.0
 43
0.0
 44
0.0
 45
0.0
 46
0.0
 47
0.0
 48
0.0
 49
0.0
140
0.0
141
0.0
142
1.0
143
1.0
 70
   688
 72
     0
 73
     0
 74
     5
  7

 75
    16
 76
     0
 77
     2
 78
   300
147
1.0
148
0.0
149
0.0
100
AcDbLayout
  1
Layout1
 70
     1
 71
     1
 10
0.0
 20
0.0
 11
420.0
 21
297.0
 12
0.0
 22
0.0
 32
0.0
 14
1.000000000000000E+20
 24
1.000000000000000E+20
 34
1.000000000000000E+20
 15
-1.000000000000000E+20
 25
-1.000000000000000E+20
 35
-1.000000000000000E+20
146
0.0
 13
0.0
 23
0.0
 33
0.0
 16
1.0
 26
0.0
 36
0.0
 17
0.0
 27
1.0
 37
0.0
 76
     0
330
1B
  0
LAYOUT
  5
26
102
{ACAD_REACTORS
330
1A
102
}
330
1A
100
AcDbPlotSettings
  1

  2
none_device
  4

  6

 40
0.0
 41
0.0
 42
0.0
 43
0.0
 44
0.0
 45
0.0
 46
0.0
 47
0.0
 48
0.0
 49
0.0
140
0.0
141
0.0
142
1.0
143
1.0
 70
   688
 72
     0
 73
     0
 74
     5
  7

 75
    16
 76
     0
 77
     2
 78
   300
147
1.0
148
0.0
149
0.0
100
AcDbLayout
  1
Layout2
 70
     1
 71
     2
 10
0.0
 20
0.0
 11
0.0
 21
0.0
 12
0.0
 22
0.0
 32
0.0
 14
0.0
 24
0.0
 34
0.0
 15
0.0
 25
0.0
 35
0.0
146
0.0
 13
0.0
 23
0.0
 33
0.0
 16
1.0
 26
0.0
 36
0.0
 17
0.0
 27
1.0
 37
0.0
 76
     0
330
23
  0
LAYOUT
  5
22
102
{ACAD_REACTORS
330
1A
102
}
330
1A
100
AcDbPlotSettings
  1

  2
none_device
  4

  6

 40
0.0
 41
0.0
 42
0.0
 43
0.0
 44
0.0
 45
0.0
 46
0.0
 47
0.0
 48
0.0
 49
0.0
140
0.0
141
0.0
142
1.0
143
1.0
 70
  1712
 72
     0
 73
     0
 74
     0
  7

 75
     0
 76
     0
 77
     2
 78
   300
147
1.0
148
0.0
149
0.0
100
AcDbLayout
  1
Model
 70
     1
 71
     0
 10
0.0
 20
0.0
 11
420.0
 21
297.0
 12
0.0
 22
0.0
 32
0.0
 14
1.000000000000000E+20
 24
1.000000000000000E+20
 34
1.000000000000000E+20
 15
-1.000000000000000E+20
 25
-1.000000000000000E+20
 35
-1.000000000000000E+20
146
0.0
 13
0.0
 23
0.0
 33
0.0
 16
1.0
 26
0.0
 36
0.0
 17
0.0
 27
1.0
 37
0.0
 76
     0
330
1F
331
29
  0
MLINESTYLE
  5
18
102
{ACAD_REACTORS
330
17
102
}
330
17
100
AcDbMlineStyle
  2
Standard
 70
     0
  3

 62
   256
 51
90.0
 52
90.0
 71
     2
 49
0.5
 62
   256
  6
BYLAYER
 49
-0.5
 62
   256
  6
BYLAYER
  0
ACDBPLACEHOLDER
  5
F
102
{ACAD_REACTORS
330
E
102
}
330
E
  0
VISUALSTYLE
  5
2F
102
{ACAD_REACTORS
330
2A
102
}
330
2A
100
AcDbVisualStyle
  2
2dWireframe
 70
     4
 71
     0
 72
     2
 73
     0
 90
        0
 40
-0.6
 41
-30.0
 62
     5
 63
     7
421
 16777215
 74
     1
 91
        4
 64
     7
 65
   257
 75
     1
175
     1
 42
1.0
 92
        0
 66
   257
 43
1.0
 76
     1
 77
     6
 78
     2
 67
     7
 79
     5
170
     0
171
     0
290
     0
174
     0
 93
        1
 44
0.0
173
     0
291
     0
 45
0.0
1001
ACAD
1000
AcDbSavedByObjectVersion
1070
     0
  0
VISUALSTYLE
  5
31
102
{ACAD_REACTORS
330
2A
102
}
330
2A
100
AcDbVisualStyle
  2
3D Hidden
 70
     6
 71
     1
 72
     2
 73
     2
 90
        0
 40
-0.6
 41
-30.0
 62
     5
 63
     7
421
 16777215
 74
     2
 91
        2
 64
     7
 65
   257
 75
     2
175
     1
 42
40.0
 92
        0
 66
   257
 43
1.0
 76
     1
 77
     6
 78
     2
 67
     7
 79
     3
170
     0
171
     0
290
     0
174
     0
 93
        1
 44
0.0
173
     0
291
     0
 45
0.0
1001
ACAD
1000
AcDbSavedByObjectVersion
1070
     0
  0
VISUALSTYLE
  5
30
102
{ACAD_REACTORS
330
2A
102
}
330
2A
100
AcDbVisualStyle
  2
3dWireframe
 70
     5
 71
     0
 72
     2
 73
     0
 90
        0
 40
-0.6
 41
-30.0
 62
     5
 63
     7
421
 16777215
 74
     1
 91
        4
 64
     7
 65
   257
 75
     1
175
     1
 42
1.0
 92
        0
 66
   257
 43
1.0
 76
     1
 77
     6
 78
     2
 67
     7
 79
     5
170
     0
171
     0
290
     0
174
     0
 93
        1
 44
0.0
173
     0
291
     0
 45
0.0
1001
ACAD
1000
AcDbSavedByObjectVersion
1070
     0
  0
VISUALSTYLE
  5
32
102
{ACAD_REACTORS
330
2A
102
}
330
2A
100
AcDbVisualStyle
  2
Basic
 70
     7
 71
     1
 72
     0
 73
     1
 90
        0
 40
-0.6
 41
-30.0
 62
     5
 63
     7
421
 16777215
 74
     0
 91
        4
 64
     7
 65
   257
 75
     1
175
     1
 42
1.0
 92
        8
 66
     7
 43
1.0
 76
     1
 77
     6
 78
     2
 67
     7
 79
     5
170
     0
171
     0
290
     0
174
     0
 93
        1
 44
0.0
173
     0
291
     1
 45
0.0
1001
ACAD
1000
AcDbSavedByObjectVersion
1070
     0
  0
VISUALSTYLE
  5
36
102
{ACAD_REACTORS
330
2A
102
}
330
2A
100
AcDbVisualStyle
  2
Brighten
 70
    12
 71
     2
 72
     2
 73
     0
 90
        0
 40
-0.6
 41
-30.0
 62
     5
 63
     7
421
 16777215
 74
     1
 91
        4
 64
     7
 65
   257
 75
     1
175
     1
 42
1.0
 92
        8
 66
     7
 43
1.0
 76
     1
 77
     6
 78
     2
 67
     7
 79
     5
170
     0
171
     0
290
     0
174
     0
 93
        1
 44
50.0
173
     0
291
     1
 45
0.0
1001
ACAD
1000
AcDbSavedByObjectVersion
1070
     0
  0
VISUALSTYLE
  5
3A
102
{ACAD_REACTORS
330
2A
102
}
330
2A
100
AcDbVisualStyle
  2
ColorChange
 70
    16
 71
     2
 72
     2
 73
     3
 90
        0
 40
-0.6
 41
-30.0
 62
     5
 63
     8
421
  8421504
 74
     1
 91
        4
 64
     7
 65
   257
 75
     1
175
     1
 42
1.0
 92
        8
 66
     8
424
  8421504
 43
1.0
 76
     1
 77
     6
 78
     2
 67
     7
 79
     5
170
     0
171
     0
290
     0
174
     0
 93
        1
 44
0.0
173
     0
291
     1
 45
0.0
1001
ACAD
1000
AcDbSavedByObjectVersion
1070
     0
  0
VISUALSTYLE
  5
34
102
{ACAD_REACTORS
330
2A
102
}
330
2A
100
AcDbVisualStyle
  2
Conceptual
 70
     9
 71
     3
 72
     2
 73
     0
 90
        0
 40
-0.6
 41
-30.0
 62
     5
 63
     7
421
 16777215
 74
     2
 91
        2
 64
     7
 65
   257
 75
     1
175
     1
 42
40.0
 92
        8
 66
     7
 43
1.0
 76
     1
 77
     6
 78
     2
 67
     7
 79
     3
170
     0
171
     0
290
     0
174
     0
 93
        1
 44
0.0
173
     0
291
     0
 45
0.0
1001
ACAD
1000
AcDbSavedByObjectVersion
1070
     0
  0
VISUALSTYLE
  5
35
102
{ACAD_REACTORS
330
2A
102
}
330
2A
100
AcDbVisualStyle
  2
Dim
 70
    11
 71
     2
 72
     2
 73
     0
 90
        0
 40
-0.6
 41
-30.0
 62
     5
 63
     7
421
 16777215
 74
     1
 91
        4
 64
     7
 65
   257
 75
     1
175
     1
 42
1.0
 92
        8
 66
     7
 43
1.0
 76
     1
 77
     6
 78
     2
 67
     7
 79
     5
170
     0
171
     0
290
     0
174
     0
 93
        1
 44
-50.0
173
     0
291
     1
 45
0.0
1001
ACAD
1000
AcDbSavedByObjectVersion
1070
     0
  0
VISUALSTYLE
  5
39
102
{ACAD_REACTORS
330
2A
102
}
330
2A
100
AcDbVisualStyle
  2
Facepattern
 70
    15
 71
     2
 72
     2
 73
     0
 90
        0
 40
-0.6
 41
-30.0
 62
     5
 63
     7
421
 16777215
 74
     1
 91
        4
 64
     7
 65
   257
 75
     1
175
     1
 42
1.0
 92
        8
 66
     7
 43
1.0
 76
     1
 77
     6
 78
     2
 67
     7
 79
     5
170
     0
171
     0
290
     0
174
     0
 93
        1
 44
0.0
173
     0
291
     1
 45
0.0
1001
ACAD
1000
AcDbSavedByObjectVersion
1070
     0
  0
VISUALSTYLE
  5
2B
102
{ACAD_REACTORS
330
2A
102
}
330
2A
100
AcDbVisualStyle
  2
Flat
 70
     0
 71
     2
 72
     1
 73
     1
 90
        2
 40
-0.6
 41
30.0
 62
     5
 63
     7
421
 16777215
 74
     0
 91
        4
 64
     7
 65
   257
 75
     1
175
     1
 42
1.0
 92
        8
 66
     7
 43
1.0
 76
     1
 77
     6
 78
     2
 67
     7
 79
     5
170
     0
171
     0
290
     0
174
     0
 93
       13
 44
0.0
173
     0
291
     1
 45
0.0
1001
ACAD
1000
AcDbSavedByObjectVersion
1070
     0
  0
VISUALSTYLE
  5
2C
102
{ACAD_REACTORS
330
2A
102
}
330
2A
100
AcDbVisualStyle
  2
FlatWithEdges
 70
     1
 71
     2
 72
     1
 73
     1
 90
        2
 40
-0.6
 41
30.0
 62
     5
 63
     7
421
 16777215
 74
     1
 91
        4
 64
     7
 65
   257
 75
     1
175
     1
 42
1.0
 92
        0
 66
   257
 43
1.0
 76
     1
 77
     6
 78
     2
 67
     7
 79
     5
170
     0
171
     0
290
     0
174
     0
 93
       13
 44
0.0
173
     0
291
     1
 45
0.0
1001
ACAD
1000
AcDbSavedByObjectVersion
1070
     0
  0
VISUALSTYLE
  5
2D
102
{ACAD_REACTORS
330
2A
102
}
330
2A
100
AcDbVisualStyle
  2
Gouraud
 70
     2
 71
     2
 72
     2
 73
     1
 90
        2
 40
-0.6
 41
30.0
 62
     5
 63
     7
421
 16777215
 74
     0
 91
        4
 64
     7
 65
   257
 75
     1
175
     1
 42
1.0
 92
        0
 66
     7
 43
1.0
 76
     1
 77
     6
 78
     2
 67
     7
 79
     5
170
     0
171
     0
290
     0
174
     0
 93
       13
 44
0.0
173
     0
291
     1
 45
0.0
1001
ACAD
1000
AcDbSavedByObjectVersion
1070
     0
  0
VISUALSTYLE
  5
2E
102
{ACAD_REACTORS
330
2A
102
}
330
2A
100
AcDbVisualStyle
  2
GouraudWithEdges
 70
     3
 71
     2
 72
     2
 73
     1
 90
        2
 40
-0.6
 41
30.0
 62
     5
 63
     7
421
 16777215
 74
     1
 91
        4
 64
     7
 65
   257
 75
     1
175
     1
 42
1.0
 92
        0
 66
   257
 43
1.0
 76
     1
 77
     6
 78
     2
 67
     7
 79
     5
170
     0
171
     0
290
     0
174
     0
 93
       13
 44
0.0
173
     0
291
     1
 45
0.0
1001
ACAD
1000
AcDbSavedByObjectVersion
1070
     0
  0
VISUALSTYLE
  5
38
102
{ACAD_REACTORS
330
2A
102
}
330
2A
100
AcDbVisualStyle
  2
Linepattern
 70
    14
 71
     2
 72
     2
 73
     0
 90
        0
 40
-0.6
 41
-30.0
 62
     5
 63
     7
421
 16777215
 74
     1
 91
        4
 64
     7
 65
   257
 75
     7
175
     7
 42
1.0
 92
        8
 66
     7
 43
1.0
 76
     1
 77
     6
 78
     2
 67
     7
 79
     5
170
     0
171
     0
290
     0
174
     0
 93
        1
 44
0.0
173
     0
291
     1
 45
0.0
1001
ACAD
1000
AcDbSavedByObjectVersion
1070
     0
  0
VISUALSTYLE
  5
33
102
{ACAD_REACTORS
330
2A
102
}
330
2A
100
AcDbVisualStyle
  2
Realistic
 70
     8
 71
     2
 72
     2
 73
     0
 90
        0
 40
-0.6
 41
-30.0
 62
     5
 63
     7
421
 16777215
 74
     1
 91
        0
 64
     7
 65
   257
 75
     1
175
     1
 42
1.0
 92
        8
 66
     8
424
  7895160
 43
1.0
 76
     1
 77
     6
 78
     2
 67
     7
 79
     5
170
     0
171
     0
290
     0
174
     0
 93
       13
 44
0.0
173
     0
291
     0
 45
0.0
1001
ACAD
1000
AcDbSavedByObjectVersion
1070
     0
  0
VISUALSTYLE
  5
37
102
{ACAD_REACTORS
330
2A
102
}
330
2A
100
AcDbVisualStyle
  2
Thicken
 70
    13
 71
     2
 72
     2
 73
     0
 90
        0
 40
-0.6
 41
-30.0
 62
     5
 63
     7
421
 16777215
 74
     1
 91
        4
 64
     7
 65
   257
 75
     1
175
     1
 42
1.0
 92
       12
 66
     7
 43
1.0
 76
     1
 77
     6
 78
     2
 67
     7
 79
     5
170
     0
171
     0
290
     0
174
     0
 93
        1
 44
0.0
173
     0
291
     1
 45
0.0
1001
ACAD
1000
AcDbSavedByObjectVersion
1070
     0
  0
ENDSEC
  0
EOF
