  0
SECTION
  2
HEADER
  9
$ACADVER
  1
AC1014
  9
$ACADMAINTVER
 70
         0
  9
$DWGCODEPAGE
  3
ANSI_1252
  9
$INSBASE
 10
0.0
 20
0.0
 30
0.0
  9
$EXTMIN
 10
0.0
 20
0.0
 30
0.0
  9
$EXTMAX
 10
47.999904
 20
23.999952
 30
0.0
  9
$LIMMIN
 10
0.0
 20
0.0
  9
$LIMMAX
 10
47.999904
 20
23.999952
  9
$ORTHOMODE
 70
         0
  9
$REGENMODE
 70
         1
  9
$FILLMODE
 70
         1
  9
$QTEXTMODE
 70
         0
  9
$MIRRTEXT
 70
         1
  9
$DRAGMODE
 70
         2
  9
$LTSCALE
 40
1.0
  9
$OSMODE
 70
         0
  9
$ATTMODE
 70
         1
  9
$TEXTSIZE
 40
0.2
  9
$TRACEWID
 40
0.05
  9
$TEXTSTYLE
  7
Standard
  9
$CLAYER
  8
0
  9
$CELTYPE
  6
CONTINUOUS
  9
$CECOLOR
 62
       256
  9
$CELTSCALE
 40
1.0
  9
$DELOBJ
 70
         1
  9
$DISPSILH
 70
         0
  9
$DIMSCALE
 40
1.0
  9
$DIMASZ
 40
0.18
  9
$DIMEXO
 40
0.0625
  9
$DIMDLI
 40
0.38
  9
$DIMRND
 40
0.0
  9
$DIMDLE
 40
0.0
  9
$DIMEXE
 40
0.18
  9
$DIMTP
 40
0.0
  9
$DIMTM
 40
0.0
  9
$DIMTXT
 40
0.18
  9
$DIMCEN
 40
0.09
  9
$DIMTSZ
 40
0.0
  9
$DIMTOL
 70
         0
  9
$DIMLIM
 70
         0
  9
$DIMTIH
 70
         1
  9
$DIMTOH
 70
         1
  9
$DIMSE1
 70
         0
  9
$DIMSE2
 70
         0
  9
$DIMTAD
 70
         0
  9
$DIMZIN
 70
         0
  9
$DIMBLK
  1

  9
$DIMASO
 70
         1
  9
$DIMSHO
 70
         1
  9
$DIMPOST
  1

  9
$DIMAPOST
  1

  9
$DIMALT
 70
         0
  9
$DIMALTD
 70
         2
  9
$DIMALTF
 40
25.4
  9
$DIMLFAC
 40
1.0
  9
$DIMTOFL
 70
         0
  9
$DIMTVP
 40
0.0
  9
$DIMTIX
 70
         0
  9
$DIMSOXD
 70
         0
  9
$DIMSAH
 70
         0
  9
$DIMBLK1
  1

  9
$DIMBLK2
  1

  9
$DIMSTYLE
  2
Standard
  9
$DIMCLRD
 70
         0
  9
$DIMCLRE
 70
         0
  9
$DIMCLRT
 70
         0
  9
$DIMTFAC
 40
1.0
  9
$DIMGAP
 40
0.09
  9
$DIMJUST
 70
         0
  9
$DIMSD1
 70
         0
  9
$DIMSD2
 70
         0
  9
$DIMTOLJ
 70
         1
  9
$DIMTZIN
 70
         0
  9
$DIMALTZ
 70
         0
  9
$DIMALTTZ
 70
         0
  9
$DIMFIT
 70
         3
  9
$DIMUPT
 70
         0
  9
$DIMUNIT
 70
         2
  9
$DIMDEC
 70
         4
  9
$DIMTDEC
 70
         4
  9
$DIMALTU
 70
         2
  9
$DIMALTTD
 70
         2
  9
$DIMTXSTY
  7
Standard
  9
$DIMAUNIT
 70
         0
  9
$LUNITS
 70
         2
  9
$LUPREC
 70
         4
  9
$SKETCHINC
 40
0.1
  9
$FILLETRAD
 40
0.0
  9
$AUNITS
 70
         0
  9
$AUPREC
 70
         0
  9
$MENU
  1
acad
  9
$ELEVATION
 40
0.0
  9
$PELEVATION
 40
0.0
  9
$THICKNESS
 40
0.0
  9
$LIMCHECK
 70
         0
  9
$BLIPMODE
 70
         1
  9
$CHAMFERA
 40
0.0
  9
$CHAMFERB
 40
0.0
  9
$CHAMFERC
 40
0.0
  9
$CHAMFERD
 40
0.0
  9
$SKPOLY
 70
         0
  9
$TDCREATE
 40
0.000000000
  9
$TDUPDATE
 40
0.000000000
  9
$TDINDWG
 40
0.0000000000
  9
$TDUSRTIMER
 40
0.0000000000
  9
$USRTIMER
 70
         1
  9
$ANGBASE
 50
0.0
  9
$ANGDIR
 70
         0
  9
$PDMODE
 70
         0
  9
$PDSIZE
 40
0.0
  9
$PLINEWID
 40
0.0
  9
$COORDS
 70
         0
  9
$SPLFRAME
 70
         0
  9
$SPLINETYPE
 70
         6
  9
$SPLINESEGS
 70
         8
  9
$ATTDIA
 70
         0
  9
$ATTREQ
 70
         1
  9
$HANDLING
 70
         1
  9
$HANDSEED
  5
3A1
  9
$SURFTAB1
 70
         6
  9
$SURFTAB2
 70
         6
  9
$SURFTYPE
 70
         6
  9
$SURFU
 70
         6
  9
$SURFV
 70
         6
  9
$UCSNAME
  2

  9
$UCSORG
 10
0.0
 20
0.0
 30
0.0
  9
$UCSXDIR
 10
1.0
 20
0.0
 30
0.0
  9
$UCSYDIR
 10
0.0
 20
1.0
 30
0.0
  9
$PUCSNAME
  2

  9
$PUCSORG
 10
0.0
 20
0.0
 30
0.0
  9
$PUCSXDIR
 10
1.0
 20
0.0
 30
0.0
  9
$PUCSYDIR
 10
0.0
 20
1.0
 30
0.0
  9
$USERI1
 70
         0
  9
$USERI2
 70
         0
  9
$USERI3
 70
         0
  9
$USERI4
 70
         0
  9
$USERI5
 70
         0
  9
$USERR1
 40
0.0
  9
$USERR2
 40
0.0
  9
$USERR3
 40
0.0
  9
$USERR4
 40
0.0
  9
$USERR5
 40
0.0
  9
$WORLDVIEW
 70
         1
  9
$SHADEDGE
 70
         3
  9
$SHADEDIF
 70
        70
  9
$TILEMODE
 70
         1
  9
$MAXACTVP
 70
        16
  9
$PINSBASE
 10
0.0
 20
0.0
 30
0.0
  9
$PLIMCHECK
 70
         0
  9
$PEXTMIN
 10
1.0000000000E+20
 20
1.0000000000E+20
 30
1.0000000000E+20
  9
$PEXTMAX
 10
-1.0000000000E+20
 20
-1.0000000000E+20
 30
-1.0000000000E+20
  9
$PLIMMIN
 10
0.0
 20
0.0
  9
$PLIMMAX
 10
12.0
 20
9.0
  9
$UNITMODE
 70
         0
  9
$VISRETAIN
 70
         0
  9
$PLINEGEN
 70
         1
  9
$PSLTSCALE
 70
         0
  9
$TREEDEPTH
 70
      3020
  9
$PICKSTYLE
 70
         1
  9
$CMLSTYLE
  2
Standard
  9
$CMLJUST
 70
         0
  9
$CMLSCALE
 40
1.0
  9
$PROXYGRAPHICS
 70
         0
  9
$MEASUREMENT
 70
         0
  0
ENDSEC
  0
SECTION
  2
CLASSES
  0
CLASS
  1
LWPOLYLINE
  2
AcDbPolyline
  3
"AutoCAD"
 90
        0
280
         0
281
         1
  0
CLASS
  1
IMAGE
  2
AcDbRasterImage
  3
ISM
 90
      127
280
         0
281
         1
  0
CLASS
  1
OLE2FRAME
  2
AcDbOle2Frame
  3
""
 90
        0
280
         0
281
         1
  0
CLASS
  1
HATCH
  2
AcDbHatch
  3
"ACAD_SEDONA"
 90
        0
280
         0
281
         1
  0
CLASS
  1
DICTIONARYVAR
  2
AcDbDictionaryVar
  3
"AutoCAD"
 90
        0
280
         0
281
         0
  0
CLASS
  1
RASTERVARIABLES
  2
AcDbRasterVariables
  3
ISM
 90
        0
280
         0
281
         0
  0
CLASS
  1
IMAGEDEF
  2
AcDbRasterImageDef
  3
ISM
 90
        0
280
         0
281
         0
  0
CLASS
  1
IMAGEDEF_REACTOR
  2
AcDbRasterImageDefReactor
  3
ISM
 90
        1
280
         0
281
         0
  0
CLASS
  1
IDBUFFER
  2
AcDbIdBuffer
  3
"Acad"
 90
        0
280
         0
281
         0
  0
CLASS
  1
SPATIAL_FILTER
  2
AcDbSpatialFilter
  3
"Acad"
 90
        0
280
         0
281
         0
  0
CLASS
  1
XRECORD
  2
AcDbXrecord
  3
"<Built In>"
 90
        0
280
         0
281
         0
  0
CLASS
  1
SORTENTSTABLE
  2
AcDbSortentsTable
  3
"AutoCAD"
 90
        0
280
         0
281
         0
  0
CLASS
  1
LAYER_INDEX
  2
AcDbLayerIndex
  3
"Acad"
 90
        0
280
         0
281
         0
  0
CLASS
  1
SPATIAL_INDEX
  2
AcDbSpatialIndex
  3
"Acad"
 90
        0
280
         0
281
         0
  0
CLASS
  1
OBJECT_PTR
  2
CAseDLPNTableRecord
  3
"ASE-LPNTableRecord"
 90
        1
280
         0
281
         0
  0
CLASS
  1
LAYOUT
  2
AcDbLayout
  3
"AutoCAD 2000"
 90
        1
280
         0
281
         0
  0
CLASS
  1
PLOTSETTINGS
  2
AcDbPlotSettings
  3
"AutoCAD 2000"
 90
        1
280
         0
281
         0
  0
CLASS
  1
ACDBDICTIONARYWDFLT
  2
AcDbDictionaryWithDefault
  3
"AutoCAD 2000"
 90
        1
280
         0
281
         0
  0
CLASS
  1
ACDBPLACEHOLDER
  2
AcDbPlaceHolder
  3
"AutoCAD 2000"
 90
        1
280
         0
281
         0
  0
CLASS
  1
VBA_PROJECT
  2
AcDbVbaProject
  3
"acadvba"
 90
        1
280
         0
281
         0
  0
CLASS
  1
WIPEOUT
  2
AcDbWipeout
  3
WipeOut|AutoCAD Express Tool|expresstools@autodesk.com
 90
      127
280
         0
281
         1
  0
CLASS
  1
WIPEOUTVARIABLES
  2
AcDbWipeoutVariables
  3
WipeOut|AutoCAD Express Tool|expresstools@autodesk.com
 90
        0
280
         0
281
         0
  0
CLASS
  1
RTEXT
  2
RText
  3
RText|AutoCAD Express Tool|expresstools@autodesk.com
 90
        0
280
         0
281
         1
  0
CLASS
  1
ARCALIGNEDTEXT
  2
AcDbArcAlignedText
  3
ATEXT|AutoCAD Express Tool|expresstools@autodesk.com
 90
        0
280
         0
281
         1
  0
ENDSEC
  0
SECTION
  2
TABLES
  0
TABLE
  2
VPORT
  5
7
100
AcDbSymbolTable
 70
         1
  0
VPORT
  5
15
100
AcDbSymbolTableRecord
100
AcDbViewportTableRecord
  2
*ACTIVE
 70
         0
 10
0.0
 20
0.0
 11
1.0
 21
1.0
 12
23.999952
 22
11.999976
 13
0.0
 23
0.0
 14
1.0
 24
1.0
 15
0.0
 25
0.0
 16
0.0
 26
0.0
 36
1.0
 17
0.0
 27
0.0
 37
0.0
 40
23.999952
 41
1.604229
 42
50.0
 43
0.0
 44
0.0
 50
0.0
 51
0.0
 71
         0
 72
       100
 73
         1
 74
         1
 75
         0
 76
         0
 77
         0
 78
         0
  0
ENDTAB
  0
TABLE
  2
LTYPE
  5
4
100
AcDbSymbolTable
 70
         7
  0
LTYPE
  5
11
100
AcDbSymbolTableRecord
100
AcDbLinetypeTableRecord
  2
ByBlock
 70
        64
  3

 72
        65
 73
         0
 40
0.0
  0
LTYPE
  5
12
100
AcDbSymbolTableRecord
100
AcDbLinetypeTableRecord
  2
ByLayer
 70
        64
  3

 72
        65
 73
         0
 40
0.0
  0
LTYPE
  5
13
100
AcDbSymbolTableRecord
100
AcDbLinetypeTableRecord
  2
CONTINUOUS
 70
         0
  3
Solid line
 72
        65
 73
         0
 40
0.0
  0
LTYPE
  5
21
100
AcDbSymbolTableRecord
100
AcDbLinetypeTableRecord
  2
HIDDEN2
 70
        64
  3
_ _ _ _ _ _ _ _ _ _ _ _ _ _ _ _ _ _ _ _ _ _ _ _
 72
        65
 73
         2
 40
0.1875
 49
0.125
 74
         0
 49
-0.0625
 74
         0
  0
LTYPE
  5
22
100
AcDbSymbolTableRecord
100
AcDbLinetypeTableRecord
  2
CENTER2
 70
        64
  3
___ _ ___ _ ___ _ ___ _ ___ _ ___ _ ___ _ ___ _
 72
        65
 73
         4
 40
1.125
 49
0.75
 74
         0
 49
-0.125
 74
         0
 49
0.125
 74
         0
 49
-0.125
 74
         0
  0
LTYPE
  5
23
100
AcDbSymbolTableRecord
100
AcDbLinetypeTableRecord
  2
PHANTOM2
 70
        64
  3
___ _ _ ___ _ _ ___ _ _ ___ _ _ ___ _ _ ___ _ _
 72
        65
 73
         6
 40
1.25
 49
0.625
 74
         0
 49
-0.125
 74
         0
 49
0.125
 74
         0
 49
-0.125
 74
         0
 49
0.125
 74
         0
 49
-0.125
 74
         0
  0
LTYPE
  5
24
100
AcDbSymbolTableRecord
100
AcDbLinetypeTableRecord
  2
DOT2
 70
        64
  3
...............................................
 72
        65
 73
         2
 40
0.125
 49
0.0
 74
         0
 49
-0.125
 74
         0
  0
ENDTAB
  0
TABLE
  2
LAYER
  5
2
100
AcDbSymbolTable
 70
         3
  0
LAYER
  5
14
100
AcDbSymbolTableRecord
100
AcDbLayerTableRecord
  2
0
 70
         0
 62
         7
  6
CONTINUOUS
  0
LAYER
  5
26
100
AcDbSymbolTableRecord
100
AcDbLayerTableRecord
  2
PUZZLE
 70
         0
 62
         7
  6
CONTINUOUS
  0
LAYER
  5
28
100
AcDbSymbolTableRecord
100
AcDbLayerTableRecord
  2
DEFAULT
 70
         0
 62
         7
  6
CONTINUOUS
  0
ENDTAB
  0
TABLE
  2
STYLE
  5
3
100
AcDbSymbolTable
 70
         1
  0
STYLE
  5
17
100
AcDbSymbolTableRecord
100
AcDbTextStyleTableRecord
  2
Standard
 70
         0
 40
0.0
 41
1.0
 50
0.0
 71
         0
 42
0.2
  3
txt
  4

  0
ENDTAB
  0
TABLE
  2
VIEW
  5
5
100
AcDbSymbolTable
 70
         0
  0
ENDTAB
  0
TABLE
  2
UCS
  5
6
100
AcDbSymbolTable
 70
         0
  0
ENDTAB
  0
TABLE
  2
APPID
  5
8
100
AcDbSymbolTable
 70
         1
  0
APPID
  5
16
100
AcDbSymbolTableRecord
100
AcDbRegAppTableRecord
  2
ACAD
 70
         0
  0
ENDTAB
  0
TABLE
  2
DIMSTYLE
  5
9
100
AcDbSymbolTable
 70
         1
  0
DIMSTYLE
105
18
100
AcDbSymbolTableRecord
100
AcDbDimStyleTableRecord
  2
Standard
 70
         0
  3

  4

  5

  6

  7

 40
1.0
 41
0.18
 42
0.0625
 43
0.38
 44
0.18
 45
0.0
 46
0.0
 47
0.0
 48
0.0
 71
         0
 72
         0
 73
         1
 74
         1
 75
         0
 76
         0
 77
         0
 78
         0
140
0.18
141
0.09
142
0.0
143
25.4
144
1.0
145
0.0
146
1.0
147
0.09
170
         0
171
         2
172
         0
173
         0
174
         0
175
         0
176
         0
177
         0
178
         0
270
         2
271
         4
272
         4
273
         2
274
         2
275
         0
280
         0
281
         0
282
         0
283
         1
284
         0
285
         0
286
         0
287
         0
288
         0
340
17
  0
ENDTAB
  0
TABLE
  2
BLOCK_RECORD
  5
1
100
AcDbSymbolTable
 70
         0
  0
BLOCK_RECORD
  5
A
100
AcDbSymbolTableRecord
100
AcDbBlockTableRecord
  2
*MODEL_SPACE
  0
BLOCK_RECORD
  5
B
100
AcDbSymbolTableRecord
100
AcDbBlockTableRecord
  2
*PAPER_SPACE
  0
ENDTAB
  0
ENDSEC
  0
SECTION
  2
BLOCKS
  0
BLOCK
  5
D
100
AcDbEntity
  8
0
100
AcDbBlockBegin
  2
*MODEL_SPACE
 70
         0
 10
0.0
 20
0.0
 30
0.0
  3
*MODEL_SPACE
  1

  0
ENDBLK
  5
E
100
AcDbEntity
  8
0
100
AcDbBlockEnd
  0
BLOCK
  5
F
100
AcDbEntity
 67
         1
  8
0
100
AcDbBlockBegin
  2
*PAPER_SPACE
 70
         0
 10
0.0
 20
0.0
 30
0.0
  3
*PAPER_SPACE
  1

  0
ENDBLK
  5
10
100
AcDbEntity
 67
         1
  8
0
100
AcDbBlockEnd
  0
ENDSEC
  0
SECTION
  2
ENTITIES
  0
LINE
  5
2C
100
AcDbEntity
  8
PUZZLE
  6
CONTINUOUS
 62
         7
100
AcDbLine
 10
22.0226241018
 20
15.2374196001
 30
0.0
 11
21.4093964651
 21
15.9184777452
 31
0.0
  0
ARC
  5
2D
100
AcDbEntity
  8
PUZZLE
  6
CONTINUOUS
 62
         7
100
AcDbCircle
 10
21.8513238767
 20
15.0831801523
 30
0.0
 40
0.2305072111
100
AcDbArc
 50
249.2684470815
 51
42.0000059668
  0
ARC
  5
2E
100
AcDbEntity
  8
PUZZLE
  6
CONTINUOUS
 62
         7
100
AcDbCircle
 10
21.5082209794
 20
14.176694733
 30
0.0
 40
0.7387375533
100
AcDbArc
 50
69.2684470815
 51
14.7315648521
  0
ARC
  5
2F
100
AcDbEntity
  8
PUZZLE
  6
CONTINUOUS
 62
         7
100
AcDbCircle
 10
22.4456045439
 20
14.4231647442
 30
0.0
 40
0.2305072111
100
AcDbArc
 50
42.0000059668
 51
194.7315648521
  0
LINE
  5
30
100
AcDbEntity
  8
PUZZLE
  6
CONTINUOUS
 62
         7
100
AcDbLine
 10
22.616904769
 20
14.577404192
 30
0.0
 11
24.6224267891
 21
12.3500468042
 31
0.0
  0
LINE
  5
31
100
AcDbEntity
  8
PUZZLE
  6
CONTINUOUS
 62
         7
100
AcDbLine
 10
19.4508112473
 20
12.2232259774
 30
0.0
 11
20.4834553916
 21
10.4055474018
 31
0.0
  0
LINE
  5
32
100
AcDbEntity
  8
PUZZLE
  6
CONTINUOUS
 62
         7
100
AcDbLine
 10
19.1448133472
 20
12.7618489196
 30
0.0
 11
18.8290595637
 21
13.3176443411
 31
0.0
  0
LINE
  5
33
100
AcDbEntity
  8
PUZZLE
  6
CONTINUOUS
 62
         7
100
AcDbLine
 10
16.81360468
 20
11.5064101482
 30
0.0
 11
16.6817411595
 21
11.9323185158
 31
0.0
  0
LINE
  5
34
100
AcDbEntity
  8
PUZZLE
  6
CONTINUOUS
 62
         7
100
AcDbLine
 10
16.9413939971
 20
11.0936611238
 30
0.0
 11
17.3726421653
 21
9.7007648725
 31
0.0
  0
LINE
  5
35
100
AcDbEntity
  8
PUZZLE
  6
CONTINUOUS
 62
         7
100
AcDbLine
 10
15.0627612708
 20
10.6999694352
 30
0.0
 11
15.1479414288
 21
9.6865161043
 31
0.0
  0
LINE
  5
36
100
AcDbEntity
  8
PUZZLE
  6
CONTINUOUS
 62
         7
100
AcDbLine
 10
15.0375208926
 20
11.000284697
 30
0.0
 11
15.0114786242
 21
11.3101788915
 31
0.0
  0
LINE
  5
37
100
AcDbEntity
  8
PUZZLE
  6
CONTINUOUS
 62
         7
100
AcDbLine
 10
13.7518108398
 20
10.9214967684
 30
0.0
 11
13.780477099
 21
11.1365008543
 31
0.0
  0
LINE
  5
38
100
AcDbEntity
  8
PUZZLE
  6
CONTINUOUS
 62
         7
100
AcDbLine
 10
13.7240302855
 20
10.71313569
 30
0.0
 11
13.6302797796
 21
10.0099835378
 31
0.0
  0
LINE
  5
39
100
AcDbEntity
  8
PUZZLE
  6
CONTINUOUS
 62
         7
100
AcDbLine
 10
12.8140200599
 20
10.922582627
 30
0.0
 11
12.64485053
 21
10.4576255116
 31
0.0
  0
LINE
  5
3A
100
AcDbEntity
  8
PUZZLE
  6
CONTINUOUS
 62
         7
100
AcDbLine
 10
12.8641493751
 20
11.0603642065
 30
0.0
 11
12.915875262
 21
11.202543241
 31
0.0
  0
LINE
  5
3B
100
AcDbEntity
  8
PUZZLE
  6
CONTINUOUS
 62
         7
100
AcDbLine
 10
12.2802444584
 20
11.2879060099
 30
0.0
 11
12.336780818
 21
11.3770110105
 31
0.0
  0
LINE
  5
3C
100
AcDbEntity
  8
PUZZLE
  6
CONTINUOUS
 62
         7
100
AcDbLine
 10
12.2254610714
 20
11.2015532045
 30
0.0
 11
12.0405923546
 21
10.9101412875
 31
0.0
  0
LINE
  5
3D
100
AcDbEntity
  8
PUZZLE
  6
CONTINUOUS
 62
         7
100
AcDbLine
 10
18.6593986244
 20
17.3768376802
 30
0.0
 11
18.0107437533
 21
17.7208278687
 31
0.0
  0
ARC
  5
3E
100
AcDbEntity
  8
PUZZLE
  6
CONTINUOUS
 62
         7
100
AcDbCircle
 10
18.5728779695
 20
17.2136875494
 30
0.0
 40
0.1846721118
100
AcDbArc
 50
269.3308470815
 51
62.0624059668
  0
ARC
  5
3F
100
AcDbEntity
  8
PUZZLE
  6
CONTINUOUS
 62
         7
100
AcDbCircle
 10
18.5638093092
 20
16.4372247665
 30
0.0
 40
0.5918436278
100
AcDbArc
 50
89.3308470815
 51
34.7939648521
  0
ARC
  5
40
100
AcDbEntity
  8
PUZZLE
  6
CONTINUOUS
 62
         7
100
AcDbCircle
 10
19.2014912714
 20
16.880325668
 30
0.0
 40
0.1846721118
100
AcDbArc
 50
62.0624059668
 51
214.7939648521
  0
LINE
  5
41
100
AcDbEntity
  8
PUZZLE
  6
CONTINUOUS
 62
         7
100
AcDbLine
 10
19.2880119263
 20
17.0434757988
 30
0.0
 11
21.4093964651
 21
15.9184777452
 31
0.0
  0
LINE
  5
42
100
AcDbEntity
  8
PUZZLE
  6
CONTINUOUS
 62
         7
100
AcDbLine
 10
17.5523979827
 20
14.4017193368
 30
0.0
 11
18.8290595637
 21
13.3176443411
 31
0.0
  0
LINE
  5
43
100
AcDbEntity
  8
PUZZLE
  6
CONTINUOUS
 62
         7
100
AcDbLine
 10
17.1740917046
 20
14.7229574652
 30
0.0
 11
16.7837241935
 21
15.0544373689
 31
0.0
  0
LINE
  5
44
100
AcDbEntity
  8
PUZZLE
  6
CONTINUOUS
 62
         7
100
AcDbLine
 10
15.7647951366
 20
13.1374997757
 30
0.0
 11
15.5485095854
 21
13.4217730989
 31
0.0
  0
LINE
  5
45
100
AcDbEntity
  8
PUZZLE
  6
CONTINUOUS
 62
         7
100
AcDbLine
 10
15.9743980867
 20
12.8620096802
 30
0.0
 11
16.6817411595
 21
11.9323185158
 31
0.0
  0
LINE
  5
46
100
AcDbEntity
  8
PUZZLE
  6
CONTINUOUS
 62
         7
100
AcDbLine
 10
14.6688486179
 20
12.0494339325
 30
0.0
 11
15.0114786242
 21
11.3101788915
 31
0.0
  0
LINE
  5
47
100
AcDbEntity
  8
PUZZLE
  6
CONTINUOUS
 62
         7
100
AcDbLine
 10
14.5673182391
 20
12.2684966432
 30
0.0
 11
14.4625518169
 21
12.4945475094
 31
0.0
  0
LINE
  5
48
100
AcDbEntity
  8
PUZZLE
  6
CONTINUOUS
 62
         7
100
AcDbLine
 10
13.6214220665
 20
11.8558524506
 30
0.0
 11
13.5839048032
 21
12.0255302207
 31
0.0
  0
LINE
  5
49
100
AcDbEntity
  8
PUZZLE
  6
CONTINUOUS
 62
         7
100
AcDbLine
 10
13.6577801543
 20
11.6914172353
 30
0.0
 11
13.780477099
 21
11.1365008543
 31
0.0
  0
LINE
  5
4A
100
AcDbEntity
  8
PUZZLE
  6
CONTINUOUS
 62
         7
100
AcDbLine
 10
12.9153976181
 20
11.5989355779
 30
0.0
 11
12.915875262
 21
11.202543241
 31
0.0
  0
LINE
  5
4B
100
AcDbEntity
  8
PUZZLE
  6
CONTINUOUS
 62
         7
100
AcDbLine
 10
12.9152553273
 20
11.7163989593
 30
0.0
 11
12.915105965
 21
11.8376103934
 31
0.0
  0
LINE
  5
4C
100
AcDbEntity
  8
PUZZLE
  6
CONTINUOUS
 62
         7
100
AcDbLine
 10
12.4133073785
 20
11.7271582958
 30
0.0
 11
12.4313644867
 21
11.8097514101
 31
0.0
  0
LINE
  5
4D
100
AcDbEntity
  8
PUZZLE
  6
CONTINUOUS
 62
         7
100
AcDbLine
 10
12.3958130654
 20
11.6471180926
 30
0.0
 11
12.336780818
 21
11.3770110105
 31
0.0
  0
LINE
  5
4E
100
AcDbEntity
  8
PUZZLE
  6
CONTINUOUS
 62
         7
100
AcDbLine
 10
15.343869977
 20
21.5502637244
 30
0.0
 11
14.5031514651
 21
21.4837521612
 31
0.0
  0
ARC
  5
4F
100
AcDbEntity
  8
PUZZLE
  6
CONTINUOUS
 62
         7
100
AcDbCircle
 10
15.3605990123
 20
21.3388056112
 30
0.0
 40
0.2121188211
100
AcDbArc
 50
301.7918470815
 51
94.5234059668
  0
ARC
  5
50
100
AcDbEntity
  8
PUZZLE
  6
CONTINUOUS
 62
         7
100
AcDbCircle
 10
15.8304959898
 20
20.5806985219
 30
0.0
 40
0.6798057992
100
AcDbArc
 50
121.7918470815
 51
67.2549648521
  0
ARC
  5
51
100
AcDbEntity
  8
PUZZLE
  6
CONTINUOUS
 62
         7
100
AcDbCircle
 10
16.1753417411
 20
21.4032621584
 30
0.0
 40
0.2121188211
100
AcDbArc
 50
94.5234059668
 51
247.2549648521
  0
LINE
  5
52
100
AcDbEntity
  8
PUZZLE
  6
CONTINUOUS
 62
         7
100
AcDbLine
 10
16.1586127058
 20
21.6147202716
 30
0.0
 11
18.9081291776
 21
21.8322421126
 31
0.0
  0
LINE
  5
53
100
AcDbEntity
  8
PUZZLE
  6
CONTINUOUS
 62
         7
100
AcDbLine
 10
16.1051573886
 20
17.9844383336
 30
0.0
 11
18.010773674
 21
17.7208530864
 31
0.0
  0
LINE
  5
54
100
AcDbEntity
  8
PUZZLE
  6
CONTINUOUS
 62
         7
100
AcDbLine
 10
15.5404763367
 20
18.062545136
 30
0.0
 11
14.9577920157
 21
18.1431421544
 31
0.0
  0
LINE
  5
55
100
AcDbEntity
  8
PUZZLE
  6
CONTINUOUS
 62
         7
100
AcDbLine
 10
15.1520709748
 20
15.6571584655
 30
0.0
 11
14.7672024961
 21
15.7993255541
 31
0.0
  0
LINE
  5
56
100
AcDbEntity
  8
PUZZLE
  6
CONTINUOUS
 62
         7
100
AcDbLine
 10
15.525048125
 20
15.5193839308
 30
0.0
 11
16.7837269914
 21
15.0544388394
 31
0.0
  0
LINE
  5
57
100
AcDbEntity
  8
PUZZLE
  6
CONTINUOUS
 62
         7
100
AcDbLine
 10
14.7607118693
 20
13.9270027923
 30
0.0
 11
15.5485225459
 21
13.4217766512
 31
0.0
  0
LINE
  5
58
100
AcDbEntity
  8
PUZZLE
  6
CONTINUOUS
 62
         7
100
AcDbLine
 10
14.5272615197
 20
14.0767164638
 30
0.0
 11
14.2863667603
 21
14.2312077658
 31
0.0
  0
LINE
  5
59
100
AcDbEntity
  8
PUZZLE
  6
CONTINUOUS
 62
         7
100
AcDbLine
 10
13.8649306022
 20
13.0936575056
 30
0.0
 11
13.723964776
 21
13.2349731012
 31
0.0
  0
LINE
  5
5A
100
AcDbEntity
  8
PUZZLE
  6
CONTINUOUS
 62
         7
100
AcDbLine
 10
14.00154099
 20
12.9567081553
 30
0.0
 11
14.4625574572
 21
12.494547798
 31
0.0
  0
LINE
  5
5B
100
AcDbEntity
  8
PUZZLE
  6
CONTINUOUS
 62
         7
100
AcDbLine
 10
13.3390684291
 20
12.4094030456
 30
0.0
 11
13.5839055079
 21
12.0255301032
 31
0.0
  0
LINE
  5
5C
100
AcDbEntity
  8
PUZZLE
  6
CONTINUOUS
 62
         7
100
AcDbLine
 10
13.2665148587
 20
12.5231560784
 30
0.0
 11
13.1916437766
 21
12.6405372126
 31
0.0
  0
LINE
  5
5D
100
AcDbEntity
  8
PUZZLE
  6
CONTINUOUS
 62
         7
100
AcDbLine
 10
12.7734141402
 20
12.2241348468
 30
0.0
 11
12.7399960598
 21
12.3153128792
 31
0.0
  0
LINE
  5
5E
100
AcDbEntity
  8
PUZZLE
  6
CONTINUOUS
 62
         7
100
AcDbLine
 10
12.8058038
 20
12.1357779531
 30
0.0
 11
12.9151119862
 21
11.8376079767
 31
0.0
  0
LINE
  5
5F
100
AcDbEntity
  8
PUZZLE
  6
CONTINUOUS
 62
         7
100
AcDbLine
 10
11.898396663
 20
20.2919827575
 30
0.0
 11
11.2840009477
 21
20.0108745263
 31
0.0
  0
ARC
  5
60
100
AcDbEntity
  8
PUZZLE
  6
CONTINUOUS
 62
         7
100
AcDbCircle
 10
11.9691012036
 20
20.1374495138
 30
0.0
 40
0.1699401526
100
AcDbArc
 50
321.8542470815
 51
114.5858059668
  0
ARC
  5
61
100
AcDbEntity
  8
PUZZLE
  6
CONTINUOUS
 62
         7
100
AcDbCircle
 10
12.5310693179
 20
19.6960851193
 30
0.0
 40
0.5446301309
100
AcDbArc
 50
141.8542470815
 51
87.3173648521
  0
ARC
  5
62
100
AcDbEntity
  8
PUZZLE
  6
CONTINUOUS
 62
         7
100
AcDbCircle
 10
12.5645138591
 20
20.4098723095
 30
0.0
 40
0.1699401526
100
AcDbArc
 50
114.5858059668
 51
267.3173648521
  0
LINE
  5
63
100
AcDbEntity
  8
PUZZLE
  6
CONTINUOUS
 62
         7
100
AcDbLine
 10
12.4938093184
 20
20.5644055532
 30
0.0
 11
14.5031514651
 21
21.4837521612
 31
0.0
  0
LINE
  5
64
100
AcDbEntity
  8
PUZZLE
  6
CONTINUOUS
 62
         7
100
AcDbLine
 10
13.451296201
 20
17.8177783358
 30
0.0
 11
14.9577920157
 21
18.1431421544
 31
0.0
  0
LINE
  5
65
100
AcDbEntity
  8
PUZZLE
  6
CONTINUOUS
 62
         7
100
AcDbLine
 10
13.0048843772
 20
17.7213650207
 30
0.0
 11
12.5442399665
 21
17.6218778379
 31
0.0
  0
LINE
  5
66
100
AcDbEntity
  8
PUZZLE
  6
CONTINUOUS
 62
         7
100
AcDbLine
 10
13.3736683609
 20
15.8044670522
 30
0.0
 11
13.0449671167
 21
15.8056798081
 31
0.0
  0
LINE
  5
67
100
AcDbEntity
  8
PUZZLE
  6
CONTINUOUS
 62
         7
100
AcDbLine
 10
13.6922136824
 20
15.8032917669
 30
0.0
 11
14.7672024961
 21
15.7993255541
 31
0.0
  0
LINE
  5
68
100
AcDbEntity
  8
PUZZLE
  6
CONTINUOUS
 62
         7
100
AcDbLine
 10
13.5546550866
 20
14.39489632
 30
0.0
 11
14.2863667603
 21
14.2312077658
 31
0.0
  0
LINE
  5
69
100
AcDbEntity
  8
PUZZLE
  6
CONTINUOUS
 62
         7
100
AcDbLine
 10
13.337828159
 20
14.4434025926
 30
0.0
 11
13.1140859666
 21
14.4934582731
 31
0.0
  0
LINE
  5
6A
100
AcDbEntity
  8
PUZZLE
  6
CONTINUOUS
 62
         7
100
AcDbLine
 10
13.1095721082
 20
13.521581309
 30
0.0
 11
12.9646516292
 21
13.5891853038
 31
0.0
  0
LINE
  5
6B
100
AcDbEntity
  8
PUZZLE
  6
CONTINUOUS
 62
         7
100
AcDbLine
 10
13.2500149613
 20
13.4560660831
 30
0.0
 11
13.723964776
 21
13.2349731012
 31
0.0
  0
LINE
  5
6C
100
AcDbEntity
  8
PUZZLE
  6
CONTINUOUS
 62
         7
100
AcDbLine
 10
12.9018936297
 20
12.8621285127
 30
0.0
 11
13.1916437766
 21
12.6405372126
 31
0.0
  0
LINE
  5
6D
100
AcDbEntity
  8
PUZZLE
  6
CONTINUOUS
 62
         7
100
AcDbLine
 10
12.816031227
 20
12.9277923609
 30
0.0
 11
12.7274276867
 21
12.99554958
 31
0.0
  0
LINE
  5
6E
100
AcDbEntity
  8
PUZZLE
  6
CONTINUOUS
 62
         7
100
AcDbLine
 10
12.5271330336
 20
12.5672472325
 30
0.0
 11
12.4769260032
 21
12.6266781149
 31
0.0
  0
LINE
  5
6F
100
AcDbEntity
  8
PUZZLE
  6
CONTINUOUS
 62
         7
100
AcDbLine
 10
12.5757907989
 20
12.5096567307
 30
0.0
 11
12.7399960598
 21
12.3153128792
 31
0.0
  0
LINE
  5
70
100
AcDbEntity
  8
PUZZLE
  6
CONTINUOUS
 62
         7
100
AcDbLine
 10
6.9942096253
 20
20.2073699709
 30
0.0
 11
6.5720644923
 21
19.5561594264
 31
0.0
  0
ARC
  5
71
100
AcDbEntity
  8
PUZZLE
  6
CONTINUOUS
 62
         7
100
AcDbCircle
 10
7.1580025609
 20
20.1011917293
 30
0.0
 40
0.1951971945
100
AcDbArc
 50
354.3152470815
 51
147.0468059668
  0
ARC
  5
72
100
AcDbEntity
  8
PUZZLE
  6
CONTINUOUS
 62
         7
100
AcDbCircle
 10
7.97473795
 20
20.0198902022
 30
0.0
 40
0.62557478
100
AcDbArc
 50
174.3152470815
 51
119.7783648521
  0
ARC
  5
73
100
AcDbEntity
  8
PUZZLE
  6
CONTINUOUS
 62
         7
100
AcDbCircle
 10
7.5671046239
 20
20.7322817417
 30
0.0
 40
0.1951971945
100
AcDbArc
 50
147.0468059668
 51
299.7783648521
  0
LINE
  5
74
100
AcDbEntity
  8
PUZZLE
  6
CONTINUOUS
 62
         7
100
AcDbLine
 10
7.4033116884
 20
20.8384599834
 30
0.0
 11
8.7839105219
 21
22.9682026899
 31
0.0
  0
LINE
  5
75
100
AcDbEntity
  8
PUZZLE
  6
CONTINUOUS
 62
         7
100
AcDbLine
 10
10.0245511066
 20
18.7668281299
 30
0.0
 11
11.2839995464
 21
20.010904822
 31
0.0
  0
LINE
  5
76
100
AcDbEntity
  8
PUZZLE
  6
CONTINUOUS
 62
         7
100
AcDbLine
 10
9.6513455062
 20
18.3981775571
 30
0.0
 11
9.2662412937
 21
18.0177735964
 31
0.0
  0
LINE
  5
77
100
AcDbEntity
  8
PUZZLE
  6
CONTINUOUS
 62
         7
100
AcDbLine
 10
11.1905142035
 20
16.7677525814
 30
0.0
 11
10.8712028406
 21
16.5662851856
 31
0.0
  0
LINE
  5
78
100
AcDbEntity
  8
PUZZLE
  6
CONTINUOUS
 62
         7
100
AcDbLine
 10
11.499959764
 20
16.9629952144
 30
0.0
 11
12.544239788
 21
17.6218767996
 31
0.0
  0
LINE
  5
79
100
AcDbEntity
  8
PUZZLE
  6
CONTINUOUS
 62
         7
100
AcDbLine
 10
12.2349127139
 20
15.5132321496
 30
0.0
 11
13.0449707371
 21
15.8056887023
 31
0.0
  0
LINE
  5
7A
100
AcDbEntity
  8
PUZZLE
  6
CONTINUOUS
 62
         7
100
AcDbLine
 10
11.9948691025
 20
15.4265696643
 30
0.0
 11
11.7471682986
 21
15.3371455735
 31
0.0
  0
LINE
  5
7B
100
AcDbEntity
  8
PUZZLE
  6
CONTINUOUS
 62
         7
100
AcDbLine
 10
12.3419511649
 20
14.3924596853
 30
0.0
 11
12.1598226665
 21
14.3686359082
 31
0.0
  0
LINE
  5
7C
100
AcDbEntity
  8
PUZZLE
  6
CONTINUOUS
 62
         7
100
AcDbLine
 10
12.5184524167
 20
14.4155473763
 30
0.0
 11
13.1140878207
 21
14.4934609661
 31
0.0
  0
LINE
  5
7D
100
AcDbEntity
  8
PUZZLE
  6
CONTINUOUS
 62
         7
100
AcDbLine
 10
12.5472272421
 20
13.6253124108
 30
0.0
 11
12.9646511271
 21
13.5891848347
 31
0.0
  0
LINE
  5
7E
100
AcDbEntity
  8
PUZZLE
  6
CONTINUOUS
 62
         7
100
AcDbLine
 10
12.4235314893
 20
13.6360173458
 30
0.0
 11
12.2958885859
 21
13.6470611913
 31
0.0
  0
LINE
  5
7F
100
AcDbEntity
  8
PUZZLE
  6
CONTINUOUS
 62
         7
100
AcDbLine
 10
12.3658176135
 20
13.1084875023
 30
0.0
 11
12.2805201724
 21
13.1351330706
 31
0.0
  0
LINE
  5
80
100
AcDbEntity
  8
PUZZLE
  6
CONTINUOUS
 62
         7
100
AcDbLine
 10
12.4484789846
 20
13.0826704407
 30
0.0
 11
12.7274320162
 21
12.9955521461
 31
0.0
  0
LINE
  5
81
100
AcDbEntity
  8
PUZZLE
  6
CONTINUOUS
 62
         7
100
AcDbLine
 10
2.2934741097
 20
17.1019399413
 30
0.0
 11
2.285816662
 21
16.2105665917
 31
0.0
  0
ARC
  5
82
100
AcDbEntity
  8
PUZZLE
  6
CONTINUOUS
 62
         7
100
AcDbCircle
 10
2.5176729634
 20
17.1000139346
 30
0.0
 40
0.2242071263
100
AcDbArc
 50
26.7762470815
 51
179.5078059668
  0
ARC
  5
83
100
AcDbEntity
  8
PUZZLE
  6
CONTINUOUS
 62
         7
100
AcDbCircle
 10
3.3593379139
 20
17.5247316265
 30
0.0
 40
0.7185468218
100
AcDbArc
 50
206.7762470815
 51
152.2393648521
  0
ARC
  5
84
100
AcDbEntity
  8
PUZZLE
  6
CONTINUOUS
 62
         7
100
AcDbCircle
 10
2.525093818
 20
17.9638464124
 30
0.0
 40
0.2242071263
100
AcDbArc
 50
179.5078059668
 51
332.2393648521
  0
LINE
  5
85
100
AcDbEntity
  8
PUZZLE
  6
CONTINUOUS
 62
         7
100
AcDbLine
 10
2.3008949643
 20
17.9657724191
 30
0.0
 11
2.3259381605
 21
20.8809523189
 31
0.0
  0
LINE
  5
86
100
AcDbEntity
  8
PUZZLE
  6
CONTINUOUS
 62
         7
100
AcDbLine
 10
6.1184282024
 20
17.5740153236
 30
0.0
 11
6.5720645969
 21
19.5561592776
 31
0.0
  0
LINE
  5
87
100
AcDbEntity
  8
PUZZLE
  6
CONTINUOUS
 62
         7
100
AcDbLine
 10
5.9840045629
 20
16.986657238
 30
0.0
 11
5.8452952034
 21
16.38057289
 31
0.0
  0
LINE
  5
88
100
AcDbEntity
  8
PUZZLE
  6
CONTINUOUS
 62
         7
100
AcDbLine
 10
8.4808427502
 20
16.3554091873
 30
0.0
 11
8.2955837565
 21
15.9633029138
 31
0.0
  0
LINE
  5
89
100
AcDbEntity
  8
PUZZLE
  6
CONTINUOUS
 62
         7
100
AcDbLine
 10
8.660377774
 20
16.7354005051
 30
0.0
 11
9.2662511905
 21
18.0177499494
 31
0.0
  0
LINE
  5
8A
100
AcDbEntity
  8
PUZZLE
  6
CONTINUOUS
 62
         7
100
AcDbLine
 10
10.2664295244
 20
15.7834486391
 30
0.0
 11
10.8712039157
 21
16.5662792768
 31
0.0
  0
LINE
  5
8B
100
AcDbEntity
  8
PUZZLE
  6
CONTINUOUS
 62
         7
100
AcDbLine
 10
10.0872168663
 20
15.5514741094
 30
0.0
 11
9.9022857121
 21
15.3121025522
 31
0.0
  0
LINE
  5
8C
100
AcDbEntity
  8
PUZZLE
  6
CONTINUOUS
 62
         7
100
AcDbLine
 10
11.0611145
 20
14.7632348882
 30
0.0
 11
10.8992909506
 21
14.6278650526
 31
0.0
  0
LINE
  5
8D
100
AcDbEntity
  8
PUZZLE
  6
CONTINUOUS
 62
         7
100
AcDbLine
 10
11.2179381673
 20
14.8944221854
 30
0.0
 11
11.7471680027
 21
15.337137452
 31
0.0
  0
LINE
  5
8E
100
AcDbEntity
  8
PUZZLE
  6
CONTINUOUS
 62
         7
100
AcDbLine
 10
11.7329995813
 20
14.1463015281
 30
0.0
 11
12.1598203961
 21
14.3686271196
 31
0.0
  0
LINE
  5
8F
100
AcDbEntity
  8
PUZZLE
  6
CONTINUOUS
 62
         7
100
AcDbLine
 10
11.6065197151
 20
14.0804187305
 30
0.0
 11
11.4760055122
 21
14.0124309999
 31
0.0
  0
LINE
  5
90
100
AcDbEntity
  8
PUZZLE
  6
CONTINUOUS
 62
         7
100
AcDbLine
 10
11.8758043655
 20
13.5335803831
 30
0.0
 11
11.7767111277
 21
13.506818811
 31
0.0
  0
LINE
  5
91
100
AcDbEntity
  8
PUZZLE
  6
CONTINUOUS
 62
         7
100
AcDbLine
 10
11.9718320747
 20
13.5595197884
 30
0.0
 11
12.2958885859
 21
13.6470611913
 31
0.0
  0
LINE
  5
92
100
AcDbEntity
  8
PUZZLE
  6
CONTINUOUS
 62
         7
100
AcDbLine
 10
3.2999760764
 20
13.3577826708
 30
0.0
 11
3.5391906075
 21
12.6848831656
 31
0.0
  0
ARC
  5
93
100
AcDbEntity
  8
PUZZLE
  6
CONTINUOUS
 62
         7
100
AcDbCircle
 10
3.4692242346
 20
13.4179500784
 30
0.0
 40
0.1796247645
100
AcDbArc
 50
46.8386470815
 51
199.5702059668
  0
ARC
  5
94
100
AcDbEntity
  8
PUZZLE
  6
CONTINUOUS
 62
         7
100
AcDbCircle
 10
3.9858860169
 20
13.9688832223
 30
0.0
 40
0.5756677128
100
AcDbArc
 50
226.8386470815
 51
172.3017648521
  0
ARC
  5
95
100
AcDbEntity
  8
PUZZLE
  6
CONTINUOUS
 62
         7
100
AcDbCircle
 10
3.2374007442
 20
14.0700589251
 30
0.0
 40
0.1796247645
100
AcDbArc
 50
199.5702059668
 51
352.3017648521
  0
LINE
  5
96
100
AcDbEntity
  8
PUZZLE
  6
CONTINUOUS
 62
         7
100
AcDbLine
 10
3.0681525859
 20
14.0098915174
 30
0.0
 11
2.285816662
 21
16.2105665917
 31
0.0
  0
LINE
  5
97
100
AcDbEntity
  8
PUZZLE
  6
CONTINUOUS
 62
         7
100
AcDbLine
 10
6.0486699192
 20
14.7642549096
 30
0.0
 11
5.8452952034
 21
16.38057289
 31
0.0
  0
LINE
  5
98
100
AcDbEntity
  8
PUZZLE
  6
CONTINUOUS
 62
         7
100
AcDbLine
 10
6.1089348578
 20
14.2853000725
 30
0.0
 11
6.1711211747
 21
13.791075106
 31
0.0
  0
LINE
  5
99
100
AcDbEntity
  8
PUZZLE
  6
CONTINUOUS
 62
         7
100
AcDbLine
 10
8.1613945545
 20
14.4964686903
 30
0.0
 11
8.1297425436
 21
14.1504777153
 31
0.0
  0
LINE
  5
9A
100
AcDbEntity
  8
PUZZLE
  6
CONTINUOUS
 62
         7
100
AcDbLine
 10
8.1920686094
 20
14.8317695398
 30
0.0
 11
8.2955837565
 21
15.9633029138
 31
0.0
  0
LINE
  5
9B
100
AcDbEntity
  8
PUZZLE
  6
CONTINUOUS
 62
         7
100
AcDbLine
 10
9.6623143479
 20
14.5567796117
 30
0.0
 11
9.9022857121
 21
15.3121025522
 31
0.0
  0
LINE
  5
9C
100
AcDbEntity
  8
PUZZLE
  6
CONTINUOUS
 62
         7
100
AcDbLine
 10
9.5912032769
 20
14.3329560617
 30
0.0
 11
9.517821736
 21
14.1019943247
 31
0.0
  0
LINE
  5
9D
100
AcDbEntity
  8
PUZZLE
  6
CONTINUOUS
 62
         7
100
AcDbLine
 10
10.5407337995
 20
14.0074310323
 30
0.0
 11
10.4561587765
 21
13.8610855433
 31
0.0
  0
LINE
  5
9E
100
AcDbEntity
  8
PUZZLE
  6
CONTINUOUS
 62
         7
100
AcDbLine
 10
10.6226956978
 20
14.1492548667
 30
0.0
 11
10.8992909506
 21
14.6278650526
 31
0.0
  0
LINE
  5
9F
100
AcDbEntity
  8
PUZZLE
  6
CONTINUOUS
 62
         7
100
AcDbLine
 10
11.2159073212
 20
13.7278182615
 30
0.0
 11
11.4760055122
 21
14.0124309999
 31
0.0
  0
LINE
  5
A0
100
AcDbEntity
  8
PUZZLE
  6
CONTINUOUS
 62
         7
100
AcDbLine
 10
11.1388326734
 20
13.6434781598
 30
0.0
 11
11.0593005228
 21
13.5564452488
 31
0.0
  0
LINE
  5
A1
100
AcDbEntity
  8
PUZZLE
  6
CONTINUOUS
 62
         7
100
AcDbLine
 10
11.491768574
 20
13.3059676611
 30
0.0
 11
11.4245517598
 21
13.2585945819
 31
0.0
  0
LINE
  5
A2
100
AcDbEntity
  8
PUZZLE
  6
CONTINUOUS
 62
         7
100
AcDbLine
 10
11.5569044093
 20
13.3518795236
 30
0.0
 11
11.7767111277
 21
13.506818811
 31
0.0
  0
LINE
  5
A3
100
AcDbEntity
  8
PUZZLE
  6
CONTINUOUS
 62
         7
100
AcDbLine
 10
2.935872593
 20
8.1861420613
 30
0.0
 11
3.5825490415
 21
7.6814700079
 31
0.0
  0
ARC
  5
A4
100
AcDbEntity
  8
PUZZLE
  6
CONTINUOUS
 62
         7
100
AcDbCircle
 10
3.0628080639
 20
8.3487945778
 30
0.0
 40
0.206321242
100
AcDbArc
 50
79.2996470815
 51
232.0312059668
  0
ARC
  5
A5
100
AcDbEntity
  8
PUZZLE
  6
CONTINUOUS
 62
         7
100
AcDbCircle
 10
3.2238877849
 20
9.2012561312
 30
0.0
 40
0.6612255155
100
AcDbArc
 50
259.2996470815
 51
204.7627648521
  0
ARC
  5
A6
100
AcDbEntity
  8
PUZZLE
  6
CONTINUOUS
 62
         7
100
AcDbCircle
 10
2.436112057
 20
8.8378737168
 30
0.0
 40
0.206321242
100
AcDbArc
 50
232.0312059668
 51
24.7627648521
  0
LINE
  5
A7
100
AcDbEntity
  8
PUZZLE
  6
CONTINUOUS
 62
         7
100
AcDbLine
 10
2.3091765861
 20
8.6752212003
 30
0.0
 11
0.1942623526
 21
10.3257190829
 31
0.0
  0
LINE
  5
A8
100
AcDbEntity
  8
PUZZLE
  6
CONTINUOUS
 62
         7
100
AcDbLine
 10
4.7327106847
 20
11.2437948125
 30
0.0
 11
3.5391555125
 21
12.6848846165
 31
0.0
  0
LINE
  5
A9
100
AcDbEntity
  8
PUZZLE
  6
CONTINUOUS
 62
         7
100
AcDbLine
 10
5.0863904865
 20
10.816764401
 30
0.0
 11
5.4513463752
 21
10.3761193245
 31
0.0
  0
LINE
  5
AA
100
AcDbEntity
  8
PUZZLE
  6
CONTINUOUS
 62
         7
100
AcDbLine
 10
6.9453661294
 20
12.286752494
 30
0.0
 11
7.127992159
 21
11.9319188463
 31
0.0
  0
LINE
  5
AB
100
AcDbEntity
  8
PUZZLE
  6
CONTINUOUS
 62
         7
100
AcDbLine
 10
6.7683827186
 20
12.6306228028
 30
0.0
 11
6.1711201818
 21
13.7910753677
 31
0.0
  0
LINE
  5
AC
100
AcDbEntity
  8
PUZZLE
  6
CONTINUOUS
 62
         7
100
AcDbLine
 10
8.3628149023
 20
13.270513619
 30
0.0
 11
8.1297321849
 21
14.1504830308
 31
0.0
  0
LINE
  5
AD
100
AcDbEntity
  8
PUZZLE
  6
CONTINUOUS
 62
         7
100
AcDbLine
 10
8.4318831588
 20
13.0097533202
 30
0.0
 11
8.5031516284
 21
12.7406752477
 31
0.0
  0
LINE
  5
AE
100
AcDbEntity
  8
PUZZLE
  6
CONTINUOUS
 62
         7
100
AcDbLine
 10
9.5528140763
 20
13.2796490117
 30
0.0
 11
9.561068747
 21
13.0856768209
 31
0.0
  0
LINE
  5
AF
100
AcDbEntity
  8
PUZZLE
  6
CONTINUOUS
 62
         7
100
AcDbLine
 10
9.5448144512
 20
13.4676280198
 30
0.0
 11
9.517818269
 21
14.101997189
 31
0.0
  0
LINE
  5
B0
100
AcDbEntity
  8
PUZZLE
  6
CONTINUOUS
 62
         7
100
AcDbLine
 10
10.3795446912
 20
13.4249011432
 30
0.0
 11
10.4561587765
 21
13.8610855433
 31
0.0
  0
LINE
  5
B1
100
AcDbEntity
  8
PUZZLE
  6
CONTINUOUS
 62
         7
100
AcDbLine
 10
10.3568423794
 20
13.2956459896
 30
0.0
 11
10.3334184611
 21
13.1622660357
 31
0.0
  0
LINE
  5
B2
100
AcDbEntity
  8
PUZZLE
  6
CONTINUOUS
 62
         7
100
AcDbLine
 10
10.9069671353
 20
13.1861279759
 30
0.0
 11
10.8710286317
 21
13.0987770607
 31
0.0
  0
LINE
  5
B3
100
AcDbEntity
  8
PUZZLE
  6
CONTINUOUS
 62
         7
100
AcDbLine
 10
10.9417896724
 20
13.2707798254
 30
0.0
 11
11.0592980018
 21
13.5564505013
 31
0.0
  0
LINE
  5
B4
100
AcDbEntity
  8
PUZZLE
  6
CONTINUOUS
 62
         7
100
AcDbLine
 10
6.2337453829
 20
6.8248301791
 30
0.0
 11
6.8590954815
 21
6.6227705304
 31
0.0
  0
ARC
  5
B5
100
AcDbEntity
  8
PUZZLE
  6
CONTINUOUS
 62
         7
100
AcDbCircle
 10
6.2845675683
 20
6.9821186771
 30
0.0
 40
0.1652953905
100
AcDbArc
 50
99.3620470815
 51
252.0936059668
  0
ARC
  5
B6
100
AcDbEntity
  8
PUZZLE
  6
CONTINUOUS
 62
         7
100
AcDbCircle
 10
6.1715037594
 20
7.6679006645
 30
0.0
 40
0.5297444351
100
AcDbArc
 50
279.3620470815
 51
224.8251648521
  0
ARC
  5
B7
100
AcDbEntity
  8
PUZZLE
  6
CONTINUOUS
 62
         7
100
AcDbCircle
 10
5.6785389884
 20
7.177935264
 30
0.0
 40
0.1652953905
100
AcDbArc
 50
252.0936059668
 51
44.8251648521
  0
LINE
  5
B8
100
AcDbEntity
  8
PUZZLE
  6
CONTINUOUS
 62
         7
100
AcDbLine
 10
5.627716803
 20
7.0206467661
 30
0.0
 11
3.5825490415
 21
7.6814700079
 31
0.0
  0
LINE
  5
B9
100
AcDbEntity
  8
PUZZLE
  6
CONTINUOUS
 62
         7
100
AcDbLine
 10
6.7456018157
 20
9.6196661703
 30
0.0
 11
5.4513463752
 21
10.3761193245
 31
0.0
  0
LINE
  5
BA
100
AcDbEntity
  8
PUZZLE
  6
CONTINUOUS
 62
         7
100
AcDbLine
 10
7.1291215879
 20
9.3955104648
 30
0.0
 11
7.5248688105
 21
9.1642081844
 31
0.0
  0
LINE
  5
BB
100
AcDbEntity
  8
PUZZLE
  6
CONTINUOUS
 62
         7
100
AcDbLine
 10
8.1240786231
 20
11.0126410191
 30
0.0
 11
8.3590315043
 21
10.7958054512
 31
0.0
  0
LINE
  5
BC
100
AcDbEntity
  8
PUZZLE
  6
CONTINUOUS
 62
         7
100
AcDbLine
 10
7.89638511
 20
11.2227769918
 30
0.0
 11
7.127992159
 21
11.9319188463
 31
0.0
  0
LINE
  5
BD
100
AcDbEntity
  8
PUZZLE
  6
CONTINUOUS
 62
         7
100
AcDbLine
 10
8.9203988503
 20
12.1425205459
 30
0.0
 11
8.5031516284
 21
12.7406752477
 31
0.0
  0
LINE
  5
BE
100
AcDbEntity
  8
PUZZLE
  6
CONTINUOUS
 62
         7
100
AcDbLine
 10
9.0440405728
 20
11.9652698289
 30
0.0
 11
9.1716240284
 21
11.7823643328
 31
0.0
  0
LINE
  5
BF
100
AcDbEntity
  8
PUZZLE
  6
CONTINUOUS
 62
         7
100
AcDbLine
 10
9.8134113411
 20
12.4764440274
 30
0.0
 11
9.8729329004
 21
12.3327406389
 31
0.0
  0
LINE
  5
C0
100
AcDbEntity
  8
PUZZLE
  6
CONTINUOUS
 62
         7
100
AcDbLine
 10
9.7557288268
 20
12.6157073947
 30
0.0
 11
9.561068747
 21
13.0856768209
 31
0.0
  0
LINE
  5
C1
100
AcDbEntity
  8
PUZZLE
  6
CONTINUOUS
 62
         7
100
AcDbLine
 10
10.3956402371
 20
12.8129634571
 30
0.0
 11
10.3334184611
 21
13.1622660357
 31
0.0
  0
LINE
  5
C2
100
AcDbEntity
  8
PUZZLE
  6
CONTINUOUS
 62
         7
100
AcDbLine
 10
10.4140791462
 20
12.709454353
 30
0.0
 11
10.43310864
 21
12.6026428477
 31
0.0
  0
LINE
  5
C3
100
AcDbEntity
  8
PUZZLE
  6
CONTINUOUS
 62
         7
100
AcDbLine
 10
10.8581695365
 20
12.7782289213
 30
0.0
 11
10.8551310825
 21
12.7026167586
 31
0.0
  0
LINE
  5
C4
100
AcDbEntity
  8
PUZZLE
  6
CONTINUOUS
 62
         7
100
AcDbLine
 10
10.861109967
 20
12.8515032241
 30
0.0
 11
10.8710286317
 21
13.0987770607
 31
0.0
  0
LINE
  5
C5
100
AcDbEntity
  8
PUZZLE
  6
CONTINUOUS
 62
         7
100
AcDbLine
 10
9.8067005853
 20
3.6633409105
 30
0.0
 11
10.5373320304
 21
3.8530381372
 31
0.0
  0
ARC
  5
C6
100
AcDbEntity
  8
PUZZLE
  6
CONTINUOUS
 62
         7
100
AcDbCircle
 10
9.758987805
 20
3.847109847
 30
0.0
 40
0.1898618746
100
AcDbArc
 50
131.8230470815
 51
284.5546059668
  0
ARC
  5
C7
100
AcDbEntity
  8
PUZZLE
  6
CONTINUOUS
 62
         7
100
AcDbCircle
 10
9.2266303645
 20
4.4420374515
 30
0.0
 40
0.6084759605
100
AcDbArc
 50
311.8230470815
 51
257.2861648521
  0
ARC
  5
C8
100
AcDbEntity
  8
PUZZLE
  6
CONTINUOUS
 62
         7
100
AcDbCircle
 10
9.0509307693
 20
3.6632737188
 30
0.0
 40
0.1898618746
100
AcDbArc
 50
284.5546059668
 51
77.2861648521
  0
LINE
  5
C9
100
AcDbEntity
  8
PUZZLE
  6
CONTINUOUS
 62
         7
100
AcDbLine
 10
9.0986435496
 20
3.4795047824
 30
0.0
 11
6.7091598343
 21
2.8591120563
 31
0.0
  0
LINE
  5
CA
100
AcDbEntity
  8
PUZZLE
  6
CONTINUOUS
 62
         7
100
AcDbLine
 10
8.5797692395
 20
6.6875340661
 30
0.0
 11
6.8590825861
 21
6.6227550769
 31
0.0
  0
LINE
  5
CB
100
AcDbEntity
  8
PUZZLE
  6
CONTINUOUS
 62
         7
100
AcDbLine
 10
9.0896510857
 20
6.7067296765
 30
0.0
 11
9.615789082
 21
6.726537285
 31
0.0
  0
LINE
  5
CC
100
AcDbEntity
  8
PUZZLE
  6
CONTINUOUS
 62
         7
100
AcDbLine
 10
9.056969225
 20
8.887369516
 30
0.0
 11
9.4183535173
 21
8.8220688288
 31
0.0
  0
LINE
  5
CD
100
AcDbEntity
  8
PUZZLE
  6
CONTINUOUS
 62
         7
100
AcDbLine
 10
8.7067506674
 20
8.9506525999
 30
0.0
 11
7.5248747889
 21
9.1642128145
 31
0.0
  0
LINE
  5
CE
100
AcDbEntity
  8
PUZZLE
  6
CONTINUOUS
 62
         7
100
AcDbLine
 10
9.1321645513
 20
10.4733278352
 30
0.0
 11
8.3590271841
 21
10.7958034036
 31
0.0
  0
LINE
  5
CF
100
AcDbEntity
  8
PUZZLE
  6
CONTINUOUS
 62
         7
100
AcDbLine
 10
9.3612669488
 20
10.3777683945
 30
0.0
 11
9.5976756468
 21
10.2791586383
 31
0.0
  0
LINE
  5
D0
100
AcDbEntity
  8
PUZZLE
  6
CONTINUOUS
 62
         7
100
AcDbLine
 10
9.7917724067
 20
11.3474895592
 30
0.0
 11
9.9380505196
 21
11.2449130413
 31
0.0
  0
LINE
  5
D1
100
AcDbEntity
  8
PUZZLE
  6
CONTINUOUS
 62
         7
100
AcDbLine
 10
9.6500138666
 20
11.4468967578
 30
0.0
 11
9.1716240284
 21
11.7823643328
 31
0.0
  0
LINE
  5
D2
100
AcDbEntity
  8
PUZZLE
  6
CONTINUOUS
 62
         7
100
AcDbLine
 10
10.1485815958
 20
12.0325708031
 30
0.0
 11
9.8729357868
 21
12.3327406672
 31
0.0
  0
LINE
  5
D3
100
AcDbEntity
  8
PUZZLE
  6
CONTINUOUS
 62
         7
100
AcDbLine
 10
10.2302645932
 20
11.9436216549
 30
0.0
 11
10.3145558721
 21
11.8518360516
 31
0.0
  0
LINE
  5
D4
100
AcDbEntity
  8
PUZZLE
  6
CONTINUOUS
 62
         7
100
AcDbLine
 10
10.6182590239
 20
12.2840543125
 30
0.0
 11
10.6619287622
 21
12.2089010214
 31
0.0
  0
LINE
  5
D5
100
AcDbEntity
  8
PUZZLE
  6
CONTINUOUS
 62
         7
100
AcDbLine
 10
10.5759355631
 20
12.356881418
 30
0.0
 11
10.4331053631
 21
12.6026435345
 31
0.0
  0
LINE
  5
D6
100
AcDbEntity
  8
PUZZLE
  6
CONTINUOUS
 62
         7
100
AcDbLine
 10
15.2184931112
 20
2.8020792503
 30
0.0
 11
15.8096420518
 21
3.4363551554
 31
0.0
  0
ARC
  5
D7
100
AcDbEntity
  8
PUZZLE
  6
CONTINUOUS
 62
         7
100
AcDbCircle
 10
15.0589595881
 20
2.9507654489
 30
0.0
 40
0.2180791843
100
AcDbArc
 50
164.2840470815
 51
317.0156059668
  0
ARC
  5
D8
100
AcDbEntity
  8
PUZZLE
  6
CONTINUOUS
 62
         7
100
AcDbCircle
 10
14.1762529298
 20
3.1991483127
 30
0.0
 40
0.6989077794
100
AcDbArc
 50
344.2840470815
 51
289.7471648521
  0
ARC
  5
D9
100
AcDbEntity
  8
PUZZLE
  6
CONTINUOUS
 62
         7
100
AcDbCircle
 10
14.4860754488
 20
2.3360868442
 30
0.0
 40
0.2180791843
100
AcDbArc
 50
317.0156059668
 51
109.7471648521
  0
LINE
  5
DA
100
AcDbEntity
  8
PUZZLE
  6
CONTINUOUS
 62
         7
100
AcDbLine
 10
14.6456089719
 20
2.1874006456
 30
0.0
 11
12.7122939246
 21
0.1130416013
 31
0.0
  0
LINE
  5
DB
100
AcDbEntity
  8
PUZZLE
  6
CONTINUOUS
 62
         7
100
AcDbLine
 10
12.1650090018
 20
4.9765997534
 30
0.0
 11
10.5373305101
 21
3.8530264046
 31
0.0
  0
LINE
  5
DC
100
AcDbEntity
  8
PUZZLE
  6
CONTINUOUS
 62
         7
100
AcDbLine
 10
12.6473302383
 20
5.3095422169
 30
0.0
 11
13.1450289324
 21
5.6530996155
 31
0.0
  0
LINE
  5
DD
100
AcDbEntity
  8
PUZZLE
  6
CONTINUOUS
 62
         7
100
AcDbLine
 10
11.2713058089
 20
7.4027749166
 30
0.0
 11
11.6618011345
 21
7.5622794624
 31
0.0
  0
LINE
  5
DE
100
AcDbEntity
  8
PUZZLE
  6
CONTINUOUS
 62
         7
100
AcDbLine
 10
10.8928756653
 20
7.2481986024
 30
0.0
 11
9.615794686
 21
6.7265528664
 31
0.0
  0
LINE
  5
DF
100
AcDbEntity
  8
PUZZLE
  6
CONTINUOUS
 62
         7
100
AcDbLine
 10
10.3664486126
 20
8.9861738688
 30
0.0
 11
9.4183535173
 21
8.8220688288
 31
0.0
  0
LINE
  5
E0
100
AcDbEntity
  8
PUZZLE
  6
CONTINUOUS
 62
         7
100
AcDbLine
 10
10.6473964345
 20
9.0348020055
 30
0.0
 11
10.9373057034
 21
9.0849781974
 31
0.0
  0
LINE
  5
E1
100
AcDbEntity
  8
PUZZLE
  6
CONTINUOUS
 62
         7
100
AcDbLine
 10
10.466796582
 20
10.2400172685
 30
0.0
 11
10.6718007092
 21
10.2307841156
 31
0.0
  0
LINE
  5
E2
100
AcDbEntity
  8
PUZZLE
  6
CONTINUOUS
 62
         7
100
AcDbLine
 10
10.2681264925
 20
10.2489651435
 30
0.0
 11
9.5976783352
 21
10.2791613665
 31
0.0
  0
LINE
  5
E3
100
AcDbEntity
  8
PUZZLE
  6
CONTINUOUS
 62
         7
100
AcDbLine
 10
10.3902522274
 20
11.1239386753
 30
0.0
 11
9.9380555395
 21
11.244916304
 31
0.0
  0
LINE
  5
E4
100
AcDbEntity
  8
PUZZLE
  6
CONTINUOUS
 62
         7
100
AcDbLine
 10
10.524252404
 20
11.0880900956
 30
0.0
 11
10.6625290697
 21
11.0511005367
 31
0.0
  0
LINE
  5
E5
100
AcDbEntity
  8
PUZZLE
  6
CONTINUOUS
 62
         7
100
AcDbLine
 10
10.6904050854
 20
11.6572186535
 30
0.0
 11
10.779059414
 21
11.6113054834
 31
0.0
  0
LINE
  5
E6
100
AcDbEntity
  8
PUZZLE
  6
CONTINUOUS
 62
         7
100
AcDbLine
 10
10.6044895888
 20
11.7017073578
 30
0.0
 11
10.3145540169
 21
11.8518353534
 31
0.0
  0
LINE
  5
E7
100
AcDbEntity
  8
PUZZLE
  6
CONTINUOUS
 62
         7
100
AcDbLine
 10
20.6156784698
 20
9.6187044898
 30
0.0
 11
20.4834553916
 21
10.4055474018
 31
0.0
  0
ARC
  5
E8
100
AcDbEntity
  8
PUZZLE
  6
CONTINUOUS
 62
         7
100
AcDbCircle
 10
20.4177711855
 20
9.5854476479
 30
0.0
 40
0.2006821136
100
AcDbArc
 50
216.8074470815
 51
9.5390059668
  0
ARC
  5
E9
100
AcDbEntity
  8
PUZZLE
  6
CONTINUOUS
 62
         7
100
AcDbCircle
 10
19.7421516118
 20
9.0798826589
 30
0.0
 40
0.64315304
100
AcDbArc
 50
36.8074470815
 51
342.2705648521
  0
ARC
  5
EA
100
AcDbEntity
  8
PUZZLE
  6
CONTINUOUS
 62
         7
100
AcDbCircle
 10
20.5459089511
 20
8.8229159179
 30
0.0
 40
0.2006821136
100
AcDbArc
 50
9.5390059668
 51
162.2705648521
  0
LINE
  5
EB
100
AcDbEntity
  8
PUZZLE
  6
CONTINUOUS
 62
         7
100
AcDbLine
 10
20.7438162354
 20
8.8561727598
 30
0.0
 11
21.1762434109
 21
6.2828530139
 31
0.0
  0
LINE
  5
EC
100
AcDbEntity
  8
PUZZLE
  6
CONTINUOUS
 62
         7
100
AcDbLine
 10
17.3179961123
 20
8.6062800064
 30
0.0
 11
17.2271969852
 21
6.7885092467
 31
0.0
  0
LINE
  5
ED
100
AcDbEntity
  8
PUZZLE
  6
CONTINUOUS
 62
         7
100
AcDbLine
 10
17.3449021306
 20
9.144930265
 30
0.0
 11
17.3726659717
 21
9.7007538738
 31
0.0
  0
LINE
  5
EE
100
AcDbEntity
  8
PUZZLE
  6
CONTINUOUS
 62
         7
100
AcDbLine
 10
15.0457930672
 20
9.3120298492
 30
0.0
 11
15.1479462748
 21
9.6865124265
 31
0.0
  0
LINE
  5
EF
100
AcDbEntity
  8
PUZZLE
  6
CONTINUOUS
 62
         7
100
AcDbLine
 10
14.9467960998
 20
8.949117706
 30
0.0
 11
14.6127129243
 21
7.7244050263
 31
0.0
  0
LINE
  5
F0
100
AcDbEntity
  8
PUZZLE
  6
CONTINUOUS
 62
         7
100
AcDbLine
 10
13.3828184813
 20
9.5377637493
 30
0.0
 11
12.9718249699
 21
8.7534941367
 31
0.0
  0
LINE
  5
F1
100
AcDbEntity
  8
PUZZLE
  6
CONTINUOUS
 62
         7
100
AcDbLine
 10
13.5046083284
 20
9.7701648675
 30
0.0
 11
13.6302851543
 21
10.0099772238
 31
0.0
  0
LINE
  5
F2
100
AcDbEntity
  8
PUZZLE
  6
CONTINUOUS
 62
         7
100
AcDbLine
 10
12.5233302097
 20
10.3130738691
 30
0.0
 11
12.6448548914
 21
10.4576173114
 31
0.0
  0
LINE
  5
F3
100
AcDbEntity
  8
PUZZLE
  6
CONTINUOUS
 62
         7
100
AcDbLine
 10
12.405560291
 20
10.1729964032
 30
0.0
 11
12.0081243951
 21
9.7002796541
 31
0.0
  0
LINE
  5
F4
100
AcDbEntity
  8
PUZZLE
  6
CONTINUOUS
 62
         7
100
AcDbLine
 10
11.8349514061
 20
10.7520815009
 30
0.0
 11
11.4934174426
 21
10.4895807694
 31
0.0
  0
LINE
  5
F5
100
AcDbEntity
  8
PUZZLE
  6
CONTINUOUS
 62
         7
100
AcDbLine
 10
11.9361580489
 20
10.829869281
 30
0.0
 11
12.0405923463
 21
10.9101413172
 31
0.0
  0
LINE
  5
F6
100
AcDbEntity
  8
PUZZLE
  6
CONTINUOUS
 62
         7
100
AcDbLine
 10
11.613556293
 20
11.2698644036
 30
0.0
 11
11.6967239035
 21
11.3089012649
 31
0.0
  0
LINE
  5
F7
100
AcDbEntity
  8
PUZZLE
  6
CONTINUOUS
 62
         7
100
AcDbLine
 10
11.5329624314
 20
11.2320301338
 30
0.0
 11
11.2609901287
 21
11.1043488478
 31
0.0
  0
LINE
  5
F8
100
AcDbEntity
  8
PUZZLE
  6
CONTINUOUS
 62
         7
100
AcDbLine
 10
16.9566286756
 20
6.1487476207
 30
0.0
 11
17.2271737827
 21
6.7885323357
 31
0.0
  0
ARC
  5
F9
100
AcDbEntity
  8
PUZZLE
  6
CONTINUOUS
 62
         7
100
AcDbCircle
 10
16.7957095727
 20
6.2167953169
 30
0.0
 40
0.1747153302
100
AcDbArc
 50
184.3464470815
 51
337.0780059668
  0
ARC
  5
FA
100
AcDbEntity
  8
PUZZLE
  6
CONTINUOUS
 62
         7
100
AcDbCircle
 10
16.0631732889
 20
6.1611184094
 30
0.0
 40
0.5599337867
100
AcDbArc
 50
4.3464470815
 51
309.8095648521
  0
ARC
  5
FB
100
AcDbEntity
  8
PUZZLE
  6
CONTINUOUS
 62
         7
100
AcDbCircle
 10
16.5335235309
 20
5.5967781087
 30
0.0
 40
0.1747153302
100
AcDbArc
 50
337.0780059668
 51
129.8095648521
  0
LINE
  5
FC
100
AcDbEntity
  8
PUZZLE
  6
CONTINUOUS
 62
         7
100
AcDbLine
 10
16.6944426338
 20
5.5287304125
 30
0.0
 11
15.8096420518
 21
3.4363551554
 31
0.0
  0
LINE
  5
FD
100
AcDbEntity
  8
PUZZLE
  6
CONTINUOUS
 62
         7
100
AcDbLine
 10
14.0611309041
 20
6.9459712291
 30
0.0
 11
13.1450289324
 21
5.6530996155
 31
0.0
  0
LINE
  5
FE
100
AcDbEntity
  8
PUZZLE
  6
CONTINUOUS
 62
         7
100
AcDbLine
 10
14.3325944874
 20
7.3290809393
 30
0.0
 11
14.6127129243
 21
7.7244050263
 31
0.0
  0
LINE
  5
FF
100
AcDbEntity
  8
PUZZLE
  6
CONTINUOUS
 62
         7
100
AcDbLine
 10
12.7217943303
 20
8.5261501491
 30
0.0
 11
12.9718212751
 21
8.7535041019
 31
0.0
  0
LINE
  5
100
100
AcDbEntity
  8
PUZZLE
  6
CONTINUOUS
 62
         7
100
AcDbLine
 10
12.4794924987
 20
8.3058207793
 30
0.0
 11
11.6618011345
 21
7.5622794624
 31
0.0
  0
LINE
  5
101
100
AcDbEntity
  8
PUZZLE
  6
CONTINUOUS
 62
         7
100
AcDbLine
 10
11.6056849834
 20
9.4690399416
 30
0.0
 11
10.9373057034
 21
9.0849781974
 31
0.0
  0
LINE
  5
102
100
AcDbEntity
  8
PUZZLE
  6
CONTINUOUS
 62
         7
100
AcDbLine
 10
11.8037452191
 20
9.5828477938
 30
0.0
 11
12.0081238577
 21
9.7002835051
 31
0.0
  0
LINE
  5
103
100
AcDbEntity
  8
PUZZLE
  6
CONTINUOUS
 62
         7
100
AcDbLine
 10
11.3366058462
 20
10.440187258
 30
0.0
 11
11.4934174163
 21
10.4895804315
 31
0.0
  0
LINE
  5
104
100
AcDbEntity
  8
PUZZLE
  6
CONTINUOUS
 62
         7
100
AcDbLine
 10
11.1846393025
 20
10.3923201913
 30
0.0
 11
10.6718007092
 21
10.2307841156
 31
0.0
  0
LINE
  5
105
100
AcDbEntity
  8
PUZZLE
  6
CONTINUOUS
 62
         7
100
AcDbLine
 10
11.0360740309
 20
11.0843376008
 30
0.0
 11
10.6625290697
 21
11.0511005367
 31
0.0
  0
LINE
  5
106
100
AcDbEntity
  8
PUZZLE
  6
CONTINUOUS
 62
         7
100
AcDbLine
 10
11.146766962
 20
11.0941874838
 30
0.0
 11
11.2609917031
 21
11.1043540452
 31
0.0
  0
LINE
  5
107
100
AcDbEntity
  8
PUZZLE
  6
CONTINUOUS
 62
         7
100
AcDbLine
 10
11.1153894689
 20
11.5681439797
 30
0.0
 11
11.1947238516
 21
11.5579573986
 31
0.0
  0
LINE
  5
108
100
AcDbEntity
  8
PUZZLE
  6
CONTINUOUS
 62
         7
100
AcDbLine
 10
11.0385076569
 20
11.5780113079
 30
0.0
 11
10.779059414
 21
11.6113054834
 31
0.0
  0
ARC
  5
109
100
AcDbEntity
  8
PUZZLE
  6
CONTINUOUS
 62
         7
100
AcDbCircle
 10
21.1559643276
 20
11.9280348193
 30
0.0
 40
0.7387318969
100
AcDbArc
 50
322.4326997471
 51
267.8958175177
  0
ARC
  5
10A
100
AcDbEntity
  8
PUZZLE
  6
CONTINUOUS
 62
         7
100
AcDbCircle
 10
21.1203771719
 20
10.9594510172
 30
0.0
 40
0.2305054462
100
AcDbArc
 50
295.1642586324
 51
87.8958175177
  0
ARC
  5
10B
100
AcDbEntity
  8
PUZZLE
  6
CONTINUOUS
 62
         7
100
AcDbCircle
 10
21.9242184201
 20
11.3370977021
 30
0.0
 40
0.2305054462
100
AcDbArc
 50
142.4326997471
 51
295.1642586324
  0
LINE
  5
10C
100
AcDbEntity
  8
PUZZLE
  6
CONTINUOUS
 62
         7
100
AcDbLine
 10
22.0222327412
 20
11.1284689563
 30
0.0
 11
24.6224007046
 21
12.3500345496
 31
0.0
  0
LINE
  5
10D
100
AcDbEntity
  8
PUZZLE
  6
CONTINUOUS
 62
         7
100
AcDbLine
 10
21.2183914929
 20
10.7508222715
 30
0.0
 11
20.4834553916
 21
10.4055474018
 31
0.0
  0
ARC
  5
10E
100
AcDbEntity
  8
PUZZLE
  6
CONTINUOUS
 62
         7
100
AcDbCircle
 10
18.058795105
 20
10.6372186496
 30
0.0
 40
0.5152682327
100
AcDbArc
 50
310.033812569
 51
255.4969303396
  0
ARC
  5
10F
100
AcDbEntity
  8
PUZZLE
  6
CONTINUOUS
 62
         7
100
AcDbCircle
 10
17.8894914801
 20
9.982714765
 30
0.0
 40
0.160778402
100
AcDbArc
 50
282.7653714543
 51
75.4969303396
  0
ARC
  5
110
100
AcDbEntity
  8
PUZZLE
  6
CONTINUOUS
 62
         7
100
AcDbCircle
 10
18.4936550527
 20
10.1195934202
 30
0.0
 40
0.160778402
100
AcDbArc
 50
130.033812569
 51
282.7653714543
  0
LINE
  5
111
100
AcDbEntity
  8
PUZZLE
  6
CONTINUOUS
 62
         7
100
AcDbLine
 10
18.5291805028
 20
9.9627889657
 30
0.0
 11
20.4834553916
 21
10.4055474018
 31
0.0
  0
LINE
  5
112
100
AcDbEntity
  8
PUZZLE
  6
CONTINUOUS
 62
         7
100
AcDbLine
 10
17.9250169302
 20
9.8259103106
 30
0.0
 11
17.3726421653
 21
9.7007648725
 31
0.0
  0
ARC
  5
113
100
AcDbEntity
  8
PUZZLE
  6
CONTINUOUS
 62
         7
100
AcDbCircle
 10
15.7556105729
 20
10.2216911877
 30
0.0
 40
0.3593924039
100
AcDbArc
 50
297.6354042319
 51
243.0985220025
  0
ARC
  5
114
100
AcDbEntity
  8
PUZZLE
  6
CONTINUOUS
 62
         7
100
AcDbCircle
 10
15.5422617861
 20
9.8011846407
 30
0.0
 40
0.1121406924
100
AcDbArc
 50
270.3669631172
 51
63.0985220025
  0
ARC
  5
115
100
AcDbEntity
  8
PUZZLE
  6
CONTINUOUS
 62
         7
100
AcDbCircle
 10
15.9743281582
 20
9.8039519403
 30
0.0
 40
0.1121406924
100
AcDbArc
 50
117.6354042319
 51
270.3669631172
  0
LINE
  5
116
100
AcDbEntity
  8
PUZZLE
  6
CONTINUOUS
 62
         7
100
AcDbLine
 10
15.9750463824
 20
9.691813548
 30
0.0
 11
17.3726421653
 21
9.7007648725
 31
0.0
  0
LINE
  5
117
100
AcDbEntity
  8
PUZZLE
  6
CONTINUOUS
 62
         7
100
AcDbLine
 10
15.5429800103
 20
9.6890462483
 30
0.0
 11
15.1479503006
 21
9.6865161612
 31
0.0
  0
ARC
  5
118
100
AcDbEntity
  8
PUZZLE
  6
CONTINUOUS
 62
         7
100
AcDbCircle
 10
14.124387841
 20
10.2835650991
 30
0.0
 40
0.2506775321
100
AcDbArc
 50
285.2365170538
 51
230.6996348244
  0
ARC
  5
119
100
AcDbEntity
  8
PUZZLE
  6
CONTINUOUS
 62
         7
100
AcDbCircle
 10
13.9160697326
 20
10.0290534152
 30
0.0
 40
0.0782185481
100
AcDbArc
 50
257.9680759391
 51
50.6996348244
  0
ARC
  5
11A
100
AcDbEntity
  8
PUZZLE
  6
CONTINUOUS
 62
         7
100
AcDbCircle
 10
14.210823103
 20
9.9662299812
 30
0.0
 40
0.0782185481
100
AcDbArc
 50
105.2365170538
 51
257.9680759391
  0
LINE
  5
11B
100
AcDbEntity
  8
PUZZLE
  6
CONTINUOUS
 62
         7
100
AcDbLine
 10
14.1945179255
 20
9.8897297691
 30
0.0
 11
15.1479503006
 21
9.6865161612
 31
0.0
  0
LINE
  5
11C
100
AcDbEntity
  8
PUZZLE
  6
CONTINUOUS
 62
         7
100
AcDbLine
 10
13.8997645551
 20
9.9525532031
 30
0.0
 11
13.630277398
 21
10.009991422
 31
0.0
  0
ARC
  5
11D
100
AcDbEntity
  8
PUZZLE
  6
CONTINUOUS
 62
         7
100
AcDbCircle
 10
13.0224245108
 20
10.5699881604
 30
0.0
 40
0.1748433105
100
AcDbArc
 50
272.8380000069
 51
218.3011177775
  0
ARC
  5
11E
100
AcDbEntity
  8
PUZZLE
  6
CONTINUOUS
 62
         7
100
AcDbCircle
 10
12.8424000434
 20
10.4278077003
 30
0.0
 40
0.0545561055
100
AcDbArc
 50
245.5695588922
 51
38.3011177775
  0
ARC
  5
11F
100
AcDbEntity
  8
PUZZLE
  6
CONTINUOUS
 62
         7
100
AcDbCircle
 10
13.0337825788
 20
10.3408700983
 30
0.0
 40
0.0545561055
100
AcDbArc
 50
92.8380000069
 51
245.5695588922
  0
LINE
  5
120
100
AcDbEntity
  8
PUZZLE
  6
CONTINUOUS
 62
         7
100
AcDbLine
 10
13.0112188165
 20
10.2911987255
 30
0.0
 11
13.6302797796
 21
10.0099835378
 31
0.0
  0
LINE
  5
121
100
AcDbEntity
  8
PUZZLE
  6
CONTINUOUS
 62
         7
100
AcDbLine
 10
12.8198362811
 20
10.3781363275
 30
0.0
 11
12.6448590269
 21
10.4576216518
 31
0.0
  0
ARC
  5
122
100
AcDbEntity
  8
PUZZLE
  6
CONTINUOUS
 62
         7
100
AcDbCircle
 10
12.3146358231
 20
10.930152367
 30
0.0
 40
0.1219538563
100
AcDbArc
 50
260.4391128288
 51
205.9022305994
  0
ARC
  5
123
100
AcDbEntity
  8
PUZZLE
  6
CONTINUOUS
 62
         7
100
AcDbCircle
 10
12.170703055
 20
10.8602554451
 30
0.0
 40
0.0380530855
100
AcDbArc
 50
233.1706717141
 51
25.9022305994
  0
ARC
  5
124
100
AcDbEntity
  8
PUZZLE
  6
CONTINUOUS
 62
         7
100
AcDbCircle
 10
12.2880593709
 20
10.7723679773
 30
0.0
 40
0.0380530855
100
AcDbArc
 50
80.4391128288
 51
233.1706717141
  0
LINE
  5
125
100
AcDbEntity
  8
PUZZLE
  6
CONTINUOUS
 62
         7
100
AcDbLine
 10
12.2652490807
 20
10.7419093499
 30
0.0
 11
12.6448590269
 21
10.4576216518
 31
0.0
  0
LINE
  5
126
100
AcDbEntity
  8
PUZZLE
  6
CONTINUOUS
 62
         7
100
AcDbLine
 10
12.1478927647
 20
10.8297968177
 30
0.0
 11
12.0405962139
 21
10.9101505855
 31
0.0
  0
ARC
  5
127
100
AcDbEntity
  8
PUZZLE
  6
CONTINUOUS
 62
         7
100
AcDbCircle
 10
11.886406041
 20
11.2815005955
 30
0.0
 40
0.0850611134
100
AcDbArc
 50
248.0407044917
 51
193.5038222623
  0
ARC
  5
128
100
AcDbEntity
  8
PUZZLE
  6
CONTINUOUS
 62
         7
100
AcDbCircle
 10
11.7778887585
 20
11.2554402443
 30
0.0
 40
0.0265414963
100
AcDbArc
 50
220.772263377
 51
13.5038222623
  0
ARC
  5
129
100
AcDbEntity
  8
PUZZLE
  6
CONTINUOUS
 62
         7
100
AcDbCircle
 10
11.8446724904
 20
11.1779947828
 30
0.0
 40
0.0265414963
100
AcDbArc
 50
68.0407044917
 51
220.772263377
  0
LINE
  5
12A
100
AcDbEntity
  8
PUZZLE
  6
CONTINUOUS
 62
         7
100
AcDbLine
 10
11.8245723157
 20
11.1606617507
 30
0.0
 11
12.0405962139
 21
10.9101505855
 31
0.0
  0
LINE
  5
12B
100
AcDbEntity
  8
PUZZLE
  6
CONTINUOUS
 62
         7
100
AcDbLine
 10
11.7577885839
 20
11.2381072121
 30
0.0
 11
11.6967295431
 21
11.3089140606
 31
0.0
  0
ARC
  5
12C
100
AcDbEntity
  8
PUZZLE
  6
CONTINUOUS
 62
         7
100
AcDbCircle
 10
18.9167233004
 20
14.6482048978
 30
0.0
 40
0.5918390961
100
AcDbArc
 50
342.4950997471
 51
287.9582175177
  0
ARC
  5
12D
100
AcDbEntity
  8
PUZZLE
  6
CONTINUOUS
 62
         7
100
AcDbCircle
 10
19.1561394107
 20
13.9095254097
 30
0.0
 40
0.1846706978
100
AcDbArc
 50
315.2266586324
 51
107.9582175177
  0
ARC
  5
12E
100
AcDbEntity
  8
PUZZLE
  6
CONTINUOUS
 62
         7
100
AcDbCircle
 10
19.6572738802
 20
14.4146405626
 30
0.0
 40
0.1846706978
100
AcDbArc
 50
162.4950997471
 51
315.2266586324
  0
LINE
  5
12F
100
AcDbEntity
  8
PUZZLE
  6
CONTINUOUS
 62
         7
100
AcDbLine
 10
19.7883713339
 20
14.2845762544
 30
0.0
 11
21.4093802033
 21
15.9184613543
 31
0.0
  0
LINE
  5
130
100
AcDbEntity
  8
PUZZLE
  6
CONTINUOUS
 62
         7
100
AcDbLine
 10
19.2872368644
 20
13.7794611015
 30
0.0
 11
18.8290595637
 21
13.3176443411
 31
0.0
  0
ARC
  5
131
100
AcDbEntity
  8
PUZZLE
  6
CONTINUOUS
 62
         7
100
AcDbCircle
 10
16.94073281
 20
12.8256145207
 30
0.0
 40
0.4128099604
100
AcDbArc
 50
330.096212569
 51
275.5593303396
  0
ARC
  5
132
100
AcDbEntity
  8
PUZZLE
  6
CONTINUOUS
 62
         7
100
AcDbCircle
 10
16.9932028797
 20
12.2865436132
 30
0.0
 40
0.1288084953
100
AcDbArc
 50
302.8277714543
 51
95.5593303396
  0
ARC
  5
133
100
AcDbEntity
  8
PUZZLE
  6
CONTINUOUS
 62
         7
100
AcDbCircle
 10
17.4102422402
 20
12.5555933243
 30
0.0
 40
0.1288084953
100
AcDbArc
 50
150.096212569
 51
302.8277714543
  0
LINE
  5
134
100
AcDbEntity
  8
PUZZLE
  6
CONTINUOUS
 62
         7
100
AcDbLine
 10
17.4800713313
 20
12.4473550385
 30
0.0
 11
18.8290595637
 21
13.3176443411
 31
0.0
  0
LINE
  5
135
100
AcDbEntity
  8
PUZZLE
  6
CONTINUOUS
 62
         7
100
AcDbLine
 10
17.0630319708
 20
12.1783053274
 30
0.0
 11
16.6817411595
 21
11.9323185158
 31
0.0
  0
ARC
  5
136
100
AcDbEntity
  8
PUZZLE
  6
CONTINUOUS
 62
         7
100
AcDbCircle
 10
15.321691845
 20
11.8799264389
 30
0.0
 40
0.2879291883
100
AcDbArc
 50
317.6978042319
 51
263.1609220025
  0
ARC
  5
137
100
AcDbEntity
  8
PUZZLE
  6
CONTINUOUS
 62
         7
100
AcDbCircle
 10
15.2767063898
 20
11.504843146
 30
0.0
 40
0.0898421285
100
AcDbArc
 50
290.4293631172
 51
83.1609220025
  0
ARC
  5
138
100
AcDbEntity
  8
PUZZLE
  6
CONTINUOUS
 62
         7
100
AcDbCircle
 10
15.601093514
 20
11.6256709077
 30
0.0
 40
0.0898421285
100
AcDbArc
 50
137.6978042319
 51
290.4293631172
  0
LINE
  5
139
100
AcDbEntity
  8
PUZZLE
  6
CONTINUOUS
 62
         7
100
AcDbLine
 10
15.6324531194
 20
11.5414795589
 30
0.0
 11
16.6817411595
 21
11.9323185158
 31
0.0
  0
LINE
  5
13A
100
AcDbEntity
  8
PUZZLE
  6
CONTINUOUS
 62
         7
100
AcDbLine
 10
15.3080659952
 20
11.4206517972
 30
0.0
 11
15.011485285
 21
11.3101813725
 31
0.0
  0
ARC
  5
13B
100
AcDbEntity
  8
PUZZLE
  6
CONTINUOUS
 62
         7
100
AcDbCircle
 10
14.0771249706
 20
11.4781784367
 30
0.0
 40
0.2008316747
100
AcDbArc
 50
305.2989170538
 51
250.7620348244
  0
ARC
  5
13C
100
AcDbEntity
  8
PUZZLE
  6
CONTINUOUS
 62
         7
100
AcDbCircle
 10
13.9903047645
 20
11.2293956723
 30
0.0
 40
0.0626652172
100
AcDbArc
 50
278.0304759391
 51
70.7620348244
  0
ARC
  5
13D
100
AcDbEntity
  8
PUZZLE
  6
CONTINUOUS
 62
         7
100
AcDbCircle
 10
14.2293845939
 20
11.2631258404
 30
0.0
 40
0.0626652172
100
AcDbArc
 50
125.2989170538
 51
278.0304759391
  0
LINE
  5
13E
100
AcDbEntity
  8
PUZZLE
  6
CONTINUOUS
 62
         7
100
AcDbLine
 10
14.2381389129
 20
11.2010751245
 30
0.0
 11
15.011485285
 21
11.3101813725
 31
0.0
  0
LINE
  5
13F
100
AcDbEntity
  8
PUZZLE
  6
CONTINUOUS
 62
         7
100
AcDbLine
 10
13.9990590835
 20
11.1673449564
 30
0.0
 11
13.7804731399
 21
11.136506133
 31
0.0
  0
ARC
  5
140
100
AcDbEntity
  8
PUZZLE
  6
CONTINUOUS
 62
         7
100
AcDbCircle
 10
13.169134422
 20
11.3908697962
 30
0.0
 40
0.1400766737
100
AcDbArc
 50
292.9004000069
 51
238.3635177775
  0
ARC
  5
141
100
AcDbEntity
  8
PUZZLE
  6
CONTINUOUS
 62
         7
100
AcDbCircle
 10
13.0727342328
 20
11.2343968556
 30
0.0
 40
0.043707922
100
AcDbArc
 50
265.6319588922
 51
58.3635177775
  0
ARC
  5
142
100
AcDbEntity
  8
PUZZLE
  6
CONTINUOUS
 62
         7
100
AcDbCircle
 10
13.2406505918
 20
11.2215706081
 30
0.0
 40
0.043707922
100
AcDbArc
 50
112.9004000069
 51
265.6319588922
  0
LINE
  5
143
100
AcDbEntity
  8
PUZZLE
  6
CONTINUOUS
 62
         7
100
AcDbLine
 10
13.2373216709
 20
11.1779896405
 30
0.0
 11
13.780477099
 21
11.1365008543
 31
0.0
  0
LINE
  5
144
100
AcDbEntity
  8
PUZZLE
  6
CONTINUOUS
 62
         7
100
AcDbLine
 10
13.0694053119
 20
11.190815888
 30
0.0
 11
12.9158827171
 21
11.2025426715
 31
0.0
  0
ARC
  5
145
100
AcDbEntity
  8
PUZZLE
  6
CONTINUOUS
 62
         7
100
AcDbCircle
 10
12.5375101006
 20
11.467385823
 30
0.0
 40
0.0977039984
100
AcDbArc
 50
280.5015128288
 51
225.9646305994
  0
ARC
  5
146
100
AcDbEntity
  8
PUZZLE
  6
CONTINUOUS
 62
         7
100
AcDbCircle
 10
12.4484046344
 20
11.3752283288
 30
0.0
 40
0.0304864374
100
AcDbArc
 50
253.2330717141
 51
45.9646305994
  0
ARC
  5
147
100
AcDbEntity
  8
PUZZLE
  6
CONTINUOUS
 62
         7
100
AcDbCircle
 10
12.5608742801
 20
11.3413425647
 30
0.0
 40
0.0304864374
100
AcDbArc
 50
100.5015128288
 51
253.2330717141
  0
LINE
  5
148
100
AcDbEntity
  8
PUZZLE
  6
CONTINUOUS
 62
         7
100
AcDbLine
 10
12.5520795778
 20
11.3121522225
 30
0.0
 11
12.9158827171
 21
11.2025426715
 31
0.0
  0
LINE
  5
149
100
AcDbEntity
  8
PUZZLE
  6
CONTINUOUS
 62
         7
100
AcDbLine
 10
12.4396099321
 20
11.3460379866
 30
0.0
 11
12.3367811669
 21
11.3770190683
 31
0.0
  0
ARC
  5
14A
100
AcDbEntity
  8
PUZZLE
  6
CONTINUOUS
 62
         7
100
AcDbCircle
 10
17.2754489759
 20
19.0644228347
 30
0.0
 40
0.679800594
100
AcDbArc
 50
14.9560997471
 51
320.4192175177
  0
ARC
  5
14B
100
AcDbEntity
  8
PUZZLE
  6
CONTINUOUS
 62
         7
100
AcDbCircle
 10
17.9628740966
 20
18.4961235744
 30
0.0
 40
0.2121171969
100
AcDbArc
 50
347.6876586324
 51
140.4192175177
  0
ARC
  5
14C
100
AcDbEntity
  8
PUZZLE
  6
CONTINUOUS
 62
         7
100
AcDbCircle
 10
18.1371520268
 20
19.294607973
 30
0.0
 40
0.2121171969
100
AcDbArc
 50
194.9560997471
 51
347.6876586324
  0
LINE
  5
14D
100
AcDbEntity
  8
PUZZLE
  6
CONTINUOUS
 62
         7
100
AcDbLine
 10
18.3443904572
 20
19.2493759249
 30
0.0
 11
18.9081235223
 21
21.8322162019
 31
0.0
  0
LINE
  5
14E
100
AcDbEntity
  8
PUZZLE
  6
CONTINUOUS
 62
         7
100
AcDbLine
 10
18.1701125271
 20
18.4508915263
 30
0.0
 11
18.010773674
 21
17.7208530864
 31
0.0
  0
ARC
  5
14F
100
AcDbEntity
  8
PUZZLE
  6
CONTINUOUS
 62
         7
100
AcDbCircle
 10
16.4840180822
 20
16.0798524036
 30
0.0
 40
0.4741634308
100
AcDbArc
 50
2.557212569
 51
308.0203303396
  0
ARC
  5
150
100
AcDbEntity
  8
PUZZLE
  6
CONTINUOUS
 62
         7
100
AcDbCircle
 10
16.8672048388
 20
15.5897542722
 30
0.0
 40
0.14795253
100
AcDbArc
 50
335.2887714543
 51
128.0203303396
  0
ARC
  5
151
100
AcDbEntity
  8
PUZZLE
  6
CONTINUOUS
 62
         7
100
AcDbCircle
 10
17.1055145197
 20
16.1076093282
 30
0.0
 40
0.14795253
100
AcDbArc
 50
182.557212569
 51
335.2887714543
  0
LINE
  5
152
100
AcDbEntity
  8
PUZZLE
  6
CONTINUOUS
 62
         7
100
AcDbLine
 10
17.2399184845
 20
16.0457584964
 30
0.0
 11
18.010773674
 21
17.7208530864
 31
0.0
  0
LINE
  5
153
100
AcDbEntity
  8
PUZZLE
  6
CONTINUOUS
 62
         7
100
AcDbLine
 10
17.0016088035
 20
15.5279034404
 30
0.0
 11
16.7837269914
 21
15.0544388394
 31
0.0
  0
ARC
  5
154
100
AcDbEntity
  8
PUZZLE
  6
CONTINUOUS
 62
         7
100
AcDbCircle
 10
15.4979217375
 20
14.1651980241
 30
0.0
 40
0.330722378
100
AcDbArc
 50
350.1588042319
 51
295.6219220025
  0
ARC
  5
155
100
AcDbEntity
  8
PUZZLE
  6
CONTINUOUS
 62
         7
100
AcDbCircle
 10
15.6855608873
 20
13.7739491402
 30
0.0
 40
0.1031948256
100
AcDbArc
 50
322.8903631172
 51
115.6219220025
  0
ARC
  5
156
100
AcDbEntity
  8
PUZZLE
  6
CONTINUOUS
 62
         7
100
AcDbCircle
 10
15.9254539636
 20
14.0910337786
 30
0.0
 40
0.1031948256
100
AcDbArc
 50
170.1588042319
 51
322.8903631172
  0
LINE
  5
157
100
AcDbEntity
  8
PUZZLE
  6
CONTINUOUS
 62
         7
100
AcDbLine
 10
16.0077500271
 20
14.0287719928
 30
0.0
 11
16.7837269914
 21
15.0544388394
 31
0.0
  0
LINE
  5
158
100
AcDbEntity
  8
PUZZLE
  6
CONTINUOUS
 62
         7
100
AcDbLine
 10
15.7678569508
 20
13.7116873544
 30
0.0
 11
15.5485274717
 21
13.421783162
 31
0.0
  0
ARC
  5
159
100
AcDbEntity
  8
PUZZLE
  6
CONTINUOUS
 62
         7
100
AcDbCircle
 10
14.539413811
 20
13.0085700134
 30
0.0
 40
0.2306800829
100
AcDbArc
 50
337.7599170538
 51
283.2230348244
  0
ARC
  5
15A
100
AcDbEntity
  8
PUZZLE
  6
CONTINUOUS
 62
         7
100
AcDbCircle
 10
14.6086446826
 20
12.7139355459
 30
0.0
 40
0.0719787729
100
AcDbArc
 50
310.4914759391
 51
103.2230348244
  0
ARC
  5
15B
100
AcDbEntity
  8
PUZZLE
  6
CONTINUOUS
 62
         7
100
AcDbCircle
 10
14.8195566726
 20
12.894017143
 30
0.0
 40
0.0719787729
100
AcDbArc
 50
157.7599170538
 51
310.4914759391
  0
LINE
  5
15C
100
AcDbEntity
  8
PUZZLE
  6
CONTINUOUS
 62
         7
100
AcDbLine
 10
14.8662950028
 20
12.8392771007
 30
0.0
 11
15.5485274717
 21
13.421783162
 31
0.0
  0
LINE
  5
15D
100
AcDbEntity
  8
PUZZLE
  6
CONTINUOUS
 62
         7
100
AcDbLine
 10
14.6553830129
 20
12.6591955036
 30
0.0
 11
14.4625503659
 21
12.4945504731
 31
0.0
  0
ARC
  5
15E
100
AcDbEntity
  8
PUZZLE
  6
CONTINUOUS
 62
         7
100
AcDbCircle
 10
13.7132515254
 20
12.364181757
 30
0.0
 40
0.1608954302
100
AcDbArc
 50
325.3614000069
 51
270.8245177775
  0
ARC
  5
15F
100
AcDbEntity
  8
PUZZLE
  6
CONTINUOUS
 62
         7
100
AcDbCircle
 10
13.716289257
 20
12.1531042159
 30
0.0
 40
0.0502039686
100
AcDbArc
 50
298.0929588922
 51
90.8245177775
  0
ARC
  5
160
100
AcDbEntity
  8
PUZZLE
  6
CONTINUOUS
 62
         7
100
AcDbCircle
 10
13.8869343214
 20
12.244193247
 30
0.0
 40
0.0502039686
100
AcDbArc
 50
145.3614000069
 51
298.0929588922
  0
LINE
  5
161
100
AcDbEntity
  8
PUZZLE
  6
CONTINUOUS
 62
         7
100
AcDbLine
 10
13.9105755446
 20
12.1999040719
 30
0.0
 11
14.4625574572
 21
12.494547798
 31
0.0
  0
LINE
  5
162
100
AcDbEntity
  8
PUZZLE
  6
CONTINUOUS
 62
         7
100
AcDbLine
 10
13.7399304801
 20
12.1088150408
 30
0.0
 11
13.5839130841
 21
12.0255341473
 31
0.0
  0
ARC
  5
163
100
AcDbEntity
  8
PUZZLE
  6
CONTINUOUS
 62
         7
100
AcDbCircle
 10
13.0539349997
 20
12.0489443236
 30
0.0
 40
0.1122251582
100
AcDbArc
 50
312.9625128288
 51
258.4256305994
  0
ARC
  5
164
100
AcDbEntity
  8
PUZZLE
  6
CONTINUOUS
 62
         7
100
AcDbCircle
 10
13.0243922863
 20
11.9046958751
 30
0.0
 40
0.0350174539
100
AcDbArc
 50
285.6940717141
 51
78.4256305994
  0
ARC
  5
165
100
AcDbEntity
  8
PUZZLE
  6
CONTINUOUS
 62
         7
100
AcDbCircle
 10
13.1542837417
 20
11.9411922155
 30
0.0
 40
0.0350174539
100
AcDbArc
 50
132.9625128288
 51
285.6940717141
  0
LINE
  5
166
100
AcDbEntity
  8
PUZZLE
  6
CONTINUOUS
 62
         7
100
AcDbLine
 10
13.1637559923
 20
11.9074802214
 30
0.0
 11
13.5839130841
 21
12.0255341473
 31
0.0
  0
LINE
  5
167
100
AcDbEntity
  8
PUZZLE
  6
CONTINUOUS
 62
         7
100
AcDbLine
 10
13.0338645369
 20
11.870983881
 30
0.0
 11
12.9151073568
 21
11.8376160012
 31
0.0
  0
ARC
  5
168
100
AcDbEntity
  8
PUZZLE
  6
CONTINUOUS
 62
         7
100
AcDbCircle
 10
12.5575817918
 20
11.9329308511
 30
0.0
 40
0.0782754822
100
AcDbArc
 50
300.5641044917
 51
246.0272222623
  0
ARC
  5
169
100
AcDbEntity
  8
PUZZLE
  6
CONTINUOUS
 62
         7
100
AcDbCircle
 10
12.5158546543
 20
11.8390902002
 30
0.0
 40
0.0244241856
100
AcDbArc
 50
273.295663377
 51
66.0272222623
  0
ARC
  5
16A
100
AcDbEntity
  8
PUZZLE
  6
CONTINUOUS
 62
         7
100
AcDbCircle
 10
12.609804785
 20
11.8445001961
 30
0.0
 40
0.0244241856
100
AcDbArc
 50
120.5641044917
 51
273.295663377
  0
LINE
  5
16B
100
AcDbEntity
  8
PUZZLE
  6
CONTINUOUS
 62
         7
100
AcDbLine
 10
12.6112088939
 20
11.820116404
 30
0.0
 11
12.9151073568
 21
11.8376160012
 31
0.0
  0
LINE
  5
16C
100
AcDbEntity
  8
PUZZLE
  6
CONTINUOUS
 62
         7
100
AcDbLine
 10
12.5172587632
 20
11.8147064081
 30
0.0
 11
12.4313620232
 21
11.8097601562
 31
0.0
  0
ARC
  5
16D
100
AcDbEntity
  8
PUZZLE
  6
CONTINUOUS
 62
         7
100
AcDbCircle
 10
14.0351753385
 20
18.9521434301
 30
0.0
 40
0.5446259608
100
AcDbArc
 50
35.0184997471
 51
340.4816175177
  0
ARC
  5
16E
100
AcDbEntity
  8
PUZZLE
  6
CONTINUOUS
 62
         7
100
AcDbCircle
 10
14.7086772163
 20
18.7134006993
 30
0.0
 40
0.1699388514
100
AcDbArc
 50
7.7500586324
 51
160.4816175177
  0
ARC
  5
16F
100
AcDbEntity
  8
PUZZLE
  6
CONTINUOUS
 62
         7
100
AcDbCircle
 10
14.6203801993
 20
19.3621899418
 30
0.0
 40
0.1699388514
100
AcDbArc
 50
215.0184997471
 51
7.7500586324
  0
LINE
  5
170
100
AcDbEntity
  8
PUZZLE
  6
CONTINUOUS
 62
         7
100
AcDbLine
 10
14.7887667884
 20
19.3851065264
 30
0.0
 11
14.5031543303
 21
21.4837311081
 31
0.0
  0
LINE
  5
171
100
AcDbEntity
  8
PUZZLE
  6
CONTINUOUS
 62
         7
100
AcDbLine
 10
14.8770638053
 20
18.7363172838
 30
0.0
 11
14.9577920157
 21
18.1431421544
 31
0.0
  0
ARC
  5
172
100
AcDbEntity
  8
PUZZLE
  6
CONTINUOUS
 62
         7
100
AcDbCircle
 10
14.2598437631
 20
16.4886219989
 30
0.0
 40
0.3798786237
100
AcDbArc
 50
22.619612569
 51
328.0827303396
  0
ARC
  5
173
100
AcDbEntity
  8
PUZZLE
  6
CONTINUOUS
 62
         7
100
AcDbCircle
 10
14.6829016965
 20
16.2251146752
 30
0.0
 40
0.1185329779
100
AcDbArc
 50
355.3511714543
 51
148.0827303396
  0
ARC
  5
174
100
AcDbEntity
  8
PUZZLE
  6
CONTINUOUS
 62
         7
100
AcDbCircle
 10
14.7199168552
 20
16.6803167422
 30
0.0
 40
0.1185329779
100
AcDbArc
 50
202.619612569
 51
355.3511714543
  0
LINE
  5
175
100
AcDbEntity
  8
PUZZLE
  6
CONTINUOUS
 62
         7
100
AcDbLine
 10
14.8380598797
 20
16.6707098377
 30
0.0
 11
14.9577920157
 21
18.1431421544
 31
0.0
  0
LINE
  5
176
100
AcDbEntity
  8
PUZZLE
  6
CONTINUOUS
 62
         7
100
AcDbLine
 10
14.8010447211
 20
16.2155077707
 30
0.0
 11
14.7672024961
 21
15.7993255541
 31
0.0
  0
ARC
  5
177
100
AcDbEntity
  8
PUZZLE
  6
CONTINUOUS
 62
         7
100
AcDbCircle
 10
14.0439722995
 20
14.7767561633
 30
0.0
 40
0.2649600404
100
AcDbArc
 50
10.2212042319
 51
315.6843220025
  0
ARC
  5
178
100
AcDbEntity
  8
PUZZLE
  6
CONTINUOUS
 62
         7
100
AcDbCircle
 10
14.2927057968
 20
14.5338943978
 30
0.0
 40
0.0826750985
100
AcDbArc
 50
342.9527631172
 51
135.6843220025
  0
ARC
  5
179
100
AcDbEntity
  8
PUZZLE
  6
CONTINUOUS
 62
         7
100
AcDbCircle
 10
14.3860904703
 20
14.8384436582
 30
0.0
 40
0.0826750985
100
AcDbArc
 50
190.2212042319
 51
342.9527631172
  0
LINE
  5
17A
100
AcDbEntity
  8
PUZZLE
  6
CONTINUOUS
 62
         7
100
AcDbLine
 10
14.4651331051
 20
14.8142066246
 30
0.0
 11
14.7672024961
 21
15.7993255541
 31
0.0
  0
LINE
  5
17B
100
AcDbEntity
  8
PUZZLE
  6
CONTINUOUS
 62
         7
100
AcDbLine
 10
14.3717484316
 20
14.5096573643
 30
0.0
 11
14.2863686778
 21
14.2312140192
 31
0.0
  0
ARC
  5
17C
100
AcDbEntity
  8
PUZZLE
  6
CONTINUOUS
 62
         7
100
AcDbCircle
 10
13.6405330683
 20
13.6429184109
 30
0.0
 40
0.184810609
100
AcDbArc
 50
357.8223170538
 51
303.2854348244
  0
ARC
  5
17D
100
AcDbEntity
  8
PUZZLE
  6
CONTINUOUS
 62
         7
100
AcDbCircle
 10
13.7736068388
 20
13.4402206844
 30
0.0
 40
0.0576661872
100
AcDbArc
 50
330.5538759391
 51
123.2854348244
  0
ARC
  5
17E
100
AcDbEntity
  8
PUZZLE
  6
CONTINUOUS
 62
         7
100
AcDbCircle
 10
13.8828347461
 20
13.6337046352
 30
0.0
 40
0.0576661872
100
AcDbArc
 50
177.8223170538
 51
330.5538759391
  0
LINE
  5
17F
100
AcDbEntity
  8
PUZZLE
  6
CONTINUOUS
 62
         7
100
AcDbLine
 10
13.9330515197
 20
13.6053556529
 30
0.0
 11
14.2863686778
 21
14.2312140192
 31
0.0
  0
LINE
  5
180
100
AcDbEntity
  8
PUZZLE
  6
CONTINUOUS
 62
         7
100
AcDbLine
 10
13.8238236124
 20
13.4118717021
 30
0.0
 11
13.7239587043
 21
13.2349731654
 31
0.0
  0
ARC
  5
181
100
AcDbEntity
  8
PUZZLE
  6
CONTINUOUS
 62
         7
100
AcDbCircle
 10
13.1959099693
 20
12.9309347722
 30
0.0
 40
0.1289022532
100
AcDbArc
 50
345.4238000069
 51
290.8869177775
  0
ARC
  5
182
100
AcDbEntity
  8
PUZZLE
  6
CONTINUOUS
 62
         7
100
AcDbCircle
 10
13.2562066494
 20
12.7729251292
 30
0.0
 40
0.0402211838
100
AcDbArc
 50
318.1553588922
 51
110.8869177775
  0
ARC
  5
183
100
AcDbEntity
  8
PUZZLE
  6
CONTINUOUS
 62
         7
100
AcDbCircle
 10
13.3595899643
 20
12.8883719231
 30
0.0
 40
0.0402211838
100
AcDbArc
 50
165.4238000069
 51
318.1553588922
  0
LINE
  5
184
100
AcDbEntity
  8
PUZZLE
  6
CONTINUOUS
 62
         7
100
AcDbLine
 10
13.3895529948
 20
12.8615398448
 30
0.0
 11
13.723964776
 21
13.2349731012
 31
0.0
  0
LINE
  5
185
100
AcDbEntity
  8
PUZZLE
  6
CONTINUOUS
 62
         7
100
AcDbLine
 10
13.2861696798
 20
12.7460930508
 30
0.0
 11
13.1916483665
 21
12.6405423382
 31
0.0
  0
ARC
  5
186
100
AcDbEntity
  8
PUZZLE
  6
CONTINUOUS
 62
         7
100
AcDbCircle
 10
12.7863842803
 20
12.5125050219
 30
0.0
 40
0.0899097987
100
AcDbArc
 50
333.0249128288
 51
278.4880305994
  0
ARC
  5
187
100
AcDbEntity
  8
PUZZLE
  6
CONTINUOUS
 62
         7
100
AcDbCircle
 10
12.8037961296
 20
12.3958328937
 30
0.0
 40
0.0280544246
100
AcDbArc
 50
305.7564717141
 51
98.4880305994
  0
ARC
  5
188
100
AcDbEntity
  8
PUZZLE
  6
CONTINUOUS
 62
         7
100
AcDbCircle
 10
12.8915144491
 20
12.4589960919
 30
0.0
 40
0.0280544246
100
AcDbArc
 50
153.0249128288
 51
305.7564717141
  0
LINE
  5
189
100
AcDbEntity
  8
PUZZLE
  6
CONTINUOUS
 62
         7
100
AcDbLine
 10
12.9079078089
 20
12.4362297023
 30
0.0
 11
13.1916483665
 21
12.6405423382
 31
0.0
  0
LINE
  5
18A
100
AcDbEntity
  8
PUZZLE
  6
CONTINUOUS
 62
         7
100
AcDbLine
 10
12.8201894894
 20
12.3730665042
 30
0.0
 11
12.7399903706
 21
12.3153176456
 31
0.0
  0
ARC
  5
18B
100
AcDbEntity
  8
PUZZLE
  6
CONTINUOUS
 62
         7
100
AcDbCircle
 10
9.8910920441
 20
20.2261667507
 30
0.0
 40
0.62556999
100
AcDbArc
 50
67.4794997471
 51
12.9426175177
  0
ARC
  5
18C
100
AcDbEntity
  8
PUZZLE
  6
CONTINUOUS
 62
         7
100
AcDbCircle
 10
10.6910060729
 20
20.4099978258
 30
0.0
 40
0.1951956999
100
AcDbArc
 50
40.2110586324
 51
192.9426175177
  0
ARC
  5
18D
100
AcDbEntity
  8
PUZZLE
  6
CONTINUOUS
 62
         7
100
AcDbCircle
 10
10.2054567687
 20
20.9843429424
 30
0.0
 40
0.1951956999
100
AcDbArc
 50
247.4794997471
 51
40.2110586324
  0
LINE
  5
18E
100
AcDbEntity
  8
PUZZLE
  6
CONTINUOUS
 62
         7
100
AcDbLine
 10
10.3545221489
 20
21.1103622809
 30
0.0
 11
8.7839262779
 21
22.9681840525
 31
0.0
  0
LINE
  5
18F
100
AcDbEntity
  8
PUZZLE
  6
CONTINUOUS
 62
         7
100
AcDbLine
 10
10.8400714531
 20
20.5360171643
 30
0.0
 11
11.2839995464
 21
20.010904822
 31
0.0
  0
ARC
  5
190
100
AcDbEntity
  8
PUZZLE
  6
CONTINUOUS
 62
         7
100
AcDbCircle
 10
11.6275806355
 20
17.977130279
 30
0.0
 40
0.4363373837
100
AcDbArc
 50
55.080612569
 51
0.5437303396
  0
ARC
  5
191
100
AcDbEntity
  8
PUZZLE
  6
CONTINUOUS
 62
         7
100
AcDbCircle
 10
12.2000419642
 20
17.9825630341
 30
0.0
 40
0.1361497232
100
AcDbArc
 50
27.8121714543
 51
180.5437303396
  0
ARC
  5
192
100
AcDbEntity
  8
PUZZLE
  6
CONTINUOUS
 62
         7
100
AcDbCircle
 10
11.9552856283
 20
18.4465457936
 30
0.0
 40
0.1361497232
100
AcDbArc
 50
235.080612569
 51
27.8121714543
  0
LINE
  5
193
100
AcDbEntity
  8
PUZZLE
  6
CONTINUOUS
 62
         7
100
AcDbLine
 10
12.0757075915
 20
18.5100697885
 30
0.0
 11
11.2839995464
 21
20.010904822
 31
0.0
  0
LINE
  5
194
100
AcDbEntity
  8
PUZZLE
  6
CONTINUOUS
 62
         7
100
AcDbLine
 10
12.3204639273
 20
18.046087029
 30
0.0
 11
12.544239788
 21
17.6218767996
 31
0.0
  0
ARC
  5
195
100
AcDbEntity
  8
PUZZLE
  6
CONTINUOUS
 62
         7
100
AcDbCircle
 10
12.473724027
 20
16.184976706
 30
0.0
 40
0.3043392379
100
AcDbArc
 50
42.6822042319
 51
348.1453220025
  0
ARC
  5
196
100
AcDbEntity
  8
PUZZLE
  6
CONTINUOUS
 62
         7
100
AcDbCircle
 10
12.8645094055
 20
16.1029481024
 30
0.0
 40
0.0949625326
100
AcDbArc
 50
15.4137631172
 51
168.1453220025
  0
ARC
  5
197
100
AcDbEntity
  8
PUZZLE
  6
CONTINUOUS
 62
         7
100
AcDbCircle
 10
12.7672608179
 20
16.4556759049
 30
0.0
 40
0.0949625326
100
AcDbArc
 50
222.6822042319
 51
15.4137631172
  0
LINE
  5
198
100
AcDbEntity
  8
PUZZLE
  6
CONTINUOUS
 62
         7
100
AcDbLine
 10
12.8588076988
 20
16.4809157777
 30
0.0
 11
12.544239788
 21
17.6218767996
 31
0.0
  0
LINE
  5
199
100
AcDbEntity
  8
PUZZLE
  6
CONTINUOUS
 62
         7
100
AcDbLine
 10
12.9560562865
 20
16.1281879752
 30
0.0
 11
13.0449687403
 21
15.8056959451
 31
0.0
  0
ARC
  5
19A
100
AcDbEntity
  8
PUZZLE
  6
CONTINUOUS
 62
         7
100
AcDbCircle
 10
12.7817329095
 20
14.8373895047
 30
0.0
 40
0.212277745
100
AcDbArc
 50
30.2833170538
 51
335.7464348244
  0
ARC
  5
19B
100
AcDbEntity
  8
PUZZLE
  6
CONTINUOUS
 62
         7
100
AcDbCircle
 10
13.035664707
 20
14.7229825632
 30
0.0
 40
0.066236718
100
AcDbArc
 50
3.0148759391
 51
155.7464348244
  0
ARC
  5
19C
100
AcDbEntity
  8
PUZZLE
  6
CONTINUOUS
 62
         7
100
AcDbCircle
 10
13.0222419624
 20
14.9778377213
 30
0.0
 40
0.066236718
100
AcDbArc
 50
210.2833170538
 51
3.0148759391
  0
LINE
  5
19D
100
AcDbEntity
  8
PUZZLE
  6
CONTINUOUS
 62
         7
100
AcDbLine
 10
13.088387003
 20
14.9813214569
 30
0.0
 11
13.0449687403
 21
15.8056959451
 31
0.0
  0
LINE
  5
19E
100
AcDbEntity
  8
PUZZLE
  6
CONTINUOUS
 62
         7
100
AcDbLine
 10
13.1018097477
 20
14.7264662988
 30
0.0
 11
13.1140818967
 21
14.4934572852
 31
0.0
  0
ARC
  5
19F
100
AcDbEntity
  8
PUZZLE
  6
CONTINUOUS
 62
         7
100
AcDbCircle
 10
12.7897570352
 20
13.8732562737
 30
0.0
 40
0.1480601129
100
AcDbArc
 50
17.8848000069
 51
323.3479177775
  0
ARC
  5
1A0
100
AcDbEntity
  8
PUZZLE
  6
CONTINUOUS
 62
         7
100
AcDbCircle
 10
12.9456062847
 20
13.7572924527
 30
0.0
 40
0.046198983
100
AcDbArc
 50
350.6163588922
 51
143.3479177775
  0
ARC
  5
1A1
100
AcDbEntity
  8
PUZZLE
  6
CONTINUOUS
 62
         7
100
AcDbCircle
 10
12.9746287369
 20
13.9329140498
 30
0.0
 40
0.046198983
100
AcDbArc
 50
197.8848000069
 51
350.6163588922
  0
LINE
  5
1A2
100
AcDbEntity
  8
PUZZLE
  6
CONTINUOUS
 62
         7
100
AcDbLine
 10
13.02020952
 20
13.9253815703
 30
0.0
 11
13.1140878207
 21
14.4934609661
 31
0.0
  0
LINE
  5
1A3
100
AcDbEntity
  8
PUZZLE
  6
CONTINUOUS
 62
         7
100
AcDbLine
 10
12.9911870678
 20
13.7497599731
 30
0.0
 11
12.9646524157
 21
13.5891926319
 31
0.0
  0
ARC
  5
1A4
100
AcDbEntity
  8
PUZZLE
  6
CONTINUOUS
 62
         7
100
AcDbCircle
 10
12.6508215532
 20
13.2152607638
 30
0.0
 40
0.1032724768
100
AcDbArc
 50
5.4859128288
 51
310.9490305994
  0
ARC
  5
1A5
100
AcDbEntity
  8
PUZZLE
  6
CONTINUOUS
 62
         7
100
AcDbCircle
 10
12.7396242107
 20
13.1129212657
 30
0.0
 40
0.0322239617
100
AcDbArc
 50
338.2174717141
 51
130.9490305994
  0
ARC
  5
1A6
100
AcDbEntity
  8
PUZZLE
  6
CONTINUOUS
 62
         7
100
AcDbCircle
 10
12.7856973819
 20
13.2282143607
 30
0.0
 40
0.0322239617
100
AcDbArc
 50
185.4859128288
 51
338.2174717141
  0
LINE
  5
1A7
100
AcDbEntity
  8
PUZZLE
  6
CONTINUOUS
 62
         7
100
AcDbLine
 10
12.8156205214
 20
13.216256542
 30
0.0
 11
12.9646524157
 21
13.5891926319
 31
0.0
  0
LINE
  5
1A8
100
AcDbEntity
  8
PUZZLE
  6
CONTINUOUS
 62
         7
100
AcDbLine
 10
12.7695473502
 20
13.1009634469
 30
0.0
 11
12.727423564
 21
12.9955532581
 31
0.0
  0
ARC
  5
1A9
100
AcDbEntity
  8
PUZZLE
  6
CONTINUOUS
 62
         7
100
AcDbCircle
 10
12.4576373468
 20
12.7878216424
 30
0.0
 40
0.0720311118
100
AcDbArc
 50
353.0875044917
 51
298.5506222623
  0
ARC
  5
1AA
100
AcDbEntity
  8
PUZZLE
  6
CONTINUOUS
 62
         7
100
AcDbCircle
 10
12.5028054933
 20
12.7048072577
 30
0.0
 40
0.0224757637
100
AcDbArc
 50
325.819063377
 51
118.5506222623
  0
ARC
  5
1AB
100
AcDbEntity
  8
PUZZLE
  6
CONTINUOUS
 62
         7
100
AcDbCircle
 10
12.551457263
 20
12.7764474238
 30
0.0
 40
0.0224757637
100
AcDbArc
 50
173.0875044917
 51
325.819063377
  0
LINE
  5
1AC
100
AcDbEntity
  8
PUZZLE
  6
CONTINUOUS
 62
         7
100
AcDbLine
 10
12.5700507329
 20
12.7638203563
 30
0.0
 11
12.727423564
 21
12.9955532581
 31
0.0
  0
LINE
  5
1AD
100
AcDbEntity
  8
PUZZLE
  6
CONTINUOUS
 62
         7
100
AcDbLine
 10
12.5213989632
 20
12.6921801902
 30
0.0
 11
12.4769176156
 21
12.6266810079
 31
0.0
  0
ARC
  5
1AE
100
AcDbEntity
  8
PUZZLE
  6
CONTINUOUS
 62
         7
100
AcDbCircle
 10
5.0894139699
 20
18.9060640251
 30
0.0
 40
0.7185413199
100
AcDbArc
 50
99.9404997471
 51
45.4036175177
  0
ARC
  5
1AF
100
AcDbEntity
  8
PUZZLE
  6
CONTINUOUS
 62
         7
100
AcDbCircle
 10
5.7513240812
 20
19.5773660441
 30
0.0
 40
0.2242054096
100
AcDbArc
 50
72.6720586324
 51
225.4036175177
  0
ARC
  5
1B0
100
AcDbEntity
  8
PUZZLE
  6
CONTINUOUS
 62
         7
100
AcDbCircle
 10
4.9266719521
 20
19.8346578177
 30
0.0
 40
0.2242054096
100
AcDbArc
 50
279.9404997471
 51
72.6720586324
  0
LINE
  5
1B1
100
AcDbEntity
  8
PUZZLE
  6
CONTINUOUS
 62
         7
100
AcDbLine
 10
4.9934493913
 20
20.048687814
 30
0.0
 11
2.3259649204
 21
20.8809439698
 31
0.0
  0
LINE
  5
1B2
100
AcDbEntity
  8
PUZZLE
  6
CONTINUOUS
 62
         7
100
AcDbLine
 10
5.8181015203
 20
19.7913960404
 30
0.0
 11
6.5720645969
 21
19.5561592776
 31
0.0
  0
ARC
  5
1B3
100
AcDbEntity
  8
PUZZLE
  6
CONTINUOUS
 62
         7
100
AcDbCircle
 10
8.1588552296
 20
17.7969318699
 30
0.0
 40
0.5011852305
100
AcDbArc
 50
87.541612569
 51
33.0047303396
  0
ARC
  5
1B4
100
AcDbEntity
  8
PUZZLE
  6
CONTINUOUS
 62
         7
100
AcDbCircle
 10
8.7103097064
 20
18.1551153266
 30
0.0
 40
0.1563841032
100
AcDbArc
 50
60.2731714543
 51
213.0047303396
  0
ARC
  5
1B5
100
AcDbEntity
  8
PUZZLE
  6
CONTINUOUS
 62
         7
100
AcDbCircle
 10
8.1870608711
 20
18.4538960016
 30
0.0
 40
0.1563841032
100
AcDbArc
 50
267.541612569
 51
60.2731714543
  0
LINE
  5
1B6
100
AcDbEntity
  8
PUZZLE
  6
CONTINUOUS
 62
         7
100
AcDbLine
 10
8.2646063288
 20
18.5896998665
 30
0.0
 11
6.5720645969
 21
19.5561592776
 31
0.0
  0
LINE
  5
1B7
100
AcDbEntity
  8
PUZZLE
  6
CONTINUOUS
 62
         7
100
AcDbLine
 10
8.7878551641
 20
18.2909191914
 30
0.0
 11
9.2662511905
 21
18.0177499494
 31
0.0
  0
ARC
  5
1B8
100
AcDbEntity
  8
PUZZLE
  6
CONTINUOUS
 62
         7
100
AcDbCircle
 10
10.0837490229
 20
16.5816986519
 30
0.0
 40
0.3495697064
100
AcDbArc
 50
75.1432042319
 51
20.6063220025
  0
ARC
  5
1B9
100
AcDbEntity
  8
PUZZLE
  6
CONTINUOUS
 62
         7
100
AcDbCircle
 10
10.5130506491
 20
16.7431165883
 30
0.0
 40
0.1090757303
100
AcDbArc
 50
47.8747631172
 51
200.6063220025
  0
ARC
  5
1BA
100
AcDbEntity
  8
PUZZLE
  6
CONTINUOUS
 62
         7
100
AcDbCircle
 10
10.2013475558
 20
17.0250114326
 30
0.0
 40
0.1090757303
100
AcDbArc
 50
255.1432042319
 51
47.8747631172
  0
LINE
  5
1BB
100
AcDbEntity
  8
PUZZLE
  6
CONTINUOUS
 62
         7
100
AcDbLine
 10
10.2745104694
 20
17.1059107713
 30
0.0
 11
9.2662511905
 21
18.0177499494
 31
0.0
  0
LINE
  5
1BC
100
AcDbEntity
  8
PUZZLE
  6
CONTINUOUS
 62
         7
100
AcDbLine
 10
10.5862135627
 20
16.8240159271
 30
0.0
 11
10.8711975153
 21
16.5662850651
 31
0.0
  0
ARC
  5
1BD
100
AcDbEntity
  8
PUZZLE
  6
CONTINUOUS
 62
         7
100
AcDbCircle
 10
11.2130351345
 20
15.4655630954
 30
0.0
 40
0.2438261642
100
AcDbArc
 50
62.7443170538
 51
8.2074348244
  0
ARC
  5
1BE
100
AcDbEntity
  8
PUZZLE
  6
CONTINUOUS
 62
         7
100
AcDbCircle
 10
11.5296654467
 20
15.511232161
 30
0.0
 40
0.0760807256
100
AcDbArc
 50
35.4758759391
 51
188.2074348244
  0
ARC
  5
1BF
100
AcDbEntity
  8
PUZZLE
  6
CONTINUOUS
 62
         7
100
AcDbCircle
 10
11.3595403627
 20
15.7499512742
 30
0.0
 40
0.0760807256
100
AcDbArc
 50
242.7443170538
 51
35.4758759391
  0
LINE
  5
1C0
100
AcDbEntity
  8
PUZZLE
  6
CONTINUOUS
 62
         7
100
AcDbLine
 10
11.4214974584
 20
15.7941054937
 30
0.0
 11
10.8711975153
 21
16.5662850651
 31
0.0
  0
LINE
  5
1C1
100
AcDbEntity
  8
PUZZLE
  6
CONTINUOUS
 62
         7
100
AcDbLine
 10
11.5916225424
 20
15.5553863804
 30
0.0
 11
11.7471645307
 21
15.3371302325
 31
0.0
  0
ARC
  5
1C2
100
AcDbEntity
  8
PUZZLE
  6
CONTINUOUS
 62
         7
100
AcDbCircle
 10
11.8151929303
 20
14.5361154164
 30
0.0
 40
0.1700645981
100
AcDbArc
 50
50.3458000069
 51
355.8089177775
  0
ARC
  5
1C3
100
AcDbEntity
  8
PUZZLE
  6
CONTINUOUS
 62
         7
100
AcDbCircle
 10
12.0377258603
 20
14.519808442
 30
0.0
 40
0.0530650108
100
AcDbArc
 50
23.0773588922
 51
175.8089177775
  0
ARC
  5
1C4
100
AcDbEntity
  8
PUZZLE
  6
CONTINUOUS
 62
         7
100
AcDbCircle
 10
11.9575836671
 20
14.7079051147
 30
0.0
 40
0.0530650108
100
AcDbArc
 50
230.3458000069
 51
23.0773588922
  0
LINE
  5
1C5
100
AcDbEntity
  8
PUZZLE
  6
CONTINUOUS
 62
         7
100
AcDbLine
 10
12.006402228
 20
14.7287051984
 30
0.0
 11
11.7471680027
 21
15.337137452
 31
0.0
  0
LINE
  5
1C6
100
AcDbEntity
  8
PUZZLE
  6
CONTINUOUS
 62
         7
100
AcDbLine
 10
12.0865444211
 20
14.5406085257
 30
0.0
 11
12.159816838
 21
14.3686354706
 31
0.0
  0
ARC
  5
1C7
100
AcDbEntity
  8
PUZZLE
  6
CONTINUOUS
 62
         7
100
AcDbCircle
 10
12.0861924002
 20
13.8127630888
 30
0.0
 40
0.1186206867
100
AcDbArc
 50
37.9469128288
 51
343.4100305994
  0
ARC
  5
1C8
100
AcDbEntity
  8
PUZZLE
  6
CONTINUOUS
 62
         7
100
AcDbCircle
 10
12.2353474969
 20
13.7683264546
 30
0.0
 40
0.0370130414
100
AcDbArc
 50
10.6784717141
 51
163.4100305994
  0
ARC
  5
1C9
100
AcDbEntity
  8
PUZZLE
  6
CONTINUOUS
 62
         7
100
AcDbCircle
 10
12.2089221784
 20
13.9084671058
 30
0.0
 40
0.0370130414
100
AcDbArc
 50
217.9469128288
 51
10.6784717141
  0
LINE
  5
1CA
100
AcDbEntity
  8
PUZZLE
  6
CONTINUOUS
 62
         7
100
AcDbLine
 10
12.2452942462
 20
13.915325526
 30
0.0
 11
12.159816838
 21
14.3686354706
 31
0.0
  0
LINE
  5
1CB
100
AcDbEntity
  8
PUZZLE
  6
CONTINUOUS
 62
         7
100
AcDbLine
 10
12.2717195646
 20
13.7751848748
 30
0.0
 11
12.2958797089
 21
13.6470570584
 31
0.0
  0
ARC
  5
1CC
100
AcDbEntity
  8
PUZZLE
  6
CONTINUOUS
 62
         7
100
AcDbCircle
 10
12.1624801017
 20
13.2794116798
 30
0.0
 40
0.0827362741
100
AcDbArc
 50
25.5485044917
 51
331.0116222623
  0
ARC
  5
1CD
100
AcDbEntity
  8
PUZZLE
  6
CONTINUOUS
 62
         7
100
AcDbCircle
 10
12.2574328032
 20
13.2268037139
 30
0.0
 40
0.02581608
100
AcDbArc
 50
358.280063377
 51
151.0116222623
  0
ARC
  5
1CE
100
AcDbEntity
  8
PUZZLE
  6
CONTINUOUS
 62
         7
100
AcDbCircle
 10
12.2604182616
 20
13.3262276004
 30
0.0
 40
0.02581608
100
AcDbArc
 50
205.5485044917
 51
358.280063377
  0
LINE
  5
1CF
100
AcDbEntity
  8
PUZZLE
  6
CONTINUOUS
 62
         7
100
AcDbLine
 10
12.2862227109
 20
13.3254527553
 30
0.0
 11
12.2958797089
 21
13.6470570584
 31
0.0
  0
LINE
  5
1D0
100
AcDbEntity
  8
PUZZLE
  6
CONTINUOUS
 62
         7
100
AcDbLine
 10
12.2832372525
 20
13.2260288688
 30
0.0
 11
12.2805077071
 21
13.1351275825
 31
0.0
  0
ARC
  5
1D1
100
AcDbEntity
  8
PUZZLE
  6
CONTINUOUS
 62
         7
100
AcDbCircle
 10
4.909216066
 20
15.4627264767
 30
0.0
 40
0.5945586744
100
AcDbArc
 50
119.0682270457
 51
66.400690219
  0
ARC
  5
1D2
100
AcDbEntity
  8
PUZZLE
  6
CONTINUOUS
 62
         7
100
AcDbCircle
 10
5.2218260287
 20
16.1709668728
 30
0.0
 40
0.1796233891
100
AcDbArc
 50
92.7344586324
 51
245.4660175177
  0
ARC
  5
1D3
100
AcDbEntity
  8
PUZZLE
  6
CONTINUOUS
 62
         7
100
AcDbCircle
 10
4.530529714
 20
16.1379494726
 30
0.0
 40
0.1796233891
100
AcDbArc
 50
300.0028997471
 51
92.7344586324
  0
LINE
  5
1D4
100
AcDbEntity
  8
PUZZLE
  6
CONTINUOUS
 62
         7
100
AcDbLine
 10
4.5219603866
 20
16.317368336
 30
0.0
 11
2.2858390945
 21
16.2105676631
 31
0.0
  0
LINE
  5
1D5
100
AcDbEntity
  8
PUZZLE
  6
CONTINUOUS
 62
         7
100
AcDbLine
 10
5.2132567014
 20
16.3503857362
 30
0.0
 11
5.8452952034
 21
16.38057289
 31
0.0
  0
ARC
  5
1D6
100
AcDbEntity
  8
PUZZLE
  6
CONTINUOUS
 62
         7
100
AcDbCircle
 10
7.5229105465
 20
15.4927814572
 30
0.0
 40
0.4015272862
100
AcDbArc
 50
107.604012569
 51
53.0671303396
  0
ARC
  5
1D7
100
AcDbEntity
  8
PUZZLE
  6
CONTINUOUS
 62
         7
100
AcDbCircle
 10
7.8394627196
 20
15.913886011
 30
0.0
 40
0.1252879788
100
AcDbArc
 50
80.3355714543
 51
233.0671303396
  0
ARC
  5
1D8
100
AcDbEntity
  8
PUZZLE
  6
CONTINUOUS
 62
         7
100
AcDbCircle
 10
7.3635823055
 20
15.9949256946
 30
0.0
 40
0.1252879788
100
AcDbArc
 50
287.604012569
 51
80.3355714543
  0
LINE
  5
1D9
100
AcDbEntity
  8
PUZZLE
  6
CONTINUOUS
 62
         7
100
AcDbLine
 10
7.3846153236
 20
16.1184355719
 30
0.0
 11
5.8452952034
 21
16.38057289
 31
0.0
  0
LINE
  5
1DA
100
AcDbEntity
  8
PUZZLE
  6
CONTINUOUS
 62
         7
100
AcDbLine
 10
7.8604957377
 20
16.0373958883
 30
0.0
 11
8.2955837565
 21
15.9633029138
 31
0.0
  0
ARC
  5
1DB
100
AcDbEntity
  8
PUZZLE
  6
CONTINUOUS
 62
         7
100
AcDbCircle
 10
9.3054558886
 20
15.1072892084
 30
0.0
 40
0.2800596805
100
AcDbArc
 50
95.2056042319
 51
40.6687220025
  0
ARC
  5
1DC
100
AcDbEntity
  8
PUZZLE
  6
CONTINUOUS
 62
         7
100
AcDbCircle
 10
9.5841603069
 20
15.3467482425
 30
0.0
 40
0.0873866174
100
AcDbArc
 50
67.9371631172
 51
220.6687220025
  0
ARC
  5
1DD
100
AcDbEntity
  8
PUZZLE
  6
CONTINUOUS
 62
         7
100
AcDbCircle
 10
9.2721174898
 20
15.4732199846
 30
0.0
 40
0.0873866174
100
AcDbArc
 50
275.2056042319
 51
67.9371631172
  0
LINE
  5
1DE
100
AcDbEntity
  8
PUZZLE
  6
CONTINUOUS
 62
         7
100
AcDbLine
 10
9.3049419325
 20
15.5542074951
 30
0.0
 11
8.2955837565
 21
15.9633029138
 31
0.0
  0
LINE
  5
1DF
100
AcDbEntity
  8
PUZZLE
  6
CONTINUOUS
 62
         7
100
AcDbLine
 10
9.6169847495
 20
15.4277357531
 30
0.0
 11
9.9022793047
 21
15.3121051491
 31
0.0
  0
ARC
  5
1E0
100
AcDbEntity
  8
PUZZLE
  6
CONTINUOUS
 62
         7
100
AcDbCircle
 10
10.4620387079
 20
14.5777143184
 30
0.0
 40
0.1953426639
100
AcDbArc
 50
82.8067170538
 51
28.2698348244
  0
ARC
  5
1E1
100
AcDbEntity
  8
PUZZLE
  6
CONTINUOUS
 62
         7
100
AcDbCircle
 10
10.6877647255
 20
14.6991020047
 30
0.0
 40
0.0609524891
100
AcDbArc
 50
55.5382759391
 51
208.2698348244
  0
ARC
  5
1E2
100
AcDbEntity
  8
PUZZLE
  6
CONTINUOUS
 62
         7
100
AcDbCircle
 10
10.4941311982
 20
14.8319922716
 30
0.0
 40
0.0609524891
100
AcDbArc
 50
262.8067170538
 51
55.5382759391
  0
LINE
  5
1E3
100
AcDbEntity
  8
PUZZLE
  6
CONTINUOUS
 62
         7
100
AcDbLine
 10
10.528621503
 20
14.8822478663
 30
0.0
 11
9.9022793047
 21
15.3121051491
 31
0.0
  0
LINE
  5
1E4
100
AcDbEntity
  8
PUZZLE
  6
CONTINUOUS
 62
         7
100
AcDbLine
 10
10.7222550304
 20
14.7493575993
 30
0.0
 11
10.8992903219
 21
14.6278586654
 31
0.0
  0
ARC
  5
1E5
100
AcDbEntity
  8
PUZZLE
  6
CONTINUOUS
 62
         7
100
AcDbCircle
 10
11.1706282263
 20
14.0437584833
 30
0.0
 40
0.1362481821
100
AcDbArc
 50
70.4082000069
 51
15.8713177775
  0
ARC
  5
1E6
100
AcDbEntity
  8
PUZZLE
  6
CONTINUOUS
 62
         7
100
AcDbCircle
 10
11.3425750452
 20
14.0926457753
 30
0.0
 40
0.0425133233
100
AcDbArc
 50
43.1397588922
 51
195.8713177775
  0
ARC
  5
1E7
100
AcDbEntity
  8
PUZZLE
  6
CONTINUOUS
 62
         7
100
AcDbCircle
 10
11.2305699519
 20
14.2121706722
 30
0.0
 40
0.0425133233
100
AcDbArc
 50
250.4082000069
 51
43.1397588922
  0
LINE
  5
1E8
100
AcDbEntity
  8
PUZZLE
  6
CONTINUOUS
 62
         7
100
AcDbLine
 10
11.2615914121
 20
14.2412404445
 30
0.0
 11
10.8992909506
 21
14.6278650526
 31
0.0
  0
LINE
  5
1E9
100
AcDbEntity
  8
PUZZLE
  6
CONTINUOUS
 62
         7
100
AcDbLine
 10
11.3735965054
 20
14.1217155477
 30
0.0
 11
11.4760005395
 21
14.0124363065
 31
0.0
  0
ARC
  5
1EA
100
AcDbEntity
  8
PUZZLE
  6
CONTINUOUS
 62
         7
100
AcDbCircle
 10
11.5733661217
 20
13.5738852612
 30
0.0
 40
0.0950336114
100
AcDbArc
 50
58.0093128288
 51
3.4724305994
  0
ARC
  5
1EB
100
AcDbEntity
  8
PUZZLE
  6
CONTINUOUS
 62
         7
100
AcDbCircle
 10
11.6978240157
 20
13.5814373236
 30
0.0
 40
0.0296532004
100
AcDbArc
 50
30.7408717141
 51
183.4724305994
  0
ARC
  5
1EC
100
AcDbEntity
  8
PUZZLE
  6
CONTINUOUS
 62
         7
100
AcDbCircle
 10
11.6394228774
 20
13.6796364128
 30
0.0
 40
0.0296532004
100
AcDbArc
 50
238.0093128288
 51
30.7408717141
  0
LINE
  5
1ED
100
AcDbEntity
  8
PUZZLE
  6
CONTINUOUS
 62
         7
100
AcDbLine
 10
11.6649094431
 20
13.6947938288
 30
0.0
 11
11.4760005395
 21
14.0124363065
 31
0.0
  0
LINE
  5
1EE
100
AcDbEntity
  8
PUZZLE
  6
CONTINUOUS
 62
         7
100
AcDbLine
 10
11.7233105814
 20
13.5965947396
 30
0.0
 11
11.7767055833
 21
13.5068132611
 31
0.0
  0
ARC
  5
1EF
100
AcDbEntity
  8
PUZZLE
  6
CONTINUOUS
 62
         7
100
AcDbCircle
 10
3.1977939813
 20
11.2182568067
 30
0.0
 40
0.6829241196
100
AcDbArc
 50
151.5292270457
 51
98.861690219
  0
ARC
  5
1F0
100
AcDbEntity
  8
PUZZLE
  6
CONTINUOUS
 62
         7
100
AcDbCircle
 10
3.0641358027
 20
12.0973771054
 30
0.0
 40
0.2063196622
100
AcDbArc
 50
125.1954586324
 51
277.9270175177
  0
ARC
  5
1F1
100
AcDbEntity
  8
PUZZLE
  6
CONTINUOUS
 62
         7
100
AcDbCircle
 10
2.414514717
 20
11.6391969477
 30
0.0
 40
0.2063196622
100
AcDbArc
 50
332.4638997471
 51
125.1954586324
  0
LINE
  5
1F2
100
AcDbEntity
  8
PUZZLE
  6
CONTINUOUS
 62
         7
100
AcDbLine
 10
2.2955987596
 20
11.8077994332
 30
0.0
 11
0.1942834327
 21
10.3257339508
 31
0.0
  0
LINE
  5
1F3
100
AcDbEntity
  8
PUZZLE
  6
CONTINUOUS
 62
         7
100
AcDbLine
 10
2.9452198453
 20
12.2659795908
 30
0.0
 11
3.5391555125
 21
12.6848846165
 31
0.0
  0
ARC
  5
1F4
100
AcDbEntity
  8
PUZZLE
  6
CONTINUOUS
 62
         7
100
AcDbCircle
 10
5.7123511974
 20
12.8587156549
 30
0.0
 40
0.4612037134
100
AcDbArc
 50
140.065012569
 51
85.5281303396
  0
ARC
  5
1F5
100
AcDbEntity
  8
PUZZLE
  6
CONTINUOUS
 62
         7
100
AcDbCircle
 10
5.7595315922
 20
13.4619859734
 30
0.0
 40
0.1439087281
100
AcDbArc
 50
112.7965714543
 51
265.5281303396
  0
ARC
  5
1F6
100
AcDbEntity
  8
PUZZLE
  6
CONTINUOUS
 62
         7
100
AcDbCircle
 10
5.2483671275
 20
13.2471482099
 30
0.0
 40
0.1439087281
100
AcDbArc
 50
320.065012569
 51
112.7965714543
  0
LINE
  5
1F7
100
AcDbEntity
  8
PUZZLE
  6
CONTINUOUS
 62
         7
100
AcDbLine
 10
5.192608191
 20
13.3798157004
 30
0.0
 11
3.5391555125
 21
12.6848846165
 31
0.0
  0
LINE
  5
1F8
100
AcDbEntity
  8
PUZZLE
  6
CONTINUOUS
 62
         7
100
AcDbLine
 10
5.7037726557
 20
13.5946534639
 30
0.0
 11
6.1711201818
 21
13.7910753677
 31
0.0
  0
ARC
  5
1F9
100
AcDbEntity
  8
PUZZLE
  6
CONTINUOUS
 62
         7
100
AcDbCircle
 10
7.6775755853
 20
13.5840434222
 30
0.0
 40
0.3216831559
100
AcDbArc
 50
127.6666042319
 51
73.1297220025
  0
ARC
  5
1FA
100
AcDbEntity
  8
PUZZLE
  6
CONTINUOUS
 62
         7
100
AcDbCircle
 10
7.8000591201
 20
13.9879373505
 30
0.0
 40
0.1003743302
100
AcDbArc
 50
100.3981631172
 51
253.1297220025
  0
ARC
  5
1FB
100
AcDbEntity
  8
PUZZLE
  6
CONTINUOUS
 62
         7
100
AcDbCircle
 10
7.4196707072
 20
13.9181356183
 30
0.0
 40
0.1003743302
100
AcDbArc
 50
307.6666042319
 51
100.3981631172
  0
LINE
  5
1FC
100
AcDbEntity
  8
PUZZLE
  6
CONTINUOUS
 62
         7
100
AcDbLine
 10
7.401554384
 20
14.0168615267
 30
0.0
 11
6.1711201818
 21
13.7910753677
 31
0.0
  0
LINE
  5
1FD
100
AcDbEntity
  8
PUZZLE
  6
CONTINUOUS
 62
         7
100
AcDbLine
 10
7.781942797
 20
14.086663259
 30
0.0
 11
8.1297243742
 21
14.1504815975
 31
0.0
  0
ARC
  5
1FE
100
AcDbEntity
  8
PUZZLE
  6
CONTINUOUS
 62
         7
100
AcDbCircle
 10
9.1249689482
 20
13.7838291213
 30
0.0
 40
0.224375192
100
AcDbArc
 50
115.2677170538
 51
60.7308348244
  0
ARC
  5
1FF
100
AcDbEntity
  8
PUZZLE
  6
CONTINUOUS
 62
         7
100
AcDbCircle
 10
9.2688984304
 20
14.0406321764
 30
0.0
 40
0.0700114669
100
AcDbArc
 50
87.9992759391
 51
240.7308348244
  0
ARC
  5
200
100
AcDbEntity
  8
PUZZLE
  6
CONTINUOUS
 62
         7
100
AcDbCircle
 10
8.999310475
 20
14.0500498063
 30
0.0
 40
0.0700114669
100
AcDbArc
 50
295.2677170538
 51
87.9992759391
  0
LINE
  5
201
100
AcDbEntity
  8
PUZZLE
  6
CONTINUOUS
 62
         7
100
AcDbLine
 10
9.0017547242
 20
14.1200185932
 30
0.0
 11
8.1297243742
 21
14.1504815975
 31
0.0
  0
LINE
  5
202
100
AcDbEntity
  8
PUZZLE
  6
CONTINUOUS
 62
         7
100
AcDbLine
 10
9.2713426796
 20
14.1106009633
 30
0.0
 11
9.5178215974
 21
14.1019906113
 31
0.0
  0
ARC
  5
203
100
AcDbEntity
  8
PUZZLE
  6
CONTINUOUS
 62
         7
100
AcDbCircle
 10
10.1408863279
 20
13.70318315
 30
0.0
 40
0.1564978762
100
AcDbArc
 50
102.8692000069
 51
48.3323177775
  0
ARC
  5
204
100
AcDbEntity
  8
PUZZLE
  6
CONTINUOUS
 62
         7
100
AcDbCircle
 10
10.2773913705
 20
13.8565671511
 30
0.0
 40
0.0488318061
100
AcDbArc
 50
75.6007588922
 51
228.3323177775
  0
ARC
  5
205
100
AcDbEntity
  8
PUZZLE
  6
CONTINUOUS
 62
         7
100
AcDbCircle
 10
10.0951540506
 20
13.9033551692
 30
0.0
 40
0.0488318061
100
AcDbArc
 50
282.8692000069
 51
75.6007588922
  0
LINE
  5
206
100
AcDbEntity
  8
PUZZLE
  6
CONTINUOUS
 62
         7
100
AcDbLine
 10
10.1072974005
 20
13.9506529952
 30
0.0
 11
9.517818269
 21
14.101997189
 31
0.0
  0
LINE
  5
207
100
AcDbEntity
  8
PUZZLE
  6
CONTINUOUS
 62
         7
100
AcDbLine
 10
10.2895347204
 20
13.9038649771
 30
0.0
 11
10.4561506856
 21
13.8610876206
 31
0.0
  0
ARC
  5
208
100
AcDbEntity
  8
PUZZLE
  6
CONTINUOUS
 62
         7
100
AcDbCircle
 10
10.8208781621
 20
13.4960872929
 30
0.0
 40
0.109157848
100
AcDbArc
 50
90.4703128288
 51
35.9334305994
  0
ARC
  5
209
100
AcDbEntity
  8
PUZZLE
  6
CONTINUOUS
 62
         7
100
AcDbCircle
 10
10.9368418593
 20
13.5801341704
 30
0.0
 40
0.0340603655
100
AcDbArc
 50
63.2018717141
 51
215.9334305994
  0
ARC
  5
20A
100
AcDbEntity
  8
PUZZLE
  6
CONTINUOUS
 62
         7
100
AcDbCircle
 10
10.8197025675
 20
13.6393006814
 30
0.0
 40
0.0340603655
100
AcDbArc
 50
270.4703128288
 51
63.2018717141
  0
LINE
  5
20B
100
AcDbEntity
  8
PUZZLE
  6
CONTINUOUS
 62
         7
100
AcDbLine
 10
10.8350586282
 20
13.6697029823
 30
0.0
 11
10.4561506856
 21
13.8610876206
 31
0.0
  0
LINE
  5
20C
100
AcDbEntity
  8
PUZZLE
  6
CONTINUOUS
 62
         7
100
AcDbLine
 10
10.95219792
 20
13.6105364713
 30
0.0
 11
11.0592960498
 21
13.5564417044
 31
0.0
  0
ARC
  5
20D
100
AcDbEntity
  8
PUZZLE
  6
CONTINUOUS
 62
         7
100
AcDbCircle
 10
11.253094522
 20
13.2531762648
 30
0.0
 40
0.0761360761
100
AcDbArc
 50
78.0719044917
 51
23.5350222623
  0
ARC
  5
20E
100
AcDbEntity
  8
PUZZLE
  6
CONTINUOUS
 62
         7
100
AcDbCircle
 10
11.3446777697
 20
13.2930643763
 30
0.0
 40
0.0237566298
100
AcDbArc
 50
50.803463377
 51
203.5350222623
  0
ARC
  5
20F
100
AcDbEntity
  8
PUZZLE
  6
CONTINUOUS
 62
         7
100
AcDbCircle
 10
11.2737407442
 20
13.3509120628
 30
0.0
 40
0.0237566298
100
AcDbArc
 50
258.0719044917
 51
50.803463377
  0
LINE
  5
210
100
AcDbEntity
  8
PUZZLE
  6
CONTINUOUS
 62
         7
100
AcDbLine
 10
11.2887545175
 20
13.3693230397
 30
0.0
 11
11.0592960498
 21
13.5564417044
 31
0.0
  0
LINE
  5
211
100
AcDbEntity
  8
PUZZLE
  6
CONTINUOUS
 62
         7
100
AcDbLine
 10
11.359691543
 20
13.3114753533
 30
0.0
 11
11.4245478576
 21
13.2585863615
 31
0.0
  0
ARC
  5
212
100
AcDbEntity
  8
PUZZLE
  6
CONTINUOUS
 62
         7
100
AcDbCircle
 10
5.5975326863
 20
9.1786050027
 30
0.0
 40
0.5471283903
100
AcDbArc
 50
171.5916270457
 51
118.924090219
  0
ARC
  5
213
100
AcDbEntity
  8
PUZZLE
  6
CONTINUOUS
 62
         7
100
AcDbCircle
 10
5.2553398699
 20
9.8034456625
 30
0.0
 40
0.1652941248
100
AcDbArc
 50
145.2578586324
 51
297.9894175177
  0
ARC
  5
214
100
AcDbEntity
  8
PUZZLE
  6
CONTINUOUS
 62
         7
100
AcDbCircle
 10
4.8923954962
 20
9.280110258
 30
0.0
 40
0.1652941248
100
AcDbArc
 50
352.5262997471
 51
145.2578586324
  0
LINE
  5
215
100
AcDbEntity
  8
PUZZLE
  6
CONTINUOUS
 62
         7
100
AcDbLine
 10
4.7565691632
 20
9.3743087452
 30
0.0
 11
3.582560819
 21
7.6814869901
 31
0.0
  0
LINE
  5
216
100
AcDbEntity
  8
PUZZLE
  6
CONTINUOUS
 62
         7
100
AcDbLine
 10
5.1195135369
 20
9.8976441496
 30
0.0
 11
5.4513463752
 21
10.3761193245
 31
0.0
  0
ARC
  5
217
100
AcDbEntity
  8
PUZZLE
  6
CONTINUOUS
 62
         7
100
AcDbCircle
 10
7.038991084
 20
11.1041959641
 30
0.0
 40
0.3694958753
100
AcDbArc
 50
160.127412569
 51
105.5905303396
  0
ARC
  5
218
100
AcDbEntity
  8
PUZZLE
  6
CONTINUOUS
 62
         7
100
AcDbCircle
 10
6.9086988502
 20
11.5711482565
 30
0.0
 40
0.115293264
100
AcDbArc
 50
132.8589714543
 51
285.5905303396
  0
ARC
  5
219
100
AcDbEntity
  8
PUZZLE
  6
CONTINUOUS
 62
         7
100
AcDbCircle
 10
6.583070716
 20
11.2689901618
 30
0.0
 40
0.115293264
100
AcDbArc
 50
340.127412569
 51
132.8589714543
  0
LINE
  5
21A
100
AcDbEntity
  8
PUZZLE
  6
CONTINUOUS
 62
         7
100
AcDbLine
 10
6.5046486838
 20
11.3535036019
 30
0.0
 11
5.4513463752
 21
10.3761193245
 31
0.0
  0
LINE
  5
21B
100
AcDbEntity
  8
PUZZLE
  6
CONTINUOUS
 62
         7
100
AcDbLine
 10
6.8302768179
 20
11.6556616966
 30
0.0
 11
7.127992159
 21
11.9319188463
 31
0.0
  0
ARC
  5
21C
100
AcDbEntity
  8
PUZZLE
  6
CONTINUOUS
 62
         7
100
AcDbCircle
 10
8.3185604372
 20
12.190139539
 30
0.0
 40
0.2577182182
100
AcDbArc
 50
147.7290042319
 51
93.1921220025
  0
ARC
  5
21D
100
AcDbEntity
  8
PUZZLE
  6
CONTINUOUS
 62
         7
100
AcDbCircle
 10
8.2997317274
 20
12.5277485623
 30
0.0
 40
0.0804154432
100
AcDbArc
 50
120.4605631172
 51
273.1921220025
  0
ARC
  5
21E
100
AcDbEntity
  8
PUZZLE
  6
CONTINUOUS
 62
         7
100
AcDbCircle
 10
8.0326575303
 20
12.3706773489
 30
0.0
 40
0.0804154432
100
AcDbArc
 50
327.7290042319
 51
120.4605631172
  0
LINE
  5
21F
100
AcDbEntity
  8
PUZZLE
  6
CONTINUOUS
 62
         7
100
AcDbLine
 10
7.991891309
 20
12.4399937156
 30
0.0
 11
7.127992159
 21
11.9319188463
 31
0.0
  0
LINE
  5
220
100
AcDbEntity
  8
PUZZLE
  6
CONTINUOUS
 62
         7
100
AcDbLine
 10
8.258965506
 20
12.5970649291
 30
0.0
 11
8.5031461444
 21
12.7406720225
 31
0.0
  0
ARC
  5
221
100
AcDbEntity
  8
PUZZLE
  6
CONTINUOUS
 62
         7
100
AcDbCircle
 10
9.3528759868
 20
12.7382751101
 30
0.0
 40
0.1797594112
100
AcDbArc
 50
135.3301170538
 51
80.7932348244
  0
ARC
  5
222
100
AcDbEntity
  8
PUZZLE
  6
CONTINUOUS
 62
         7
100
AcDbCircle
 10
9.3906113712
 20
12.9710862315
 30
0.0
 40
0.0560900693
100
AcDbArc
 50
108.0616759391
 51
260.7932348244
  0
ARC
  5
223
100
AcDbEntity
  8
PUZZLE
  6
CONTINUOUS
 62
         7
100
AcDbCircle
 10
9.1851471218
 20
12.904082243
 30
0.0
 40
0.0560900693
100
AcDbArc
 50
315.3301170538
 51
108.0616759391
  0
LINE
  5
224
100
AcDbEntity
  8
PUZZLE
  6
CONTINUOUS
 62
         7
100
AcDbLine
 10
9.1677569242
 20
12.9574083801
 30
0.0
 11
8.5031461444
 21
12.7406720225
 31
0.0
  0
LINE
  5
225
100
AcDbEntity
  8
PUZZLE
  6
CONTINUOUS
 62
         7
100
AcDbLine
 10
9.3732211736
 20
13.0244123686
 30
0.0
 11
9.5610730595
 21
13.0856727856
 31
0.0
  0
ARC
  5
226
100
AcDbEntity
  8
PUZZLE
  6
CONTINUOUS
 62
         7
100
AcDbCircle
 10
10.1395594949
 20
12.9567913507
 30
0.0
 40
0.1253791287
100
AcDbArc
 50
122.9316000069
 51
68.3947177775
  0
ARC
  5
227
100
AcDbEntity
  8
PUZZLE
  6
CONTINUOUS
 62
         7
100
AcDbCircle
 10
10.2001304513
 20
13.1097349262
 30
0.0
 40
0.0391218683
100
AcDbArc
 50
95.6631588922
 51
248.3947177775
  0
ARC
  5
228
100
AcDbEntity
  8
PUZZLE
  6
CONTINUOUS
 62
         7
100
AcDbCircle
 10
10.0501305944
 20
13.0948603544
 30
0.0
 40
0.0391218683
100
AcDbArc
 50
302.9316000069
 51
95.6631588922
  0
LINE
  5
229
100
AcDbEntity
  8
PUZZLE
  6
CONTINUOUS
 62
         7
100
AcDbLine
 10
10.0462700519
 20
13.1337912777
 30
0.0
 11
9.561068747
 21
13.0856768209
 31
0.0
  0
LINE
  5
22A
100
AcDbEntity
  8
PUZZLE
  6
CONTINUOUS
 62
         7
100
AcDbLine
 10
10.1962699089
 20
13.1486658495
 30
0.0
 11
10.3334118014
 21
13.1622653753
 31
0.0
  0
ARC
  5
22B
100
AcDbEntity
  8
PUZZLE
  6
CONTINUOUS
 62
         7
100
AcDbCircle
 10
10.7081976087
 20
12.9878260958
 30
0.0
 40
0.0874524064
100
AcDbArc
 50
110.5327128288
 51
55.9958305994
  0
ARC
  5
22C
100
AcDbEntity
  8
PUZZLE
  6
CONTINUOUS
 62
         7
100
AcDbCircle
 10
10.7723663549
 20
13.0829452426
 30
0.0
 40
0.027287648
100
AcDbArc
 50
83.2642717141
 51
235.9958305994
  0
ARC
  5
22D
100
AcDbEntity
  8
PUZZLE
  6
CONTINUOUS
 62
         7
100
AcDbCircle
 10
10.6679534395
 20
13.095276954
 30
0.0
 40
0.027287648
100
AcDbArc
 50
290.5327128288
 51
83.2642717141
  0
LINE
  5
22E
100
AcDbEntity
  8
PUZZLE
  6
CONTINUOUS
 62
         7
100
AcDbLine
 10
10.6711540086
 20
13.1223762545
 30
0.0
 11
10.3334118014
 21
13.1622653753
 31
0.0
  0
LINE
  5
22F
100
AcDbEntity
  8
PUZZLE
  6
CONTINUOUS
 62
         7
100
AcDbLine
 10
10.775566924
 20
13.1100445432
 30
0.0
 11
10.8710295804
 21
13.0987699043
 31
0.0
  0
ARC
  5
230
100
AcDbEntity
  8
PUZZLE
  6
CONTINUOUS
 62
         7
100
AcDbCircle
 10
7.7390210974
 20
5.5522980376
 30
0.0
 40
0.628443549
100
AcDbArc
 50
204.0526270457
 51
151.385090219
  0
ARC
  5
231
100
AcDbEntity
  8
PUZZLE
  6
CONTINUOUS
 62
         7
100
AcDbCircle
 10
7.0221715315
 20
5.9469071294
 30
0.0
 40
0.1898604208
100
AcDbArc
 50
177.7188586324
 51
330.4504175177
  0
ARC
  5
232
100
AcDbEntity
  8
PUZZLE
  6
CONTINUOUS
 62
         7
100
AcDbCircle
 10
6.9930546132
 20
5.2159594583
 30
0.0
 40
0.1898604208
100
AcDbArc
 50
24.9872997471
 51
177.7188586324
  0
LINE
  5
233
100
AcDbEntity
  8
PUZZLE
  6
CONTINUOUS
 62
         7
100
AcDbLine
 10
6.8033446473
 20
5.2235164556
 30
0.0
 11
6.7091607791
 21
2.8591357754
 31
0.0
  0
LINE
  5
234
100
AcDbEntity
  8
PUZZLE
  6
CONTINUOUS
 62
         7
100
AcDbLine
 10
6.8324615655
 20
5.9544641267
 30
0.0
 11
6.8590825861
 21
6.6227550769
 31
0.0
  0
ARC
  5
235
100
AcDbEntity
  8
PUZZLE
  6
CONTINUOUS
 62
         7
100
AcDbCircle
 10
7.9489052888
 20
8.3071502347
 30
0.0
 40
0.4244109852
100
AcDbArc
 50
192.588412569
 51
138.0515303396
  0
ARC
  5
236
100
AcDbEntity
  8
PUZZLE
  6
CONTINUOUS
 62
         7
100
AcDbCircle
 10
7.5347580831
 20
8.6793761516
 30
0.0
 40
0.1324283464
100
AcDbArc
 50
165.3199714543
 51
318.0515303396
  0
ARC
  5
237
100
AcDbEntity
  8
PUZZLE
  6
CONTINUOUS
 62
         7
100
AcDbCircle
 10
7.4054518965
 20
8.1857894029
 30
0.0
 40
0.1324283464
100
AcDbArc
 50
12.588412569
 51
165.3199714543
  0
LINE
  5
238
100
AcDbEntity
  8
PUZZLE
  6
CONTINUOUS
 62
         7
100
AcDbLine
 10
7.2773465217
 20
8.2193494965
 30
0.0
 11
6.8590825861
 21
6.6227550769
 31
0.0
  0
LINE
  5
239
100
AcDbEntity
  8
PUZZLE
  6
CONTINUOUS
 62
         7
100
AcDbLine
 10
7.4066527084
 20
8.7129362452
 30
0.0
 11
7.5248747889
 21
9.1642128145
 31
0.0
  0
ARC
  5
23A
100
AcDbEntity
  8
PUZZLE
  6
CONTINUOUS
 62
         7
100
AcDbCircle
 10
8.5195314424
 20
10.1484480992
 30
0.0
 40
0.2960207413
100
AcDbArc
 50
180.1900042319
 51
125.6531220025
  0
ARC
  5
23B
100
AcDbEntity
  8
PUZZLE
  6
CONTINUOUS
 62
         7
100
AcDbCircle
 10
8.2931493647
 20
10.4640366502
 30
0.0
 40
0.0923669241
100
AcDbArc
 50
152.9215631172
 51
305.6531220025
  0
ARC
  5
23C
100
AcDbEntity
  8
PUZZLE
  6
CONTINUOUS
 62
         7
100
AcDbCircle
 10
8.1311459126
 20
10.1471601306
 30
0.0
 40
0.0923669241
100
AcDbArc
 50
0.1900042319
 51
152.9215631172
  0
LINE
  5
23D
100
AcDbEntity
  8
PUZZLE
  6
CONTINUOUS
 62
         7
100
AcDbLine
 10
8.0489038642
 20
10.1892064639
 30
0.0
 11
7.5248747889
 21
9.1642128145
 31
0.0
  0
LINE
  5
23E
100
AcDbEntity
  8
PUZZLE
  6
CONTINUOUS
 62
         7
100
AcDbLine
 10
8.2109073163
 20
10.5060829835
 30
0.0
 11
8.3590238576
 21
10.795796897
 31
0.0
  0
ARC
  5
23F
100
AcDbEntity
  8
PUZZLE
  6
CONTINUOUS
 62
         7
100
AcDbCircle
 10
9.1840236637
 20
11.3173276471
 30
0.0
 40
0.2064755629
100
AcDbArc
 50
167.7911170538
 51
113.2542348244
  0
ARC
  5
240
100
AcDbEntity
  8
PUZZLE
  6
CONTINUOUS
 62
         7
100
AcDbCircle
 10
9.0770684325
 20
11.5662219667
 30
0.0
 40
0.0644262715
100
AcDbArc
 50
140.5226759391
 51
293.2542348244
  0
ARC
  5
241
100
AcDbEntity
  8
PUZZLE
  6
CONTINUOUS
 62
         7
100
AcDbCircle
 10
8.9192487838
 20
11.3746169726
 30
0.0
 40
0.0644262715
100
AcDbArc
 50
347.7911170538
 51
140.5226759391
  0
LINE
  5
242
100
AcDbEntity
  8
PUZZLE
  6
CONTINUOUS
 62
         7
100
AcDbLine
 10
8.8695196741
 20
11.4155774426
 30
0.0
 11
8.3590238576
 21
10.795796897
 31
0.0
  0
LINE
  5
243
100
AcDbEntity
  8
PUZZLE
  6
CONTINUOUS
 62
         7
100
AcDbLine
 10
9.0273393228
 20
11.6071824368
 30
0.0
 11
9.1716306957
 21
11.7823630806
 31
0.0
  0
ARC
  5
244
100
AcDbEntity
  8
PUZZLE
  6
CONTINUOUS
 62
         7
100
AcDbCircle
 10
9.811729903
 20
12.0140903398
 30
0.0
 40
0.1440131896
100
AcDbArc
 50
155.3926000069
 51
100.8557177775
  0
ARC
  5
245
100
AcDbEntity
  8
PUZZLE
  6
CONTINUOUS
 62
         7
100
AcDbCircle
 10
9.7761438388
 20
12.199658425
 30
0.0
 40
0.0449362274
100
AcDbArc
 50
128.1241588922
 51
280.8557177775
  0
ARC
  5
246
100
AcDbEntity
  8
PUZZLE
  6
CONTINUOUS
 62
         7
100
AcDbCircle
 10
9.6399404305
 20
12.0927685408
 30
0.0
 40
0.0449362274
100
AcDbArc
 50
335.3926000069
 51
128.1241588922
  0
LINE
  5
247
100
AcDbEntity
  8
PUZZLE
  6
CONTINUOUS
 62
         7
100
AcDbLine
 10
9.6121982581
 20
12.1281187375
 30
0.0
 11
9.1716240284
 21
11.7823643328
 31
0.0
  0
LINE
  5
248
100
AcDbEntity
  8
PUZZLE
  6
CONTINUOUS
 62
         7
100
AcDbLine
 10
9.7484016664
 20
12.2350086217
 30
0.0
 11
9.8729297397
 21
12.3327359215
 31
0.0
  0
ARC
  5
249
100
AcDbEntity
  8
PUZZLE
  6
CONTINUOUS
 62
         7
100
AcDbCircle
 10
10.3436970966
 20
12.3947301424
 30
0.0
 40
0.1004497328
100
AcDbArc
 50
142.9937128288
 51
88.4568305994
  0
ARC
  5
24A
100
AcDbEntity
  8
PUZZLE
  6
CONTINUOUS
 62
         7
100
AcDbCircle
 10
10.3472462971
 20
12.5264752613
 30
0.0
 40
0.031343185
100
AcDbArc
 50
115.7252717141
 51
268.4568305994
  0
ARC
  5
24B
100
AcDbEntity
  8
PUZZLE
  6
CONTINUOUS
 62
         7
100
AcDbCircle
 10
10.2384512964
 20
12.4740566496
 30
0.0
 40
0.031343185
100
AcDbArc
 50
322.9937128288
 51
115.7252717141
  0
LINE
  5
24C
100
AcDbEntity
  8
PUZZLE
  6
CONTINUOUS
 62
         7
100
AcDbLine
 10
10.2248465838
 20
12.5022932754
 30
0.0
 11
9.8729297397
 21
12.3327359215
 31
0.0
  0
LINE
  5
24D
100
AcDbEntity
  8
PUZZLE
  6
CONTINUOUS
 62
         7
100
AcDbLine
 10
10.3336415844
 20
12.5547118871
 30
0.0
 11
10.4331106945
 21
12.6026371836
 31
0.0
  0
ARC
  5
24E
100
AcDbEntity
  8
PUZZLE
  6
CONTINUOUS
 62
         7
100
AcDbCircle
 10
10.7630905788
 20
12.57436863
 30
0.0
 40
0.0700622873
100
AcDbArc
 50
130.5953044917
 51
76.0584222623
  0
ARC
  5
24F
100
AcDbEntity
  8
PUZZLE
  6
CONTINUOUS
 62
         7
100
AcDbCircle
 10
10.7852379814
 20
12.6635844534
 30
0.0
 40
0.0218614343
100
AcDbArc
 50
103.326863377
 51
256.0584222623
  0
ARC
  5
250
100
AcDbEntity
  8
PUZZLE
  6
CONTINUOUS
 62
         7
100
AcDbCircle
 10
10.7032747109
 20
12.6441685765
 30
0.0
 40
0.0218614343
100
AcDbArc
 50
310.5953044917
 51
103.326863377
  0
LINE
  5
251
100
AcDbEntity
  8
PUZZLE
  6
CONTINUOUS
 62
         7
100
AcDbLine
 10
10.6982355193
 20
12.6654413021
 30
0.0
 11
10.4331106945
 21
12.6026371836
 31
0.0
  0
LINE
  5
252
100
AcDbEntity
  8
PUZZLE
  6
CONTINUOUS
 62
         7
100
AcDbLine
 10
10.7801987898
 20
12.684857179
 30
0.0
 11
10.8551361815
 21
12.7026087299
 31
0.0
  0
ARC
  5
253
100
AcDbEntity
  8
PUZZLE
  6
CONTINUOUS
 62
         7
100
AcDbCircle
 10
12.0500584297
 20
3.358062709
 30
0.0
 40
0.7218429548
100
AcDbArc
 50
236.5136270457
 51
183.846090219
  0
ARC
  5
254
100
AcDbEntity
  8
PUZZLE
  6
CONTINUOUS
 62
         7
100
AcDbCircle
 10
11.1120451536
 20
3.2985674
 30
0.0
 40
0.2180775145
100
AcDbArc
 50
210.1798586324
 51
2.9114175177
  0
ARC
  5
255
100
AcDbEntity
  8
PUZZLE
  6
CONTINUOUS
 62
         7
100
AcDbCircle
 10
11.5344509009
 20
2.5722144576
 30
0.0
 40
0.2180775145
100
AcDbArc
 50
57.4482997471
 51
210.1798586324
  0
LINE
  5
256
100
AcDbEntity
  8
PUZZLE
  6
CONTINUOUS
 62
         7
100
AcDbLine
 10
11.3459334496
 20
2.4625833813
 30
0.0
 11
12.7122802175
 21
0.1130651713
 31
0.0
  0
LINE
  5
257
100
AcDbEntity
  8
PUZZLE
  6
CONTINUOUS
 62
         7
100
AcDbLine
 10
10.9235277023
 20
3.1889363236
 30
0.0
 11
10.5373305101
 21
3.8530264046
 31
0.0
  0
ARC
  5
258
100
AcDbEntity
  8
PUZZLE
  6
CONTINUOUS
 62
         7
100
AcDbCircle
 10
10.5551201522
 20
6.1573373671
 30
0.0
 40
0.4874870307
100
AcDbArc
 50
225.049412569
 51
170.5125303396
  0
ARC
  5
259
100
AcDbEntity
  8
PUZZLE
  6
CONTINUOUS
 62
         7
100
AcDbCircle
 10
9.9242718634
 20
6.2627633436
 30
0.0
 40
0.1521098737
100
AcDbArc
 50
197.7809714543
 51
350.5125303396
  0
ARC
  5
25A
100
AcDbEntity
  8
PUZZLE
  6
CONTINUOUS
 62
         7
100
AcDbCircle
 10
10.1032470494
 20
5.7046841897
 30
0.0
 40
0.1521098737
100
AcDbArc
 50
45.049412569
 51
197.7809714543
  0
LINE
  5
25B
100
AcDbEntity
  8
PUZZLE
  6
CONTINUOUS
 62
         7
100
AcDbLine
 10
9.9584033328
 20
5.6582330171
 30
0.0
 11
10.5373305101
 21
3.8530264046
 31
0.0
  0
LINE
  5
25C
100
AcDbEntity
  8
PUZZLE
  6
CONTINUOUS
 62
         7
100
AcDbLine
 10
9.7794281469
 20
6.2163121709
 30
0.0
 11
9.615794686
 21
6.7265528664
 31
0.0
  0
ARC
  5
25D
100
AcDbEntity
  8
PUZZLE
  6
CONTINUOUS
 62
         7
100
AcDbCircle
 10
9.9729976617
 20
8.293630206
 30
0.0
 40
0.3400154031
100
AcDbArc
 50
212.6510042319
 51
158.1141220025
  0
ARC
  5
25E
100
AcDbEntity
  8
PUZZLE
  6
CONTINUOUS
 62
         7
100
AcDbCircle
 10
9.5590397073
 20
8.4599217296
 30
0.0
 40
0.1060945148
100
AcDbArc
 50
185.3825631172
 51
338.1141220025
  0
ARC
  5
25F
100
AcDbEntity
  8
PUZZLE
  6
CONTINUOUS
 62
         7
100
AcDbCircle
 10
9.5973853994
 20
8.0529447531
 30
0.0
 40
0.1060945148
100
AcDbArc
 50
32.6510042319
 51
185.3825631172
  0
LINE
  5
260
100
AcDbEntity
  8
PUZZLE
  6
CONTINUOUS
 62
         7
100
AcDbLine
 10
9.4917587021
 20
8.0429925222
 30
0.0
 11
9.615794686
 21
6.7265528664
 31
0.0
  0
LINE
  5
261
100
AcDbEntity
  8
PUZZLE
  6
CONTINUOUS
 62
         7
100
AcDbLine
 10
9.45341301
 20
8.4499694988
 30
0.0
 11
9.4183543047
 21
8.8220604721
 31
0.0
  0
ARC
  5
262
100
AcDbEntity
  8
PUZZLE
  6
CONTINUOUS
 62
         7
100
AcDbCircle
 10
9.8963876803
 20
9.8361124247
 30
0.0
 40
0.2371620023
100
AcDbArc
 50
200.2521170538
 51
145.7152348244
  0
ARC
  5
263
100
AcDbEntity
  8
PUZZLE
  6
CONTINUOUS
 62
         7
100
AcDbCircle
 10
9.6392895773
 20
10.0113927049
 30
0.0
 40
0.0740013168
100
AcDbArc
 50
172.9836759391
 51
325.7152348244
  0
ARC
  5
264
100
AcDbEntity
  8
PUZZLE
  6
CONTINUOUS
 62
         7
100
AcDbCircle
 10
9.6044609299
 20
9.7284027058
 30
0.0
 40
0.0740013168
100
AcDbArc
 50
20.2521170538
 51
172.9836759391
  0
LINE
  5
265
100
AcDbEntity
  8
PUZZLE
  6
CONTINUOUS
 62
         7
100
AcDbLine
 10
9.5310137801
 20
9.7374421238
 30
0.0
 11
9.4183543047
 21
8.8220604721
 31
0.0
  0
LINE
  5
266
100
AcDbEntity
  8
PUZZLE
  6
CONTINUOUS
 62
         7
100
AcDbLine
 10
9.5658424275
 20
10.0204321229
 30
0.0
 11
9.5976855688
 21
10.2791642632
 31
0.0
  0
ARC
  5
267
100
AcDbEntity
  8
PUZZLE
  6
CONTINUOUS
 62
         7
100
AcDbCircle
 10
10.075183372
 20
10.8983612905
 30
0.0
 40
0.1654164586
100
AcDbArc
 50
187.8536000069
 51
133.3167177775
  0
ARC
  5
268
100
AcDbEntity
  8
PUZZLE
  6
CONTINUOUS
 62
         7
100
AcDbCircle
 10
9.9262933686
 20
11.0562671887
 30
0.0
 40
0.0516146585
100
AcDbArc
 50
160.5851588922
 51
313.3167177775
  0
ARC
  5
269
100
AcDbEntity
  8
PUZZLE
  6
CONTINUOUS
 62
         7
100
AcDbCircle
 10
9.8601879101
 20
10.8687056478
 30
0.0
 40
0.0516146585
100
AcDbArc
 50
7.8536000069
 51
160.5851588922
  0
LINE
  5
26A
100
AcDbEntity
  8
PUZZLE
  6
CONTINUOUS
 62
         7
100
AcDbLine
 10
9.8115082372
 20
10.885862641
 30
0.0
 11
9.5976783352
 21
10.2791613665
 31
0.0
  0
LINE
  5
26B
100
AcDbEntity
  8
PUZZLE
  6
CONTINUOUS
 62
         7
100
AcDbLine
 10
9.8776136957
 20
11.073424182
 30
0.0
 11
9.9380526045
 21
11.2449079767
 31
0.0
  0
ARC
  5
26C
100
AcDbEntity
  8
PUZZLE
  6
CONTINUOUS
 62
         7
100
AcDbCircle
 10
10.3560807157
 20
11.5952151497
 30
0.0
 40
0.1153785922
100
AcDbArc
 50
175.4547128288
 51
120.9178305994
  0
ARC
  5
26D
100
AcDbEntity
  8
PUZZLE
  6
CONTINUOUS
 62
         7
100
AcDbCircle
 10
10.2783004175
 20
11.7250848225
 30
0.0
 40
0.0360014154
100
AcDbArc
 50
148.1862717141
 51
300.9178305994
  0
ARC
  5
26E
100
AcDbEntity
  8
PUZZLE
  6
CONTINUOUS
 62
         7
100
AcDbCircle
 10
10.2051767971
 20
11.6072115679
 30
0.0
 40
0.0360014154
100
AcDbArc
 50
355.4547128288
 51
148.1862717141
  0
LINE
  5
26F
100
AcDbEntity
  8
PUZZLE
  6
CONTINUOUS
 62
         7
100
AcDbLine
 10
10.1745840037
 20
11.6261900531
 30
0.0
 11
9.9380526045
 21
11.2449079767
 31
0.0
  0
LINE
  5
270
100
AcDbEntity
  8
PUZZLE
  6
CONTINUOUS
 62
         7
100
AcDbLine
 10
10.2477076241
 20
11.7440633077
 30
0.0
 11
10.3145630991
 21
11.8518324851
 31
0.0
  0
ARC
  5
271
100
AcDbEntity
  8
PUZZLE
  6
CONTINUOUS
 62
         7
100
AcDbCircle
 10
10.6517925696
 20
12.0278663389
 30
0.0
 40
0.0804749584
100
AcDbArc
 50
163.0563044917
 51
108.5194222623
  0
ARC
  5
272
100
AcDbEntity
  8
PUZZLE
  6
CONTINUOUS
 62
         7
100
AcDbCircle
 10
10.6182558766
 20
12.12798415
 30
0.0
 40
0.025110485
100
AcDbArc
 50
135.787863377
 51
288.5194222623
  0
ARC
  5
273
100
AcDbEntity
  8
PUZZLE
  6
CONTINUOUS
 62
         7
100
AcDbCircle
 10
10.5507904205
 20
12.0586372952
 30
0.0
 40
0.025110485
100
AcDbArc
 50
343.0563044917
 51
135.787863377
  0
LINE
  5
274
100
AcDbEntity
  8
PUZZLE
  6
CONTINUOUS
 62
         7
100
AcDbLine
 10
10.5327921561
 20
12.0761472619
 30
0.0
 11
10.3145630991
 21
11.8518324851
 31
0.0
  0
LINE
  5
275
100
AcDbEntity
  8
PUZZLE
  6
CONTINUOUS
 62
         7
100
AcDbLine
 10
10.6002576122
 20
12.1454941167
 30
0.0
 11
10.6619399399
 21
12.2088965698
 31
0.0
  0
ARC
  5
276
100
AcDbEntity
  8
PUZZLE
  6
CONTINUOUS
 62
         7
100
AcDbCircle
 10
14.4194501217
 20
5.6963637403
 30
0.0
 40
0.5783084278
100
AcDbArc
 50
256.5760270457
 51
203.908490219
  0
ARC
  5
277
100
AcDbEntity
  8
PUZZLE
  6
CONTINUOUS
 62
         7
100
AcDbCircle
 10
13.7299078217
 20
5.3937959058
 30
0.0
 40
0.1747139925
100
AcDbArc
 50
230.2422586324
 51
22.9738175177
  0
ARC
  5
278
100
AcDbEntity
  8
PUZZLE
  6
CONTINUOUS
 62
         7
100
AcDbCircle
 10
14.247409812
 20
4.9632757444
 30
0.0
 40
0.1747139925
100
AcDbArc
 50
77.5106997471
 51
230.2422586324
  0
LINE
  5
279
100
AcDbEntity
  8
PUZZLE
  6
CONTINUOUS
 62
         7
100
AcDbLine
 10
14.1356727228
 20
4.8289634142
 30
0.0
 11
15.809625259
 21
3.4363691257
 31
0.0
  0
LINE
  5
27A
100
AcDbEntity
  8
PUZZLE
  6
CONTINUOUS
 62
         7
100
AcDbLine
 10
13.6181707325
 20
5.2594835755
 30
0.0
 11
13.1450289324
 21
5.6530996155
 31
0.0
  0
ARC
  5
27B
100
AcDbEntity
  8
PUZZLE
  6
CONTINUOUS
 62
         7
100
AcDbCircle
 10
12.5251201636
 20
7.3920772608
 30
0.0
 40
0.3905528985
100
AcDbArc
 50
245.111812569
 51
190.5749303396
  0
ARC
  5
27C
100
AcDbEntity
  8
PUZZLE
  6
CONTINUOUS
 62
         7
100
AcDbCircle
 10
12.0214066233
 20
7.2980379333
 30
0.0
 40
0.1218636565
100
AcDbArc
 50
217.8433714543
 51
10.5749303396
  0
ARC
  5
27D
100
AcDbEntity
  8
PUZZLE
  6
CONTINUOUS
 62
         7
100
AcDbCircle
 10
12.309470271
 20
6.9272484217
 30
0.0
 40
0.1218636565
100
AcDbArc
 50
65.111812569
 51
217.8433714543
  0
LINE
  5
27E
100
AcDbEntity
  8
PUZZLE
  6
CONTINUOUS
 62
         7
100
AcDbLine
 10
12.2132356588
 20
6.8524844584
 30
0.0
 11
13.1450289324
 21
5.6530996155
 31
0.0
  0
LINE
  5
27F
100
AcDbEntity
  8
PUZZLE
  6
CONTINUOUS
 62
         7
100
AcDbLine
 10
11.9251720111
 20
7.2232739701
 30
0.0
 11
11.6618011345
 21
7.5622794624
 31
0.0
  0
ARC
  5
280
100
AcDbEntity
  8
PUZZLE
  6
CONTINUOUS
 62
         7
100
AcDbCircle
 10
11.4999295102
 20
8.8397398956
 30
0.0
 40
0.2724051982
100
AcDbArc
 50
232.7134042319
 51
178.1765220025
  0
ARC
  5
281
100
AcDbEntity
  8
PUZZLE
  6
CONTINUOUS
 62
         7
100
AcDbCircle
 10
11.1427070989
 20
8.8511125871
 30
0.0
 40
0.0849982003
100
AcDbArc
 50
205.4449631172
 51
358.1765220025
  0
ARC
  5
282
100
AcDbEntity
  8
PUZZLE
  6
CONTINUOUS
 62
         7
100
AcDbCircle
 10
11.283413715
 20
8.5553843089
 30
0.0
 40
0.0849982003
100
AcDbArc
 50
52.7134042319
 51
205.4449631172
  0
LINE
  5
283
100
AcDbEntity
  8
PUZZLE
  6
CONTINUOUS
 62
         7
100
AcDbLine
 10
11.2066604756
 20
8.5188653508
 30
0.0
 11
11.6618011345
 21
7.5622794624
 31
0.0
  0
LINE
  5
284
100
AcDbEntity
  8
PUZZLE
  6
CONTINUOUS
 62
         7
100
AcDbLine
 10
11.0659538595
 20
8.814593629
 30
0.0
 11
10.9373085926
 21
9.084972125
 31
0.0
  0
ARC
  5
285
100
AcDbEntity
  8
PUZZLE
  6
CONTINUOUS
 62
         7
100
AcDbCircle
 10
11.0183553479
 20
9.9794662208
 30
0.0
 40
0.1900036341
100
AcDbArc
 50
220.3145170538
 51
165.7776348244
  0
ARC
  5
286
100
AcDbEntity
  8
PUZZLE
  6
CONTINUOUS
 62
         7
100
AcDbCircle
 10
10.7767060182
 20
10.040713278
 30
0.0
 40
0.0592865594
100
AcDbArc
 50
193.0460759391
 51
345.7776348244
  0
ARC
  5
287
100
AcDbEntity
  8
PUZZLE
  6
CONTINUOUS
 62
         7
100
AcDbCircle
 10
10.8282704716
 20
9.8181797045
 30
0.0
 40
0.0592865594
100
AcDbArc
 50
40.3145170538
 51
193.0460759391
  0
LINE
  5
288
100
AcDbEntity
  8
PUZZLE
  6
CONTINUOUS
 62
         7
100
AcDbLine
 10
10.7705141665
 20
9.8047966798
 30
0.0
 11
10.9373085926
 21
9.084972125
 31
0.0
  0
LINE
  5
289
100
AcDbEntity
  8
PUZZLE
  6
CONTINUOUS
 62
         7
100
AcDbLine
 10
10.7189497131
 20
10.0273302534
 30
0.0
 11
10.6718053567
 21
10.2307882835
 31
0.0
  0
ARC
  5
28A
100
AcDbEntity
  8
PUZZLE
  6
CONTINUOUS
 62
         7
100
AcDbCircle
 10
10.860967466
 20
10.8279906631
 30
0.0
 40
0.1325242998
100
AcDbArc
 50
207.9160000069
 51
153.3791177775
  0
ARC
  5
28B
100
AcDbEntity
  8
PUZZLE
  6
CONTINUOUS
 62
         7
100
AcDbCircle
 10
10.7055241885
 20
10.9059017311
 30
0.0
 40
0.0413513657
100
AcDbArc
 50
180.6475588922
 51
333.3791177775
  0
ARC
  5
28C
100
AcDbEntity
  8
PUZZLE
  6
CONTINUOUS
 62
         7
100
AcDbCircle
 10
10.7073248554
 20
10.746586147
 30
0.0
 40
0.0413513657
100
AcDbArc
 50
27.9160000069
 51
180.6475588922
  0
LINE
  5
28D
100
AcDbEntity
  8
PUZZLE
  6
CONTINUOUS
 62
         7
100
AcDbLine
 10
10.6659761307
 20
10.7461188023
 30
0.0
 11
10.6718007092
 21
10.2307841156
 31
0.0
  0
LINE
  5
28E
100
AcDbEntity
  8
PUZZLE
  6
CONTINUOUS
 62
         7
100
AcDbLine
 10
10.6641754637
 20
10.9054343864
 30
0.0
 11
10.6625291497
 21
11.0510934634
 31
0.0
  0
ARC
  5
28F
100
AcDbEntity
  8
PUZZLE
  6
CONTINUOUS
 62
         7
100
AcDbCircle
 10
10.8808371581
 20
11.4296010824
 30
0.0
 40
0.0924361897
100
AcDbArc
 50
195.5171128288
 51
140.9802305994
  0
ARC
  5
290
100
AcDbEntity
  8
PUZZLE
  6
CONTINUOUS
 62
         7
100
AcDbCircle
 10
10.7866120753
 20
11.505956896
 30
0.0
 40
0.0288427307
100
AcDbArc
 50
168.2486717141
 51
320.9802305994
  0
ARC
  5
291
100
AcDbEntity
  8
PUZZLE
  6
CONTINUOUS
 62
         7
100
AcDbCircle
 10
10.7639787826
 20
11.3971557965
 30
0.0
 40
0.0288427307
100
AcDbArc
 50
15.5171128288
 51
168.2486717141
  0
LINE
  5
292
100
AcDbEntity
  8
PUZZLE
  6
CONTINUOUS
 62
         7
100
AcDbLine
 10
10.7357405739
 20
11.4030300354
 30
0.0
 11
10.6625291497
 21
11.0510934634
 31
0.0
  0
LINE
  5
293
100
AcDbEntity
  8
PUZZLE
  6
CONTINUOUS
 62
         7
100
AcDbLine
 10
10.7583738666
 20
11.5118311348
 30
0.0
 11
10.779067037
 21
11.611305821
 31
0.0
  0
ARC
  5
294
100
AcDbEntity
  8
PUZZLE
  6
CONTINUOUS
 62
         7
100
AcDbCircle
 10
18.4356416121
 20
7.6161138005
 30
0.0
 40
0.6642585824
100
AcDbArc
 50
289.0370270457
 51
236.369490219
  0
ARC
  5
295
100
AcDbEntity
  8
PUZZLE
  6
CONTINUOUS
 62
         7
100
AcDbCircle
 10
17.9538971532
 20
6.89777784
 30
0.0
 40
0.200680577
100
AcDbArc
 50
262.7032586324
 51
55.4348175177
  0
ARC
  5
296
100
AcDbEntity
  8
PUZZLE
  6
CONTINUOUS
 62
         7
100
AcDbCircle
 10
18.7208525398
 20
6.7995729243
 30
0.0
 40
0.200680577
100
AcDbArc
 50
109.9716997471
 51
262.7032586324
  0
LINE
  5
297
100
AcDbEntity
  8
PUZZLE
  6
CONTINUOUS
 62
         7
100
AcDbLine
 10
18.6953644618
 20
6.6005175253
 30
0.0
 11
21.1762185233
 21
6.2828562006
 31
0.0
  0
LINE
  5
298
100
AcDbEntity
  8
PUZZLE
  6
CONTINUOUS
 62
         7
100
AcDbLine
 10
17.9284090752
 20
6.6987224411
 30
0.0
 11
17.2271969852
 21
6.7885092467
 31
0.0
  0
ARC
  5
299
100
AcDbEntity
  8
PUZZLE
  6
CONTINUOUS
 62
         7
100
AcDbCircle
 10
15.5543351927
 20
8.0916841994
 30
0.0
 40
0.4485981913
100
AcDbArc
 50
277.572812569
 51
223.0359303396
  0
ARC
  5
29A
100
AcDbEntity
  8
PUZZLE
  6
CONTINUOUS
 62
         7
100
AcDbCircle
 10
15.1241314924
 20
7.6900080836
 30
0.0
 40
0.1399754453
100
AcDbArc
 50
250.3043714543
 51
43.0359303396
  0
ARC
  5
29B
100
AcDbEntity
  8
PUZZLE
  6
CONTINUOUS
 62
         7
100
AcDbCircle
 10
15.6319009777
 20
7.5082439927
 30
0.0
 40
0.1399754453
100
AcDbArc
 50
97.572812569
 51
250.3043714543
  0
LINE
  5
29C
100
AcDbEntity
  8
PUZZLE
  6
CONTINUOUS
 62
         7
100
AcDbLine
 10
15.5847259734
 20
7.3764576343
 30
0.0
 11
17.2271969852
 21
6.7885092467
 31
0.0
  0
LINE
  5
29D
100
AcDbEntity
  8
PUZZLE
  6
CONTINUOUS
 62
         7
100
AcDbLine
 10
15.0769564882
 20
7.5582217251
 30
0.0
 11
14.6127129243
 21
7.7244050263
 31
0.0
  0
ARC
  5
29E
100
AcDbEntity
  8
PUZZLE
  6
CONTINUOUS
 62
         7
100
AcDbCircle
 10
13.6682851657
 20
8.8626741918
 30
0.0
 40
0.3128909802
100
AcDbArc
 50
265.1744042319
 51
210.6375220025
  0
ARC
  5
29F
100
AcDbEntity
  8
PUZZLE
  6
CONTINUOUS
 62
         7
100
AcDbCircle
 10
13.3150686412
 20
8.6534701822
 30
0.0
 40
0.0976309203
100
AcDbArc
 50
237.9059631172
 51
30.6375220025
  0
ARC
  5
2A0
100
AcDbEntity
  8
PUZZLE
  6
CONTINUOUS
 62
         7
100
AcDbCircle
 10
13.6337508324
 20
8.4536074361
 30
0.0
 40
0.0976309203
100
AcDbArc
 50
85.1744042319
 51
237.9059631172
  0
LINE
  5
2A1
100
AcDbEntity
  8
PUZZLE
  6
CONTINUOUS
 62
         7
100
AcDbLine
 10
13.581878508
 20
8.3708967442
 30
0.0
 11
14.6127129243
 21
7.7244050263
 31
0.0
  0
LINE
  5
2A2
100
AcDbEntity
  8
PUZZLE
  6
CONTINUOUS
 62
         7
100
AcDbLine
 10
13.2631963168
 20
8.5707594903
 30
0.0
 11
12.9718315135
 21
8.7534900328
 31
0.0
  0
ARC
  5
2A3
100
AcDbEntity
  8
PUZZLE
  6
CONTINUOUS
 62
         7
100
AcDbCircle
 10
12.4989272541
 20
9.6703619793
 30
0.0
 40
0.2182426169
100
AcDbArc
 50
252.7755170538
 51
198.2386348244
  0
ARC
  5
2A4
100
AcDbEntity
  8
PUZZLE
  6
CONTINUOUS
 62
         7
100
AcDbCircle
 10
12.2269721066
 20
9.5807444274
 30
0.0
 40
0.0680979283
100
AcDbArc
 50
225.5070759391
 51
18.2386348244
  0
ARC
  5
2A5
100
AcDbEntity
  8
PUZZLE
  6
CONTINUOUS
 62
         7
100
AcDbCircle
 10
12.4141371738
 20
9.3968632587
 30
0.0
 40
0.0680979283
100
AcDbArc
 50
72.7755170538
 51
225.5070759391
  0
LINE
  5
2A6
100
AcDbEntity
  8
PUZZLE
  6
CONTINUOUS
 62
         7
100
AcDbLine
 10
12.3664127038
 20
9.3482864865
 30
0.0
 11
12.9718315135
 21
8.7534900328
 31
0.0
  0
LINE
  5
2A7
100
AcDbEntity
  8
PUZZLE
  6
CONTINUOUS
 62
         7
100
AcDbLine
 10
12.1792476365
 20
9.5321676551
 30
0.0
 11
12.0081263298
 21
9.7002865586
 31
0.0
  0
ARC
  5
2A8
100
AcDbEntity
  8
PUZZLE
  6
CONTINUOUS
 62
         7
100
AcDbCircle
 10
11.823281999
 20
10.3956881774
 30
0.0
 40
0.1522205094
100
AcDbArc
 50
240.3770000069
 51
185.8401177775
  0
ARC
  5
2A9
100
AcDbEntity
  8
PUZZLE
  6
CONTINUOUS
 62
         7
100
AcDbCircle
 10
11.6246009372
 20
10.3753663317
 30
0.0
 40
0.0474971456
100
AcDbArc
 50
213.1085588922
 51
5.8401177775
  0
ARC
  5
2AA
100
AcDbEntity
  8
PUZZLE
  6
CONTINUOUS
 62
         7
100
AcDbCircle
 10
11.7245633867
 20
10.2220743032
 30
0.0
 40
0.0474971456
100
AcDbArc
 50
60.3770000069
 51
213.1085588922
  0
LINE
  5
2AB
100
AcDbEntity
  8
PUZZLE
  6
CONTINUOUS
 62
         7
100
AcDbLine
 10
11.684778014
 20
10.1961300754
 30
0.0
 11
12.0081243951
 21
9.7002796541
 31
0.0
  0
LINE
  5
2AC
100
AcDbEntity
  8
PUZZLE
  6
CONTINUOUS
 62
         7
100
AcDbLine
 10
11.5848155645
 20
10.3494221039
 30
0.0
 11
11.4934218807
 21
10.4895739636
 31
0.0
  0
ARC
  5
2AD
100
AcDbEntity
  8
PUZZLE
  6
CONTINUOUS
 62
         7
100
AcDbCircle
 10
11.4716488634
 20
10.9909938993
 30
0.0
 40
0.1061743688
100
AcDbArc
 50
227.9781128288
 51
173.4412305994
  0
ARC
  5
2AE
100
AcDbEntity
  8
PUZZLE
  6
CONTINUOUS
 62
         7
100
AcDbCircle
 10
11.3332567727
 20
11.0069054974
 30
0.0
 40
0.0331294349
100
AcDbArc
 50
200.7096717141
 51
353.4412305994
  0
ARC
  5
2AF
100
AcDbEntity
  8
PUZZLE
  6
CONTINUOUS
 62
         7
100
AcDbCircle
 10
11.3783968855
 20
10.8875066135
 30
0.0
 40
0.0331294349
100
AcDbArc
 50
47.9781128288
 51
200.7096717141
  0
LINE
  5
2B0
100
AcDbEntity
  8
PUZZLE
  6
CONTINUOUS
 62
         7
100
AcDbLine
 10
11.3474081306
 20
10.8757909605
 30
0.0
 11
11.4934218807
 21
10.4895739636
 31
0.0
  0
LINE
  5
2B1
100
AcDbEntity
  8
PUZZLE
  6
CONTINUOUS
 62
         7
100
AcDbLine
 10
11.3022680178
 20
10.9951898444
 30
0.0
 11
11.2609973085
 21
11.1043538746
 31
0.0
  0
ARC
  5
2B2
100
AcDbEntity
  8
PUZZLE
  6
CONTINUOUS
 62
         7
100
AcDbCircle
 10
11.3212557349
 20
11.4491915264
 30
0.0
 40
0.074055141
100
AcDbArc
 50
215.5797044917
 51
161.0428222623
  0
ARC
  5
2B3
100
AcDbEntity
  8
PUZZLE
  6
CONTINUOUS
 62
         7
100
AcDbCircle
 10
11.229363208
 20
11.4807558584
 30
0.0
 40
0.0231073186
100
AcDbArc
 50
188.311263377
 51
341.0428222623
  0
ARC
  5
2B4
100
AcDbEntity
  8
PUZZLE
  6
CONTINUOUS
 62
         7
100
AcDbCircle
 10
11.2422328349
 20
11.392659015
 30
0.0
 40
0.0231073186
100
AcDbArc
 50
35.5797044917
 51
188.311263377
  0
LINE
  5
2B5
100
AcDbEntity
  8
PUZZLE
  6
CONTINUOUS
 62
         7
100
AcDbLine
 10
11.2193682034
 20
11.3893188354
 30
0.0
 11
11.2609973085
 21
11.1043538746
 31
0.0
  0
LINE
  5
2B6
100
AcDbEntity
  8
PUZZLE
  6
CONTINUOUS
 62
         7
100
AcDbLine
 10
11.2064985764
 20
11.4774156788
 30
0.0
 11
11.1947321319
 21
11.5579608744
 31
0.0
  0
ARC
  5
2B7
100
AcDbEntity
  8
PUZZLE
  6
CONTINUOUS
 62
         7
100
AcDbCircle
 10
18.6355309041
 20
12.1162877575
 30
0.0
 40
0.5152682327
100
AcDbArc
 50
56.8698470815
 51
2.3329648521
  0
ARC
  5
2B8
100
AcDbEntity
  8
PUZZLE
  6
CONTINUOUS
 62
         7
100
AcDbCircle
 10
19.0050192907
 20
12.6824303052
 30
0.0
 40
0.160778402
100
AcDbArc
 50
236.8698470815
 51
29.6014059668
  0
ARC
  5
2B9
100
AcDbEntity
  8
PUZZLE
  6
CONTINUOUS
 62
         7
100
AcDbCircle
 10
19.3110171908
 20
12.1438073631
 30
0.0
 40
0.160778402
100
AcDbArc
 50
29.6014059668
 51
182.3329648521
  0
ARC
  5
2BA
100
AcDbEntity
  8
PUZZLE
  6
CONTINUOUS
 62
         7
100
AcDbCircle
 10
16.3699903233
 20
11.1429081163
 30
0.0
 40
0.3593951557
100
AcDbArc
 50
44.4712470815
 51
349.9343648521
  0
ARC
  5
2BB
100
AcDbEntity
  8
PUZZLE
  6
CONTINUOUS
 62
         7
100
AcDbCircle
 10
16.7064799069
 20
11.4732437425
 30
0.0
 40
0.112141551
100
AcDbArc
 50
224.4712470815
 51
17.2028059668
  0
ARC
  5
2BC
100
AcDbEntity
  8
PUZZLE
  6
CONTINUOUS
 62
         7
100
AcDbCircle
 10
16.834269224
 20
11.0604947181
 30
0.0
 40
0.112141551
100
AcDbArc
 50
17.2028059668
 51
169.9343648521
  0
ARC
  5
2BD
100
AcDbEntity
  8
PUZZLE
  6
CONTINUOUS
 62
         7
100
AcDbCircle
 10
14.6808786638
 20
10.8190919364
 30
0.0
 40
0.2506775321
100
AcDbArc
 50
32.0726470815
 51
337.5357648521
  0
ARC
  5
2BE
100
AcDbEntity
  8
PUZZLE
  6
CONTINUOUS
 62
         7
100
AcDbCircle
 10
14.9595771487
 20
10.9937338159
 30
0.0
 40
0.0782185481
100
AcDbArc
 50
212.0726470815
 51
4.8042059668
  0
ARC
  5
2BF
100
AcDbEntity
  8
PUZZLE
  6
CONTINUOUS
 62
         7
100
AcDbCircle
 10
14.9848175269
 20
10.6934185541
 30
0.0
 40
0.0782185481
100
AcDbArc
 50
4.8042059668
 51
157.5357648521
  0
ARC
  5
2C0
100
AcDbEntity
  8
PUZZLE
  6
CONTINUOUS
 62
         7
100
AcDbCircle
 10
13.481723408
 20
10.8514747151
 30
0.0
 40
0.1748446493
100
AcDbArc
 50
19.6740470815
 51
325.1371648521
  0
ARC
  5
2C1
100
AcDbEntity
  8
PUZZLE
  6
CONTINUOUS
 62
         7
100
AcDbCircle
 10
13.6977328604
 20
10.9287069261
 30
0.0
 40
0.0545565232
100
AcDbArc
 50
199.6740470815
 51
352.4056059668
  0
ARC
  5
2C2
100
AcDbEntity
  8
PUZZLE
  6
CONTINUOUS
 62
         7
100
AcDbCircle
 10
13.6699523062
 20
10.7203458478
 30
0.0
 40
0.0545565232
100
AcDbArc
 50
352.4056059668
 51
145.1371648521
  0
ARC
  5
2C3
100
AcDbEntity
  8
PUZZLE
  6
CONTINUOUS
 62
         7
100
AcDbCircle
 10
12.6696708859
 20
11.0531115501
 30
0.0
 40
0.1219538563
100
AcDbArc
 50
7.2754470815
 51
312.7385648521
  0
ARC
  5
2C4
100
AcDbEntity
  8
PUZZLE
  6
CONTINUOUS
 62
         7
100
AcDbCircle
 10
12.8283895803
 20
11.0733747558
 30
0.0
 40
0.0380530855
100
AcDbArc
 50
187.2754470815
 51
340.0070059668
  0
ARC
  5
2C5
100
AcDbEntity
  8
PUZZLE
  6
CONTINUOUS
 62
         7
100
AcDbCircle
 10
12.7782602651
 20
10.9355931763
 30
0.0
 40
0.0380530855
100
AcDbArc
 50
340.0070059668
 51
132.7385648521
  0
ARC
  5
2C6
100
AcDbEntity
  8
PUZZLE
  6
CONTINUOUS
 62
         7
100
AcDbCircle
 10
12.1466748587
 20
11.3120903062
 30
0.0
 40
0.0850617647
100
AcDbArc
 50
354.8768470815
 51
300.3399648521
  0
ARC
  5
2C7
100
AcDbEntity
  8
PUZZLE
  6
CONTINUOUS
 62
         7
100
AcDbCircle
 10
12.2578324741
 20
11.3021244757
 30
0.0
 40
0.0265416995
100
AcDbArc
 50
174.8768470815
 51
327.6084059669
  0
ARC
  5
2C8
100
AcDbEntity
  8
PUZZLE
  6
CONTINUOUS
 62
         7
100
AcDbCircle
 10
12.203049087
 20
11.2157716703
 30
0.0
 40
0.0265416995
100
AcDbArc
 50
327.6084059668
 51
120.3399648521
  0
ARC
  5
2C9
100
AcDbEntity
  8
PUZZLE
  6
CONTINUOUS
 62
         7
100
AcDbCircle
 10
16.9682560332
 20
14.097179587
 30
0.0
 40
0.4128099604
100
AcDbArc
 50
76.9322470815
 51
22.3953648521
  0
ARC
  5
2CA
100
AcDbEntity
  8
PUZZLE
  6
CONTINUOUS
 62
         7
100
AcDbCircle
 10
17.0907176454
 20
14.6247719534
 30
0.0
 40
0.1288084953
100
AcDbArc
 50
256.9322470815
 51
49.6638059668
  0
ARC
  5
2CB
100
AcDbEntity
  8
PUZZLE
  6
CONTINUOUS
 62
         7
100
AcDbCircle
 10
17.4690239235
 20
14.303533825
 30
0.0
 40
0.1288084953
100
AcDbArc
 50
49.6638059668
 51
202.3953648521
  0
ARC
  5
2CC
100
AcDbEntity
  8
PUZZLE
  6
CONTINUOUS
 62
         7
100
AcDbCircle
 10
15.5308587861
 20
12.7420305895
 30
0.0
 40
0.287931393
100
AcDbArc
 50
64.5336470815
 51
9.9967648521
  0
ARC
  5
2CD
100
AcDbEntity
  8
PUZZLE
  6
CONTINUOUS
 62
         7
100
AcDbCircle
 10
15.6932945099
 20
13.0830994813
 30
0.0
 40
0.0898428164
100
AcDbArc
 50
244.5336470815
 51
37.2652059668
  0
ARC
  5
2CE
100
AcDbEntity
  8
PUZZLE
  6
CONTINUOUS
 62
         7
100
AcDbCircle
 10
15.9028974599
 20
12.8076093858
 30
0.0
 40
0.0898428164
100
AcDbArc
 50
37.2652059668
 51
189.9967648521
  0
ARC
  5
2CF
100
AcDbEntity
  8
PUZZLE
  6
CONTINUOUS
 62
         7
100
AcDbCircle
 10
14.3487277328
 20
12.0341253015
 30
0.0
 40
0.2008316747
100
AcDbArc
 50
52.1350470815
 51
357.5981648521
  0
ARC
  5
2D0
100
AcDbEntity
  8
PUZZLE
  6
CONTINUOUS
 62
         7
100
AcDbCircle
 10
14.5104627608
 20
12.2421454755
 30
0.0
 40
0.0626652172
100
AcDbArc
 50
232.1350470815
 51
24.8666059668
  0
ARC
  5
2D1
100
AcDbEntity
  8
PUZZLE
  6
CONTINUOUS
 62
         7
100
AcDbCircle
 10
14.6119931396
 20
12.0230827647
 30
0.0
 40
0.0626652172
100
AcDbArc
 50
24.8666059668
 51
177.5981648521
  0
ARC
  5
2D2
100
AcDbEntity
  8
PUZZLE
  6
CONTINUOUS
 62
         7
100
AcDbCircle
 10
13.4374144323
 20
11.7289295711
 30
0.0
 40
0.1400777462
100
AcDbArc
 50
39.7364470815
 51
345.1995648521
  0
ARC
  5
2D3
100
AcDbEntity
  8
PUZZLE
  6
CONTINUOUS
 62
         7
100
AcDbCircle
 10
13.5787445941
 20
11.846416082
 30
0.0
 40
0.0437082567
100
AcDbArc
 50
219.7364470815
 51
12.4680059668
  0
ARC
  5
2D4
100
AcDbEntity
  8
PUZZLE
  6
CONTINUOUS
 62
         7
100
AcDbCircle
 10
13.6151026819
 20
11.6819808668
 30
0.0
 40
0.0437082567
100
AcDbArc
 50
12.4680059668
 51
165.1995648521
  0
ARC
  5
2D5
100
AcDbEntity
  8
PUZZLE
  6
CONTINUOUS
 62
         7
100
AcDbCircle
 10
12.7708955438
 20
11.6574923103
 30
0.0
 40
0.0977039984
100
AcDbArc
 50
27.3378470815
 51
332.8009648521
  0
ARC
  5
2D6
100
AcDbEntity
  8
PUZZLE
  6
CONTINUOUS
 62
         7
100
AcDbCircle
 10
12.8847689123
 20
11.7163620292
 30
0.0
 40
0.0304864374
100
AcDbArc
 50
207.3378470816
 51
0.0694059668
  0
ARC
  5
2D7
100
AcDbEntity
  8
PUZZLE
  6
CONTINUOUS
 62
         7
100
AcDbCircle
 10
12.8849112031
 20
11.5988986478
 30
0.0
 40
0.0304864374
100
AcDbArc
 50
0.0694059668
 51
152.8009648521
  0
ARC
  5
2D8
100
AcDbEntity
  8
PUZZLE
  6
CONTINUOUS
 62
         7
100
AcDbCircle
 10
12.3061441814
 20
11.7086488971
 30
0.0
 40
0.0681476977
100
AcDbArc
 50
14.9392470815
 51
320.4023648521
  0
ARC
  5
2D9
100
AcDbEntity
  8
PUZZLE
  6
CONTINUOUS
 62
         7
100
AcDbCircle
 10
12.3925337653
 20
11.7316987653
 30
0.0
 40
0.0212640276
100
AcDbArc
 50
194.9392470815
 51
347.6708059668
  0
ARC
  5
2DA
100
AcDbEntity
  8
PUZZLE
  6
CONTINUOUS
 62
         7
100
AcDbCircle
 10
12.3750394521
 20
11.651658562
 30
0.0
 40
0.0212640276
100
AcDbArc
 50
347.6708059668
 51
140.4023648521
  0
ARC
  5
2DB
100
AcDbEntity
  8
PUZZLE
  6
CONTINUOUS
 62
         7
100
AcDbCircle
 10
15.7267780981
 20
17.3291697434
 30
0.0
 40
0.4741634308
100
AcDbArc
 50
109.3932470815
 51
54.8563648521
  0
ARC
  5
2DC
100
AcDbEntity
  8
PUZZLE
  6
CONTINUOUS
 62
         7
100
AcDbCircle
 10
15.5202045177
 20
17.9159879645
 30
0.0
 40
0.14795253
100
AcDbArc
 50
289.3932470815
 51
82.1248059668
  0
ARC
  5
2DD
100
AcDbEntity
  8
PUZZLE
  6
CONTINUOUS
 62
         7
100
AcDbCircle
 10
16.0848855697
 20
17.8378811621
 30
0.0
 40
0.14795253
100
AcDbArc
 50
82.1248059668
 51
234.8563648521
  0
ARC
  5
2DE
100
AcDbEntity
  8
PUZZLE
  6
CONTINUOUS
 62
         7
100
AcDbCircle
 10
15.1691543805
 20
15.1296649872
 30
0.0
 40
0.3307249104
100
AcDbArc
 50
96.9946470815
 51
42.4577648521
  0
ARC
  5
2DF
100
AcDbEntity
  8
PUZZLE
  6
CONTINUOUS
 62
         7
100
AcDbCircle
 10
15.1163130084
 20
15.5603560742
 30
0.0
 40
0.1031956158
100
AcDbArc
 50
276.9946470815
 51
69.7262059668
  0
ARC
  5
2E0
100
AcDbEntity
  8
PUZZLE
  6
CONTINUOUS
 62
         7
100
AcDbCircle
 10
15.4892901586
 20
15.4225815395
 30
0.0
 40
0.1031956158
100
AcDbArc
 50
69.7262059668
 51
222.4577648521
  0
ARC
  5
2E1
100
AcDbEntity
  8
PUZZLE
  6
CONTINUOUS
 62
         7
100
AcDbCircle
 10
14.4599013703
 20
13.7148131422
 30
0.0
 40
0.2306800829
100
AcDbArc
 50
84.5960470815
 51
30.0591648521
  0
ARC
  5
2E2
100
AcDbEntity
  8
PUZZLE
  6
CONTINUOUS
 62
         7
100
AcDbCircle
 10
14.4884048729
 20
14.0161268216
 30
0.0
 40
0.0719787729
100
AcDbArc
 50
264.5960470815
 51
57.3276059668
  0
ARC
  5
2E3
100
AcDbEntity
  8
PUZZLE
  6
CONTINUOUS
 62
         7
100
AcDbCircle
 10
14.7218552224
 20
13.8664131501
 30
0.0
 40
0.0719787729
100
AcDbArc
 50
57.3276059668
 51
210.0591648521
  0
ARC
  5
2E4
100
AcDbEntity
  8
PUZZLE
  6
CONTINUOUS
 62
         7
100
AcDbCircle
 10
13.7648452591
 20
12.8572090757
 30
0.0
 40
0.1608966622
100
AcDbArc
 50
72.1974470815
 51
17.6605648521
  0
ARC
  5
2E5
100
AcDbEntity
  8
PUZZLE
  6
CONTINUOUS
 62
         7
100
AcDbCircle
 10
13.8293868039
 20
13.0582016815
 30
0.0
 40
0.050204353
100
AcDbArc
 50
252.1974470815
 51
44.9290059668
  0
ARC
  5
2E6
100
AcDbEntity
  8
PUZZLE
  6
CONTINUOUS
 62
         7
100
AcDbCircle
 10
13.9659971917
 20
12.9212523312
 30
0.0
 40
0.050204353
100
AcDbArc
 50
44.9290059668
 51
197.6605648521
  0
ARC
  5
2E7
100
AcDbEntity
  8
PUZZLE
  6
CONTINUOUS
 62
         7
100
AcDbCircle
 10
13.1629228949
 20
12.3770689549
 30
0.0
 40
0.1122251582
100
AcDbArc
 50
59.7988470815
 51
5.2619648521
  0
ARC
  5
2E8
100
AcDbEntity
  8
PUZZLE
  6
CONTINUOUS
 62
         7
100
AcDbCircle
 10
13.2369914265
 20
12.5043255439
 30
0.0
 40
0.0350174539
100
AcDbArc
 50
239.7988470816
 51
32.5304059668
  0
ARC
  5
2E9
100
AcDbEntity
  8
PUZZLE
  6
CONTINUOUS
 62
         7
100
AcDbCircle
 10
13.3095449969
 20
12.390572511
 30
0.0
 40
0.0350174539
100
AcDbArc
 50
32.5304059668
 51
185.2619648521
  0
ARC
  5
2EA
100
AcDbEntity
  8
PUZZLE
  6
CONTINUOUS
 62
         7
100
AcDbCircle
 10
12.6809668718
 20
12.1401306381
 30
0.0
 40
0.0782760815
100
AcDbArc
 50
47.4002470815
 51
352.8633648521
  0
ARC
  5
2EB
100
AcDbEntity
  8
PUZZLE
  6
CONTINUOUS
 62
         7
100
AcDbCircle
 10
12.7504820153
 20
12.215728443
 30
0.0
 40
0.0244243726
100
AcDbArc
 50
227.4002470815
 51
20.1318059668
  0
ARC
  5
2EC
100
AcDbEntity
  8
PUZZLE
  6
CONTINUOUS
 62
         7
100
AcDbCircle
 10
12.7828716751
 20
12.1273715494
 30
0.0
 40
0.0244243726
100
AcDbArc
 50
20.1318059668
 51
172.8633648521
  0
ARC
  5
2ED
100
AcDbEntity
  8
PUZZLE
  6
CONTINUOUS
 62
         7
100
AcDbCircle
 10
13.3466384229
 20
17.2206714709
 30
0.0
 40
0.3798786237
100
AcDbArc
 50
129.4556470815
 51
74.9187648521
  0
ARC
  5
2EE
100
AcDbEntity
  8
PUZZLE
  6
CONTINUOUS
 62
         7
100
AcDbCircle
 10
13.0299074636
 20
17.6055034135
 30
0.0
 40
0.1185329779
100
AcDbArc
 50
309.4556470815
 51
102.1872059668
  0
ARC
  5
2EF
100
AcDbEntity
  8
PUZZLE
  6
CONTINUOUS
 62
         7
100
AcDbCircle
 10
13.4763192874
 20
17.7019167286
 30
0.0
 40
0.1185329779
100
AcDbArc
 50
102.1872059668
 51
254.9187648521
  0
ARC
  5
2F0
100
AcDbEntity
  8
PUZZLE
  6
CONTINUOUS
 62
         7
100
AcDbCircle
 10
13.5314959113
 20
15.4122016276
 30
0.0
 40
0.2649620692
100
AcDbArc
 50
117.0570470815
 51
62.5201648521
  0
ARC
  5
2F1
100
AcDbEntity
  8
PUZZLE
  6
CONTINUOUS
 62
         7
100
AcDbCircle
 10
13.3733633277
 20
15.7217918834
 30
0.0
 40
0.0826757315
100
AcDbArc
 50
297.0570470815
 51
89.7886059668
  0
ARC
  5
2F2
100
AcDbEntity
  8
PUZZLE
  6
CONTINUOUS
 62
         7
100
AcDbCircle
 10
13.6919086492
 20
15.7206165981
 30
0.0
 40
0.0826757315
100
AcDbArc
 50
89.7886059668
 51
242.5201648521
  0
ARC
  5
2F3
100
AcDbEntity
  8
PUZZLE
  6
CONTINUOUS
 62
         7
100
AcDbCircle
 10
13.3865991544
 20
14.1525428408
 30
0.0
 40
0.184810609
100
AcDbArc
 50
104.6584470815
 51
50.1215648521
  0
ARC
  5
2F4
100
AcDbEntity
  8
PUZZLE
  6
CONTINUOUS
 62
         7
100
AcDbCircle
 10
13.3252388538
 20
14.3871273889
 30
0.0
 40
0.0576661872
100
AcDbArc
 50
284.6584470815
 51
77.3900059668
  0
ARC
  5
2F5
100
AcDbEntity
  8
PUZZLE
  6
CONTINUOUS
 62
         7
100
AcDbCircle
 10
13.5420657814
 20
14.3386211163
 30
0.0
 40
0.0576661872
100
AcDbArc
 50
77.3900059668
 51
230.1215648521
  0
ARC
  5
2F6
100
AcDbEntity
  8
PUZZLE
  6
CONTINUOUS
 62
         7
100
AcDbCircle
 10
13.0992371535
 20
13.3161376087
 30
0.0
 40
0.1289032402
100
AcDbArc
 50
92.2598470815
 51
37.7229648521
  0
ARC
  5
2F7
100
AcDbEntity
  8
PUZZLE
  6
CONTINUOUS
 62
         7
100
AcDbCircle
 10
13.0925683037
 20
13.4851308079
 30
0.0
 40
0.0402214917
100
AcDbArc
 50
272.2598470815
 51
64.9914059668
  0
ARC
  5
2F8
100
AcDbEntity
  8
PUZZLE
  6
CONTINUOUS
 62
         7
100
AcDbCircle
 10
13.2330111568
 20
13.419615582
 30
0.0
 40
0.0402214917
100
AcDbArc
 50
64.9914059668
 51
217.7229648521
  0
ARC
  5
2F9
100
AcDbEntity
  8
PUZZLE
  6
CONTINUOUS
 62
         7
100
AcDbCircle
 10
12.7782233037
 20
12.7893855211
 30
0.0
 40
0.0899097987
100
AcDbArc
 50
79.8612470815
 51
25.3243648521
  0
ARC
  5
2FA
100
AcDbEntity
  8
PUZZLE
  6
CONTINUOUS
 62
         7
100
AcDbCircle
 10
12.7989888491
 20
12.9055076555
 30
0.0
 40
0.0280544246
100
AcDbArc
 50
259.8612470816
 51
52.5928059668
  0
ARC
  5
2FB
100
AcDbEntity
  8
PUZZLE
  6
CONTINUOUS
 62
         7
100
AcDbCircle
 10
12.8848512519
 20
12.8398438073
 30
0.0
 40
0.0280544246
100
AcDbArc
 50
52.5928059668
 51
205.3243648521
  0
ARC
  5
2FC
100
AcDbEntity
  8
PUZZLE
  6
CONTINUOUS
 62
         7
100
AcDbCircle
 10
12.4806496379
 20
12.4786232405
 30
0.0
 40
0.0627113105
100
AcDbArc
 50
67.4626470815
 51
12.9257648521
  0
ARC
  5
2FD
100
AcDbEntity
  8
PUZZLE
  6
CONTINUOUS
 62
         7
100
AcDbCircle
 10
12.51218601
 20
12.5546186089
 30
0.0
 40
0.0195677196
100
AcDbArc
 50
247.4626470816
 51
40.1942059668
  0
ARC
  5
2FE
100
AcDbEntity
  8
PUZZLE
  6
CONTINUOUS
 62
         7
100
AcDbCircle
 10
12.5608437752
 20
12.4970281071
 30
0.0
 40
0.0195677196
100
AcDbArc
 50
40.1942059668
 51
192.9257648522
  0
ARC
  5
2FF
100
AcDbEntity
  8
PUZZLE
  6
CONTINUOUS
 62
         7
100
AcDbCircle
 10
10.2912346332
 20
18.1236157341
 30
0.0
 40
0.4363373837
100
AcDbArc
 50
161.9166470815
 51
107.3797648521
  0
ARC
  5
300
100
AcDbEntity
  8
PUZZLE
  6
CONTINUOUS
 62
         7
100
AcDbCircle
 10
9.7470249787
 20
18.3013158739
 30
0.0
 40
0.1361497232
100
AcDbArc
 50
341.9166470815
 51
134.6482059668
  0
ARC
  5
301
100
AcDbEntity
  8
PUZZLE
  6
CONTINUOUS
 62
         7
100
AcDbCircle
 10
10.1202305791
 20
18.6699664467
 30
0.0
 40
0.1361497232
100
AcDbArc
 50
134.6482059668
 51
287.3797648521
  0
ARC
  5
302
100
AcDbEntity
  8
PUZZLE
  6
CONTINUOUS
 62
         7
100
AcDbCircle
 10
11.5853039264
 20
16.4848850236
 30
0.0
 40
0.3043415682
100
AcDbArc
 50
149.5180470815
 51
94.9811648521
  0
ARC
  5
303
100
AcDbEntity
  8
PUZZLE
  6
CONTINUOUS
 62
         7
100
AcDbCircle
 10
11.241187425
 20
16.6874391622
 30
0.0
 40
0.0949632597
100
AcDbArc
 50
329.5180470815
 51
122.2496059668
  0
ARC
  5
304
100
AcDbEntity
  8
PUZZLE
  6
CONTINUOUS
 62
         7
100
AcDbCircle
 10
11.5506329855
 20
16.8826817951
 30
0.0
 40
0.0949632597
100
AcDbArc
 50
122.2496059668
 51
274.9811648521
  0
ARC
  5
305
100
AcDbEntity
  8
PUZZLE
  6
CONTINUOUS
 62
         7
100
AcDbCircle
 10
12.2214495914
 20
15.1747474612
 30
0.0
 40
0.212277745
100
AcDbArc
 50
137.1194470815
 51
82.5825648521
  0
ARC
  5
306
100
AcDbEntity
  8
PUZZLE
  6
CONTINUOUS
 62
         7
100
AcDbCircle
 10
12.0173614611
 20
15.3642688087
 30
0.0
 40
0.066236718
100
AcDbArc
 50
317.1194470815
 51
109.8510059668
  0
ARC
  5
307
100
AcDbEntity
  8
PUZZLE
  6
CONTINUOUS
 62
         7
100
AcDbCircle
 10
12.2574050725
 20
15.4509312939
 30
0.0
 40
0.066236718
100
AcDbArc
 50
109.8510059668
 51
262.5825648521
  0
ARC
  5
308
100
AcDbEntity
  8
PUZZLE
  6
CONTINUOUS
 62
         7
100
AcDbCircle
 10
12.4585900137
 20
14.1869806642
 30
0.0
 40
0.1480612465
100
AcDbArc
 50
124.7208470815
 51
70.1839648521
  0
ARC
  5
309
100
AcDbEntity
  8
PUZZLE
  6
CONTINUOUS
 62
         7
100
AcDbCircle
 10
12.3479433381
 20
14.3466505969
 30
0.0
 40
0.0461993368
100
AcDbArc
 50
304.7208470815
 51
97.4524059668
  0
ARC
  5
30A
100
AcDbEntity
  8
PUZZLE
  6
CONTINUOUS
 62
         7
100
AcDbCircle
 10
12.5244445899
 20
14.3697382879
 30
0.0
 40
0.0461993368
100
AcDbArc
 50
97.4524059668
 51
250.1839648521
  0
ARC
  5
30B
100
AcDbEntity
  8
PUZZLE
  6
CONTINUOUS
 62
         7
100
AcDbCircle
 10
12.4722167641
 20
13.4785707341
 30
0.0
 40
0.1032724768
100
AcDbArc
 50
112.3222470815
 51
57.7853648521
  0
ARC
  5
30C
100
AcDbEntity
  8
PUZZLE
  6
CONTINUOUS
 62
         7
100
AcDbCircle
 10
12.4207531334
 20
13.6039133827
 30
0.0
 40
0.0322239617
100
AcDbArc
 50
292.3222470815
 51
85.0538059668
  0
ARC
  5
30D
100
AcDbEntity
  8
PUZZLE
  6
CONTINUOUS
 62
         7
100
AcDbCircle
 10
12.5444488861
 20
13.5932084478
 30
0.0
 40
0.0322239617
100
AcDbArc
 50
85.0538059668
 51
237.7853648521
  0
ARC
  5
30E
100
AcDbEntity
  8
PUZZLE
  6
CONTINUOUS
 62
         7
100
AcDbCircle
 10
12.3754040895
 20
12.9939399885
 30
0.0
 40
0.0720316634
100
AcDbArc
 50
99.9236470815
 51
45.3867648521
  0
ARC
  5
30F
100
AcDbEntity
  8
PUZZLE
  6
CONTINUOUS
 62
         7
100
AcDbCircle
 10
12.3591170601
 20
13.0870335919
 30
0.0
 40
0.0224759358
100
AcDbArc
 50
279.9236470815
 51
72.6552059669
  0
ARC
  5
310
100
AcDbEntity
  8
PUZZLE
  6
CONTINUOUS
 62
         7
100
AcDbCircle
 10
12.4417784313
 20
13.0612165302
 30
0.0
 40
0.0224759358
100
AcDbArc
 50
72.6552059668
 51
225.3867648521
  0
ARC
  5
311
100
AcDbEntity
  8
PUZZLE
  6
CONTINUOUS
 62
         7
100
AcDbCircle
 10
6.7734216597
 20
17.1150513138
 30
0.0
 40
0.5011852305
100
AcDbArc
 50
194.3776470815
 51
139.8407648521
  0
ARC
  5
312
100
AcDbEntity
  8
PUZZLE
  6
CONTINUOUS
 62
         7
100
AcDbCircle
 10
6.1364473257
 20
16.9517689621
 30
0.0
 40
0.1563841032
100
AcDbArc
 50
14.3776470815
 51
167.1092059668
  0
ARC
  5
313
100
AcDbEntity
  8
PUZZLE
  6
CONTINUOUS
 62
         7
100
AcDbCircle
 10
6.2708709651
 20
17.5391270476
 30
0.0
 40
0.1563841032
100
AcDbArc
 50
167.1092059668
 51
319.8407648521
  0
ARC
  5
314
100
AcDbEntity
  8
PUZZLE
  6
CONTINUOUS
 62
         7
100
AcDbCircle
 10
9.0378409715
 20
16.3246517063
 30
0.0
 40
0.349572383
100
AcDbArc
 50
181.9790470815
 51
127.4421648521
  0
ARC
  5
315
100
AcDbEntity
  8
PUZZLE
  6
CONTINUOUS
 62
         7
100
AcDbCircle
 10
8.5794655967
 20
16.3088127145
 30
0.0
 40
0.1090765655
100
AcDbArc
 50
1.9790470815
 51
154.7106059668
  0
ARC
  5
316
100
AcDbEntity
  8
PUZZLE
  6
CONTINUOUS
 62
         7
100
AcDbCircle
 10
8.7590006205
 20
16.6888040324
 30
0.0
 40
0.1090765655
100
AcDbArc
 50
154.7106059668
 51
307.4421648521
  0
ARC
  5
317
100
AcDbEntity
  8
PUZZLE
  6
CONTINUOUS
 62
         7
100
AcDbCircle
 10
10.4620550388
 20
15.4471046096
 30
0.0
 40
0.2438261642
100
AcDbArc
 50
169.5804470815
 51
115.0435648521
  0
ARC
  5
318
100
AcDbEntity
  8
PUZZLE
  6
CONTINUOUS
 62
         7
100
AcDbCircle
 10
10.1474234746
 20
15.5049613033
 30
0.0
 40
0.0760807256
100
AcDbArc
 50
349.5804470815
 51
142.3120059668
  0
ARC
  5
319
100
AcDbEntity
  8
PUZZLE
  6
CONTINUOUS
 62
         7
100
AcDbCircle
 10
10.3266361328
 20
15.736935833
 30
0.0
 40
0.0760807256
100
AcDbArc
 50
142.3120059668
 51
295.0435648521
  0
ARC
  5
31A
100
AcDbEntity
  8
PUZZLE
  6
CONTINUOUS
 62
         7
100
AcDbCircle
 10
11.3008319505
 20
14.6360008855
 30
0.0
 40
0.1700659003
100
AcDbArc
 50
157.1818470815
 51
102.6449648521
  0
ARC
  5
31B
100
AcDbEntity
  8
PUZZLE
  6
CONTINUOUS
 62
         7
100
AcDbCircle
 10
11.0951628165
 20
14.7225329149
 30
0.0
 40
0.0530654171
100
AcDbArc
 50
337.1818470815
 51
129.9134059668
  0
ARC
  5
31C
100
AcDbEntity
  8
PUZZLE
  6
CONTINUOUS
 62
         7
100
AcDbCircle
 10
11.2519864838
 20
14.8537202121
 30
0.0
 40
0.0530654171
100
AcDbArc
 50
129.9134059668
 51
282.6449648521
  0
ARC
  5
31D
100
AcDbEntity
  8
PUZZLE
  6
CONTINUOUS
 62
         7
100
AcDbCircle
 10
11.7507679892
 20
13.9578426875
 30
0.0
 40
0.1186206867
100
AcDbArc
 50
144.7832470815
 51
90.2463648521
  0
ARC
  5
31E
100
AcDbEntity
  8
PUZZLE
  6
CONTINUOUS
 62
         7
100
AcDbCircle
 10
11.623618919
 20
14.0475921793
 30
0.0
 40
0.0370130414
100
AcDbArc
 50
324.7832470815
 51
117.5148059668
  0
ARC
  5
31F
100
AcDbEntity
  8
PUZZLE
  6
CONTINUOUS
 62
         7
100
AcDbCircle
 10
11.7500987853
 20
14.1134749769
 30
0.0
 40
0.0370130414
100
AcDbArc
 50
117.5148059668
 51
270.2463648521
  0
ARC
  5
320
100
AcDbEntity
  8
PUZZLE
  6
CONTINUOUS
 62
         7
100
AcDbCircle
 10
11.9557128613
 20
13.4284760862
 30
0.0
 40
0.0827369076
100
AcDbArc
 50
132.3846470815
 51
77.8477648521
  0
ARC
  5
321
100
AcDbEntity
  8
PUZZLE
  6
CONTINUOUS
 62
         7
100
AcDbCircle
 10
11.8825366719
 20
13.5086573768
 30
0.0
 40
0.0258162777
100
AcDbArc
 50
312.3846470815
 51
105.1162059668
  0
ARC
  5
322
100
AcDbEntity
  8
PUZZLE
  6
CONTINUOUS
 62
         7
100
AcDbCircle
 10
11.9785643811
 20
13.5345967821
 30
0.0
 40
0.0258162777
100
AcDbArc
 50
105.1162059668
 51
257.8477648521
  0
ARC
  5
323
100
AcDbEntity
  8
PUZZLE
  6
CONTINUOUS
 62
         7
100
AcDbCircle
 10
6.6677169184
 20
14.5988782105
 30
0.0
 40
0.4015272862
100
AcDbArc
 50
214.4400470815
 51
159.9031648521
  0
ARC
  5
324
100
AcDbEntity
  8
PUZZLE
  6
CONTINUOUS
 62
         7
100
AcDbCircle
 10
6.23324267
 20
14.3009412188
 30
0.0
 40
0.1252879788
100
AcDbArc
 50
34.4400470815
 51
187.1716059668
  0
ARC
  5
325
100
AcDbEntity
  8
PUZZLE
  6
CONTINUOUS
 62
         7
100
AcDbCircle
 10
6.1729777314
 20
14.7798960559
 30
0.0
 40
0.1252879788
100
AcDbArc
 50
187.1716059668
 51
339.9031648521
  0
ARC
  5
326
100
AcDbEntity
  8
PUZZLE
  6
CONTINUOUS
 62
         7
100
AcDbCircle
 10
8.5890116694
 20
14.6264028312
 30
0.0
 40
0.2800618249
100
AcDbArc
 50
202.0414470815
 51
147.5045648521
  0
ARC
  5
327
100
AcDbEntity
  8
PUZZLE
  6
CONTINUOUS
 62
         7
100
AcDbCircle
 10
8.2484184487
 20
14.4885075542
 30
0.0
 40
0.0873872865
100
AcDbArc
 50
22.0414470815
 51
174.7730059668
  0
ARC
  5
328
100
AcDbEntity
  8
PUZZLE
  6
CONTINUOUS
 62
         7
100
AcDbCircle
 10
8.2790925035
 20
14.8238084037
 30
0.0
 40
0.0873872865
100
AcDbArc
 50
174.7730059668
 51
327.5045648521
  0
ARC
  5
329
100
AcDbEntity
  8
PUZZLE
  6
CONTINUOUS
 62
         7
100
AcDbCircle
 10
9.9019683532
 20
14.3574309018
 30
0.0
 40
0.1953426639
100
AcDbArc
 50
189.6428470815
 51
135.1059648521
  0
ARC
  5
32A
100
AcDbEntity
  8
PUZZLE
  6
CONTINUOUS
 62
         7
100
AcDbCircle
 10
9.6492943821
 20
14.314499913
 30
0.0
 40
0.0609524891
100
AcDbArc
 50
9.6428470815
 51
162.3744059668
  0
ARC
  5
32B
100
AcDbEntity
  8
PUZZLE
  6
CONTINUOUS
 62
         7
100
AcDbCircle
 10
9.7204054531
 20
14.5383234631
 30
0.0
 40
0.0609524891
100
AcDbArc
 50
162.3744059668
 51
315.1059648521
  0
ARC
  5
32C
100
AcDbEntity
  8
PUZZLE
  6
CONTINUOUS
 62
         7
100
AcDbCircle
 10
10.7560988666
 20
13.9775640263
 30
0.0
 40
0.1362492253
100
AcDbArc
 50
177.2442470815
 51
122.7073648521
  0
ARC
  5
32D
100
AcDbEntity
  8
PUZZLE
  6
CONTINUOUS
 62
         7
100
AcDbCircle
 10
10.5775427202
 20
13.9861586628
 30
0.0
 40
0.0425136489
100
AcDbArc
 50
357.2442470815
 51
149.9758059668
  0
ARC
  5
32E
100
AcDbEntity
  8
PUZZLE
  6
CONTINUOUS
 62
         7
100
AcDbCircle
 10
10.6595046184
 20
14.1279824973
 30
0.0
 40
0.0425136489
100
AcDbArc
 50
149.9758059668
 51
302.7073648521
  0
ARC
  5
32F
100
AcDbEntity
  8
PUZZLE
  6
CONTINUOUS
 62
         7
100
AcDbCircle
 10
11.281073118
 20
13.5908785655
 30
0.0
 40
0.0950336114
100
AcDbArc
 50
164.8456470815
 51
110.3087648521
  0
ARC
  5
330
100
AcDbEntity
  8
PUZZLE
  6
CONTINUOUS
 62
         7
100
AcDbCircle
 10
11.1607222811
 20
13.6234742261
 30
0.0
 40
0.0296532004
100
AcDbArc
 50
344.8456470815
 51
137.5772059668
  0
ARC
  5
331
100
AcDbEntity
  8
PUZZLE
  6
CONTINUOUS
 62
         7
100
AcDbCircle
 10
11.2377969289
 20
13.7078143277
 30
0.0
 40
0.0296532004
100
AcDbArc
 50
137.5772059668
 51
290.3087648521
  0
ARC
  5
332
100
AcDbEntity
  8
PUZZLE
  6
CONTINUOUS
 62
         7
100
AcDbCircle
 10
11.5807889185
 20
13.2488337032
 30
0.0
 40
0.0662851257
100
AcDbArc
 50
152.4470470815
 51
97.9101648521
  0
ARC
  5
333
100
AcDbEntity
  8
PUZZLE
  6
CONTINUOUS
 62
         7
100
AcDbCircle
 10
11.5036845267
 20
13.2890623236
 30
0.0
 40
0.020682852
100
AcDbArc
 50
332.4470470815
 51
125.1786059668
  0
ARC
  5
334
100
AcDbEntity
  8
PUZZLE
  6
CONTINUOUS
 62
         7
100
AcDbCircle
 10
11.568820362
 20
13.3349741861
 30
0.0
 40
0.020682852
100
AcDbArc
 50
125.1786059668
 51
277.9101648521
  0
ARC
  5
335
100
AcDbEntity
  8
PUZZLE
  6
CONTINUOUS
 62
         7
100
AcDbCircle
 10
5.4346197457
 20
11.4651581341
 30
0.0
 40
0.4612037134
100
AcDbArc
 50
246.9010470815
 51
192.3641648521
  0
ARC
  5
336
100
AcDbEntity
  8
PUZZLE
  6
CONTINUOUS
 62
         7
100
AcDbCircle
 10
5.197221847
 20
10.9085583636
 30
0.0
 40
0.1439087281
100
AcDbArc
 50
66.9010470815
 51
219.6326059668
  0
ARC
  5
337
100
AcDbEntity
  8
PUZZLE
  6
CONTINUOUS
 62
         7
100
AcDbCircle
 10
4.8435420451
 20
11.3355887751
 30
0.0
 40
0.1439087281
100
AcDbArc
 50
219.6326059668
 51
12.3641648521
  0
ARC
  5
338
100
AcDbEntity
  8
PUZZLE
  6
CONTINUOUS
 62
         7
100
AcDbCircle
 10
7.2796913696
 20
12.6763033693
 30
0.0
 40
0.321685619
100
AcDbArc
 50
234.5024470815
 51
179.9655648521
  0
ARC
  5
339
100
AcDbEntity
  8
PUZZLE
  6
CONTINUOUS
 62
         7
100
AcDbCircle
 10
7.0346141388
 20
12.3326867218
 30
0.0
 40
0.1003750988
100
AcDbArc
 50
54.5024470815
 51
207.2340059668
  0
ARC
  5
33A
100
AcDbEntity
  8
PUZZLE
  6
CONTINUOUS
 62
         7
100
AcDbCircle
 10
6.857630728
 20
12.6765570306
 30
0.0
 40
0.1003750988
100
AcDbArc
 50
207.2340059668
 51
359.9655648521
  0
ARC
  5
33B
100
AcDbEntity
  8
PUZZLE
  6
CONTINUOUS
 62
         7
100
AcDbCircle
 10
8.7179753545
 20
13.2250585955
 30
0.0
 40
0.224375192
100
AcDbArc
 50
222.1038470815
 51
167.5669648521
  0
ARC
  5
33C
100
AcDbEntity
  8
PUZZLE
  6
CONTINUOUS
 62
         7
100
AcDbCircle
 10
8.499560818
 20
13.0276792773
 30
0.0
 40
0.0700114669
100
AcDbArc
 50
42.1038470815
 51
194.8354059668
  0
ARC
  5
33D
100
AcDbEntity
  8
PUZZLE
  6
CONTINUOUS
 62
         7
100
AcDbCircle
 10
8.4304925615
 20
13.2884395761
 30
0.0
 40
0.0700114669
100
AcDbArc
 50
194.8354059668
 51
347.5669648521
  0
ARC
  5
33E
100
AcDbEntity
  8
PUZZLE
  6
CONTINUOUS
 62
         7
100
AcDbCircle
 10
9.7799499798
 20
13.3834747155
 30
0.0
 40
0.1564990745
100
AcDbArc
 50
209.7052470815
 51
155.1683648521
  0
ARC
  5
33F
100
AcDbEntity
  8
PUZZLE
  6
CONTINUOUS
 62
         7
100
AcDbCircle
 10
9.6016020985
 20
13.2817252323
 30
0.0
 40
0.04883218
100
AcDbArc
 50
29.7052470815
 51
182.4368059668
  0
ARC
  5
340
100
AcDbEntity
  8
PUZZLE
  6
CONTINUOUS
 62
         7
100
AcDbCircle
 10
9.5936024734
 20
13.4697042404
 30
0.0
 40
0.04883218
100
AcDbArc
 50
182.4368059668
 51
335.1683648521
  0
ARC
  5
341
100
AcDbEntity
  8
PUZZLE
  6
CONTINUOUS
 62
         7
100
AcDbCircle
 10
10.5271234221
 20
13.3323591991
 30
0.0
 40
0.109157848
100
AcDbArc
 50
197.3066470815
 51
142.7697648521
  0
ARC
  5
342
100
AcDbEntity
  8
PUZZLE
  6
CONTINUOUS
 62
         7
100
AcDbCircle
 10
10.3903892279
 20
13.2897538376
 30
0.0
 40
0.0340603655
100
AcDbArc
 50
17.3066470815
 51
170.0382059668
  0
ARC
  5
343
100
AcDbEntity
  8
PUZZLE
  6
CONTINUOUS
 62
         7
100
AcDbCircle
 10
10.4130915397
 20
13.4190089912
 30
0.0
 40
0.0340603655
100
AcDbArc
 50
170.0382059668
 51
322.7697648521
  0
ARC
  5
344
100
AcDbEntity
  8
PUZZLE
  6
CONTINUOUS
 62
         7
100
AcDbCircle
 10
11.0284648444
 20
13.1856367152
 30
0.0
 40
0.0761366591
100
AcDbArc
 50
184.9080470815
 51
130.3711648521
  0
ARC
  5
345
100
AcDbEntity
  8
PUZZLE
  6
CONTINUOUS
 62
         7
100
AcDbCircle
 10
10.928937654
 20
13.1770901438
 30
0.0
 40
0.0237568117
100
AcDbArc
 50
4.9080470815
 51
157.6396059668
  0
ARC
  5
346
100
AcDbEntity
  8
PUZZLE
  6
CONTINUOUS
 62
         7
100
AcDbCircle
 10
10.9637601911
 20
13.2617419933
 30
0.0
 40
0.0237568117
100
AcDbArc
 50
157.6396059668
 51
310.3711648521
  0
ARC
  5
347
100
AcDbEntity
  8
PUZZLE
  6
CONTINUOUS
 62
         7
100
AcDbCircle
 10
7.2129796551
 20
9.979157553
 30
0.0
 40
0.3694958753
100
AcDbArc
 50
266.9634470815
 51
212.4265648521
  0
ARC
  5
348
100
AcDbEntity
  8
PUZZLE
  6
CONTINUOUS
 62
         7
100
AcDbCircle
 10
7.1872989006
 20
9.4950490855
 30
0.0
 40
0.115293264
100
AcDbArc
 50
86.9634470815
 51
239.6950059668
  0
ARC
  5
349
100
AcDbEntity
  8
PUZZLE
  6
CONTINUOUS
 62
         7
100
AcDbCircle
 10
6.8037791284
 20
9.7192047909
 30
0.0
 40
0.115293264
100
AcDbArc
 50
239.6950059668
 51
32.4265648521
  0
ARC
  5
34A
100
AcDbEntity
  8
PUZZLE
  6
CONTINUOUS
 62
         7
100
AcDbCircle
 10
8.2686114005
 20
11.3976769855
 30
0.0
 40
0.2577201916
100
AcDbArc
 50
254.5648470815
 51
200.0279648521
  0
ARC
  5
34B
100
AcDbEntity
  8
PUZZLE
  6
CONTINUOUS
 62
         7
100
AcDbCircle
 10
8.1786172581
 20
11.0717365335
 30
0.0
 40
0.0804160589
100
AcDbArc
 50
74.5648470815
 51
227.2964059668
  0
ARC
  5
34C
100
AcDbEntity
  8
PUZZLE
  6
CONTINUOUS
 62
         7
100
AcDbCircle
 10
7.950923745
 20
11.2818725062
 30
0.0
 40
0.0804160589
100
AcDbArc
 50
227.2964059668
 51
20.0279648521
  0
ARC
  5
34D
100
AcDbEntity
  8
PUZZLE
  6
CONTINUOUS
 62
         7
100
AcDbCircle
 10
9.2001641076
 20
12.205922897
 30
0.0
 40
0.1797594112
100
AcDbArc
 50
242.1662470815
 51
187.6293648521
  0
ARC
  5
34E
100
AcDbEntity
  8
PUZZLE
  6
CONTINUOUS
 62
         7
100
AcDbCircle
 10
9.0900441772
 20
11.997359769
 30
0.0
 40
0.0560900693
100
AcDbArc
 50
62.1662470815
 51
214.8978059668
  0
ARC
  5
34F
100
AcDbEntity
  8
PUZZLE
  6
CONTINUOUS
 62
         7
100
AcDbCircle
 10
8.9664024547
 20
12.174610486
 30
0.0
 40
0.0560900693
100
AcDbArc
 50
214.8978059668
 51
7.6293648521
  0
ARC
  5
350
100
AcDbEntity
  8
PUZZLE
  6
CONTINUOUS
 62
         7
100
AcDbCircle
 10
9.955805896
 20
12.6170011266
 30
0.0
 40
0.1253800887
100
AcDbArc
 50
229.7676470815
 51
175.2307648521
  0
ARC
  5
351
100
AcDbEntity
  8
PUZZLE
  6
CONTINUOUS
 62
         7
100
AcDbCircle
 10
9.8495557188
 20
12.491414932
 30
0.0
 40
0.0391221679
100
AcDbArc
 50
49.7676470815
 51
202.4992059668
  0
ARC
  5
352
100
AcDbEntity
  8
PUZZLE
  6
CONTINUOUS
 62
         7
100
AcDbCircle
 10
9.7918732044
 20
12.6306782993
 30
0.0
 40
0.0391221679
100
AcDbArc
 50
202.4992059668
 51
355.2307648521
  0
ARC
  5
353
100
AcDbEntity
  8
PUZZLE
  6
CONTINUOUS
 62
         7
100
AcDbCircle
 10
10.5321326841
 20
12.7838810667
 30
0.0
 40
0.0874524064
100
AcDbArc
 50
217.3690470815
 51
162.8321648521
  0
ARC
  5
354
100
AcDbEntity
  8
PUZZLE
  6
CONTINUOUS
 62
         7
100
AcDbCircle
 10
10.4409438718
 20
12.7142399826
 30
0.0
 40
0.027287648
100
AcDbArc
 50
37.3690470815
 51
190.1006059668
  0
ARC
  5
355
100
AcDbEntity
  8
PUZZLE
  6
CONTINUOUS
 62
         7
100
AcDbCircle
 10
10.4225049627
 20
12.8177490867
 30
0.0
 40
0.027287648
100
AcDbArc
 50
190.1006059668
 51
342.8321648521
  0
ARC
  5
356
100
AcDbEntity
  8
PUZZLE
  6
CONTINUOUS
 62
         7
100
AcDbCircle
 10
10.9497365589
 20
12.8112505705
 30
0.0
 40
0.0609973005
100
AcDbArc
 50
204.9704470815
 51
150.4335648521
  0
ARC
  5
357
100
AcDbEntity
  8
PUZZLE
  6
CONTINUOUS
 62
         7
100
AcDbCircle
 10
10.8771871297
 20
12.7774657627
 30
0.0
 40
0.0190328995
100
AcDbArc
 50
24.9704470815
 51
177.7020059668
  0
ARC
  5
358
100
AcDbEntity
  8
PUZZLE
  6
CONTINUOUS
 62
         7
100
AcDbCircle
 10
10.8801275602
 20
12.8507400655
 30
0.0
 40
0.0190328995
100
AcDbArc
 50
177.7020059668
 51
330.4335648521
  0
ARC
  5
359
100
AcDbEntity
  8
PUZZLE
  6
CONTINUOUS
 62
         7
100
AcDbCircle
 10
8.8111075742
 20
7.3240737131
 30
0.0
 40
0.4244109852
100
AcDbArc
 50
299.4244470815
 51
244.8875648521
  0
ARC
  5
35A
100
AcDbEntity
  8
PUZZLE
  6
CONTINUOUS
 62
         7
100
AcDbCircle
 10
9.084669062
 20
6.8390642765
 30
0.0
 40
0.1324283464
100
AcDbArc
 50
119.4244470815
 51
272.1560059668
  0
ARC
  5
35B
100
AcDbEntity
  8
PUZZLE
  6
CONTINUOUS
 62
         7
100
AcDbCircle
 10
8.5747872159
 20
6.8198686661
 30
0.0
 40
0.1324283464
100
AcDbArc
 50
272.1560059668
 51
64.8875648521
  0
ARC
  5
35C
100
AcDbEntity
  8
PUZZLE
  6
CONTINUOUS
 62
         7
100
AcDbCircle
 10
8.9596717245
 20
9.3496336996
 30
0.0
 40
0.2960230079
100
AcDbArc
 50
287.0258470815
 51
232.4889648521
  0
ARC
  5
35D
100
AcDbEntity
  8
PUZZLE
  6
CONTINUOUS
 62
         7
100
AcDbCircle
 10
9.0733936999
 20
8.9782651481
 30
0.0
 40
0.0923676313
100
AcDbArc
 50
107.0258470815
 51
259.7574059668
  0
ARC
  5
35E
100
AcDbEntity
  8
PUZZLE
  6
CONTINUOUS
 62
         7
100
AcDbCircle
 10
8.7231751423
 20
9.041548232
 30
0.0
 40
0.0923676313
100
AcDbArc
 50
259.7574059668
 51
52.4889648521
  0
ARC
  5
35F
100
AcDbEntity
  8
PUZZLE
  6
CONTINUOUS
 62
         7
100
AcDbCircle
 10
9.3642139749
 20
10.7072484346
 30
0.0
 40
0.2064755629
100
AcDbArc
 50
274.6272470815
 51
220.0903648521
  0
ARC
  5
360
100
AcDbEntity
  8
PUZZLE
  6
CONTINUOUS
 62
         7
100
AcDbCircle
 10
9.3860684209
 20
10.4372295704
 30
0.0
 40
0.0644262715
100
AcDbArc
 50
94.6272470815
 51
247.3588059668
  0
ARC
  5
361
100
AcDbEntity
  8
PUZZLE
  6
CONTINUOUS
 62
         7
100
AcDbCircle
 10
9.1569660234
 20
10.5327890111
 30
0.0
 40
0.0644262715
100
AcDbArc
 50
247.3588059668
 51
40.0903648521
  0
ARC
  5
362
100
AcDbEntity
  8
PUZZLE
  6
CONTINUOUS
 62
         7
100
AcDbCircle
 10
9.8431224976
 20
11.5714969916
 30
0.0
 40
0.1440142923
100
AcDbArc
 50
262.2286470815
 51
207.6917648521
  0
ARC
  5
363
100
AcDbEntity
  8
PUZZLE
  6
CONTINUOUS
 62
         7
100
AcDbCircle
 10
9.8175725249
 20
11.3842815333
 30
0.0
 40
0.0449365715
100
AcDbArc
 50
82.2286470815
 51
234.9602059668
  0
ARC
  5
364
100
AcDbEntity
  8
PUZZLE
  6
CONTINUOUS
 62
         7
100
AcDbCircle
 10
9.6758139848
 20
11.4836887319
 30
0.0
 40
0.0449365715
100
AcDbArc
 50
234.9602059668
 51
27.6917648521
  0
ARC
  5
365
100
AcDbEntity
  8
PUZZLE
  6
CONTINUOUS
 62
         7
100
AcDbCircle
 10
10.2987934187
 20
12.0885322205
 30
0.0
 40
0.1004497328
100
AcDbArc
 50
249.8300470815
 51
195.2931648521
  0
ARC
  5
366
100
AcDbEntity
  8
PUZZLE
  6
CONTINUOUS
 62
         7
100
AcDbCircle
 10
10.2533504317
 20
11.9648216385
 30
0.0
 40
0.031343185
100
AcDbArc
 50
69.8300470815
 51
222.5616059669
  0
ARC
  5
367
100
AcDbEntity
  8
PUZZLE
  6
CONTINUOUS
 62
         7
100
AcDbCircle
 10
10.1716674343
 20
12.0537707867
 30
0.0
 40
0.031343185
100
AcDbArc
 50
222.5616059668
 51
15.2931648521
  0
ARC
  5
368
100
AcDbEntity
  8
PUZZLE
  6
CONTINUOUS
 62
         7
100
AcDbCircle
 10
10.6866442347
 20
12.3725080559
 30
0.0
 40
0.0700628238
100
AcDbArc
 50
237.4314470815
 51
182.8945648521
  0
ARC
  5
369
100
AcDbEntity
  8
PUZZLE
  6
CONTINUOUS
 62
         7
100
AcDbCircle
 10
10.6371605517
 20
12.2950389323
 30
0.0
 40
0.0218616016
100
AcDbArc
 50
57.4314470815
 51
210.1630059668
  0
ARC
  5
36A
100
AcDbEntity
  8
PUZZLE
  6
CONTINUOUS
 62
         7
100
AcDbCircle
 10
10.5948370908
 20
12.3678660379
 30
0.0
 40
0.0218616016
100
AcDbArc
 50
210.1630059669
 51
2.8945648521
  0
ARC
  5
36B
100
AcDbEntity
  8
PUZZLE
  6
CONTINUOUS
 62
         7
100
AcDbCircle
 10
11.9967893629
 20
5.7361247811
 30
0.0
 40
0.4874870307
100
AcDbArc
 50
331.8854470815
 51
277.3485648521
  0
ARC
  5
36C
100
AcDbEntity
  8
PUZZLE
  6
CONTINUOUS
 62
         7
100
AcDbCircle
 10
12.560918439
 20
5.4347237435
 30
0.0
 40
0.1521098737
100
AcDbArc
 50
151.8854470815
 51
304.6170059668
  0
ARC
  5
36D
100
AcDbEntity
  8
PUZZLE
  6
CONTINUOUS
 62
         7
100
AcDbCircle
 10
12.0785972026
 20
5.10178128
 30
0.0
 40
0.1521098737
100
AcDbArc
 50
304.6170059668
 51
97.3485648521
  0
ARC
  5
36E
100
AcDbEntity
  8
PUZZLE
  6
CONTINUOUS
 62
         7
100
AcDbCircle
 10
10.8920263921
 20
7.7907978762
 30
0.0
 40
0.3400180065
100
AcDbArc
 50
319.4868470815
 51
264.9499648521
  0
ARC
  5
36F
100
AcDbEntity
  8
PUZZLE
  6
CONTINUOUS
 62
         7
100
AcDbCircle
 10
11.2311871131
 20
7.5009925764
 30
0.0
 40
0.1060953272
100
AcDbArc
 50
139.4868470815
 51
292.2184059668
  0
ARC
  5
370
100
AcDbEntity
  8
PUZZLE
  6
CONTINUOUS
 62
         7
100
AcDbCircle
 10
10.8527569695
 20
7.3464162621
 30
0.0
 40
0.1060953272
100
AcDbArc
 50
292.2184059668
 51
84.9499648521
  0
ARC
  5
371
100
AcDbEntity
  8
PUZZLE
  6
CONTINUOUS
 62
         7
100
AcDbCircle
 10
10.4471302133
 20
9.355936488
 30
0.0
 40
0.2371620023
100
AcDbArc
 50
307.0882470815
 51
252.5513648521
  0
ARC
  5
372
100
AcDbEntity
  8
PUZZLE
  6
CONTINUOUS
 62
         7
100
AcDbCircle
 10
10.6347755007
 20
9.1077191291
 30
0.0
 40
0.0740013168
100
AcDbArc
 50
127.0882470815
 51
279.8198059668
  0
ARC
  5
373
100
AcDbEntity
  8
PUZZLE
  6
CONTINUOUS
 62
         7
100
AcDbCircle
 10
10.3538276789
 20
9.0590909925
 30
0.0
 40
0.0740013168
100
AcDbArc
 50
279.8198059668
 51
72.5513648521
  0
ARC
  5
374
100
AcDbEntity
  8
PUZZLE
  6
CONTINUOUS
 62
         7
100
AcDbCircle
 10
10.3784636886
 20
10.4887724896
 30
0.0
 40
0.1654177252
100
AcDbArc
 50
294.6896470815
 51
240.1527648521
  0
ARC
  5
375
100
AcDbEntity
  8
PUZZLE
  6
CONTINUOUS
 62
         7
100
AcDbCircle
 10
10.4691189112
 20
10.2915800512
 30
0.0
 40
0.0516150537
100
AcDbArc
 50
114.6896470815
 51
267.4212059668
  0
ARC
  5
376
100
AcDbEntity
  8
PUZZLE
  6
CONTINUOUS
 62
         7
100
AcDbCircle
 10
10.2704488217
 20
10.3005279262
 30
0.0
 40
0.0516150537
100
AcDbArc
 50
267.4212059668
 51
60.1527648521
  0
ARC
  5
377
100
AcDbEntity
  8
PUZZLE
  6
CONTINUOUS
 62
         7
100
AcDbCircle
 10
10.5013311052
 20
11.2707786699
 30
0.0
 40
0.1153785922
100
AcDbArc
 50
282.2910470815
 51
227.7541648521
  0
ARC
  5
378
100
AcDbEntity
  8
PUZZLE
  6
CONTINUOUS
 62
         7
100
AcDbCircle
 10
10.5335565349
 20
11.1228684661
 30
0.0
 40
0.0360014154
100
AcDbArc
 50
102.2910470815
 51
255.0226059668
  0
ARC
  5
379
100
AcDbEntity
  8
PUZZLE
  6
CONTINUOUS
 62
         7
100
AcDbCircle
 10
10.3995563583
 20
11.1587170458
 30
0.0
 40
0.0360014154
100
AcDbArc
 50
255.0226059668
 51
47.7541648521
  0
ARC
  5
37A
100
AcDbEntity
  8
PUZZLE
  6
CONTINUOUS
 62
         7
100
AcDbCircle
 10
10.7021498734
 20
11.7851032048
 30
0.0
 40
0.0804755746
100
AcDbArc
 50
269.8924470815
 51
215.3555648521
  0
ARC
  5
37B
100
AcDbEntity
  8
PUZZLE
  6
CONTINUOUS
 62
         7
100
AcDbCircle
 10
10.701951672
 20
11.6795171389
 30
0.0
 40
0.0251106772
100
AcDbArc
 50
89.8924470815
 51
242.6240059668
  0
ARC
  5
37C
100
AcDbEntity
  8
PUZZLE
  6
CONTINUOUS
 62
         7
100
AcDbCircle
 10
10.6160361753
 20
11.7240058432
 30
0.0
 40
0.0251106772
100
AcDbArc
 50
242.6240059668
 51
35.3555648522
  0
ARC
  5
37D
100
AcDbEntity
  8
PUZZLE
  6
CONTINUOUS
 62
         7
100
AcDbCircle
 10
16.6691341405
 20
8.9086883074
 30
0.0
 40
0.4485981913
100
AcDbArc
 50
24.4088470815
 51
329.8719648521
  0
ARC
  5
37E
100
AcDbEntity
  8
PUZZLE
  6
CONTINUOUS
 62
         7
100
AcDbCircle
 10
17.2051009844
 20
9.1519134459
 30
0.0
 40
0.1399754453
100
AcDbArc
 50
204.4088470815
 51
357.1404059668
  0
ARC
  5
37F
100
AcDbEntity
  8
PUZZLE
  6
CONTINUOUS
 62
         7
100
AcDbCircle
 10
17.1781949661
 20
8.6132631873
 30
0.0
 40
0.1399754453
100
AcDbArc
 50
357.1404059668
 51
149.8719648521
  0
ARC
  5
380
100
AcDbEntity
  8
PUZZLE
  6
CONTINUOUS
 62
         7
100
AcDbCircle
 10
14.5500641299
 20
9.2522987253
 30
0.0
 40
0.3128933759
100
AcDbArc
 50
12.0102470815
 51
317.4733648521
  0
ARC
  5
381
100
AcDbEntity
  8
PUZZLE
  6
CONTINUOUS
 62
         7
100
AcDbCircle
 10
14.9516029452
 20
9.337723496
 30
0.0
 40
0.0976316679
100
AcDbArc
 50
192.0102470815
 51
344.7418059668
  0
ARC
  5
382
100
AcDbEntity
  8
PUZZLE
  6
CONTINUOUS
 62
         7
100
AcDbCircle
 10
14.8526059778
 20
8.9748113528
 30
0.0
 40
0.0976316679
100
AcDbArc
 50
344.7418059668
 51
137.4733648521
  0
ARC
  5
383
100
AcDbEntity
  8
PUZZLE
  6
CONTINUOUS
 62
         7
100
AcDbCircle
 10
13.1579570357
 20
9.8037149843
 30
0.0
 40
0.2182426169
100
AcDbArc
 50
359.6116470815
 51
305.0747648521
  0
ARC
  5
384
100
AcDbEntity
  8
PUZZLE
  6
CONTINUOUS
 62
         7
100
AcDbCircle
 10
13.4442910034
 20
9.8017741723
 30
0.0
 40
0.0680979283
100
AcDbArc
 50
179.6116470815
 51
332.3432059668
  0
ARC
  5
385
100
AcDbEntity
  8
PUZZLE
  6
CONTINUOUS
 62
         7
100
AcDbCircle
 10
13.3225011563
 20
9.5693730541
 30
0.0
 40
0.0680979283
100
AcDbArc
 50
332.3432059668
 51
125.0747648521
  0
ARC
  5
386
100
AcDbEntity
  8
PUZZLE
  6
CONTINUOUS
 62
         7
100
AcDbCircle
 10
12.2922084368
 20
10.387842978
 30
0.0
 40
0.152221675
100
AcDbArc
 50
347.2130470815
 51
292.6761648521
  0
ARC
  5
387
100
AcDbEntity
  8
PUZZLE
  6
CONTINUOUS
 62
         7
100
AcDbCircle
 10
12.4869745411
 20
10.3436398428
 30
0.0
 40
0.0474975092
100
AcDbArc
 50
167.2130470815
 51
319.9446059668
  0
ARC
  5
388
100
AcDbEntity
  8
PUZZLE
  6
CONTINUOUS
 62
         7
100
AcDbCircle
 10
12.3692046224
 20
10.2035623769
 30
0.0
 40
0.0474975092
100
AcDbArc
 50
319.9446059668
 51
112.6761648521
  0
ARC
  5
389
100
AcDbEntity
  8
PUZZLE
  6
CONTINUOUS
 62
         7
100
AcDbCircle
 10
11.7899082272
 20
10.915417317
 30
0.0
 40
0.1061743688
100
AcDbArc
 50
334.8144470815
 51
280.2775648521
  0
ARC
  5
38A
100
AcDbEntity
  8
PUZZLE
  6
CONTINUOUS
 62
         7
100
AcDbCircle
 10
11.9159690289
 20
10.8561364264
 30
0.0
 40
0.0331294349
100
AcDbArc
 50
154.8144470815
 51
307.5460059668
  0
ARC
  5
38B
100
AcDbEntity
  8
PUZZLE
  6
CONTINUOUS
 62
         7
100
AcDbCircle
 10
11.8147623862
 20
10.7783486463
 30
0.0
 40
0.0331294349
100
AcDbArc
 50
307.5460059668
 51
100.2775648521
  0
ARC
  5
38C
100
AcDbEntity
  8
PUZZLE
  6
CONTINUOUS
 62
         7
100
AcDbCircle
 10
11.5267390027
 20
11.3500440779
 30
0.0
 40
0.0740557081
100
AcDbArc
 50
322.4158470815
 51
267.8789648521
  0
ARC
  5
38D
100
AcDbEntity
  8
PUZZLE
  6
CONTINUOUS
 62
         7
100
AcDbCircle
 10
11.6037367966
 20
11.2907817132
 30
0.0
 40
0.0231074956
100
AcDbArc
 50
142.4158470815
 51
295.1474059668
  0
ARC
  5
38E
100
AcDbEntity
  8
PUZZLE
  6
CONTINUOUS
 62
         7
100
AcDbCircle
 10
11.5231429349
 20
11.2529474434
 30
0.0
 40
0.0231074956
100
AcDbArc
 50
295.1474059668
 51
87.8789648521
  0
ARC
  5
38F
100
AcDbEntity
  8
PUZZLE
  6
CONTINUOUS
 62
         7
100
AcDbCircle
 10
13.7257976654
 20
7.4713129804
 30
0.0
 40
0.3905528985
100
AcDbArc
 50
351.9478470815
 51
297.4109648521
  0
ARC
  5
390
100
AcDbEntity
  8
PUZZLE
  6
CONTINUOUS
 62
         7
100
AcDbCircle
 10
14.2331622941
 20
7.3995365262
 30
0.0
 40
0.1218636565
100
AcDbArc
 50
171.9478470815
 51
324.6794059668
  0
ARC
  5
391
100
AcDbEntity
  8
PUZZLE
  6
CONTINUOUS
 62
         7
100
AcDbCircle
 10
13.9616987109
 20
7.016426816
 30
0.0
 40
0.1218636565
100
AcDbArc
 50
324.6794059668
 51
117.4109648521
  0
ARC
  5
392
100
AcDbEntity
  8
PUZZLE
  6
CONTINUOUS
 62
         7
100
AcDbCircle
 10
12.329730257
 20
8.7139155783
 30
0.0
 40
0.272407284
100
AcDbArc
 50
339.5492470815
 51
285.0123648521
  0
ARC
  5
393
100
AcDbEntity
  8
PUZZLE
  6
CONTINUOUS
 62
         7
100
AcDbCircle
 10
12.6646101037
 20
8.5890371027
 30
0.0
 40
0.0849988511
100
AcDbArc
 50
159.5492470815
 51
312.2808059668
  0
ARC
  5
394
100
AcDbEntity
  8
PUZZLE
  6
CONTINUOUS
 62
         7
100
AcDbCircle
 10
12.4223082721
 20
8.3687077329
 30
0.0
 40
0.0849988511
100
AcDbArc
 50
312.2808059668
 51
105.0123648521
  0
ARC
  5
395
100
AcDbEntity
  8
PUZZLE
  6
CONTINUOUS
 62
         7
100
AcDbCircle
 10
11.5647789474
 20
9.7694752856
 30
0.0
 40
0.1900036341
100
AcDbArc
 50
327.1506470815
 51
272.6137648521
  0
ARC
  5
396
100
AcDbEntity
  8
PUZZLE
  6
CONTINUOUS
 62
         7
100
AcDbCircle
 10
11.7742075592
 20
9.6342522952
 30
0.0
 40
0.0592865594
100
AcDbArc
 50
147.1506470815
 51
299.8822059668
  0
ARC
  5
397
100
AcDbEntity
  8
PUZZLE
  6
CONTINUOUS
 62
         7
100
AcDbCircle
 10
11.5761473234
 20
9.520444443
 30
0.0
 40
0.0592865594
100
AcDbArc
 50
299.8822059668
 51
92.6137648521
  0
ARC
  5
398
100
AcDbEntity
  8
PUZZLE
  6
CONTINUOUS
 62
         7
100
AcDbCircle
 10
11.2017660625
 20
10.6031091413
 30
0.0
 40
0.1325253145
100
AcDbArc
 50
314.7520470815
 51
260.2151648521
  0
ARC
  5
399
100
AcDbEntity
  8
PUZZLE
  6
CONTINUOUS
 62
         7
100
AcDbCircle
 10
11.3241824403
 20
10.4796286147
 30
0.0
 40
0.0413516823
100
AcDbArc
 50
134.7520470815
 51
287.4836059668
  0
ARC
  5
39A
100
AcDbEntity
  8
PUZZLE
  6
CONTINUOUS
 62
         7
100
AcDbCircle
 10
11.1722158966
 20
10.431761548
 30
0.0
 40
0.0413516823
100
AcDbArc
 50
287.4836059668
 51
80.2151648521
  0
ARC
  5
39B
100
AcDbEntity
  8
PUZZLE
  6
CONTINUOUS
 62
         7
100
AcDbCircle
 10
11.0793092517
 20
11.2253686434
 30
0.0
 40
0.0924361897
100
AcDbArc
 50
302.3534470815
 51
247.8165648521
  0
ARC
  5
39C
100
AcDbEntity
  8
PUZZLE
  6
CONTINUOUS
 62
         7
100
AcDbCircle
 10
11.1442105259
 20
11.122916698
 30
0.0
 40
0.0288427307
100
AcDbArc
 50
122.3534470815
 51
275.0850059668
  0
ARC
  5
39D
100
AcDbEntity
  8
PUZZLE
  6
CONTINUOUS
 62
         7
100
AcDbCircle
 10
11.0335175949
 20
11.1130668149
 30
0.0
 40
0.0288427307
100
AcDbArc
 50
275.0850059668
 51
67.8165648521
  0
ARC
  5
39E
100
AcDbEntity
  8
PUZZLE
  6
CONTINUOUS
 62
         7
100
AcDbCircle
 10
11.0890812579
 20
11.6676101815
 30
0.0
 40
0.0644734464
100
AcDbArc
 50
289.9548470815
 51
235.4179648521
  0
ARC
  5
39F
100
AcDbEntity
  8
PUZZLE
  6
CONTINUOUS
 62
         7
100
AcDbCircle
 10
11.1179504327
 20
11.588097865
 30
0.0
 40
0.0201175563
100
AcDbArc
 50
109.9548470815
 51
262.6864059668
  0
ARC
  5
3A0
100
AcDbEntity
  8
PUZZLE
  6
CONTINUOUS
 62
         7
100
AcDbCircle
 10
11.0410686206
 20
11.5979651932
 30
0.0
 40
0.0201175563
100
AcDbArc
 50
262.6864059668
 51
55.4179648521
  0
ENDSEC
  0
SECTION
  2
OBJECTS
  0
DICTIONARY
  5
19
100
AcDbDictionary
  3
ACAD_GROUP
350
1A
  3
ACAD_MLINESTYLE
350
1B
  0
DICTIONARY
  5
1A
102
{ACAD_REACTORS
330
19
102
}
100
AcDbDictionary
  0
DICTIONARY
  5
1B
102
{ACAD_REACTORS
330
19
102
}
100
AcDbDictionary
  3
STANDARD
350
1C
  0
MLINESTYLE
  5
1C
102
{ACAD_REACTORS
330
1B
102
}
100
AcDbMlineStyle
  2
Standard
 70
         0
  3

 62
         0
 51
90.0
 52
90.0
 71
         2
 49
0.5
 62
       256
  6
ByLayer
 49
-0.5
 62
       256
  6
ByLayer
  0
ENDSEC
  0
EOF
