999
DXF created from QGIS
  0
SECTION
  2
HEADER
  9
$ACADVER
  1
AC1015
  9
$EXTMIN
 10
3834225.0
 20
2453100.0
 30
0.0
  9
$EXTMAX
 10
3843900.0
 20
2460950.0
 30
0.0
  9
$LTSCALE
 40
1.0
  9
$PDMODE
 70
    33
  9
$PDSIZE
 40
     1
  9
$PSLTSCALE
 70
     0
  9
$HANDSEED
  5
9999999
  9
$DWGCODEPAGE
  3

  0
ENDSEC
  0
SECTION
  2
TABLES
  0
TABLE
  2
LTYPE
  5
64
100
AcDbSymbolTable
 70
     5
  0
LTYPE
  5
65
100
AcDbSymbolTableRecord
100
AcDbLinetypeTableRecord
  2
ByLayer
 70
    64
  3
Defaultstyle
 72
    65
 73
     0
 40
0.0
  0
LTYPE
  5
66
100
AcDbSymbolTableRecord
100
AcDbLinetypeTableRecord
  2
ByBlock
 70
    64
  3
Defaultstyle
 72
    65
 73
     0
 40
0.0
  0
LTYPE
  5
67
100
AcDbSymbolTableRecord
100
AcDbLinetypeTableRecord
  2
CONTINUOUS
 70
    64
  3
Defaultstyle
 72
    65
 73
     0
 40
0.0
  0
LTYPE
  5
68
100
AcDbSymbolTableRecord
100
AcDbLinetypeTableRecord
  2
DASH
 70
    64
  3

 72
    65
 73
     2
 40
130.0
 49
100.0
 74
     0
 49
-29.99999999999999645
 74
     0
  0
LTYPE
  5
69
100
AcDbSymbolTableRecord
100
AcDbLinetypeTableRecord
  2
DOT
 70
    64
  3

 72
    65
 73
     2
 40
59.99999999999999289
 49
29.99999999999999645
 74
     0
 49
-29.99999999999999645
 74
     0
  0
LTYPE
  5
6a
100
AcDbSymbolTableRecord
100
AcDbLinetypeTableRecord
  2
DASHDOT
 70
    64
  3

 72
    65
 73
     4
 40
190.0
 49
100.0
 74
     0
 49
-29.99999999999999645
 74
     0
 49
29.99999999999999645
 74
     0
 49
-29.99999999999999645
 74
     0
  0
LTYPE
  5
6b
100
AcDbSymbolTableRecord
100
AcDbLinetypeTableRecord
  2
DASHDOTDOT
 70
    64
  3

 72
    65
 73
     6
 40
250.0
 49
100.0
 74
     0
 49
-29.99999999999999645
 74
     0
 49
29.99999999999999645
 74
     0
 49
-29.99999999999999645
 74
     0
 49
29.99999999999999645
 74
     0
 49
-29.99999999999999645
 74
     0
  0
ENDTAB
  0
TABLE
  2
BLOCK_RECORD
  5
6c
100
AcDbSymbolTable
 70
     0
  0
BLOCK_RECORD
  5
6d
100
AcDbSymbolTableRecord
100
AcDbBlockTableRecord
  2
*Model_Space
  0
BLOCK_RECORD
  5
6e
100
AcDbSymbolTableRecord
100
AcDbBlockTableRecord
  2
*Paper_Space
  0
BLOCK_RECORD
  5
6f
100
AcDbSymbolTableRecord
100
AcDbBlockTableRecord
  2
*Paper_Space0
  0
ENDTAB
  0
TABLE
  2
APPID
  5
70
100
AcDbSymbolTable
 70
     1
  0
APPID
  5
71
100
AcDbSymbolTableRecord
100
AcDbRegAppTableRecord
  2
ACAD
 70
     0
  0
ENDTAB
  0
TABLE
  2
VIEW
  5
72
100
AcDbSymbolTable
 70
     0
  0
ENDTAB
  0
TABLE
  2
UCS
  5
73
100
AcDbSymbolTable
 70
     0
  0
ENDTAB
  0
TABLE
  2
VPORT
  5
74
100
AcDbSymbolTable
  0
VPORT
  5
75
100
AcDbSymbolTableRecord
100
AcDbViewportTableRecord
  2
*ACTIVE
 70
     0
 10
0.0
 20
0.0
 11
1.0
 21
1.0
 12
0.0
 22
0.0
 13
0.0
 23
0.0
 14
1.0
 24
1.0
 15
1.0
 25
1.0
 16
0.0
 26
0.0
 36
1.0
 17
3839062.5
 27
2457025.0
 40
7850.0
 41
1.23248407643312108
 42
50.0
 43
0.0
 44
0.0
 50
0.0
 51
0.0
 71
     0
 72
   100
 73
     1
 74
     1
 75
     0
 76
     0
 77
     0
 78
     0
281
     0
 65
     1
110
0.0
120
0.0
130
0.0
111
1.0
121
0.0
131
0.0
112
0.0
122
1.0
132
0.0
 79
     0
146
0.0
 70
     0
  0
ENDTAB
  0
TABLE
  2
DIMSTYLE
  5
76
100
AcDbSymbolTable
100
AcDbDimStyleTable
 70
     0
  0
ENDTAB
  0
TABLE
  2
LAYER
  5
77
100
AcDbSymbolTable
 70
     2
  0
LAYER
  5
78
100
AcDbSymbolTableRecord
100
AcDbLayerTableRecord
  2
0
 70
    64
 62
     1
  6
CONTINUOUS
390
f
  0
LAYER
  5
79
100
AcDbSymbolTableRecord
100
AcDbLayerTableRecord
  2
Contours
 70
    64
 62
     1
  6
CONTINUOUS
390
f
  0
ENDTAB
  0
TABLE
  2
STYLE
  5
7a
100
AcDbSymbolTable
 70
     1
  0
STYLE
  5
7b
100
AcDbSymbolTableRecord
100
AcDbTextStyleTableRecord
  2
STANDARD
 70
    64
 40
0.0
 41
1.0
 50
0.0
 71
     0
 42
5.0
  3
romans.shx
  4

  0
ENDTAB
  0
ENDSEC
  0
SECTION
  2
BLOCKS
  0
BLOCK
  5
7c
330
6d
100
AcDbEntity
  8
0
100
AcDbBlockBegin
  2
*Model_Space
 70
     0
 10
0.0
 20
0.0
 30
0.0
  3
*Model_Space
  1

  0
ENDBLK
  5
7d
100
AcDbEntity
  8
0
100
AcDbBlockEnd
  0
BLOCK
  5
7e
330
6e
100
AcDbEntity
  8
0
100
AcDbBlockBegin
  2
*Paper_Space
 70
     0
 10
0.0
 20
0.0
 30
0.0
  3
*Paper_Space
  1

  0
ENDBLK
  5
7f
100
AcDbEntity
  8
0
100
AcDbBlockEnd
  0
BLOCK
  5
80
330
6f
100
AcDbEntity
  8
0
100
AcDbBlockBegin
  2
*Paper_Space0
 70
     0
 10
0.0
 20
0.0
 30
0.0
  3
*Paper_Space0
  1

  0
ENDBLK
  5
81
100
AcDbEntity
  8
0
100
AcDbBlockEnd
  0
ENDSEC
  0
SECTION
  2
ENTITIES
  0
LWPOLYLINE
  5
82
  8
Contours
100
AcDbEntity
100
AcDbPolyline
  6
CONTINUOUS
420
15156120
 90
    26
 70
   128
 43
13.0
 10
3842001.65263764653354883
 20
2460950.0
 10
3842001.65263764653354883
 20
2460937.5
 10
3841987.5
 20
2460916.48011886235326529
 10
3841985.22322548786178231
 20
2460912.5
 10
3841963.78555493569001555
 20
2460887.5
 10
3841962.5
 20
2460886.27388873836025596
 10
3841937.5
 20
2460868.08097199397161603
 10
3841921.16211334941908717
 20
2460862.5
 10
3841912.5
 20
2460860.01836493751034141
 10
3841887.5
 20
2460859.53084362298250198
 10
3841873.01030467310920358
 20
2460862.5
 10
3841862.5
 20
2460864.29976894613355398
 10
3841837.5
 20
2460872.60128251230344176
 10
3841812.5
 20
2460879.86293904762715101
 10
3841789.2399255926720798
 20
2460887.5
 10
3841787.5
 20
2460888.02059127762913704
 10
3841762.5
 20
2460896.14717128360643983
 10
3841737.5
 20
2460903.1178642944432795
 10
3841712.5
 20
2460909.21348083391785622
 10
3841697.6362997074611485
 20
2460912.5
 10
3841687.5
 20
2460914.79951483802869916
 10
3841662.5
 20
2460920.12566260108724236
 10
3841637.5
 20
2460926.19847148191183805
 10
3841612.5
 20
2460935.3036501556634903
 10
3841607.57760289823636413
 20
2460937.5
 10
3841607.57760289823636413
 20
2460950.0
  0
LWPOLYLINE
  5
83
  8
Contours
100
AcDbEntity
100
AcDbPolyline
  6
CONTINUOUS
420
15156120
 90
    64
 70
   128
 43
13.0
 10
3838805.30551404412835836
 20
2460950.0
 10
3838805.30551404412835836
 20
2460937.5
 10
3838805.31481953430920839
 20
2460912.5
 10
3838801.5927977841347456
 20
2460887.5
 10
3838795.51434319093823433
 20
2460862.5
 10
3838792.09809598606079817
 20
2460837.5
 10
3838790.31919638812541962
 20
2460812.5
 10
3838787.5
 20
2460791.91371975559741259
 10
3838786.70778848929330707
 20
2460787.5
 10
3838778.17745295120403171
 20
2460762.5
 10
3838763.47681380156427622
 20
2460737.5
 10
3838762.5
 20
2460735.59396935999393463
 10
3838748.13563643302768469
 20
2460712.5
 10
3838737.5
 20
2460699.68020129064098001
 10
3838727.68981467140838504
 20
2460687.5
 10
3838712.5
 20
2460670.49445791495963931
 10
3838704.3042683145031333
 20
2460662.5
 10
3838687.5
 20
2460638.41362548992037773
 10
3838686.49557943036779761
 20
2460637.5
 10
3838662.5
 20
2460613.14324662042781711
 10
3838661.91052467189729214
 20
2460612.5
 10
3838642.33528631459921598
 20
2460587.5
 10
3838637.5
 20
2460578.61192392092198133
 10
3838627.27536493539810181
 20
2460562.5
 10
3838612.5
 20
2460544.50690954783931375
 10
3838592.35371139599010348
 20
2460537.5
 10
3838587.5
 20
2460535.69181860983371735
 10
3838562.5
 20
2460529.43879990419372916
 10
3838537.5
 20
2460529.16231136070564389
 10
3838512.5
 20
2460532.21974067855626345
 10
3838492.15762428287416697
 20
2460537.5
 10
3838487.5
 20
2460539.19929368700832129
 10
3838462.5
 20
2460541.20725536625832319
 10
3838437.5
 20
2460541.91836986970156431
 10
3838412.5
 20
2460543.60993158770725131
 10
3838387.5
 20
2460547.79524305136874318
 10
3838362.5
 20
2460550.74550826009362936
 10
3838337.5
 20
2460557.11070499941706657
 10
3838326.13228699564933777
 20
2460562.5
 10
3838312.5
 20
2460571.17027928307652473
 10
3838292.18489860510453582
 20
2460587.5
 10
3838287.5
 20
2460591.40584112703800201
 10
3838273.05338247446343303
 20
2460612.5
 10
3838262.5
 20
2460629.45288639655336738
 10
3838258.66046153288334608
 20
2460637.5
 10
3838246.11422081617638469
 20
2460662.5
 10
3838237.5
 20
2460682.0743340807966888
 10
3838235.25272320071235299
 20
2460687.5
 10
3838221.18466504337266088
 20
2460712.5
 10
3838212.5
 20
2460728.17242348380386829
 10
3838207.60189296863973141
 20
2460737.5
 10
3838197.29527096264064312
 20
2460762.5
 10
3838187.5
 20
2460782.00529664196074009
 10
3838184.39250195166096091
 20
2460787.5
 10
3838176.14609863376244903
 20
2460812.5
 10
3838162.5
 20
2460835.76878281822428107
 10
3838161.41981771169230342
 20
2460837.5
 10
3838144.91184026142582297
 20
2460862.5
 10
3838137.5
 20
2460872.69228453282266855
 10
3838122.82541671628132463
 20
2460887.5
 10
3838112.5
 20
2460901.77510724915191531
 10
3838106.04774667462334037
 20
2460912.5
 10
3838096.25579230859875679
 20
2460937.5
 10
3838096.25579230859875679
 20
2460950.0
  0
LWPOLYLINE
  5
84
  8
Contours
100
AcDbEntity
100
AcDbPolyline
  6
CONTINUOUS
420
15156120
 90
    27
 70
   129
 43
13.0
 10
3843534.20651068165898323
 20
2460312.5
 10
3843512.5
 20
2460305.70028680702671409
 10
3843487.5
 20
2460306.80349062709137797
 10
3843476.38463444309309125
 20
2460312.5
 10
3843462.5
 20
2460321.31927952170372009
 10
3843451.38473936636000872
 20
2460337.5
 10
3843440.25993948057293892
 20
2460362.5
 10
3843438.59740929491817951
 20
2460387.5
 10
3843444.04483718238770962
 20
2460412.5
 10
3843453.74715952109545469
 20
2460437.5
 10
3843462.5
 20
2460451.15575514081865549
 10
3843473.08099290169775486
 20
2460462.5
 10
3843487.5
 20
2460473.24261735053732991
 10
3843512.5
 20
2460482.95224672509357333
 10
3843537.5
 20
2460482.03305433504283428
 10
3843562.5
 20
2460468.43331719283014536
 10
3843569.48749541770666838
 20
2460462.5
 10
3843586.36634844867512584
 20
2460437.5
 10
3843587.5
 20
2460433.67819497268646955
 10
3843592.63442811369895935
 20
2460412.5
 10
3843589.80274162441492081
 20
2460387.5
 10
3843587.5
 20
2460379.00954478699713945
 10
3843582.86462885700166225
 20
2460362.5
 10
3843570.31119241239503026
 20
2460337.5
 10
3843562.5
 20
2460328.56116786180064082
 10
3843537.5
 20
2460313.52966900635510683
 10
3843534.20651068165898323
 20
2460312.5
  0
LWPOLYLINE
  5
85
  8
Contours
100
AcDbEntity
100
AcDbPolyline
  6
CONTINUOUS
420
15156120
 90
    35
 70
   129
 43
13.0
 10
3842097.48338721273466945
 20
2460087.5
 10
3842087.5
 20
2460077.63443961320444942
 10
3842062.5
 20
2460070.87589252321049571
 10
3842037.5
 20
2460071.19280826533213258
 10
3842021.30147940805181861
 20
2460087.5
 10
3842012.5
 20
2460092.24846526514738798
 10
3841987.5
 20
2460091.42331591667607427
 10
3841966.4646092657931149
 20
2460112.5
 10
3841962.5
 20
2460116.50278862239792943
 10
3841941.52353500528261065
 20
2460137.5
 10
3841942.4511180161498487
 20
2460162.5
 10
3841937.5
 20
2460170.14131364552304149
 10
3841920.20582153974100947
 20
2460187.5
 10
3841912.5
 20
2460194.84111931873485446
 10
3841894.87232289928942919
 20
2460212.5
 10
3841899.34190870495513082
 20
2460237.5
 10
3841899.93513232981786132
 20
2460262.5
 10
3841912.5
 20
2460269.93132641073316336
 10
3841937.5
 20
2460264.11905363854020834
 10
3841939.19781724968925118
 20
2460262.5
 10
3841962.5
 20
2460249.47260510828346014
 10
3841977.76006737817078829
 20
2460237.5
 10
3841987.5
 20
2460229.88485586969181895
 10
3841999.45067264558747411
 20
2460212.5
 10
3842012.5
 20
2460194.49425609409809113
 10
3842018.21311412891373038
 20
2460187.5
 10
3842037.5
 20
2460169.62360126571729779
 10
3842047.28688524570316076
 20
2460162.5
 10
3842062.5
 20
2460147.0168944806791842
 10
3842079.81772590288892388
 20
2460137.5
 10
3842087.5
 20
2460132.70803523855283856
 10
3842112.5
 20
2460115.17312426399439573
 10
3842115.42550076125189662
 20
2460112.5
 10
3842112.5
 20
2460110.23623385466635227
 10
3842097.48338721273466945
 20
2460087.5
  0
LWPOLYLINE
  5
86
  8
Contours
100
AcDbEntity
100
AcDbPolyline
  6
CONTINUOUS
420
15156120
 90
    53
 70
   129
 43
13.0
 10
3838805.96158762602135539
 20
2459837.5
 10
3838787.5
 20
2459825.96077021397650242
 10
3838762.5
 20
2459821.76127797737717628
 10
3838737.5
 20
2459832.01707762898877263
 10
3838721.60975469322875142
 20
2459837.5
 10
3838712.5
 20
2459841.19945981353521347
 10
3838687.5
 20
2459852.3099891422316432
 10
3838674.51696947356685996
 20
2459862.5
 10
3838662.5
 20
2459886.95417578984051943
 10
3838662.25833033258095384
 20
2459887.5
 10
3838654.63504823157563806
 20
2459912.5
 10
3838646.80244931997731328
 20
2459937.5
 10
3838639.42136129643768072
 20
2459962.5
 10
3838637.5
 20
2459968.90884921234101057
 10
3838632.49652080284431577
 20
2459987.5
 10
3838625.73776943562552333
 20
2460012.5
 10
3838620.22047877078875899
 20
2460037.5
 10
3838616.77215723274275661
 20
2460062.5
 10
3838617.39944277564063668
 20
2460087.5
 10
3838621.58397989301010966
 20
2460112.5
 10
3838632.95706812618300319
 20
2460137.5
 10
3838637.5
 20
2460144.68126226915046573
 10
3838654.68839025357738137
 20
2460162.5
 10
3838662.5
 20
2460167.90683175763115287
 10
3838687.5
 20
2460182.47142960922792554
 10
3838699.06807864783331752
 20
2460187.5
 10
3838712.5
 20
2460192.9818030958995223
 10
3838737.5
 20
2460201.98694987874478102
 10
3838762.5
 20
2460209.8383608739823103
 10
3838787.5
 20
2460211.93531744088977575
 10
3838812.5
 20
2460205.00457038404420018
 10
3838837.5
 20
2460188.27557755773887038
 10
3838838.43766625272110105
 20
2460187.5
 10
3838862.5
 20
2460166.89015360083431005
 10
3838866.29044949356466532
 20
2460162.5
 10
3838884.73728106776252389
 20
2460137.5
 10
3838887.5
 20
2460132.48795146960765123
 10
3838896.47634327411651611
 20
2460112.5
 10
3838904.45600061863660812
 20
2460087.5
 10
3838907.81336448946967721
 20
2460062.5
 10
3838906.59503059834241867
 20
2460037.5
 10
3838902.0828021103516221
 20
2460012.5
 10
3838891.06462208414450288
 20
2459987.5
 10
3838887.5
 20
2459979.8383221197873354
 10
3838878.83559763943776488
 20
2459962.5
 10
3838862.57153156399726868
 20
2459937.5
 10
3838862.5
 20
2459937.38966691587120295
 10
3838844.40839742869138718
 20
2459912.5
 10
3838837.5
 20
2459896.9057359523139894
 10
3838832.3612214382737875
 20
2459887.5
 10
3838822.39749835105612874
 20
2459862.5
 10
3838812.5
 20
2459842.69394800951704383
 10
3838805.96158762602135539
 20
2459837.5
  0
LWPOLYLINE
  5
87
  8
Contours
100
AcDbEntity
100
AcDbPolyline
  6
CONTINUOUS
420
15156120
 90
   176
 70
   128
 43
13.0
 10
3837020.13136142492294312
 20
2460950.0
 10
3837020.13136142492294312
 20
2460937.5
 10
3837030.15612722467631102
 20
2460912.5
 10
3837037.5
 20
2460894.57674990640953183
 10
3837040.35702263750135899
 20
2460887.5
 10
3837049.78295377222821116
 20
2460862.5
 10
3837057.08582096034660935
 20
2460837.5
 10
3837062.5
 20
2460819.6543316119350493
 10
3837064.86739188199862838
 20
2460812.5
 10
3837072.64885229011997581
 20
2460787.5
 10
3837085.0231181476265192
 20
2460762.5
 10
3837087.5
 20
2460758.45107217505574226
 10
3837102.00890201842412353
 20
2460737.5
 10
3837112.5
 20
2460724.96594973606988788
 10
3837122.80557894520461559
 20
2460712.5
 10
3837137.5
 20
2460695.33151825750246644
 10
3837143.11672382382676005
 20
2460687.5
 10
3837162.5
 20
2460664.49203381268307567
 10
3837164.21231730002909899
 20
2460662.5
 10
3837180.23970710160210729
 20
2460637.5
 10
3837187.5
 20
2460624.32335762120783329
 10
3837193.37158113718032837
 20
2460612.5
 10
3837204.43987155379727483
 20
2460587.5
 10
3837212.5
 20
2460567.38873727293685079
 10
3837214.23837042925879359
 20
2460562.5
 10
3837220.67648883396759629
 20
2460537.5
 10
3837227.22512108646333218
 20
2460512.5
 10
3837233.6791795096360147
 20
2460487.5
 10
3837237.5
 20
2460468.0167467100545764
 10
3837238.45650575309991837
 20
2460462.5
 10
3837240.05967618804425001
 20
2460437.5
 10
3837239.1979902284219861
 20
2460412.5
 10
3837237.5
 20
2460402.86602411046624184
 10
3837234.79506684141233563
 20
2460387.5
 10
3837228.99443062860518694
 20
2460362.5
 10
3837224.6231539836153388
 20
2460337.5
 10
3837221.28864673105999827
 20
2460312.5
 10
3837214.8183474475517869
 20
2460287.5
 10
3837212.5
 20
2460278.74052576022222638
 10
3837207.86556652188301086
 20
2460262.5
 10
3837198.89087676163762808
 20
2460237.5
 10
3837189.14429372502490878
 20
2460212.5
 10
3837187.5
 20
2460208.58681875793263316
 10
3837176.2774030352011323
 20
2460187.5
 10
3837162.5
 20
2460166.2363360789604485
 10
3837159.43250377057120204
 20
2460162.5
 10
3837137.5
 20
2460140.90622215624898672
 10
3837132.9002339574508369
 20
2460137.5
 10
3837112.5
 20
2460113.97155192354694009
 10
3837110.72648083604872227
 20
2460112.5
 10
3837087.5
 20
2460097.13536064419895411
 10
3837075.00547961564734578
 20
2460087.5
 10
3837064.63084980566054583
 20
2460062.5
 10
3837087.5
 20
2460051.96390348300337791
 10
3837112.5
 20
2460042.5630970117636025
 10
3837126.53895998699590564
 20
2460037.5
 10
3837137.5
 20
2460035.07229737006127834
 10
3837162.5
 20
2460033.80785064166411757
 10
3837187.5
 20
2460033.67876147152855992
 10
3837212.5
 20
2460035.39113532565534115
 10
3837237.5
 20
2460036.82431547250598669
 10
3837262.5
 20
2460036.51026009675115347
 10
3837287.5
 20
2460033.84577408013865352
 10
3837312.5
 20
2460031.29178660316392779
 10
3837337.5
 20
2460024.96412341529503465
 10
3837362.5
 20
2460016.73956372495740652
 10
3837371.9893179340288043
 20
2460012.5
 10
3837387.5
 20
2460004.74475507158786058
 10
3837412.5
 20
2459987.87840085523203015
 10
3837413.05196436913684011
 20
2459987.5
 10
3837437.5
 20
2459964.78227962274104357
 10
3837440.30610224511474371
 20
2459962.5
 10
3837462.5
 20
2459941.45095112035050988
 10
3837466.24064394552260637
 20
2459937.5
 10
3837487.5
 20
2459914.34087695833295584
 10
3837489.48442523693665862
 20
2459912.5
 10
3837512.5
 20
2459891.19676122767850757
 10
3837516.87337113078683615
 20
2459887.5
 10
3837537.5
 20
2459869.05134339351207018
 10
3837545.54237054148688912
 20
2459862.5
 10
3837562.5
 20
2459847.49489150010049343
 10
3837572.29069666238501668
 20
2459837.5
 10
3837587.5
 20
2459818.39087529387325048
 10
3837592.99142522225156426
 20
2459812.5
 10
3837612.5
 20
2459789.31059550493955612
 10
3837614.44954502442851663
 20
2459787.5
 10
3837637.5
 20
2459767.23069863487035036
 10
3837646.21920921886339784
 20
2459762.5
 10
3837662.5
 20
2459754.13043478270992637
 10
3837687.5
 20
2459746.13780144508928061
 10
3837712.5
 20
2459744.72640872793272138
 10
3837737.5
 20
2459741.15117891831323504
 10
3837745.11806922079995275
 20
2459737.5
 10
3837762.5
 20
2459730.71268757898360491
 10
3837787.5
 20
2459723.39334393478929996
 10
3837812.5
 20
2459719.17042441945523024
 10
3837837.5
 20
2459718.40982307540252805
 10
3837862.5
 20
2459728.39653440471738577
 10
3837871.61213716818019748
 20
2459737.5
 10
3837887.5
 20
2459758.12197341769933701
 10
3837890.29734474420547485
 20
2459762.5
 10
3837912.5
 20
2459786.54579699132591486
 10
3837913.41100925765931606
 20
2459787.5
 10
3837937.5
 20
2459809.42721564741805196
 10
3837941.39738820632919669
 20
2459812.5
 10
3837962.5
 20
2459826.81045815488323569
 10
3837981.15698251267895103
 20
2459837.5
 10
3837987.5
 20
2459841.81019952381029725
 10
3838012.5
 20
2459859.19770789006724954
 10
3838016.97291084751486778
 20
2459862.5
 10
3838037.5
 20
2459879.24519344884902239
 10
3838049.94052942236885428
 20
2459887.5
 10
3838062.5
 20
2459896.30589902447536588
 10
3838081.59038495644927025
 20
2459912.5
 10
3838087.5
 20
2459916.8810139624401927
 10
3838108.7069976101629436
 20
2459937.5
 10
3838112.5
 20
2459942.65345503576099873
 10
3838124.50174112757667899
 20
2459962.5
 10
3838132.33774543507024646
 20
2459987.5
 10
3838137.04345292039215565
 20
2460012.5
 10
3838135.47669795481488109
 20
2460037.5
 10
3838130.78793210117146373
 20
2460062.5
 10
3838124.40151942567899823
 20
2460087.5
 10
3838118.34007498016580939
 20
2460112.5
 10
3838113.70485816523432732
 20
2460137.5
 10
3838112.5
 20
2460145.11629940522834659
 10
3838108.57311227591708302
 20
2460162.5
 10
3838100.44716815091669559
 20
2460187.5
 10
3838088.52620653854683042
 20
2460212.5
 10
3838087.5
 20
2460214.08860861184075475
 10
3838068.53504376392811537
 20
2460237.5
 10
3838062.5
 20
2460242.2042635758407414
 10
3838037.5
 20
2460259.4953316655009985
 10
3838032.421875
 20
2460262.5
 10
3838012.5
 20
2460271.57270848518237472
 10
3837987.5
 20
2460280.28228185838088393
 10
3837976.61323091201484203
 20
2460287.5
 10
3837962.5
 20
2460297.12116815289482474
 10
3837939.80564098572358489
 20
2460312.5
 10
3837937.5
 20
2460314.12078213505446911
 10
3837912.5
 20
2460336.63759310077875853
 10
3837911.74792752740904689
 20
2460337.5
 10
3837889.17709599947556853
 20
2460362.5
 10
3837887.5
 20
2460364.28413679962977767
 10
3837868.11052409699186683
 20
2460387.5
 10
3837862.5
 20
2460392.63072289153933525
 10
3837846.49007844040170312
 20
2460412.5
 10
3837837.5
 20
2460421.8402658705599606
 10
3837824.5543307876214385
 20
2460437.5
 10
3837812.5
 20
2460453.24665069160982966
 10
3837806.03679133299738169
 20
2460462.5
 10
3837791.53755307476967573
 20
2460487.5
 10
3837787.5
 20
2460496.99119212105870247
 10
3837780.29086202383041382
 20
2460512.5
 10
3837772.38818881753832102
 20
2460537.5
 10
3837764.88321320153772831
 20
2460562.5
 10
3837762.5
 20
2460569.12070343736559153
 10
3837755.08473892975598574
 20
2460587.5
 10
3837744.64356766268610954
 20
2460612.5
 10
3837737.5
 20
2460622.81242948304861784
 10
3837729.48989752074703574
 20
2460637.5
 10
3837717.74372081784531474
 20
2460662.5
 10
3837712.5
 20
2460674.1699885786511004
 10
3837707.22626831801608205
 20
2460687.5
 10
3837698.00821423809975386
 20
2460712.5
 10
3837691.63385218800976872
 20
2460737.5
 10
3837687.5
 20
2460759.93828842043876648
 10
3837687.03307972569018602
 20
2460762.5
 10
3837683.45028669200837612
 20
2460787.5
 10
3837680.24180133081972599
 20
2460812.5
 10
3837676.69371380330994725
 20
2460837.5
 10
3837675.20522354962304235
 20
2460862.5
 10
3837675.43581485701724887
 20
2460887.5
 10
3837677.87592240236699581
 20
2460912.5
 10
3837682.85818220349028707
 20
2460937.5
 10
3837682.85818220349028707
 20
2460950.0
  0
LWPOLYLINE
  5
88
  8
Contours
100
AcDbEntity
100
AcDbPolyline
  6
CONTINUOUS
420
15156120
 90
   139
 70
   128
 43
13.0
 10
3843900.0
 20
2459805.86512599093839526
 10
3843887.5
 20
2459805.86512599093839526
 10
3843880.6692313295789063
 20
2459812.5
 10
3843862.5
 20
2459831.35341970296576619
 10
3843854.08165907207876444
 20
2459837.5
 10
3843837.5
 20
2459850.81091004842892289
 10
3843812.5
 20
2459853.7479075719602406
 10
3843787.5
 20
2459840.3995355605147779
 10
3843785.42534456355497241
 20
2459837.5
 10
3843770.76789627457037568
 20
2459812.5
 10
3843762.5
 20
2459801.11424923595041037
 10
3843754.11953130597248673
 20
2459787.5
 10
3843737.5
 20
2459766.14242210937663913
 10
3843734.61575745837762952
 20
2459762.5
 10
3843712.5
 20
2459740.78602191479876637
 10
3843706.67041305219754577
 20
2459737.5
 10
3843687.5
 20
2459728.64379180548712611
 10
3843662.5
 20
2459717.26294451579451561
 10
3843641.90546057652682066
 20
2459712.5
 10
3843637.5
 20
2459711.18048974359408021
 10
3843634.10204684128984809
 20
2459712.5
 10
3843612.5
 20
2459726.95694265188649297
 10
3843608.96225581178441644
 20
2459737.5
 10
3843602.0985004180110991
 20
2459762.5
 10
3843592.39259855588898063
 20
2459787.5
 10
3843587.5
 20
2459795.43760655680671334
 10
3843579.33666596841067076
 20
2459812.5
 10
3843562.5
 20
2459835.56261147651821375
 10
3843561.2040947861969471
 20
2459837.5
 10
3843541.58741740323603153
 20
2459862.5
 10
3843537.5
 20
2459867.43741272948682308
 10
3843519.96520565031096339
 20
2459887.5
 10
3843512.5
 20
2459895.08895575953647494
 10
3843493.83788537513464689
 20
2459912.5
 10
3843487.5
 20
2459918.1675578118301928
 10
3843464.36973412055522203
 20
2459937.5
 10
3843462.5
 20
2459938.9542686278000474
 10
3843437.5
 20
2459954.60305545758455992
 10
3843422.65123066492378712
 20
2459962.5
 10
3843412.5
 20
2459967.50415570009499788
 10
3843387.5
 20
2459976.64926421921700239
 10
3843362.5
 20
2459984.05935548665001988
 10
3843347.87515605473890901
 20
2459987.5
 10
3843337.5
 20
2459989.85939584951847792
 10
3843312.5
 20
2459994.4476240430958569
 10
3843287.5
 20
2459998.67279838118702173
 10
3843262.5
 20
2460003.40432373620569706
 10
3843237.5
 20
2460010.78018253296613693
 10
3843233.79692735848948359
 20
2460012.5
 10
3843212.5
 20
2460023.03907446702942252
 10
3843187.5
 20
2460035.51307000312954187
 10
3843183.88454940868541598
 20
2460037.5
 10
3843162.5
 20
2460050.7970172562636435
 10
3843144.14763019885867834
 20
2460062.5
 10
3843137.5
 20
2460067.17901172256097198
 10
3843112.5
 20
2460082.4574549961835146
 10
3843103.96288494113832712
 20
2460087.5
 10
3843087.5
 20
2460099.22883121715858579
 10
3843068.69143337476998568
 20
2460112.5
 10
3843062.5
 20
2460118.78263513930141926
 10
3843044.75651085609570146
 20
2460137.5
 10
3843037.5
 20
2460150.22470594057813287
 10
3843031.06963856657966971
 20
2460162.5
 10
3843022.88660310814157128
 20
2460187.5
 10
3843019.49398102564737201
 20
2460212.5
 10
3843018.3783688978292048
 20
2460237.5
 10
3843016.34392688237130642
 20
2460262.5
 10
3843012.5
 20
2460281.4295421838760376
 10
3843010.94816545629873872
 20
2460287.5
 10
3843005.01760802743956447
 20
2460312.5
 10
3843000.19055787567049265
 20
2460337.5
 10
3842994.36018707370385528
 20
2460362.5
 10
3842988.09022809518501163
 20
2460387.5
 10
3842987.5
 20
2460389.08444737317040563
 10
3842979.84575803810730577
 20
2460412.5
 10
3842970.59073975495994091
 20
2460437.5
 10
3842964.06133226165547967
 20
2460462.5
 10
3842962.5
 20
2460469.62378562707453966
 10
3842959.58911285270005465
 20
2460487.5
 10
3842956.05396038573235273
 20
2460512.5
 10
3842952.92030079662799835
 20
2460537.5
 10
3842950.75015955837443471
 20
2460562.5
 10
3842950.93444701144471765
 20
2460587.5
 10
3842952.70850231032818556
 20
2460612.5
 10
3842956.35946062114089727
 20
2460637.5
 10
3842961.99093549372628331
 20
2460662.5
 10
3842962.5
 20
2460663.78780640475451946
 10
3842974.7407371187582612
 20
2460687.5
 10
3842987.5
 20
2460705.46240871539339423
 10
3842993.16045911470428109
 20
2460712.5
 10
3843012.5
 20
2460730.84100414579734206
 10
3843020.0337583040818572
 20
2460737.5
 10
3843037.5
 20
2460755.51550511503592134
 10
3843045.06728204758837819
 20
2460762.5
 10
3843062.5
 20
2460779.91803751466795802
 10
3843071.73155795270577073
 20
2460787.5
 10
3843087.5
 20
2460811.69869376858696342
 10
3843088.04244732391089201
 20
2460812.5
 10
3843087.5
 20
2460815.29385239724069834
 10
3843082.4640379729680717
 20
2460837.5
 10
3843062.5
 20
2460850.8429398094303906
 10
3843037.5
 20
2460859.96739589842036366
 10
3843012.5
 20
2460858.89601305173709989
 10
3842987.5
 20
2460853.87672802153974771
 10
3842962.5
 20
2460845.78735632169991732
 10
3842944.6875
 20
2460837.5
 10
3842937.5
 20
2460834.19911222578957677
 10
3842912.5
 20
2460821.51234425278380513
 10
3842894.45307560637593269
 20
2460812.5
 10
3842887.5
 20
2460808.91576776001602411
 10
3842862.5
 20
2460799.7771681253798306
 10
3842837.5
 20
2460796.35394319053739309
 10
3842812.5
 20
2460796.63980678748339415
 10
3842787.5
 20
2460801.61256435746327043
 10
3842769.34702604310587049
 20
2460812.5
 10
3842762.5
 20
2460818.2075250050984323
 10
3842746.68637409061193466
 20
2460837.5
 10
3842737.5
 20
2460849.59065365046262741
 10
3842724.34175561368465424
 20
2460862.5
 10
3842712.5
 20
2460872.72844646219164133
 10
3842687.5
 20
2460882.78285606112331152
 10
3842662.5
 20
2460885.05346423201262951
 10
3842637.5
 20
2460879.55245363153517246
 10
3842612.5
 20
2460875.44362198328599334
 10
3842587.5
 20
2460868.53255594428628683
 10
3842569.82262609899044037
 20
2460862.5
 10
3842562.5
 20
2460860.15434317430481315
 10
3842537.5
 20
2460853.74734493996948004
 10
3842512.5
 20
2460848.68749510543420911
 10
3842487.5
 20
2460845.33427145285531878
 10
3842462.5
 20
2460846.07232172833755612
 10
3842437.5
 20
2460855.7325813565403223
 10
3842429.75934826349839568
 20
2460862.5
 10
3842412.5
 20
2460878.70902426540851593
 10
3842406.96245286427438259
 20
2460887.5
 10
3842393.40250150812789798
 20
2460912.5
 10
3842387.5
 20
2460928.41032288456335664
 10
3842385.25423037959262729
 20
2460937.5
 10
3842385.25423037959262729
 20
2460950.0
  0
LWPOLYLINE
  5
89
  8
Contours
100
AcDbEntity
100
AcDbPolyline
  6
CONTINUOUS
420
15156120
 90
   230
 70
   128
 43
13.0
 10
3836374.24272362608462572
 20
2460950.0
 10
3836374.24272362608462572
 20
2460937.5
 10
3836384.51976036559790373
 20
2460912.5
 10
3836387.5
 20
2460897.42037494340911508
 10
3836390.0832994319498539
 20
2460887.5
 10
3836393.55415697349235415
 20
2460862.5
 10
3836394.07803557207807899
 20
2460837.5
 10
3836390.60432342439889908
 20
2460812.5
 10
3836387.5
 20
2460801.51771375723183155
 10
3836382.32761716656386852
 20
2460787.5
 10
3836368.3429808528162539
 20
2460762.5
 10
3836362.5
 20
2460749.96732673281803727
 10
3836355.57020054152235389
 20
2460737.5
 10
3836341.14521149592474103
 20
2460712.5
 10
3836337.5
 20
2460705.80428823176771402
 10
3836328.11483474541455507
 20
2460687.5
 10
3836315.93567547854036093
 20
2460662.5
 10
3836312.5
 20
2460655.62418857496231794
 10
3836299.73533445736393332
 20
2460637.5
 10
3836287.5
 20
2460617.60685249697417021
 10
3836280.89194469479843974
 20
2460612.5
 10
3836262.5
 20
2460601.98733807494863868
 10
3836237.5
 20
2460592.88108372315764427
 10
3836228.36937203770503402
 20
2460587.5
 10
3836212.5
 20
2460570.89274643501266837
 10
3836207.46915530133992434
 20
2460562.5
 10
3836197.88212789222598076
 20
2460537.5
 10
3836190.95410509221255779
 20
2460512.5
 10
3836187.5
 20
2460498.12768569681793451
 10
3836185.35528462007641792
 20
2460487.5
 10
3836183.36723878560587764
 20
2460462.5
 10
3836183.98701189365237951
 20
2460437.5
 10
3836184.62612806167453527
 20
2460412.5
 10
3836184.00896528083831072
 20
2460387.5
 10
3836183.38739822246134281
 20
2460362.5
 10
3836182.89594652131199837
 20
2460337.5
 10
3836181.86517907446250319
 20
2460312.5
 10
3836182.24527818989008665
 20
2460287.5
 10
3836183.39709581714123487
 20
2460262.5
 10
3836185.53111706394702196
 20
2460237.5
 10
3836187.5
 20
2460222.39373503811657429
 10
3836188.89033615868538618
 20
2460212.5
 10
3836194.82975736493244767
 20
2460187.5
 10
3836201.48174139205366373
 20
2460162.5
 10
3836208.09204120328649879
 20
2460137.5
 10
3836212.5
 20
2460120.22667938563972712
 10
3836214.29574342304840684
 20
2460112.5
 10
3836220.29309478588402271
 20
2460087.5
 10
3836226.01251162216067314
 20
2460062.5
 10
3836231.07478621602058411
 20
2460037.5
 10
3836237.00990336388349533
 20
2460012.5
 10
3836237.5
 20
2460010.92825881252065301
 10
3836245.70550796994939446
 20
2459987.5
 10
3836254.95198774663731456
 20
2459962.5
 10
3836262.5
 20
2459947.47276982618495822
 10
3836267.9284314326941967
 20
2459937.5
 10
3836283.24918689951300621
 20
2459912.5
 10
3836287.5
 20
2459905.22978159179911017
 10
3836297.87424620892852545
 20
2459887.5
 10
3836312.48230373207479715
 20
2459862.5
 10
3836312.5
 20
2459862.46828289330005646
 10
3836327.52366477902978659
 20
2459837.5
 10
3836337.5
 20
2459820.9684560364112258
 10
3836342.63736378727480769
 20
2459812.5
 10
3836353.64579842612147331
 20
2459787.5
 10
3836362.1921275882050395
 20
2459762.5
 10
3836361.71701806504279375
 20
2459737.5
 10
3836357.77861383697018027
 20
2459712.5
 10
3836341.19939324213191867
 20
2459687.5
 10
3836337.5
 20
2459683.6238079578615725
 10
3836312.5
 20
2459663.43021390913054347
 10
3836310.57300967629998922
 20
2459662.5
 10
3836287.5
 20
2459652.91913844225928187
 10
3836262.5
 20
2459652.1848148787394166
 10
3836237.5
 20
2459659.22393887955695391
 10
3836228.98305084742605686
 20
2459662.5
 10
3836212.5
 20
2459667.83784633688628674
 10
3836187.5
 20
2459680.35882453666999936
 10
3836175.32721319235861301
 20
2459687.5
 10
3836162.5
 20
2459693.93992123799398541
 10
3836137.5
 20
2459703.07052130857482553
 10
3836115.47862911177799106
 20
2459712.5
 10
3836112.5
 20
2459713.70736595010384917
 10
3836087.5
 20
2459725.88287165993824601
 10
3836063.70622679637745023
 20
2459737.5
 10
3836062.5
 20
2459738.06153158331289887
 10
3836037.5
 20
2459750.41662684548646212
 10
3836012.5
 20
2459762.20203433651477098
 10
3836011.79844067618250847
 20
2459762.5
 10
3835987.5
 20
2459772.65137870889157057
 10
3835962.5
 20
2459783.65337081300094724
 10
3835954.15563858300447464
 20
2459787.5
 10
3835937.5
 20
2459795.27375469217076898
 10
3835912.5
 20
2459806.84286415530368686
 10
3835899.87231359211727977
 20
2459812.5
 10
3835887.5
 20
2459818.06978512648493052
 10
3835862.5
 20
2459828.4746639896184206
 10
3835844.85319542745128274
 20
2459837.5
 10
3835837.5
 20
2459841.42886447254568338
 10
3835812.5
 20
2459855.29708335176110268
 10
3835800.41844285745173693
 20
2459862.5
 10
3835787.5
 20
2459870.4697790783829987
 10
3835762.5
 20
2459885.27453019563108683
 10
3835758.91615561908110976
 20
2459887.5
 10
3835737.5
 20
2459900.53856695257127285
 10
3835720.0565718743018806
 20
2459912.5
 10
3835712.5
 20
2459917.60798218380659819
 10
3835687.5
 20
2459934.33845124254003167
 10
3835682.74504055501893163
 20
2459937.5
 10
3835662.5
 20
2459950.38988371146842837
 10
3835644.28598165838047862
 20
2459962.5
 10
3835637.5
 20
2459966.82576729217544198
 10
3835612.5
 20
2459982.22480977792292833
 10
3835603.72570506576448679
 20
2459987.5
 10
3835587.5
 20
2459997.955161202698946
 10
3835567.02068054582923651
 20
2460012.5
 10
3835562.5
 20
2460016.46696877619251609
 10
3835542.73233864502981305
 20
2460037.5
 10
3835537.5
 20
2460043.43528068251907825
 10
3835519.60343383578583598
 20
2460062.5
 10
3835512.5
 20
2460070.37899337662383914
 10
3835488.80738279176875949
 20
2460087.5
 10
3835487.5
 20
2460088.43277935218065977
 10
3835462.5
 20
2460103.79670063080266118
 10
3835443.38162148697301745
 20
2460112.5
 10
3835437.5
 20
2460115.15068728942424059
 10
3835412.5
 20
2460123.92344317398965359
 10
3835387.5
 20
2460132.08030874002724886
 10
3835376.04751546727493405
 20
2460137.5
 10
3835362.5
 20
2460145.61987982224673033
 10
3835343.18283894145861268
 20
2460162.5
 10
3835337.5
 20
2460169.14927031984552741
 10
3835324.46607231721282005
 20
2460187.5
 10
3835315.41117367334663868
 20
2460212.5
 10
3835312.5
 20
2460226.51316075213253498
 10
3835310.23437709920108318
 20
2460237.5
 10
3835305.59455075580626726
 20
2460262.5
 10
3835298.52536549651995301
 20
2460287.5
 10
3835290.9917017943225801
 20
2460312.5
 10
3835287.5
 20
2460322.15328411478549242
 10
3835281.94977713050320745
 20
2460337.5
 10
3835275.70451634796336293
 20
2460362.5
 10
3835269.70453105214983225
 20
2460387.5
 10
3835263.71874708356335759
 20
2460412.5
 10
3835262.5
 20
2460417.09405050426721573
 10
3835256.33364636125043035
 20
2460437.5
 10
3835247.66679734410718083
 20
2460462.5
 10
3835240.11972935404628515
 20
2460487.5
 10
3835237.5
 20
2460502.28575739311054349
 10
3835235.63178389659151435
 20
2460512.5
 10
3835236.38547052349895239
 20
2460537.5
 10
3835237.5
 20
2460542.21698113204911351
 10
3835242.1284578456543386
 20
2460562.5
 10
3835253.89154484402388334
 20
2460587.5
 10
3835262.5
 20
2460602.29037688719108701
 10
3835268.78279250068590045
 20
2460612.5
 10
3835282.43080544983968139
 20
2460637.5
 10
3835287.5
 20
2460649.08504152856767178
 10
3835294.30676368623971939
 20
2460662.5
 10
3835296.58104567136615515
 20
2460687.5
 10
3835291.00862360512837768
 20
2460712.5
 10
3835287.5
 20
2460717.29111507907509804
 10
3835272.77699899068102241
 20
2460737.5
 10
3835262.5
 20
2460749.11970938043668866
 10
3835246.66776690864935517
 20
2460762.5
 10
3835237.5
 20
2460768.76383877312764525
 10
3835212.5
 20
2460772.75392571603879333
 10
3835187.5
 20
2460772.89577218797057867
 10
3835162.5
 20
2460773.02673583384603262
 10
3835137.5
 20
2460771.58036818588152528
 10
3835112.5
 20
2460765.32086948305368423
 10
3835108.70423830952495337
 20
2460762.5
 10
3835087.5
 20
2460747.35830142954364419
 10
3835079.64272817550227046
 20
2460737.5
 10
3835062.76569620473310351
 20
2460712.5
 10
3835062.5
 20
2460712.10282117314636707
 10
3835050.21692104311659932
 20
2460687.5
 10
3835037.5
 20
2460664.34974512690678239
 10
3835036.59200253430753946
 20
2460662.5
 10
3835026.69358964776620269
 20
2460637.5
 10
3835021.06288328161463141
 20
2460612.5
 10
3835016.23502289690077305
 20
2460587.5
 10
3835012.5
 20
2460573.39834683341905475
 10
3835009.55760106397792697
 20
2460562.5
 10
3834996.48873393749818206
 20
2460537.5
 10
3834987.5
 20
2460523.28792272368445992
 10
3834980.77836829517036676
 20
2460512.5
 10
3834964.15422411356121302
 20
2460487.5
 10
3834962.5
 20
2460485.16034059878438711
 10
3834944.46615214226767421
 20
2460462.5
 10
3834937.5
 20
2460455.18944676872342825
 10
3834916.96953985188156366
 20
2460437.5
 10
3834912.5
 20
2460434.21412279503419995
 10
3834887.5
 20
2460418.33666722429916263
 10
3834875.82321074698120356
 20
2460412.5
 10
3834862.5
 20
2460406.45167885581031442
 10
3834837.5
 20
2460396.23514880612492561
 10
3834813.05389122990891337
 20
2460387.5
 10
3834812.5
 20
2460387.30535631673410535
 10
3834787.5
 20
2460383.59396063629537821
 10
3834762.5
 20
2460380.19660021271556616
 10
3834737.5
 20
2460379.96465645078569651
 10
3834712.5
 20
2460382.96228368068113923
 10
3834687.5
 20
2460386.94842160120606422
 10
3834682.55755755770951509
 20
2460387.5
 10
3834662.5
 20
2460389.72284879628568888
 10
3834637.5
 20
2460390.97065655514597893
 10
3834612.5
 20
2460392.70882293675094843
 10
3834587.5
 20
2460394.46818477287888527
 10
3834562.5
 20
2460394.28433048678562045
 10
3834537.5
 20
2460390.15517064929008484
 10
3834520.49803407583385706
 20
2460387.5
 10
3834512.5
 20
2460386.21623611589893699
 10
3834487.5
 20
2460382.98587307799607515
 10
3834462.5
 20
2460380.22291539888828993
 10
3834437.5
 20
2460383.31669474765658379
 10
3834423.92537345550954342
 20
2460387.5
 10
3834412.5
 20
2460393.09254888724535704
 10
3834387.5
 20
2460409.27284687804058194
 10
3834381.51061232155188918
 20
2460412.5
 10
3834362.5
 20
2460426.12030682293698192
 10
3834337.5
 20
2460435.96464435756206512
 10
3834334.21145008923485875
 20
2460437.5
 10
3834312.5
 20
2460447.96402534702792764
 10
3834287.5
 20
2460461.64038342610001564
 10
3834284.95886654499918222
 20
2460462.5
 10
3834262.5
 20
2460471.1991927488707006
 10
3834248.32861364213749766
 20
2460487.5
 10
3834237.5
 20
2460508.93553497456014156
 10
3834225.0
 20
2460508.93553497456014156
  0
LWPOLYLINE
  5
8a
  8
Contours
100
AcDbEntity
100
AcDbPolyline
  6
CONTINUOUS
420
15156120
 90
   153
 70
   128
 43
13.0
 10
3843900.0
 20
2459371.09178791521117091
 10
3843887.5
 20
2459371.09178791521117091
 10
3843866.06961985863745213
 20
2459387.5
 10
3843862.5
 20
2459390.58765947120264173
 10
3843837.5
 20
2459408.22717901226133108
 10
3843830.0643435069359839
 20
2459412.5
 10
3843812.5
 20
2459424.49106049351394176
 10
3843787.5
 20
2459433.04520305991172791
 10
3843762.5
 20
2459431.62596831563860178
 10
3843737.5
 20
2459421.51028179470449686
 10
3843722.89213920710608363
 20
2459412.5
 10
3843712.5
 20
2459406.13267726870253682
 10
3843693.54151171119883657
 20
2459387.5
 10
3843687.5
 20
2459382.2593947434797883
 10
3843669.36031827609986067
 20
2459362.5
 10
3843662.5
 20
2459355.51911038067191839
 10
3843645.51410723011940718
 20
2459337.5
 10
3843637.5
 20
2459329.74449147284030914
 10
3843619.12595335487276316
 20
2459312.5
 10
3843612.5
 20
2459307.38805222371593118
 10
3843587.5
 20
2459291.81201708363369107
 10
3843577.65583569789305329
 20
2459287.5
 10
3843562.5
 20
2459281.46829422703012824
 10
3843537.5
 20
2459274.23577141342684627
 10
3843512.5
 20
2459270.38665286870673299
 10
3843487.5
 20
2459271.4038252355530858
 10
3843462.5
 20
2459279.20617061899974942
 10
3843449.62548727309331298
 20
2459287.5
 10
3843437.5
 20
2459297.40926318010315299
 10
3843424.85990087781101465
 20
2459312.5
 10
3843412.5
 20
2459329.9198629236780107
 10
3843407.6011470090597868
 20
2459337.5
 10
3843392.93297772714868188
 20
2459362.5
 10
3843387.5
 20
2459375.09156123269349337
 10
3843382.50826259376481175
 20
2459387.5
 10
3843376.29434425523504615
 20
2459412.5
 10
3843372.86522717773914337
 20
2459437.5
 10
3843371.29298492567613721
 20
2459462.5
 10
3843372.6038006185553968
 20
2459487.5
 10
3843375.4026876175776124
 20
2459512.5
 10
3843378.79138315236195922
 20
2459537.5
 10
3843380.65955395763739944
 20
2459562.5
 10
3843382.01830806117504835
 20
2459587.5
 10
3843380.27948065474629402
 20
2459612.5
 10
3843376.58057417115196586
 20
2459637.5
 10
3843370.36770661454647779
 20
2459662.5
 10
3843362.5
 20
2459681.84686711616814137
 10
3843359.84993879264220595
 20
2459687.5
 10
3843341.84657988883554935
 20
2459712.5
 10
3843337.5
 20
2459716.39411046914756298
 10
3843312.5
 20
2459734.37810133630409837
 10
3843307.26257540704682469
 20
2459737.5
 10
3843287.5
 20
2459747.14803865877911448
 10
3843262.5
 20
2459758.12326891766861081
 10
3843250.76229020208120346
 20
2459762.5
 10
3843237.5
 20
2459766.93659099843353033
 10
3843212.5
 20
2459775.5558685539290309
 10
3843187.5
 20
2459785.13073127111420035
 10
3843181.32570945890620351
 20
2459787.5
 10
3843162.5
 20
2459794.7558461157605052
 10
3843137.5
 20
2459804.29157356824725866
 10
3843119.14517434779554605
 20
2459812.5
 10
3843112.5
 20
2459815.5579090784303844
 10
3843087.5
 20
2459828.16053776862099767
 10
3843071.54079897608608007
 20
2459837.5
 10
3843062.5
 20
2459843.00630462495610118
 10
3843037.5
 20
2459856.6622801786288619
 10
3843025.78778281575068831
 20
2459862.5
 10
3843012.5
 20
2459868.99494381388649344
 10
3842987.5
 20
2459878.04241478024050593
 10
3842962.5
 20
2459883.20169197861105204
 10
3842937.5
 20
2459887.31724689062684774
 10
3842936.55468225805088878
 20
2459887.5
 10
3842912.5
 20
2459892.06177263148128986
 10
3842887.5
 20
2459896.48004434583708644
 10
3842862.5
 20
2459901.87914444226771593
 10
3842837.5
 20
2459908.07139279413968325
 10
3842821.82422987092286348
 20
2459912.5
 10
3842812.5
 20
2459915.94125733757391572
 10
3842787.5
 20
2459924.26669636741280556
 10
3842762.5
 20
2459932.35267452383413911
 10
3842746.90346131892874837
 20
2459937.5
 10
3842737.5
 20
2459941.63584148092195392
 10
3842712.5
 20
2459952.17110379226505756
 10
3842693.91380218602716923
 20
2459962.5
 10
3842687.5
 20
2459966.78970954194664955
 10
3842667.20555549580603838
 20
2459987.5
 10
3842662.5
 20
2459993.93318631732836366
 10
3842653.3420217833481729
 20
2460012.5
 10
3842645.35618261573836207
 20
2460037.5
 10
3842641.16910728672519326
 20
2460062.5
 10
3842639.7847417495213449
 20
2460087.5
 10
3842641.24965967889875174
 20
2460112.5
 10
3842645.87795246671885252
 20
2460137.5
 10
3842651.37297051167115569
 20
2460162.5
 10
3842659.2222392950206995
 20
2460187.5
 10
3842662.5
 20
2460195.05914905667304993
 10
3842670.42033665534108877
 20
2460212.5
 10
3842682.54960364010185003
 20
2460237.5
 10
3842687.5
 20
2460249.20071232551708817
 10
3842693.54949789773672819
 20
2460262.5
 10
3842703.5731534231454134
 20
2460287.5
 10
3842710.38351466227322817
 20
2460312.5
 10
3842712.5
 20
2460336.06081311916932464
 10
3842712.61839932529255748
 20
2460337.5
 10
3842712.5
 20
2460339.01665166532620788
 10
3842710.33672183332964778
 20
2460362.5
 10
3842706.27209453843533993
 20
2460387.5
 10
3842701.18287179712206125
 20
2460412.5
 10
3842692.87295300234109163
 20
2460437.5
 10
3842687.5
 20
2460447.40560248726978898
 10
3842675.8849592343904078
 20
2460462.5
 10
3842662.5
 20
2460474.75289608677849174
 10
3842640.55477005522698164
 20
2460487.5
 10
3842637.5
 20
2460488.78589328611269593
 10
3842612.5
 20
2460493.72972260508686304
 10
3842587.5
 20
2460495.89226406998932362
 10
3842562.5
 20
2460495.88966105226427317
 10
3842537.5
 20
2460500.15212805802002549
 10
3842512.5
 20
2460509.39508862514048815
 10
3842506.06535674491897225
 20
2460512.5
 10
3842487.5
 20
2460519.71414182987064123
 10
3842462.5
 20
2460530.0060058287344873
 10
3842437.5
 20
2460536.24155717575922608
 10
3842431.93143377592787147
 20
2460537.5
 10
3842412.5
 20
2460541.28725855285301805
 10
3842387.5
 20
2460544.20433580968528986
 10
3842362.5
 20
2460547.0049838600680232
 10
3842337.5
 20
2460552.71160215558484197
 10
3842312.5
 20
2460559.05500297714024782
 10
3842298.46590098459273577
 20
2460562.5
 10
3842287.5
 20
2460565.33800549432635307
 10
3842262.5
 20
2460572.42777585051953793
 10
3842237.5
 20
2460579.66850630147382617
 10
3842218.27955935383215547
 20
2460587.5
 10
3842212.5
 20
2460590.75631992239505053
 10
3842187.836661322042346
 20
2460612.5
 10
3842187.5
 20
2460613.04612883552908897
 10
3842176.89486741088330746
 20
2460637.5
 10
3842173.13621593685820699
 20
2460662.5
 10
3842173.12617440335452557
 20
2460687.5
 10
3842175.87070051906630397
 20
2460712.5
 10
3842176.89920793008059263
 20
2460737.5
 10
3842177.0239633284509182
 20
2460762.5
 10
3842176.00715565262362361
 20
2460787.5
 10
3842173.35038638859987259
 20
2460812.5
 10
3842169.31248014746233821
 20
2460837.5
 10
3842166.54361301753669977
 20
2460862.5
 10
3842162.61222741194069386
 20
2460887.5
 10
3842162.5
 20
2460887.98328751279041171
 10
3842154.37759465398266912
 20
2460912.5
 10
3842142.11295006470754743
 20
2460937.5
 10
3842142.11295006470754743
 20
2460950.0
  0
LWPOLYLINE
  5
8b
  8
Contours
100
AcDbEntity
100
AcDbPolyline
  6
CONTINUOUS
420
15156120
 90
     7
 70
   129
 43
13.0
 10
3834762.5
 20
2458459.49404761893674731
 10
3834780.19859813107177615
 20
2458462.5
 10
3834762.5
 20
2458463.51674440456554294
 10
3834737.5
 20
2458463.10150077426806092
 10
3834735.18949214601889253
 20
2458462.5
 10
3834737.5
 20
2458460.23914341162890196
 10
3834762.5
 20
2458459.49404761893674731
  0
LWPOLYLINE
  5
8c
  8
Contours
100
AcDbEntity
100
AcDbPolyline
  6
CONTINUOUS
420
15156120
 90
    85
 70
   129
 43
13.0
 10
3843694.56657420238479972
 20
2458337.5
 10
3843687.5
 20
2458335.29365594871342182
 10
3843663.23809523787349463
 20
2458337.5
 10
3843662.5
 20
2458337.56970834918320179
 10
3843637.5
 20
2458341.40299891447648406
 10
3843612.5
 20
2458351.44117036741226912
 10
3843598.68434696923941374
 20
2458362.5
 10
3843587.5
 20
2458373.59432458132505417
 10
3843575.03687655553221703
 20
2458387.5
 10
3843562.5
 20
2458402.72986896615475416
 10
3843557.05123200407251716
 20
2458412.5
 10
3843547.27009215345606208
 20
2458437.5
 10
3843541.45916876476258039
 20
2458462.5
 10
3843537.5
 20
2458479.6266724937595427
 10
3843535.91136329714208841
 20
2458487.5
 10
3843530.79967171000316739
 20
2458512.5
 10
3843522.6812967685982585
 20
2458537.5
 10
3843512.5
 20
2458559.47776290588080883
 10
3843511.05642091203480959
 20
2458562.5
 10
3843490.64106894237920642
 20
2458587.5
 10
3843487.5
 20
2458590.87170930951833725
 10
3843465.70789038157090545
 20
2458612.5
 10
3843462.5
 20
2458616.28585254261270165
 10
3843445.56313393823802471
 20
2458637.5
 10
3843437.5
 20
2458655.47019318072125316
 10
3843434.90268378751352429
 20
2458662.5
 10
3843431.88645406486466527
 20
2458687.5
 10
3843437.5
 20
2458702.23767844121903181
 10
3843441.89313513413071632
 20
2458712.5
 10
3843458.75411809422075748
 20
2458737.5
 10
3843462.5
 20
2458741.90338617004454136
 10
3843477.96694692503660917
 20
2458762.5
 10
3843487.5
 20
2458776.05105204600840807
 10
3843494.48852331750094891
 20
2458787.5
 10
3843512.5
 20
2458810.91497650044038892
 10
3843513.83538254396989942
 20
2458812.5
 10
3843537.5
 20
2458836.98648029332980514
 10
3843537.91236696066334844
 20
2458837.5
 10
3843560.66479666996747255
 20
2458862.5
 10
3843562.5
 20
2458864.81278609484434128
 10
3843579.05099469982087612
 20
2458887.5
 10
3843587.5
 20
2458899.83335357252508402
 10
3843597.22881954396143556
 20
2458912.5
 10
3843612.5
 20
2458930.87474949890747666
 10
3843622.86870695371180773
 20
2458937.5
 10
3843637.5
 20
2458944.76628453936427832
 10
3843662.5
 20
2458945.96556478878483176
 10
3843687.5
 20
2458940.24899995839223266
 10
3843691.68794595962390304
 20
2458937.5
 10
3843712.5
 20
2458922.89103020448237658
 10
3843722.45536285173147917
 20
2458912.5
 10
3843737.5
 20
2458895.84911573631688952
 10
3843746.16937035927549005
 20
2458887.5
 10
3843762.5
 20
2458868.065989023540169
 10
3843768.0127316820435226
 20
2458862.5
 10
3843785.46582317352294922
 20
2458837.5
 10
3843787.5
 20
2458833.40981910424306989
 10
3843799.71473762206733227
 20
2458812.5
 10
3843810.3373163128271699
 20
2458787.5
 10
3843812.5
 20
2458782.68877270212396979
 10
3843824.01858271472156048
 20
2458762.5
 10
3843837.5
 20
2458737.80200878996402025
 10
3843837.69837371353060007
 20
2458737.5
 10
3843850.1835894389078021
 20
2458712.5
 10
3843853.25337379053235054
 20
2458687.5
 10
3843851.15711594698950648
 20
2458662.5
 10
3843848.3532934132963419
 20
2458637.5
 10
3843845.08429507818073034
 20
2458612.5
 10
3843841.165174282155931
 20
2458587.5
 10
3843837.5
 20
2458570.12385536497458816
 10
3843835.80232874257490039
 20
2458562.5
 10
3843825.1356870774179697
 20
2458537.5
 10
3843813.61644691973924637
 20
2458512.5
 10
3843812.5
 20
2458510.00963439978659153
 10
3843801.95112460339441895
 20
2458487.5
 10
3843791.37613698095083237
 20
2458462.5
 10
3843787.5
 20
2458452.05445852922275662
 10
3843780.75889701535925269
 20
2458437.5
 10
3843772.17687006713822484
 20
2458412.5
 10
3843762.5
 20
2458389.6369746308773756
 10
3843761.20790804177522659
 20
2458387.5
 10
3843737.5
 20
2458362.83641632273793221
 10
3843736.99957190500572324
 20
2458362.5
 10
3843712.5
 20
2458343.43977536354213953
 10
3843694.56657420238479972
 20
2458337.5
  0
LWPOLYLINE
  5
8d
  8
Contours
100
AcDbEntity
100
AcDbPolyline
  6
CONTINUOUS
420
15156120
 90
    15
 70
   129
 43
13.0
 10
3841298.91859885305166245
 20
2458062.5
 10
3841287.5
 20
2458053.28285369277000427
 10
3841277.10980036295950413
 20
2458062.5
 10
3841262.5
 20
2458086.4940387480892241
 10
3841258.85627530375495553
 20
2458087.5
 10
3841237.5
 20
2458097.20858895685523748
 10
3841229.01055858330801129
 20
2458112.5
 10
3841236.20038283290341496
 20
2458137.5
 10
3841237.5
 20
2458140.66098995367065072
 10
3841262.5
 20
2458153.00785207701846957
 10
3841277.02205882361158729
 20
2458137.5
 10
3841287.5
 20
2458125.92677495395764709
 10
3841303.9790996783412993
 20
2458112.5
 10
3841311.90872135991230607
 20
2458087.5
 10
3841298.91859885305166245
 20
2458062.5
  0
LWPOLYLINE
  5
8e
  8
Contours
100
AcDbEntity
100
AcDbPolyline
  6
CONTINUOUS
420
15156120
 90
   135
 70
   129
 43
13.0
 10
3836810.24346718844026327
 20
2458062.5
 10
3836787.5
 20
2458048.92554434109479189
 10
3836762.5
 20
2458043.90609054313972592
 10
3836737.5
 20
2458046.74337001238018274
 10
3836712.5
 20
2458059.17112987162545323
 10
3836708.16124054696410894
 20
2458062.5
 10
3836687.5
 20
2458082.09771619876846671
 10
3836683.66559021314606071
 20
2458087.5
 10
3836669.52785463258624077
 20
2458112.5
 10
3836662.5
 20
2458127.92767162434756756
 10
3836658.81168645760044456
 20
2458137.5
 10
3836649.96713876910507679
 20
2458162.5
 10
3836639.28168947389349341
 20
2458187.5
 10
3836637.5
 20
2458191.33297001058235765
 10
3836627.35977386170998216
 20
2458212.5
 10
3836614.4293944900855422
 20
2458237.5
 10
3836612.5
 20
2458240.87976283906027675
 10
3836597.78159149037674069
 20
2458262.5
 10
3836587.5
 20
2458277.53184879198670387
 10
3836580.25162491342052817
 20
2458287.5
 10
3836562.88220138242468238
 20
2458312.5
 10
3836562.5
 20
2458313.17609893064945936
 10
3836550.22382629150524735
 20
2458337.5
 10
3836543.52212515380233526
 20
2458362.5
 10
3836540.19197207689285278
 20
2458387.5
 10
3836541.3568146345205605
 20
2458412.5
 10
3836543.31087497994303703
 20
2458437.5
 10
3836545.55377494497224689
 20
2458462.5
 10
3836547.32144112791866064
 20
2458487.5
 10
3836548.39203225122764707
 20
2458512.5
 10
3836546.08142095664516091
 20
2458537.5
 10
3836540.96140295406803489
 20
2458562.5
 10
3836537.5
 20
2458575.29420495219528675
 10
3836533.76481240568682551
 20
2458587.5
 10
3836523.40847234288230538
 20
2458612.5
 10
3836512.5
 20
2458636.45085513405501842
 10
3836511.9940439322963357
 20
2458637.5
 10
3836501.07330333720892668
 20
2458662.5
 10
3836493.51518202526494861
 20
2458687.5
 10
3836487.5
 20
2458711.63747275527566671
 10
3836487.29955525370314717
 20
2458712.5
 10
3836482.19780548429116607
 20
2458737.5
 10
3836476.66470213700085878
 20
2458762.5
 10
3836468.98723186086863279
 20
2458787.5
 10
3836462.5
 20
2458806.83490252122282982
 10
3836460.57753429235890508
 20
2458812.5
 10
3836450.76843459252268076
 20
2458837.5
 10
3836439.98632278246805072
 20
2458862.5
 10
3836437.5
 20
2458870.40053705032914877
 10
3836433.43661015946418047
 20
2458887.5
 10
3836428.18033114168792963
 20
2458912.5
 10
3836423.39500000001862645
 20
2458937.5
 10
3836421.20922609930858016
 20
2458962.5
 10
3836423.84332101978361607
 20
2458987.5
 10
3836437.5
 20
2459011.007015994284302
 10
3836446.16260532895103097
 20
2459012.5
 10
3836462.5
 20
2459014.17689340794458985
 10
3836466.03351886523887515
 20
2459012.5
 10
3836487.5
 20
2459001.29745777975767851
 10
3836506.77610787888988853
 20
2458987.5
 10
3836512.5
 20
2458982.92417282704263926
 10
3836531.87774932943284512
 20
2458962.5
 10
3836537.5
 20
2458956.54490573098883033
 10
3836552.73675980092957616
 20
2458937.5
 10
3836562.5
 20
2458927.2928958386182785
 10
3836578.51988684618845582
 20
2458912.5
 10
3836587.5
 20
2458905.74412660952657461
 10
3836612.5
 20
2458892.1539694843813777
 10
3836621.49295271188020706
 20
2458887.5
 10
3836637.5
 20
2458879.06750212982296944
 10
3836662.5
 20
2458867.88077839277684689
 10
3836676.05127540091052651
 20
2458862.5
 10
3836687.5
 20
2458858.15005955612286925
 10
3836712.5
 20
2458848.60676215868443251
 10
3836737.5
 20
2458839.39267852390184999
 10
3836744.51279376586899161
 20
2458837.5
 10
3836762.5
 20
2458832.50562242837622762
 10
3836787.5
 20
2458825.52250803867354989
 10
3836812.5
 20
2458818.76364804105833173
 10
3836829.2125685466453433
 20
2458812.5
 10
3836837.5
 20
2458809.1408505910076201
 10
3836862.5
 20
2458797.06984494347125292
 10
3836878.30369738535955548
 20
2458787.5
 10
3836887.5
 20
2458781.60185058554634452
 10
3836912.5
 20
2458765.75678255315870047
 10
3836917.5813803062774241
 20
2458762.5
 10
3836937.5
 20
2458751.32356913154944777
 10
3836958.16201980691403151
 20
2458737.5
 10
3836962.5
 20
2458734.67845830647274852
 10
3836987.5
 20
2458716.36964712385088205
 10
3836992.55836575897410512
 20
2458712.5
 10
3837012.5
 20
2458695.80916796810925007
 10
3837021.62247876729816198
 20
2458687.5
 10
3837037.5
 20
2458671.03556336602196097
 10
3837044.85521962167695165
 20
2458662.5
 10
3837062.5
 20
2458641.54273015540093184
 10
3837065.77353391796350479
 20
2458637.5
 10
3837086.41380387265235186
 20
2458612.5
 10
3837087.5
 20
2458610.92142528621479869
 10
3837102.85058145970106125
 20
2458587.5
 10
3837112.5
 20
2458567.92286955844610929
 10
3837114.85685407696291804
 20
2458562.5
 10
3837122.74382585426792502
 20
2458537.5
 10
3837126.59365144185721874
 20
2458512.5
 10
3837126.65416303323581815
 20
2458487.5
 10
3837123.93035271856933832
 20
2458462.5
 10
3837113.61262641102075577
 20
2458437.5
 10
3837112.5
 20
2458435.7619724958203733
 10
3837096.55033707851544023
 20
2458412.5
 10
3837087.5
 20
2458402.51596493646502495
 10
3837070.84671344188973308
 20
2458387.5
 10
3837062.5
 20
2458380.83460673782974482
 10
3837040.76169576961547136
 20
2458362.5
 10
3837037.5
 20
2458359.67767366440966725
 10
3837015.73010727949440479
 20
2458337.5
 10
3837012.5
 20
2458334.22904520109295845
 10
3836995.11050307843834162
 20
2458312.5
 10
3836987.5
 20
2458301.77676957426592708
 10
3836979.33987993886694312
 20
2458287.5
 10
3836963.16694974806159735
 20
2458262.5
 10
3836962.5
 20
2458261.63160684192553163
 10
3836943.27514246478676796
 20
2458237.5
 10
3836937.5
 20
2458230.61812699539586902
 10
3836922.44586303364485502
 20
2458212.5
 10
3836912.5
 20
2458199.11845874926075339
 10
3836903.71430582227185369
 20
2458187.5
 10
3836887.5
 20
2458164.68410650780424476
 10
3836885.86930663790553808
 20
2458162.5
 10
3836868.03065272374078631
 20
2458137.5
 10
3836862.5
 20
2458128.98638175893574953
 10
3836851.03212051931768656
 20
2458112.5
 10
3836837.5
 20
2458090.51125030359253287
 10
3836835.13408182561397552
 20
2458087.5
 10
3836812.5
 20
2458064.04558343347162008
 10
3836810.24346718844026327
 20
2458062.5
  0
LWPOLYLINE
  5
8f
  8
Contours
100
AcDbEntity
100
AcDbPolyline
  6
CONTINUOUS
420
15156120
 90
   297
 70
   129
 43
13.0
 10
3842594.02995008323341608
 20
2457937.5
 10
3842587.5
 20
2457936.2178272488527
 10
3842562.5
 20
2457931.36103240121155977
 10
3842537.5
 20
2457927.79074501479044557
 10
3842512.5
 20
2457925.28311242628842592
 10
3842487.5
 20
2457923.67872827034443617
 10
3842462.5
 20
2457924.33270711079239845
 10
3842437.5
 20
2457924.08366596000269055
 10
3842412.5
 20
2457924.65738370455801487
 10
3842387.5
 20
2457925.89213915448635817
 10
3842362.5
 20
2457927.28929203934967518
 10
3842337.5
 20
2457928.97058423981070518
 10
3842312.5
 20
2457931.42437049793079495
 10
3842287.5
 20
2457936.99404627177864313
 10
3842286.08338087098672986
 20
2457937.5
 10
3842262.5
 20
2457946.31729136221110821
 10
3842237.5
 20
2457958.52567581320181489
 10
3842231.75859006540849805
 20
2457962.5
 10
3842212.5
 20
2457975.32790329540148377
 10
3842197.48137521371245384
 20
2457987.5
 10
3842187.5
 20
2457996.55136210937052965
 10
3842173.19059008546173573
 20
2458012.5
 10
3842162.5
 20
2458024.56149268057197332
 10
3842152.09913527313619852
 20
2458037.5
 10
3842137.5
 20
2458060.57382967974990606
 10
3842136.36458801943808794
 20
2458062.5
 10
3842123.01871511014178395
 20
2458087.5
 10
3842112.5
 20
2458105.96317879529669881
 10
3842108.39133404707536101
 20
2458112.5
 10
3842091.53776543494313955
 20
2458137.5
 10
3842087.5
 20
2458143.46458376199007034
 10
3842073.78549258736893535
 20
2458162.5
 10
3842062.5
 20
2458182.17760357866063714
 10
3842059.54816596768796444
 20
2458187.5
 10
3842044.94509172486141324
 20
2458212.5
 10
3842037.5
 20
2458227.82914146082475781
 10
3842032.59821691550314426
 20
2458237.5
 10
3842021.42177069652825594
 20
2458262.5
 10
3842012.7947366232983768
 20
2458287.5
 10
3842012.5
 20
2458288.65963937481865287
 10
3842006.32147193374112248
 20
2458312.5
 10
3842003.61790973087772727
 20
2458337.5
 10
3842002.19325312087312341
 20
2458362.5
 10
3842000.82301858114078641
 20
2458387.5
 10
3841999.78172393422573805
 20
2458412.5
 10
3841997.8000851827673614
 20
2458437.5
 10
3841993.43616696633398533
 20
2458462.5
 10
3841987.5
 20
2458481.29121340671554208
 10
3841985.25830824859440327
 20
2458487.5
 10
3841976.21878726407885551
 20
2458512.5
 10
3841968.19959260849282146
 20
2458537.5
 10
3841962.5
 20
2458554.47236205125227571
 10
3841959.79715250479057431
 20
2458562.5
 10
3841949.91504644323140383
 20
2458587.5
 10
3841940.2332060462795198
 20
2458612.5
 10
3841937.5
 20
2458619.05841001868247986
 10
3841928.67261725245043635
 20
2458637.5
 10
3841915.8028878360055387
 20
2458662.5
 10
3841912.5
 20
2458669.16161616146564484
 10
3841902.36079890560358763
 20
2458687.5
 10
3841890.01190103916451335
 20
2458712.5
 10
3841887.5
 20
2458718.64230364002287388
 10
3841878.09384959656745195
 20
2458737.5
 10
3841868.75631444761529565
 20
2458762.5
 10
3841862.5
 20
2458780.39687363803386688
 10
3841859.71385000180453062
 20
2458787.5
 10
3841852.62547735963016748
 20
2458812.5
 10
3841845.63216132763773203
 20
2458837.5
 10
3841838.52814200380817056
 20
2458862.5
 10
3841837.5
 20
2458866.23114448413252831
 10
3841831.67328042350709438
 20
2458887.5
 10
3841825.84047453803941607
 20
2458912.5
 10
3841816.63186964765191078
 20
2458937.5
 10
3841812.5
 20
2458950.8115107174962759
 10
3841808.3747089128009975
 20
2458962.5
 10
3841796.22578910831362009
 20
2458987.5
 10
3841787.5
 20
2459000.51648697489872575
 10
3841779.8790093488059938
 20
2459012.5
 10
3841767.28077929839491844
 20
2459037.5
 10
3841762.5
 20
2459050.42201948724687099
 10
3841757.97291717538610101
 20
2459062.5
 10
3841751.43619854096323252
 20
2459087.5
 10
3841747.49232664471492171
 20
2459112.5
 10
3841744.64335372624918818
 20
2459137.5
 10
3841744.55190098797902465
 20
2459162.5
 10
3841746.2511045653373003
 20
2459187.5
 10
3841748.04061830602586269
 20
2459212.5
 10
3841748.85451025376096368
 20
2459237.5
 10
3841746.9460350931622088
 20
2459262.5
 10
3841741.13843656284734607
 20
2459287.5
 10
3841741.01224536495283246
 20
2459312.5
 10
3841744.2862772666849196
 20
2459337.5
 10
3841750.70214995881542563
 20
2459362.5
 10
3841760.25912646669894457
 20
2459387.5
 10
3841762.5
 20
2459391.3850587704218924
 10
3841774.68668971490114927
 20
2459412.5
 10
3841787.5
 20
2459434.69875688664615154
 10
3841788.69301158702000976
 20
2459437.5
 10
3841801.77226100955158472
 20
2459462.5
 10
3841812.5
 20
2459481.46076857997104526
 10
3841816.09294764278456569
 20
2459487.5
 10
3841829.07831188943237066
 20
2459512.5
 10
3841837.5
 20
2459532.5611181017011404
 10
3841839.89298001118004322
 20
2459537.5
 10
3841855.30585646070539951
 20
2459562.5
 10
3841862.5
 20
2459572.94272249424830079
 10
3841874.13022228656336665
 20
2459587.5
 10
3841880.34763616509735584
 20
2459612.5
 10
3841880.09966709418222308
 20
2459637.5
 10
3841867.334813775960356
 20
2459662.5
 10
3841862.5
 20
2459668.20207682391628623
 10
3841848.36429725354537368
 20
2459687.5
 10
3841837.5
 20
2459694.37437442783266306
 10
3841813.79508425015956163
 20
2459712.5
 10
3841812.5
 20
2459713.74701654631644487
 10
3841790.47909104451537132
 20
2459737.5
 10
3841787.5
 20
2459740.22509153746068478
 10
3841765.23876085272058845
 20
2459762.5
 10
3841762.5
 20
2459765.2128641540184617
 10
3841743.54197786189615726
 20
2459787.5
 10
3841737.5
 20
2459795.51595568982884288
 10
3841728.25887858215719461
 20
2459812.5
 10
3841717.48507693083956838
 20
2459837.5
 10
3841712.5
 20
2459847.86733820242807269
 10
3841706.2388382637873292
 20
2459862.5
 10
3841697.0794098824262619
 20
2459887.5
 10
3841693.10062538972124457
 20
2459912.5
 10
3841690.92256375635042787
 20
2459937.5
 10
3841695.78106794925406575
 20
2459962.5
 10
3841703.46879247482866049
 20
2459987.5
 10
3841712.25013150973245502
 20
2460012.5
 10
3841712.5
 20
2460012.84197264211252332
 10
3841737.5
 20
2460032.85489113256335258
 10
3841747.25571216363459826
 20
2460037.5
 10
3841762.5
 20
2460042.26335071306675673
 10
3841787.5
 20
2460045.45980501221492887
 10
3841812.5
 20
2460042.14592713862657547
 10
3841821.76678940188139677
 20
2460037.5
 10
3841837.5
 20
2460027.76145507162436843
 10
3841854.79836128186434507
 20
2460012.5
 10
3841862.5
 20
2460004.88178828544914722
 10
3841876.96949798380956054
 20
2459987.5
 10
3841887.5
 20
2459971.39988687774166465
 10
3841892.39013891899958253
 20
2459962.5
 10
3841905.20119357109069824
 20
2459937.5
 10
3841912.5
 20
2459919.52899303752928972
 10
3841914.98380605457350612
 20
2459912.5
 10
3841923.07052824273705482
 20
2459887.5
 10
3841932.06296537537127733
 20
2459862.5
 10
3841937.5
 20
2459841.7797296829521656
 10
3841938.6180518651381135
 20
2459837.5
 10
3841942.27546737482771277
 20
2459812.5
 10
3841947.18768719024956226
 20
2459787.5
 10
3841956.65336422948166728
 20
2459762.5
 10
3841962.5
 20
2459754.05468227015808225
 10
3841975.87727646110579371
 20
2459737.5
 10
3841987.5
 20
2459723.92347296979278326
 10
3842009.53326713014394045
 20
2459712.5
 10
3842012.5
 20
2459711.39658356411382556
 10
3842037.5
 20
2459707.25363115547224879
 10
3842062.5
 20
2459709.1338431709446013
 10
3842073.69896976696327329
 20
2459712.5
 10
3842087.5
 20
2459716.56423670193180442
 10
3842112.5
 20
2459720.49871517904102802
 10
3842137.5
 20
2459723.44869719026610255
 10
3842162.5
 20
2459730.37927769403904676
 10
3842187.5
 20
2459731.50964265456423163
 10
3842212.5
 20
2459730.01547552039846778
 10
3842234.09583694720640779
 20
2459712.5
 10
3842237.5
 20
2459710.02028000308200717
 10
3842256.26776951737701893
 20
2459687.5
 10
3842262.5
 20
2459681.32125109620392323
 10
3842277.93033944442868233
 20
2459662.5
 10
3842287.5
 20
2459652.96461648680269718
 10
3842303.05215355334803462
 20
2459637.5
 10
3842312.5
 20
2459630.74005891010165215
 10
3842336.86673060851171613
 20
2459612.5
 10
3842337.5
 20
2459612.14052713382989168
 10
3842362.5
 20
2459597.23046949598938227
 10
3842379.54905756562948227
 20
2459587.5
 10
3842387.5
 20
2459582.46458230307325721
 10
3842412.5
 20
2459569.45376508915796876
 10
3842434.02701386064291
 20
2459562.5
 10
3842437.5
 20
2459561.34319842560216784
 10
3842462.5
 20
2459551.88632149482145905
 10
3842487.5
 20
2459543.32346112374216318
 10
3842498.64040149701759219
 20
2459537.5
 10
3842512.5
 20
2459529.44766733050346375
 10
3842536.88030721573159099
 20
2459512.5
 10
3842537.5
 20
2459512.03768318193033338
 10
3842562.5
 20
2459492.28654457256197929
 10
3842568.57213897351175547
 20
2459487.5
 10
3842587.5
 20
2459473.97497488977387547
 10
3842609.21379390731453896
 20
2459462.5
 10
3842612.5
 20
2459460.72114917961880565
 10
3842637.5
 20
2459445.76616388140246272
 10
3842653.48903709417209029
 20
2459437.5
 10
3842662.5
 20
2459432.61369491787627339
 10
3842687.5
 20
2459424.64921761909499764
 10
3842712.5
 20
2459415.71455655805766582
 10
3842726.14579803450033069
 20
2459412.5
 10
3842737.5
 20
2459409.19689837470650673
 10
3842762.5
 20
2459403.29866316821426153
 10
3842787.5
 20
2459394.87908159988000989
 10
3842799.64438650058582425
 20
2459387.5
 10
3842812.5
 20
2459377.11547682248055935
 10
3842827.19271819572895765
 20
2459362.5
 10
3842837.5
 20
2459350.84549878351390362
 10
3842847.66147199599072337
 20
2459337.5
 10
3842862.5
 20
2459317.58711390430107713
 10
3842865.98286990402266383
 20
2459312.5
 10
3842884.92177420482039452
 20
2459287.5
 10
3842887.5
 20
2459284.76874033128842711
 10
3842907.68920464580878615
 20
2459262.5
 10
3842912.5
 20
2459257.92298225173726678
 10
3842937.5
 20
2459237.8825668478384614
 10
3842937.96141555113717914
 20
2459237.5
 10
3842962.5
 20
2459216.41649389220401645
 10
3842966.64584414614364505
 20
2459212.5
 10
3842987.5
 20
2459192.23134629521518946
 10
3842991.24773098295554519
 20
2459187.5
 10
3843007.69280698988586664
 20
2459162.5
 10
3843012.5
 20
2459152.70764348795637488
 10
3843019.5985434758476913
 20
2459137.5
 10
3843026.34315019845962524
 20
2459112.5
 10
3843027.00385425798594952
 20
2459087.5
 10
3843024.5895000952295959
 20
2459062.5
 10
3843017.07275529485195875
 20
2459037.5
 10
3843012.5
 20
2459022.0388262658379972
 10
3843009.97567413980141282
 20
2459012.5
 10
3843003.02134206192567945
 20
2458987.5
 10
3842996.58850617939606309
 20
2458962.5
 10
3842991.42176683200523257
 20
2458937.5
 10
3842988.39166456088423729
 20
2458912.5
 10
3842987.71856160880997777
 20
2458887.5
 10
3842987.5
 20
2458884.83125084871426225
 10
3842985.87529519898816943
 20
2458862.5
 10
3842985.03399258339777589
 20
2458837.5
 10
3842986.18741451483219862
 20
2458812.5
 10
3842987.5
 20
2458793.50824587699025869
 10
3842987.91592718288302422
 20
2458787.5
 10
3842991.70679236436262727
 20
2458762.5
 10
3842997.52972298162057996
 20
2458737.5
 10
3843006.57066357927396894
 20
2458712.5
 10
3843012.5
 20
2458697.40280678030103445
 10
3843016.05638268543407321
 20
2458687.5
 10
3843027.87048788229003549
 20
2458662.5
 10
3843037.5
 20
2458643.15267493762075901
 10
3843040.51293779397383332
 20
2458637.5
 10
3843052.12683844147250056
 20
2458612.5
 10
3843060.14736335026100278
 20
2458587.5
 10
3843062.5
 20
2458570.94632196705788374
 10
3843063.77234898693859577
 20
2458562.5
 10
3843065.4937813188880682
 20
2458537.5
 10
3843062.5
 20
2458517.77302661677822471
 10
3843061.7138707828707993
 20
2458512.5
 10
3843059.14295003702864051
 20
2458487.5
 10
3843056.32473756279796362
 20
2458462.5
 10
3843052.6574264201335609
 20
2458437.5
 10
3843051.35998133802786469
 20
2458412.5
 10
3843050.9987354576587677
 20
2458387.5
 10
3843049.34190115705132484
 20
2458362.5
 10
3843046.08273976761847734
 20
2458337.5
 10
3843040.0412894943729043
 20
2458312.5
 10
3843037.5
 20
2458301.32469738274812698
 10
3843034.94982613436877728
 20
2458287.5
 10
3843028.69223614642396569
 20
2458262.5
 10
3843023.43589969072490931
 20
2458237.5
 10
3843015.69298745738342404
 20
2458212.5
 10
3843012.5
 20
2458203.05214413441717625
 10
3843007.04115891549736261
 20
2458187.5
 10
3842998.84819040354341269
 20
2458162.5
 10
3842987.5
 20
2458139.14119778666645288
 10
3842986.45786882610991597
 20
2458137.5
 10
3842971.2549364403821528
 20
2458112.5
 10
3842962.5
 20
2458098.64169310173019767
 10
3842947.90733197564259171
 20
2458087.5
 10
3842937.5
 20
2458081.39471671963110566
 10
3842912.5
 20
2458069.46523276390507817
 10
3842900.13382737571373582
 20
2458062.5
 10
3842887.5
 20
2458055.59807769255712628
 10
3842862.5
 20
2458040.91921790223568678
 10
3842856.53170007606968284
 20
2458037.5
 10
3842837.5
 20
2458027.48663895484060049
 10
3842812.5
 20
2458014.18059346918016672
 10
3842809.47072135517373681
 20
2458012.5
 10
3842787.5
 20
2458001.06013416405767202
 10
3842762.5
 20
2457987.69697895832359791
 10
3842762.04680305905640125
 20
2457987.5
 10
3842737.5
 20
2457976.74135601799935102
 10
3842712.5
 20
2457969.90510372817516327
 10
3842687.5
 20
2457962.69696810375899076
 10
3842686.95891548413783312
 20
2457962.5
 10
3842662.5
 20
2457953.44292264897376299
 10
3842637.5
 20
2457945.8918813425116241
 10
3842612.5
 20
2457940.66936193034052849
 10
3842594.02995008323341608
 20
2457937.5
  0
LWPOLYLINE
  5
90
  8
Contours
100
AcDbEntity
100
AcDbPolyline
  6
CONTINUOUS
420
15156120
 90
     5
 70
   129
 43
13.0
 10
3840912.5
 20
2457911.41846921807155013
 10
3840915.74274648819118738
 20
2457912.5
 10
3840912.5
 20
2457914.45380477793514729
 10
3840909.80202075373381376
 20
2457912.5
 10
3840912.5
 20
2457911.41846921807155013
  0
LWPOLYLINE
  5
91
  8
Contours
100
AcDbEntity
100
AcDbPolyline
  6
CONTINUOUS
420
15156120
 90
    11
 70
   129
 43
13.0
 10
3841212.5
 20
2457854.84174800477921963
 10
3841232.19059102423489094
 20
2457862.5
 10
3841212.5
 20
2457883.93969737412407994
 10
3841187.5
 20
2457872.42696922272443771
 10
3841162.5
 20
2457869.18939820025116205
 10
3841137.5
 20
2457866.72867063479498029
 10
3841131.63484692107886076
 20
2457862.5
 10
3841137.5
 20
2457857.76835766201838851
 10
3841162.5
 20
2457858.0752418152987957
 10
3841187.5
 20
2457858.26772529119625688
 10
3841212.5
 20
2457854.84174800477921963
  0
LWPOLYLINE
  5
92
  8
Contours
100
AcDbEntity
100
AcDbPolyline
  6
CONTINUOUS
420
15156120
 90
    11
 70
   129
 43
13.0
 10
3841112.5
 20
2457834.13089649006724358
 10
3841116.77614777814596891
 20
2457837.5
 10
3841112.5
 20
2457842.82923120446503162
 10
3841087.5
 20
2457843.50844579096883535
 10
3841062.5
 20
2457846.16614664578810334
 10
3841037.5
 20
2457850.10701463697478175
 10
3841029.12846139725297689
 20
2457837.5
 10
3841037.5
 20
2457833.31077360734343529
 10
3841062.5
 20
2457832.64168270071968436
 10
3841087.5
 20
2457832.78967254422605038
 10
3841112.5
 20
2457834.13089649006724358
  0
LWPOLYLINE
  5
93
  8
Contours
100
AcDbEntity
100
AcDbPolyline
  6
CONTINUOUS
420
15156120
 90
     9
 70
   129
 43
13.0
 10
3841012.5
 20
2457811.27919683093205094
 10
3841015.90443767281249166
 20
2457812.5
 10
3841012.5
 20
2457819.56940874038264155
 10
3840987.5
 20
2457815.01777539681643248
 10
3840962.5
 20
2457813.35027300845831633
 10
3840962.13794504059478641
 20
2457812.5
 10
3840962.5
 20
2457811.98982612648978829
 10
3840987.5
 20
2457811.68618561886250973
 10
3841012.5
 20
2457811.27919683093205094
  0
LWPOLYLINE
  5
94
  8
Contours
100
AcDbEntity
100
AcDbPolyline
  6
CONTINUOUS
420
15156120
 90
   885
 70
   128
 43
13.0
 10
3841020.86925755813717842
 20
2460950.0
 10
3841020.86925755813717842
 20
2460937.5
 10
3841024.43944637384265661
 20
2460912.5
 10
3841026.81883528688922524
 20
2460887.5
 10
3841023.98385291919112206
 20
2460862.5
 10
3841016.59108614316210151
 20
2460837.5
 10
3841012.5
 20
2460829.36703959852457047
 10
3840998.9518879153765738
 20
2460812.5
 10
3840987.5
 20
2460801.04798927623778582
 10
3840972.06882863072678447
 20
2460787.5
 10
3840962.5
 20
2460779.74056814005598426
 10
3840938.81963812001049519
 20
2460762.5
 10
3840937.5
 20
2460761.63767813192680478
 10
3840912.5
 20
2460747.14647416258230805
 10
3840895.87325235875323415
 20
2460737.5
 10
3840887.5
 20
2460732.61292447382584214
 10
3840862.5
 20
2460715.54272281285375357
 10
3840858.37810146203264594
 20
2460712.5
 10
3840837.5
 20
2460696.18797395098954439
 10
3840827.15231788065284491
 20
2460687.5
 10
3840812.5
 20
2460672.17578930361196399
 10
3840804.46308649703860283
 20
2460662.5
 10
3840787.5
 20
2460638.32584977569058537
 10
3840786.77840726962313056
 20
2460637.5
 10
3840762.5
 20
2460614.01309846434742212
 10
3840760.3338705631904304
 20
2460612.5
 10
3840737.5
 20
2460596.40892150346189737
 10
3840719.58688874309882522
 20
2460587.5
 10
3840712.5
 20
2460584.03715087519958615
 10
3840687.5
 20
2460574.98674561642110348
 10
3840662.5
 20
2460569.60927678691223264
 10
3840637.5
 20
2460563.54642708785831928
 10
3840634.2971134283579886
 20
2460562.5
 10
3840612.5
 20
2460554.92300339275971055
 10
3840587.5
 20
2460550.13393822126090527
 10
3840562.5
 20
2460542.69230973394587636
 10
3840551.00879872171208262
 20
2460537.5
 10
3840537.5
 20
2460530.6829768568277359
 10
3840512.5
 20
2460519.6059687570668757
 10
3840501.20492532337084413
 20
2460512.5
 10
3840487.5
 20
2460502.6470744963735342
 10
3840465.72506511397659779
 20
2460487.5
 10
3840462.5
 20
2460485.50132928229868412
 10
3840437.5
 20
2460470.10180366784334183
 10
3840427.95379564119502902
 20
2460462.5
 10
3840412.5
 20
2460449.43074353784322739
 10
3840399.75788659369572997
 20
2460437.5
 10
3840387.5
 20
2460425.40396686270833015
 10
3840376.66921780817210674
 20
2460412.5
 10
3840362.5
 20
2460395.25083781126886606
 10
3840357.16911399457603693
 20
2460387.5
 10
3840339.31422141846269369
 20
2460362.5
 10
3840337.5
 20
2460360.52475211257115006
 10
3840319.57964241178706288
 20
2460337.5
 10
3840312.5
 20
2460327.11731980461627245
 10
3840302.18295810185372829
 20
2460312.5
 10
3840287.5
 20
2460296.36210029572248459
 10
3840279.36537823267281055
 20
2460287.5
 10
3840262.5
 20
2460268.84881794918328524
 10
3840257.23170426953583956
 20
2460262.5
 10
3840237.5
 20
2460239.02468200959265232
 10
3840236.19318000832572579
 20
2460237.5
 10
3840214.82300030905753374
 20
2460212.5
 10
3840212.5
 20
2460209.63656911719590425
 10
3840194.19757725019007921
 20
2460187.5
 10
3840187.5
 20
2460179.95104386517778039
 10
3840172.03523373883217573
 20
2460162.5
 10
3840162.5
 20
2460153.0043947184458375
 10
3840147.51879315450787544
 20
2460137.5
 10
3840137.5
 20
2460124.79768730700016022
 10
3840128.44476097682490945
 20
2460112.5
 10
3840112.5
 20
2460088.02320981491357088
 10
3840112.15372421313077211
 20
2460087.5
 10
3840096.40257600462064147
 20
2460062.5
 10
3840087.5
 20
2460049.01766402320936322
 10
3840079.36259371880441904
 20
2460037.5
 10
3840062.5
 20
2460013.86094839591532946
 10
3840061.38936945144087076
 20
2460012.5
 10
3840041.24181517120450735
 20
2459987.5
 10
3840037.5
 20
2459983.36027921969071031
 10
3840018.44577122014015913
 20
2459962.5
 10
3840012.5
 20
2459956.27108177728950977
 10
3839994.76281402399763465
 20
2459937.5
 10
3839987.5
 20
2459930.36093134572729468
 10
3839970.09505589166656137
 20
2459912.5
 10
3839962.5
 20
2459904.87580237770453095
 10
3839945.52269011922180653
 20
2459887.5
 10
3839937.5
 20
2459878.97741978568956256
 10
3839919.29516271874308586
 20
2459862.5
 10
3839912.5
 20
2459856.10530222160741687
 10
3839891.37170867808163166
 20
2459837.5
 10
3839887.5
 20
2459834.22555525926873088
 10
3839862.5
 20
2459816.28109011892229319
 10
3839856.22482449095696211
 20
2459812.5
 10
3839837.5
 20
2459801.09810318797826767
 10
3839812.5
 20
2459788.2892173039726913
 10
3839810.70992604456841946
 20
2459787.5
 10
3839787.5
 20
2459777.13763445988297462
 10
3839762.5
 20
2459768.5840164260007441
 10
3839739.05925473431125283
 20
2459762.5
 10
3839737.5
 20
2459762.08395136194303632
 10
3839712.5
 20
2459759.1188292820006609
 10
3839687.5
 20
2459757.46814186638221145
 10
3839662.5
 20
2459756.99178099259734154
 10
3839637.5
 20
2459761.64034986449405551
 10
3839635.26332391984760761
 20
2459762.5
 10
3839612.5
 20
2459772.73006507707759738
 10
3839587.5
 20
2459786.75847937306389213
 10
3839586.15675926953554153
 20
2459787.5
 10
3839562.5
 20
2459799.06295524118468165
 10
3839538.71424684766680002
 20
2459812.5
 10
3839537.5
 20
2459813.177611427847296
 10
3839512.5
 20
2459825.69291776837781072
 10
3839487.5
 20
2459832.11380020575597882
 10
3839462.5
 20
2459834.7346519804559648
 10
3839437.5
 20
2459830.96253960393369198
 10
3839412.5
 20
2459821.08931907406076789
 10
3839397.86333136353641748
 20
2459812.5
 10
3839387.5
 20
2459806.38139828015118837
 10
3839362.5
 20
2459789.13641422986984253
 10
3839360.35971248196437955
 20
2459787.5
 10
3839337.5
 20
2459768.21725448966026306
 10
3839330.62713801069185138
 20
2459762.5
 10
3839312.5
 20
2459744.19540477031841874
 10
3839305.9236460137180984
 20
2459737.5
 10
3839287.5
 20
2459719.09397459868341684
 10
3839280.98419779865071177
 20
2459712.5
 10
3839262.5
 20
2459688.30323842447251081
 10
3839261.88968758657574654
 20
2459687.5
 10
3839238.24696913221850991
 20
2459662.5
 10
3839237.5
 20
2459661.88348630350083113
 10
3839212.5
 20
2459643.58670332841575146
 10
3839204.41713438369333744
 20
2459637.5
 10
3839187.5
 20
2459627.15417207032442093
 10
3839166.75025888858363032
 20
2459612.5
 10
3839162.5
 20
2459609.74684280203655362
 10
3839137.5
 20
2459593.61493842769414186
 10
3839129.02894133143126965
 20
2459587.5
 10
3839112.5
 20
2459576.36864117439836264
 10
3839094.83109687780961394
 20
2459562.5
 10
3839087.5
 20
2459556.06586594879627228
 10
3839068.56180819869041443
 20
2459537.5
 10
3839062.5
 20
2459531.3310530330054462
 10
3839047.16592984599992633
 20
2459512.5
 10
3839037.5
 20
2459498.11800045613199472
 10
3839030.17729865293949842
 20
2459487.5
 10
3839012.69567266339436173
 20
2459462.5
 10
3839012.5
 20
2459462.19786130078136921
 10
3838994.00223683938384056
 20
2459437.5
 10
3838987.5
 20
2459429.66204327857121825
 10
3838969.58535581827163696
 20
2459412.5
 10
3838962.5
 20
2459406.2506574378348887
 10
3838937.5
 20
2459389.04762608651071787
 10
3838934.39538607513532043
 20
2459387.5
 10
3838912.5
 20
2459376.84016014775261283
 10
3838887.5
 20
2459367.822494403924793
 10
3838873.45883042039349675
 20
2459362.5
 10
3838862.5
 20
2459358.3999347030185163
 10
3838837.5
 20
2459348.55480010760948062
 10
3838812.5
 20
2459339.12938642501831055
 10
3838807.34750316059216857
 20
2459337.5
 10
3838787.5
 20
2459330.95736700622364879
 10
3838762.5
 20
2459323.65305773820728064
 10
3838737.5
 20
2459320.93054547999054193
 10
3838712.5
 20
2459318.9302847464568913
 10
3838687.5
 20
2459319.58366571832448244
 10
3838662.5
 20
2459320.0484074242413044
 10
3838637.5
 20
2459319.85849831579253078
 10
3838612.5
 20
2459316.32744524255394936
 10
3838594.12206371361389756
 20
2459312.5
 10
3838587.5
 20
2459311.27218714263290167
 10
3838562.5
 20
2459305.14500492950901389
 10
3838537.5
 20
2459303.22611523186787963
 10
3838512.5
 20
2459303.62473907181993127
 10
3838487.5
 20
2459309.15606688568368554
 10
3838478.4735349714756012
 20
2459312.5
 10
3838462.5
 20
2459318.5507971765473485
 10
3838437.5
 20
2459327.77719124499708414
 10
3838416.53689167974516749
 20
2459337.5
 10
3838412.5
 20
2459339.77796183759346604
 10
3838387.5
 20
2459354.41589487344026566
 10
3838370.84333268832415342
 20
2459362.5
 10
3838362.5
 20
2459366.32255404442548752
 10
3838337.5
 20
2459376.70514451898634434
 10
3838312.5
 20
2459383.59807504434138536
 10
3838304.56756408838555217
 20
2459387.5
 10
3838287.5
 20
2459394.47630716487765312
 10
3838262.5
 20
2459404.50319145573303103
 10
3838237.5
 20
2459410.44452815968543291
 10
3838215.71131447609513998
 20
2459412.5
 10
3838212.5
 20
2459412.78828344400972128
 10
3838187.5
 20
2459412.52291991701349616
 10
3838187.05648926226422191
 20
2459412.5
 10
3838162.5
 20
2459411.21171053498983383
 10
3838137.5
 20
2459406.43960652267560363
 10
3838112.5
 20
2459402.3428097041323781
 10
3838087.5
 20
2459402.54962043045088649
 10
3838062.5
 20
2459406.35654665064066648
 10
3838042.42186055099591613
 20
2459412.5
 10
3838037.5
 20
2459413.83177365455776453
 10
3838012.5
 20
2459422.99730475945398211
 10
3837987.5
 20
2459435.36343232030048966
 10
3837983.24474181886762381
 20
2459437.5
 10
3837962.5
 20
2459447.83166359830647707
 10
3837937.5
 20
2459462.31530152726918459
 10
3837937.1606001709587872
 20
2459462.5
 10
3837912.5
 20
2459477.30813439423218369
 10
3837895.51756143569946289
 20
2459487.5
 10
3837887.5
 20
2459492.8800221448764205
 10
3837862.5
 20
2459504.894885687623173
 10
3837837.65993064688518643
 20
2459512.5
 10
3837837.5
 20
2459512.55990102328360081
 10
3837812.5
 20
2459517.37606141157448292
 10
3837787.5
 20
2459524.1088988515548408
 10
3837762.5
 20
2459530.12409772351384163
 10
3837737.5
 20
2459536.98497240711003542
 10
3837736.17129892250522971
 20
2459537.5
 10
3837712.5
 20
2459551.21561442129313946
 10
3837687.5
 20
2459560.49050891818478703
 10
3837662.5
 20
2459555.10556249367073178
 10
3837642.14408367173746228
 20
2459537.5
 10
3837637.5
 20
2459532.12996389903128147
 10
3837630.00077578192576766
 20
2459512.5
 10
3837618.58795987721532583
 20
2459487.5
 10
3837612.5
 20
2459475.83822731487452984
 10
3837606.27986157638952136
 20
2459462.5
 10
3837596.16240909649059176
 20
2459437.5
 10
3837588.10365085303783417
 20
2459412.5
 10
3837587.5
 20
2459410.24863457400351763
 10
3837582.14805988455191255
 20
2459387.5
 10
3837577.80484634730964899
 20
2459362.5
 10
3837572.11819384526461363
 20
2459337.5
 10
3837563.63011006312444806
 20
2459312.5
 10
3837562.5
 20
2459310.28005464468151331
 10
3837547.45154202310368419
 20
2459287.5
 10
3837537.5
 20
2459276.41377991484478116
 10
3837520.08398533659055829
 20
2459262.5
 10
3837512.5
 20
2459257.68723308201879263
 10
3837487.5
 20
2459240.30482847616076469
 10
3837483.9397083567455411
 20
2459237.5
 10
3837462.5
 20
2459221.10903867613524199
 10
3837447.30320920376107097
 20
2459212.5
 10
3837437.5
 20
2459207.15235342690721154
 10
3837412.5
 20
2459194.01806922303512692
 10
3837396.32693441119045019
 20
2459187.5
 10
3837387.5
 20
2459183.20109074516221881
 10
3837362.5
 20
2459173.92750468989834189
 10
3837337.5
 20
2459163.49119181092828512
 10
3837334.18380276579409838
 20
2459162.5
 10
3837312.5
 20
2459155.9520946298725903
 10
3837287.5
 20
2459156.70294024562463164
 10
3837262.5
 20
2459159.69285599887371063
 10
3837237.5
 20
2459151.54919115221127868
 10
3837220.76582776242867112
 20
2459137.5
 10
3837234.74060572078451514
 20
2459112.5
 10
3837237.5
 20
2459108.56840338837355375
 10
3837248.07094743615016341
 20
2459087.5
 10
3837260.87530038645491004
 20
2459062.5
 10
3837262.5
 20
2459060.22205674089491367
 10
3837279.26001296658068895
 20
2459037.5
 10
3837287.5
 20
2459026.70465269917622209
 10
3837296.48501626728102565
 20
2459012.5
 10
3837309.0642496244981885
 20
2458987.5
 10
3837312.5
 20
2458982.83192326268181205
 10
3837331.35495526483282447
 20
2458962.5
 10
3837337.5
 20
2458956.63007034361362457
 10
3837358.78735506068915129
 20
2458937.5
 10
3837362.5
 20
2458935.11148370383307338
 10
3837387.5
 20
2458921.69276175322011113
 10
3837412.5
 20
2458912.51166474306955934
 10
3837412.5371819962747395
 20
2458912.5
 10
3837437.5
 20
2458905.03965283278375864
 10
3837462.5
 20
2458908.19867532607167959
 10
3837475.48529526172205806
 20
2458912.5
 10
3837487.5
 20
2458917.36976128164678812
 10
3837512.5
 20
2458932.36575333587825298
 10
3837521.08423133147880435
 20
2458937.5
 10
3837537.5
 20
2458944.9330619852989912
 10
3837562.5
 20
2458955.05824593501165509
 10
3837583.76978272525593638
 20
2458962.5
 10
3837587.5
 20
2458963.54603494005277753
 10
3837612.5
 20
2458966.66712850052863359
 10
3837637.5
 20
2458964.71095772227272391
 10
3837656.85622317576780915
 20
2458962.5
 10
3837662.5
 20
2458961.83721094345673919
 10
3837687.5
 20
2458953.03206819761544466
 10
3837712.5
 20
2458944.09966951049864292
 10
3837724.39448732743039727
 20
2458937.5
 10
3837737.5
 20
2458928.98215449647977948
 10
3837762.5
 20
2458916.01080031925812364
 10
3837767.65785308880731463
 20
2458912.5
 10
3837787.5
 20
2458898.61970070051029325
 10
3837800.13337092287838459
 20
2458887.5
 10
3837812.5
 20
2458876.62297098804265261
 10
3837827.86342698242515326
 20
2458862.5
 10
3837837.5
 20
2458850.76498382864519954
 10
3837848.42582571972161531
 20
2458837.5
 10
3837862.5
 20
2458813.22684852825477719
 10
3837862.88328317506238818
 20
2458812.5
 10
3837871.93927714647725224
 20
2458787.5
 10
3837880.03249975200742483
 20
2458762.5
 10
3837887.17258152551949024
 20
2458737.5
 10
3837887.5
 20
2458736.58174573862925172
 10
3837896.09077902045100927
 20
2458712.5
 10
3837904.38389398995786905
 20
2458687.5
 10
3837912.5
 20
2458671.4120120769366622
 10
3837917.59242144180461764
 20
2458662.5
 10
3837932.1495250123552978
 20
2458637.5
 10
3837937.5
 20
2458631.03004648070782423
 10
3837962.5
 20
2458612.64881580602377653
 10
3837963.09745762730017304
 20
2458612.5
 10
3837987.5
 20
2458605.09996916120871902
 10
3838012.5
 20
2458604.21631761686876416
 10
3838037.5
 20
2458608.1981450617313385
 10
3838062.5
 20
2458607.15216727368533611
 10
3838087.5
 20
2458604.41177943861111999
 10
3838112.5
 20
2458605.25661755912005901
 10
3838137.5
 20
2458604.86347988108173013
 10
3838162.5
 20
2458602.6971514355391264
 10
3838187.5
 20
2458604.67240542825311422
 10
3838212.5
 20
2458604.60224976437166333
 10
3838237.5
 20
2458605.32618777267634869
 10
3838262.5
 20
2458605.4782038195990026
 10
3838287.5
 20
2458605.36181168910115957
 10
3838312.5
 20
2458606.28620150918141007
 10
3838337.5
 20
2458604.24923670710995793
 10
3838362.5
 20
2458604.10719955898821354
 10
3838387.5
 20
2458608.35776581941172481
 10
3838402.49865618487820029
 20
2458612.5
 10
3838412.5
 20
2458615.36967418529093266
 10
3838437.5
 20
2458623.02743989275768399
 10
3838462.5
 20
2458636.66416329890489578
 10
3838463.96924742637202144
 20
2458637.5
 10
3838487.5
 20
2458652.37869325000792742
 10
3838503.97185301035642624
 20
2458662.5
 10
3838512.5
 20
2458667.64541123202070594
 10
3838537.5
 20
2458683.69700152799487114
 10
3838542.0375566128641367
 20
2458687.5
 10
3838562.5
 20
2458706.63523520343005657
 10
3838570.2387438053265214
 20
2458712.5
 10
3838587.5
 20
2458728.67003062134608626
 10
3838594.93711694702506065
 20
2458737.5
 10
3838612.5
 20
2458756.22117772279307246
 10
3838619.59063595393672585
 20
2458762.5
 10
3838637.5
 20
2458775.08326687617227435
 10
3838652.47990888264030218
 20
2458787.5
 10
3838662.5
 20
2458795.205028613563627
 10
3838687.41614420060068369
 20
2458812.5
 10
3838687.5
 20
2458812.54754118761047721
 10
3838712.5
 20
2458827.60496200760826468
 10
3838727.3965488588437438
 20
2458837.5
 10
3838737.5
 20
2458843.63985625561326742
 10
3838762.5
 20
2458858.87643774086609483
 10
3838767.3133516083471477
 20
2458862.5
 10
3838787.5
 20
2458876.50268448889255524
 10
3838802.8965861489996314
 20
2458887.5
 10
3838812.5
 20
2458894.06224502064287663
 10
3838837.5
 20
2458910.72464239271357656
 10
3838839.85152778262272477
 20
2458912.5
 10
3838862.5
 20
2458930.06160267116501927
 10
3838870.72649257024750113
 20
2458937.5
 10
3838887.5
 20
2458949.31907120998948812
 10
3838904.01237988425418735
 20
2458962.5
 10
3838912.5
 20
2458969.31485087377950549
 10
3838935.51556806871667504
 20
2458987.5
 10
3838937.5
 20
2458988.95095664821565151
 10
3838962.5
 20
2459004.19832004047930241
 10
3838978.11996027640998363
 20
2459012.5
 10
3838987.5
 20
2459016.53810456488281488
 10
3839012.5
 20
2459025.08921873336657882
 10
3839037.5
 20
2459031.05252876970916986
 10
3839062.5
 20
2459033.83032645750790834
 10
3839087.5
 20
2459034.43998493533581495
 10
3839112.5
 20
2459033.26235240185633302
 10
3839137.5
 20
2459030.1799218812957406
 10
3839162.5
 20
2459024.30003089504316449
 10
3839187.5
 20
2459017.6130937528796494
 10
3839212.4968454260379076
 20
2459012.5
 10
3839212.5
 20
2459012.49924666294828057
 10
3839237.5
 20
2459008.28137869480997324
 10
3839262.5
 20
2459003.51830806490033865
 10
3839287.5
 20
2459003.63716884655877948
 10
3839312.5
 20
2459004.92589602852240205
 10
3839337.5
 20
2459009.93710485193878412
 10
3839343.3159377072006464
 20
2459012.5
 10
3839362.5
 20
2459020.20169604243710637
 10
3839387.5
 20
2459028.39108622539788485
 10
3839408.49415989778935909
 20
2459037.5
 10
3839412.5
 20
2459039.31863895384594798
 10
3839437.5
 20
2459052.14624676434323192
 10
3839457.66621852852404118
 20
2459062.5
 10
3839462.5
 20
2459064.80259806429967284
 10
3839487.5
 20
2459070.59982558898627758
 10
3839512.5
 20
2459074.38248642208054662
 10
3839537.5
 20
2459080.2084288727492094
 10
3839554.0673321383073926
 20
2459087.5
 10
3839562.5
 20
2459091.13723798235878348
 10
3839587.5
 20
2459105.49363335827365518
 10
3839598.09750257944688201
 20
2459112.5
 10
3839612.5
 20
2459120.44245947804301977
 10
3839637.5
 20
2459129.49301695870235562
 10
3839662.5
 20
2459132.98106901114806533
 10
3839687.5
 20
2459134.93157049594447017
 10
3839707.36545538157224655
 20
2459137.5
 10
3839712.5
 20
2459138.07870520371943712
 10
3839737.5
 20
2459139.08929458679631352
 10
3839762.5
 20
2459140.63486185343936086
 10
3839787.5
 20
2459140.6138263838365674
 10
3839812.5
 20
2459142.64664167119190097
 10
3839837.5
 20
2459142.63472876977175474
 10
3839862.5
 20
2459140.01748086838051677
 10
3839870.03112984588369727
 20
2459137.5
 10
3839887.5
 20
2459128.40078089106827974
 10
3839906.39395891083404422
 20
2459112.5
 10
3839912.5
 20
2459106.60739117627963424
 10
3839927.83282047836109996
 20
2459087.5
 10
3839937.5
 20
2459072.16967852646484971
 10
3839945.01949459966272116
 20
2459062.5
 10
3839958.65418579988181591
 20
2459037.5
 10
3839962.5
 20
2459031.60576179437339306
 10
3839974.85929057421162724
 20
2459012.5
 10
3839987.5
 20
2458989.68931973073631525
 10
3839988.59532735589891672
 20
2458987.5
 10
3839999.01802419871091843
 20
2458962.5
 10
3840009.97727140272036195
 20
2458937.5
 10
3840012.5
 20
2458930.11053260508924723
 10
3840016.49970921780914068
 20
2458912.5
 10
3840016.15834238845854998
 20
2458887.5
 10
3840012.5
 20
2458864.53457603184506297
 10
3840012.11865714425221086
 20
2458862.5
 10
3840003.2586753205396235
 20
2458837.5
 10
3839993.92051934357732534
 20
2458812.5
 10
3839987.5
 20
2458799.41951386630535126
 10
3839980.26859130756929517
 20
2458787.5
 10
3839962.58591519528999925
 20
2458762.5
 10
3839962.5
 20
2458762.3435895792208612
 10
3839946.54506305139511824
 20
2458737.5
 10
3839937.5
 20
2458722.43927333876490593
 10
3839930.45493786642327905
 20
2458712.5
 10
3839916.51566987670958042
 20
2458687.5
 10
3839912.5
 20
2458677.31957383034750819
 10
3839907.16995301563292742
 20
2458662.5
 10
3839899.73463214840739965
 20
2458637.5
 10
3839894.97889070864766836
 20
2458612.5
 10
3839896.95604544598609209
 20
2458587.5
 10
3839898.66887230239808559
 20
2458562.5
 10
3839897.5975813758559525
 20
2458537.5
 10
3839891.18394390679895878
 20
2458512.5
 10
3839887.5
 20
2458504.32050274917855859
 10
3839876.92117673484608531
 20
2458487.5
 10
3839866.59755369927734137
 20
2458462.5
 10
3839862.5
 20
2458451.44923163577914238
 10
3839856.88261404866352677
 20
2458437.5
 10
3839847.51953830476850271
 20
2458412.5
 10
3839837.5
 20
2458388.37563251098617911
 10
3839837.13342380523681641
 20
2458387.5
 10
3839823.29232447221875191
 20
2458362.5
 10
3839812.5
 20
2458346.58657253440469503
 10
3839804.03547305893152952
 20
2458337.5
 10
3839787.5
 20
2458324.39210950070992112
 10
3839766.97756009455770254
 20
2458312.5
 10
3839762.5
 20
2458307.36822199216112494
 10
3839750.46135475486516953
 20
2458287.5
 10
3839751.78325083199888468
 20
2458262.5
 10
3839762.13541073258966208
 20
2458237.5
 10
3839762.5
 20
2458236.97515171393752098
 10
3839776.99818641087040305
 20
2458212.5
 10
3839787.5
 20
2458196.28300660150125623
 10
3839792.2242770679295063
 20
2458187.5
 10
3839812.5
 20
2458167.35918127419427037
 10
3839818.4658158915117383
 20
2458162.5
 10
3839837.5
 20
2458149.36379279103130102
 10
3839858.26974909845739603
 20
2458137.5
 10
3839862.5
 20
2458135.34097345871850848
 10
3839887.5
 20
2458119.25468619400635362
 10
3839900.93132987758144736
 20
2458112.5
 10
3839912.5
 20
2458106.88647185312584043
 10
3839937.5
 20
2458096.64444841677322984
 10
3839952.20143384346738458
 20
2458087.5
 10
3839962.5
 20
2458080.3206912549212575
 10
3839987.5
 20
2458063.39244295191019773
 10
3839988.30107867997139692
 20
2458062.5
 10
3840006.6752421879209578
 20
2458037.5
 10
3840012.5
 20
2458028.8961581289768219
 10
3840024.80465485528111458
 20
2458012.5
 10
3840034.99952669441699982
 20
2457987.5
 10
3840037.5
 20
2457975.82744144927710295
 10
3840040.25771263474598527
 20
2457962.5
 10
3840037.5
 20
2457946.56425023777410388
 10
3840036.03486266732215881
 20
2457937.5
 10
3840022.39282541070133448
 20
2457912.5
 10
3840012.5
 20
2457899.35821776324883103
 10
3840003.51697215484455228
 20
2457887.5
 10
3839987.5
 20
2457867.39629258494824171
 10
3839983.39224768383428454
 20
2457862.5
 10
3839963.1643099132925272
 20
2457837.5
 10
3839962.5
 20
2457836.68571480177342892
 10
3839940.0845046853646636
 20
2457812.5
 10
3839937.5
 20
2457810.12552655022591352
 10
3839912.5
 20
2457795.83008649572730064
 10
3839889.1236606165766716
 20
2457787.5
 10
3839887.5
 20
2457786.91517013218253851
 10
3839862.5
 20
2457782.17114679142832756
 10
3839837.5
 20
2457785.53312466572970152
 10
3839832.84212388703599572
 20
2457787.5
 10
3839812.5
 20
2457795.56302781542763114
 10
3839787.5
 20
2457806.94139882968738675
 10
3839775.8015830428339541
 20
2457812.5
 10
3839762.5
 20
2457819.27985804341733456
 10
3839737.5
 20
2457829.89184636529535055
 10
3839712.5
 20
2457836.26226037740707397
 10
3839708.45473193796351552
 20
2457837.5
 10
3839687.5
 20
2457844.57112185284495354
 10
3839662.5
 20
2457852.75409523351117969
 10
3839637.5
 20
2457858.17425522906705737
 10
3839615.25559539347887039
 20
2457862.5
 10
3839612.5
 20
2457863.05225310567766428
 10
3839587.5
 20
2457869.66489518759772182
 10
3839562.5
 20
2457876.03828981844708323
 10
3839537.5
 20
2457885.81134090246632695
 10
3839533.97936118487268686
 20
2457887.5
 10
3839512.5
 20
2457898.11643835622817278
 10
3839487.5
 20
2457910.70891285827383399
 10
3839483.93349686870351434
 20
2457912.5
 10
3839462.5
 20
2457923.26127179432660341
 10
3839437.5
 20
2457930.75084272399544716
 10
3839412.5
 20
2457930.36058675684034824
 10
3839387.5
 20
2457927.02231616573408246
 10
3839362.5
 20
2457922.73296593176200986
 10
3839337.5
 20
2457918.81341765867546201
 10
3839312.5
 20
2457915.36287857452407479
 10
3839287.5
 20
2457914.14886738825589418
 10
3839262.5
 20
2457914.12888969294726849
 10
3839237.5
 20
2457917.73282363079488277
 10
3839212.5
 20
2457923.79867016198113561
 10
3839187.5
 20
2457932.65576425939798355
 10
3839176.74601906212046742
 20
2457937.5
 10
3839162.5
 20
2457944.85224648332223296
 10
3839137.5
 20
2457959.26281577767804265
 10
3839132.39040457038208842
 20
2457962.5
 10
3839112.5
 20
2457976.51565876044332981
 10
3839095.1704729562625289
 20
2457987.5
 10
3839087.5
 20
2457992.6857693656347692
 10
3839062.5
 20
2458006.99135787272825837
 10
3839050.92011932702735066
 20
2458012.5
 10
3839037.5
 20
2458019.49220441747456789
 10
3839012.5
 20
2458030.2377084787003696
 10
3838990.51798067567870021
 20
2458037.5
 10
3838987.5
 20
2458038.40409680223092437
 10
3838962.5
 20
2458044.21362876612693071
 10
3838937.5
 20
2458050.08292326936498284
 10
3838912.5
 20
2458055.4581440812908113
 10
3838887.5
 20
2458059.55375873390585184
 10
3838869.30809832224622369
 20
2458062.5
 10
3838862.5
 20
2458063.52745260996744037
 10
3838837.5
 20
2458067.6888396181166172
 10
3838812.5
 20
2458070.56648732302710414
 10
3838787.5
 20
2458072.57691318867728114
 10
3838762.5
 20
2458075.20842745061963797
 10
3838737.5
 20
2458077.14446202199906111
 10
3838712.5
 20
2458080.2232055882923305
 10
3838687.5
 20
2458085.51729309326037765
 10
3838680.11404500156641006
 20
2458087.5
 10
3838662.5
 20
2458092.42533883033320308
 10
3838637.5
 20
2458098.57448223466053605
 10
3838612.5
 20
2458102.86695167515426874
 10
3838587.5
 20
2458107.11558415554463863
 10
3838562.5
 20
2458106.53858874225988984
 10
3838537.5
 20
2458100.61317357607185841
 10
3838512.5
 20
2458087.55714094778522849
 10
3838512.40401023905724287
 20
2458087.5
 10
3838487.5
 20
2458071.98059943737462163
 10
3838473.58841162966564298
 20
2458062.5
 10
3838462.5
 20
2458055.72345471428707242
 10
3838438.20063747558742762
 20
2458037.5
 10
3838437.5
 20
2458036.97338304994627833
 10
3838412.5
 20
2458016.43098636902868748
 10
3838408.43075650604441762
 20
2458012.5
 10
3838387.5
 20
2457992.05214250413700938
 10
3838382.90597120299935341
 20
2457987.5
 10
3838362.5
 20
2457967.04847642034292221
 10
3838358.4513675500638783
 20
2457962.5
 10
3838337.5
 20
2457938.41101456852629781
 10
3838336.60289507638663054
 20
2457937.5
 10
3838312.5
 20
2457914.12414307007566094
 10
3838310.44106978224590421
 20
2457912.5
 10
3838287.5
 20
2457893.92757506808266044
 10
3838278.60399837419390678
 20
2457887.5
 10
3838262.5
 20
2457875.52647980954498053
 10
3838237.5
 20
2457864.13036850979551673
 10
3838233.51240717014297843
 20
2457862.5
 10
3838212.5
 20
2457853.98280906211584806
 10
3838187.5
 20
2457845.36758547183126211
 10
3838162.5
 20
2457839.15718173049390316
 10
3838151.77116878191009164
 20
2457837.5
 10
3838137.5
 20
2457834.58135593216866255
 10
3838112.5
 20
2457830.08293736958876252
 10
3838087.5
 20
2457834.53065786184743047
 10
3838073.23375490633770823
 20
2457837.5
 10
3838062.5
 20
2457840.32845404651015997
 10
3838037.5
 20
2457852.74153992021456361
 10
3838026.49860594794154167
 20
2457862.5
 10
3838012.5
 20
2457870.57727370224893093
 10
3837987.5
 20
2457880.10920652467757463
 10
3837964.40297217899933457
 20
2457887.5
 10
3837962.5
 20
2457888.09652781533077359
 10
3837937.5
 20
2457890.50568181835114956
 10
3837926.87629102589562535
 20
2457887.5
 10
3837912.5
 20
2457883.08533319225534797
 10
3837887.5
 20
2457885.62277986854314804
 10
3837874.89073942834511399
 20
2457887.5
 10
3837862.5
 20
2457889.27929303189739585
 10
3837837.5
 20
2457893.13370497711002827
 10
3837812.5
 20
2457900.18590822536498308
 10
3837787.5
 20
2457906.7365251537412405
 10
3837776.04355069017037749
 20
2457912.5
 10
3837762.5
 20
2457918.249994948040694
 10
3837737.5
 20
2457927.95939725823700428
 10
3837712.5
 20
2457930.78494718810543418
 10
3837687.5
 20
2457935.26961629977449775
 10
3837679.4257822772487998
 20
2457937.5
 10
3837662.5
 20
2457941.76883859746158123
 10
3837637.5
 20
2457945.28721400676295161
 10
3837612.5
 20
2457947.50596238300204277
 10
3837587.5
 20
2457949.03413607878610492
 10
3837562.5
 20
2457946.61257450934499502
 10
3837537.5
 20
2457944.35020466009154916
 10
3837513.95905186980962753
 20
2457937.5
 10
3837512.5
 20
2457937.11460138252004981
 10
3837487.5
 20
2457933.64383304864168167
 10
3837462.5
 20
2457926.76435123896226287
 10
3837438.84297925746068358
 20
2457912.5
 10
3837437.5
 20
2457911.97674773912876844
 10
3837412.5
 20
2457904.96933634858578444
 10
3837387.5
 20
2457901.16520478157326579
 10
3837362.5
 20
2457902.29838423943147063
 10
3837337.5
 20
2457906.10568571789190173
 10
3837319.01184156816452742
 20
2457912.5
 10
3837312.5
 20
2457915.53536420548334718
 10
3837287.5
 20
2457926.04875181708484888
 10
3837262.5
 20
2457934.85084081999957561
 10
3837253.97787423245608807
 20
2457937.5
 10
3837237.5
 20
2457942.92788394493982196
 10
3837212.5
 20
2457942.34999531973153353
 10
3837190.32315594237297773
 20
2457937.5
 10
3837187.5
 20
2457936.91508151171728969
 10
3837162.5
 20
2457930.34760610898956656
 10
3837137.5
 20
2457917.34070273442193866
 10
3837131.86252528848126531
 20
2457912.5
 10
3837112.5
 20
2457891.04361190740019083
 10
3837110.32075699651613832
 20
2457887.5
 10
3837094.48945215390995145
 20
2457862.5
 10
3837087.5
 20
2457850.1049075392074883
 10
3837081.50990322092548013
 20
2457837.5
 10
3837069.03044208092615008
 20
2457812.5
 10
3837062.5
 20
2457799.3996189464814961
 10
3837057.05414174171164632
 20
2457787.5
 10
3837042.34917590441182256
 20
2457762.5
 10
3837037.5
 20
2457753.75859847199171782
 10
3837028.40198149532079697
 20
2457737.5
 10
3837012.5
 20
2457714.50202699704095721
 10
3837011.26282109459862113
 20
2457712.5
 10
3836997.11799855250865221
 20
2457687.5
 10
3836987.5
 20
2457670.17016539443284273
 10
3836983.04905453184619546
 20
2457662.5
 10
3836962.5
 20
2457637.94821540825068951
 10
3836961.86159185832366347
 20
2457637.5
 10
3836937.5
 20
2457624.46174762351438403
 10
3836912.5
 20
2457622.10292407358065248
 10
3836887.5
 20
2457626.24136970844119787
 10
3836862.5
 20
2457634.64625268802046776
 10
3836855.96773753687739372
 20
2457637.5
 10
3836837.5
 20
2457645.21445659594610333
 10
3836812.5
 20
2457659.92912876280024648
 10
3836808.98995004780590534
 20
2457662.5
 10
3836787.5
 20
2457680.5397575325332582
 10
3836780.20012939302250743
 20
2457687.5
 10
3836762.5
 20
2457706.70974235748872161
 10
3836757.71200547739863396
 20
2457712.5
 10
3836737.5
 20
2457736.36206049472093582
 10
3836736.50514746131375432
 20
2457737.5
 10
3836713.19057289185002446
 20
2457762.5
 10
3836712.5
 20
2457763.18604724016040564
 10
3836687.5
 20
2457786.70357796503230929
 10
3836686.57211318053305149
 20
2457787.5
 10
3836662.5
 20
2457806.06561931688338518
 10
3836654.27553699817508459
 20
2457812.5
 10
3836637.5
 20
2457824.71139735635370016
 10
3836619.47344012232497334
 20
2457837.5
 10
3836612.5
 20
2457842.1778398877941072
 10
3836587.5
 20
2457858.60557873966172338
 10
3836581.85351167153567076
 20
2457862.5
 10
3836562.5
 20
2457876.62038758629933
 10
3836549.68333833990618587
 20
2457887.5
 10
3836537.5
 20
2457898.9667389178648591
 10
3836523.48489700583741069
 20
2457912.5
 10
3836512.5
 20
2457924.51576636685058475
 10
3836499.15112976916134357
 20
2457937.5
 10
3836487.5
 20
2457949.74815397057682276
 10
3836473.86628220742568374
 20
2457962.5
 10
3836462.5
 20
2457974.07792437262833118
 10
3836447.62804448278620839
 20
2457987.5
 10
3836437.5
 20
2457997.20633120415732265
 10
3836415.98541194945573807
 20
2458012.5
 10
3836412.5
 20
2458014.77026118338108063
 10
3836387.5
 20
2458029.51128114247694612
 10
3836374.91758038243278861
 20
2458037.5
 10
3836362.5
 20
2458045.93177778506651521
 10
3836340.4216244900599122
 20
2458062.5
 10
3836337.5
 20
2458065.01299743400886655
 10
3836313.87653579376637936
 20
2458087.5
 10
3836312.5
 20
2458088.82976389024406672
 10
3836291.83260952867567539
 20
2458112.5
 10
3836287.5
 20
2458117.8999554249458015
 10
3836273.12440645787864923
 20
2458137.5
 10
3836262.5
 20
2458150.67739459546282887
 10
3836253.12968687806278467
 20
2458162.5
 10
3836237.5
 20
2458183.65294994879513979
 10
3836234.60425387602299452
 20
2458187.5
 10
3836215.99061182979494333
 20
2458212.5
 10
3836212.5
 20
2458217.5123358448036015
 10
3836199.46029534889385104
 20
2458237.5
 10
3836187.5
 20
2458257.95620077522471547
 10
3836185.1451338417828083
 20
2458262.5
 10
3836172.7618647082708776
 20
2458287.5
 10
3836162.51667045848444104
 20
2458312.5
 10
3836162.5
 20
2458312.55442298809066415
 10
3836155.82864158460870385
 20
2458337.5
 10
3836149.58052453771233559
 20
2458362.5
 10
3836142.92920183204114437
 20
2458387.5
 10
3836137.5
 20
2458402.98724453151226044
 10
3836134.03195833135396242
 20
2458412.5
 10
3836127.72361004911363125
 20
2458437.5
 10
3836124.83318950887769461
 20
2458462.5
 10
3836124.82794057670980692
 20
2458487.5
 10
3836126.40071222139522433
 20
2458512.5
 10
3836128.43422721093520522
 20
2458537.5
 10
3836131.10617489134892821
 20
2458562.5
 10
3836135.48146688472479582
 20
2458587.5
 10
3836137.5
 20
2458598.52920876815915108
 10
3836139.87457299465313554
 20
2458612.5
 10
3836141.69839000189676881
 20
2458637.5
 10
3836142.8783271387219429
 20
2458662.5
 10
3836146.54163863370195031
 20
2458687.5
 10
3836151.74206602666527033
 20
2458712.5
 10
3836157.73927010549232364
 20
2458737.5
 10
3836162.5
 20
2458753.71839514235034585
 10
3836165.317184301558882
 20
2458762.5
 10
3836173.51163162384182215
 20
2458787.5
 10
3836181.01205599214881659
 20
2458812.5
 10
3836185.94757863227277994
 20
2458837.5
 10
3836187.5
 20
2458850.85695876274257898
 10
3836188.73571890965104103
 20
2458862.5
 10
3836189.36001248564571142
 20
2458887.5
 10
3836187.52124540088698268
 20
2458912.5
 10
3836187.5
 20
2458912.56178371608257294
 10
3836175.90766783664003015
 20
2458937.5
 10
3836162.5
 20
2458958.77681952062994242
 10
3836160.1083235745318234
 20
2458962.5
 10
3836143.25722221471369267
 20
2458987.5
 10
3836137.5
 20
2458994.90585988108068705
 10
3836124.69735421519726515
 20
2459012.5
 10
3836112.5
 20
2459033.33730840170755982
 10
3836110.21622313186526299
 20
2459037.5
 10
3836098.9374653110280633
 20
2459062.5
 10
3836090.4470252157188952
 20
2459087.5
 10
3836087.5
 20
2459097.07307276129722595
 10
3836083.28106084372848272
 20
2459112.5
 10
3836078.89499188167974353
 20
2459137.5
 10
3836072.94207252282649279
 20
2459162.5
 10
3836064.6212826631963253
 20
2459187.5
 10
3836062.5
 20
2459193.17959220008924603
 10
3836055.07908686716109514
 20
2459212.5
 10
3836042.63231302751228213
 20
2459237.5
 10
3836037.5
 20
2459247.41443655546754599
 10
3836030.07721523521468043
 20
2459262.5
 10
3836013.80887000169605017
 20
2459287.5
 10
3836012.5
 20
2459289.27603081241250038
 10
3835995.61009188881143928
 20
2459312.5
 10
3835987.5
 20
2459323.85850901855155826
 10
3835977.59277867898344994
 20
2459337.5
 10
3835962.5
 20
2459360.25791984610259533
 10
3835961.05457655293866992
 20
2459362.5
 10
3835944.49538563983514905
 20
2459387.5
 10
3835937.5
 20
2459399.28301667934283614
 10
3835928.55594612983986735
 20
2459412.5
 10
3835912.54159215651452541
 20
2459437.5
 10
3835912.5
 20
2459437.5577317294664681
 10
3835894.06517254933714867
 20
2459462.5
 10
3835887.5
 20
2459470.07157894736155868
 10
3835871.22776412777602673
 20
2459487.5
 10
3835862.5
 20
2459495.81889162631705403
 10
3835845.45239143772050738
 20
2459512.5
 10
3835837.5
 20
2459519.40152956545352936
 10
3835815.15428172843530774
 20
2459537.5
 10
3835812.5
 20
2459539.45880268886685371
 10
3835787.5
 20
2459559.00016497261822224
 10
3835783.53685208130627871
 20
2459562.5
 10
3835762.5
 20
2459579.5570415249094367
 10
3835753.76910644397139549
 20
2459587.5
 10
3835737.5
 20
2459602.18014627741649747
 10
3835725.76589282276108861
 20
2459612.5
 10
3835712.5
 20
2459624.43403298361226916
 10
3835695.66543844249099493
 20
2459637.5
 10
3835687.5
 20
2459643.32983374362811446
 10
3835662.5
 20
2459658.92833855003118515
 10
3835656.55524202296510339
 20
2459662.5
 10
3835637.5
 20
2459672.31456867279484868
 10
3835612.5
 20
2459684.33461050689220428
 10
3835605.9724849765188992
 20
2459687.5
 10
3835587.5
 20
2459696.58726981608197093
 10
3835562.5
 20
2459709.14425542345270514
 10
3835556.32250772323459387
 20
2459712.5
 10
3835537.5
 20
2459722.09469323186203837
 10
3835512.5
 20
2459735.7349637052975595
 10
3835509.21046450780704618
 20
2459737.5
 10
3835487.5
 20
2459750.13532618898898363
 10
3835462.5
 20
2459761.80929365055635571
 10
3835460.87795067904517055
 20
2459762.5
 10
3835437.5
 20
2459773.56891507375985384
 10
3835412.94378233049064875
 20
2459787.5
 10
3835412.5
 20
2459787.75931608537212014
 10
3835387.5
 20
2459801.92269939789548516
 10
3835368.7963881311006844
 20
2459812.5
 10
3835362.5
 20
2459816.72269769292324781
 10
3835337.5
 20
2459837.25950039876624942
 10
3835337.23402301222085953
 20
2459837.5
 10
3835312.5
 20
2459861.10594925889745355
 10
3835310.68841240042820573
 20
2459862.5
 10
3835287.5
 20
2459878.42257249029353261
 10
3835268.72217044653370976
 20
2459887.5
 10
3835262.5
 20
2459890.01351662259548903
 10
3835237.5
 20
2459891.6132714687846601
 10
3835218.00977128744125366
 20
2459887.5
 10
3835212.5
 20
2459886.11343799810856581
 10
3835187.5
 20
2459873.36323303589597344
 10
3835169.77048380626365542
 20
2459862.5
 10
3835162.5
 20
2459858.71983727533370256
 10
3835137.5
 20
2459841.93212644103914499
 10
3835128.89919575955718756
 20
2459837.5
 10
3835112.5
 20
2459831.31970228208228946
 10
3835087.5
 20
2459826.32457248494029045
 10
3835062.5
 20
2459825.32125495700165629
 10
3835037.5
 20
2459828.4759922968223691
 10
3835012.5
 20
2459833.42755593731999397
 10
3834995.54996401024982333
 20
2459837.5
 10
3834987.5
 20
2459839.59781954856589437
 10
3834962.5
 20
2459847.58068683743476868
 10
3834937.5
 20
2459857.83691872004419565
 10
3834927.88007447076961398
 20
2459862.5
 10
3834912.5
 20
2459870.34421198908239603
 10
3834887.5
 20
2459883.58331404579803348
 10
3834880.44252137374132872
 20
2459887.5
 10
3834862.5
 20
2459898.55586556298658252
 10
3834842.26930759008973837
 20
2459912.5
 10
3834837.5
 20
2459916.27742037549614906
 10
3834812.5
 20
2459934.03856173623353243
 10
3834807.21426594723016024
 20
2459937.5
 10
3834787.5
 20
2459951.83259981125593185
 10
3834769.859638178255409
 20
2459962.5
 10
3834762.5
 20
2459966.55788876255974174
 10
3834737.5
 20
2459974.28729447769001126
 10
3834712.5
 20
2459978.79888650914654136
 10
3834687.5
 20
2459983.14227212686091661
 10
3834662.5
 20
2459985.67763996589928865
 10
3834637.5
 20
2459985.86248187348246574
 10
3834612.5
 20
2459986.81281906319782138
 10
3834602.01940147113054991
 20
2459987.5
 10
3834587.5
 20
2459988.4963452834635973
 10
3834562.5
 20
2459990.20288353599607944
 10
3834537.5
 20
2459993.04835050832480192
 10
3834512.5
 20
2459999.05126294959336519
 10
3834487.5
 20
2460004.90723470877856016
 10
3834462.5
 20
2460010.39316808432340622
 10
3834445.28300140658393502
 20
2460012.5
 10
3834437.5
 20
2460013.49011066649109125
 10
3834412.5
 20
2460016.74392071040347219
 10
3834387.5
 20
2460021.23052158346399665
 10
3834362.5
 20
2460023.74888589698821306
 10
3834337.5
 20
2460026.43269604025408626
 10
3834312.5
 20
2460029.36801380105316639
 10
3834287.5
 20
2460031.01553574902936816
 10
3834262.5
 20
2460030.46595871355384588
 10
3834237.5
 20
2460030.3600775096565485
 10
3834225.0
 20
2460030.3600775096565485
  0
LWPOLYLINE
  5
95
  8
Contours
100
AcDbEntity
100
AcDbPolyline
  6
CONTINUOUS
420
15156120
 90
    35
 70
   129
 43
13.0
 10
3843111.51996133523061872
 20
2457187.5
 10
3843087.5
 20
2457178.47654111078009009
 10
3843062.5
 20
2457174.56089715333655477
 10
3843037.5
 20
2457176.16711617354303598
 10
3843012.5
 20
2457183.45805989159271121
 10
3843005.5479694283567369
 20
2457187.5
 10
3842987.5
 20
2457200.72450727736577392
 10
3842975.22308027138933539
 20
2457212.5
 10
3842962.5
 20
2457227.90448325360193849
 10
3842956.10209744470193982
 20
2457237.5
 10
3842947.34710955619812012
 20
2457262.5
 10
3842946.87288579810410738
 20
2457287.5
 10
3842954.33454072941094637
 20
2457312.5
 10
3842962.5
 20
2457325.27826351765543222
 10
3842972.43535222858190536
 20
2457337.5
 10
3842987.5
 20
2457352.20402531791478395
 10
3843001.87565982062369585
 20
2457362.5
 10
3843012.5
 20
2457369.6383390249684453
 10
3843037.5
 20
2457380.24538719560950994
 10
3843062.5
 20
2457383.90028667962178588
 10
3843087.5
 20
2457380.44819321855902672
 10
3843112.5
 20
2457367.01468647690489888
 10
3843117.48995257169008255
 20
2457362.5
 10
3843137.5
 20
2457340.90360532654449344
 10
3843140.02786365663632751
 20
2457337.5
 10
3843154.13151022978127003
 20
2457312.5
 10
3843162.38282863050699234
 20
2457287.5
 10
3843162.5
 20
2457286.71048970520496368
 10
3843165.68266610568389297
 20
2457262.5
 10
3843162.5
 20
2457246.54026045510545373
 10
3843160.32431965135037899
 20
2457237.5
 10
3843144.04782547010108829
 20
2457212.5
 10
3843137.5
 20
2457206.18740786891430616
 10
3843112.5
 20
2457187.97066929005086422
 10
3843111.51996133523061872
 20
2457187.5
  0
LWPOLYLINE
  5
96
  8
Contours
100
AcDbEntity
100
AcDbPolyline
  6
CONTINUOUS
420
15156120
 90
     5
 70
   129
 43
13.0
 10
3839089.04030419047921896
 20
2457012.5
 10
3839087.5
 20
2457010.04746835445985198
 10
3839084.4258872652426362
 20
2457012.5
 10
3839087.5
 20
2457018.81215706467628479
 10
3839089.04030419047921896
 20
2457012.5
  0
LWPOLYLINE
  5
97
  8
Contours
100
AcDbEntity
100
AcDbPolyline
  6
CONTINUOUS
420
15156120
 90
   151
 70
   129
 43
13.0
 10
3843138.19074057880789042
 20
2456987.5
 10
3843137.5
 20
2456987.22365475352853537
 10
3843112.5
 20
2456978.78963732020929456
 10
3843087.5
 20
2456973.30550032528117299
 10
3843062.5
 20
2456969.67053466569632292
 10
3843037.5
 20
2456968.48790047131478786
 10
3843012.5
 20
2456970.4067956474609673
 10
3842987.5
 20
2456974.67935337219387293
 10
3842962.5
 20
2456983.77359846048057079
 10
3842956.92194937216117978
 20
2456987.5
 10
3842937.5
 20
2457001.56435164157301188
 10
3842925.35204910626634955
 20
2457012.5
 10
3842912.5
 20
2457025.11993928253650665
 10
3842901.93131085112690926
 20
2457037.5
 10
3842887.5
 20
2457057.07536074472591281
 10
3842883.56626928271725774
 20
2457062.5
 10
3842865.80040662456303835
 20
2457087.5
 10
3842862.5
 20
2457091.6344143939204514
 10
3842843.75664885109290481
 20
2457112.5
 10
3842837.5
 20
2457119.11521574156358838
 10
3842817.73917207447811961
 20
2457137.5
 10
3842812.5
 20
2457142.21937938733026385
 10
3842787.5
 20
2457160.96134320227429271
 10
3842785.11111936112865806
 20
2457162.5
 10
3842762.5
 20
2457178.71874078223481774
 10
3842745.79254033835604787
 20
2457187.5
 10
3842737.5
 20
2457192.87368543352931738
 10
3842712.5
 20
2457207.08530260343104601
 10
3842698.50211858237162232
 20
2457212.5
 10
3842687.5
 20
2457218.17897535767406225
 10
3842662.5
 20
2457232.2720176400616765
 10
3842649.99663189519196749
 20
2457237.5
 10
3842637.5
 20
2457246.15341045381501317
 10
3842612.5
 20
2457259.78457242948934436
 10
3842604.52764606615528464
 20
2457262.5
 10
3842587.5
 20
2457271.41654742881655693
 10
3842562.5
 20
2457283.93542033806443214
 10
3842559.35758018819615245
 20
2457287.5
 10
3842552.73150762263685465
 20
2457312.5
 10
3842552.19161665346473455
 20
2457337.5
 10
3842556.90185327176004648
 20
2457362.5
 10
3842556.45335223060101271
 20
2457387.5
 10
3842551.39914625883102417
 20
2457412.5
 10
3842543.86040431074798107
 20
2457437.5
 10
3842537.5
 20
2457452.01677461620420218
 10
3842533.44955573044717312
 20
2457462.5
 10
3842537.24878084845840931
 20
2457487.5
 10
3842537.5
 20
2457487.84163987124338746
 10
3842562.5
 20
2457503.23620027722790837
 10
3842587.5
 20
2457511.22638351144269109
 10
3842591.9348707552999258
 20
2457512.5
 10
3842612.5
 20
2457516.05858621280640364
 10
3842637.5
 20
2457520.39064646884799004
 10
3842662.5
 20
2457521.25338642159476876
 10
3842687.5
 20
2457522.32413424644619226
 10
3842712.5
 20
2457534.53871136205270886
 10
3842718.37977964989840984
 20
2457537.5
 10
3842737.5
 20
2457547.67731169238686562
 10
3842754.41183705581352115
 20
2457562.5
 10
3842762.5
 20
2457569.68644541967660189
 10
3842779.73640577960759401
 20
2457587.5
 10
3842787.5
 20
2457594.51075580948963761
 10
3842804.59198856120929122
 20
2457612.5
 10
3842812.5
 20
2457622.33224141364917159
 10
3842823.99815296195447445
 20
2457637.5
 10
3842837.5
 20
2457661.52088455064222217
 10
3842838.0904413815587759
 20
2457662.5
 10
3842842.9301558006554842
 20
2457687.5
 10
3842849.51334647741168737
 20
2457712.5
 10
3842856.79186563240364194
 20
2457737.5
 10
3842862.5
 20
2457757.15686041535809636
 10
3842863.72445978922769427
 20
2457762.5
 10
3842872.02928382018581033
 20
2457787.5
 10
3842881.88889665761962533
 20
2457812.5
 10
3842887.5
 20
2457826.46332126948982477
 10
3842892.52360134338960052
 20
2457837.5
 10
3842910.5392101644538343
 20
2457862.5
 10
3842912.5
 20
2457865.16581417806446552
 10
3842932.76850487804040313
 20
2457887.5
 10
3842937.5
 20
2457893.05301831709221005
 10
3842961.56594404764473438
 20
2457912.5
 10
3842962.5
 20
2457913.34220584202557802
 10
3842987.5
 20
2457924.86991522740572691
 10
3843012.5
 20
2457929.5302354721352458
 10
3843037.5
 20
2457928.91636344557628036
 10
3843062.5
 20
2457924.58898209873586893
 10
3843087.5
 20
2457913.71569385379552841
 10
3843090.29183311155065894
 20
2457912.5
 10
3843112.5
 20
2457902.65640369849279523
 10
3843135.91143221827223897
 20
2457887.5
 10
3843137.5
 20
2457886.48301622504368424
 10
3843162.5
 20
2457867.29847237328067422
 10
3843169.36868093116208911
 20
2457862.5
 10
3843187.5
 20
2457847.25962251098826528
 10
3843199.46867331163957715
 20
2457837.5
 10
3843212.5
 20
2457826.69093810487538576
 10
3843229.83644429454579949
 20
2457812.5
 10
3843237.5
 20
2457807.68368095066398382
 10
3843262.5
 20
2457789.9379100282676518
 10
3843265.91517051216214895
 20
2457787.5
 10
3843287.5
 20
2457775.15255351085215807
 10
3843307.86983858281746507
 20
2457762.5
 10
3843312.5
 20
2457760.07388811465352774
 10
3843337.5
 20
2457745.03618200588971376
 10
3843347.43884522607550025
 20
2457737.5
 10
3843362.5
 20
2457727.80038461554795504
 10
3843381.00692247552797198
 20
2457712.5
 10
3843387.5
 20
2457706.37022820301353931
 10
3843401.32023339299485087
 20
2457687.5
 10
3843412.5
 20
2457671.51300780102610588
 10
3843419.46755703492090106
 20
2457662.5
 10
3843434.27836681669577956
 20
2457637.5
 10
3843437.5
 20
2457630.36442016251385212
 10
3843445.63877252629026771
 20
2457612.5
 10
3843451.39723924733698368
 20
2457587.5
 10
3843454.49077985342592001
 20
2457562.5
 10
3843455.95918427966535091
 20
2457537.5
 10
3843456.05743386317044497
 20
2457512.5
 10
3843457.41348461806774139
 20
2457487.5
 10
3843457.2156938617117703
 20
2457462.5
 10
3843455.82380037056282163
 20
2457437.5
 10
3843454.41049085650593042
 20
2457412.5
 10
3843452.29713559756055474
 20
2457387.5
 10
3843449.79065723810344934
 20
2457362.5
 10
3843448.12142541306093335
 20
2457337.5
 10
3843445.04703524615615606
 20
2457312.5
 10
3843439.84373839572072029
 20
2457287.5
 10
3843437.5
 20
2457279.04815469495952129
 10
3843433.82634920999407768
 20
2457262.5
 10
3843426.44996284693479538
 20
2457237.5
 10
3843415.11481175012886524
 20
2457212.5
 10
3843412.5
 20
2457207.38070692215114832
 10
3843402.96700987964868546
 20
2457187.5
 10
3843387.5
 20
2457164.29112622933462262
 10
3843386.20354745909571648
 20
2457162.5
 10
3843365.35719437757506967
 20
2457137.5
 10
3843362.5
 20
2457134.49278800515457988
 10
3843340.29225756973028183
 20
2457112.5
 10
3843337.5
 20
2457110.03155442606657743
 10
3843312.5
 20
2457089.39177240524441004
 10
3843310.27241379301995039
 20
2457087.5
 10
3843287.5
 20
2457070.43147377390414476
 10
3843277.09578284248709679
 20
2457062.5
 10
3843262.5
 20
2457052.39585289172828197
 10
3843238.76591135002672672
 20
2457037.5
 10
3843237.5
 20
2457036.77509201224893332
 10
3843212.5
 20
2457023.25014425860717893
 10
3843192.41900465032085776
 20
2457012.5
 10
3843187.5
 20
2457009.90311295865103602
 10
3843162.5
 20
2456997.38794500660151243
 10
3843138.19074057880789042
 20
2456987.5
  0
LWPOLYLINE
  5
98
  8
Contours
100
AcDbEntity
100
AcDbPolyline
  6
CONTINUOUS
420
15156120
 90
    60
 70
   128
 43
13.0
 10
3843900.0
 20
2455938.20415462832897902
 10
3843887.5
 20
2455938.20415462832897902
 10
3843862.5
 20
2455956.84792573936283588
 10
3843852.40833196928724647
 20
2455962.5
 10
3843837.5
 20
2455971.37194973463192582
 10
3843812.5
 20
2455982.60672739241272211
 10
3843787.5
 20
2455987.33592989295721054
 10
3843762.5
 20
2455983.42095897486433387
 10
3843737.5
 20
2455976.92205106467008591
 10
3843712.5
 20
2455968.60459559829905629
 10
3843687.5
 20
2455964.02250146120786667
 10
3843662.5
 20
2455965.04164754040539265
 10
3843637.5
 20
2455966.50035043945536017
 10
3843612.5
 20
2455973.87900499114766717
 10
3843587.5
 20
2455982.41270265448838472
 10
3843572.9956519971601665
 20
2455987.5
 10
3843562.5
 20
2455992.05047964677214622
 10
3843537.5
 20
2456005.47409167559817433
 10
3843528.11341525847092271
 20
2456012.5
 10
3843512.5
 20
2456029.13085213163867593
 10
3843507.894270827062428
 20
2456037.5
 10
3843500.12286684429273009
 20
2456062.5
 10
3843496.41137081058695912
 20
2456087.5
 10
3843492.86983468569815159
 20
2456112.5
 10
3843489.97967424476519227
 20
2456137.5
 10
3843487.5
 20
2456150.73838706174865365
 10
3843485.74959525093436241
 20
2456162.5
 10
3843480.16108781564980745
 20
2456187.5
 10
3843475.41243237163871527
 20
2456212.5
 10
3843471.12486402504146099
 20
2456237.5
 10
3843468.13239829055964947
 20
2456262.5
 10
3843468.90293423272669315
 20
2456287.5
 10
3843473.5831234254874289
 20
2456312.5
 10
3843479.80298343952745199
 20
2456337.5
 10
3843485.46950107719749212
 20
2456362.5
 10
3843487.5
 20
2456373.79531958838924766
 10
3843491.66928480053320527
 20
2456387.5
 10
3843500.45123292179778218
 20
2456412.5
 10
3843511.38762440299615264
 20
2456437.5
 10
3843512.5
 20
2456439.46670217392966151
 10
3843532.53105057310312986
 20
2456462.5
 10
3843537.5
 20
2456467.17917030164971948
 10
3843562.5
 20
2456480.66072694445028901
 10
3843587.5
 20
2456479.9336941922083497
 10
3843612.5
 20
2456470.06539476849138737
 10
3843626.60435657948255539
 20
2456462.5
 10
3843637.5
 20
2456455.46088880859315395
 10
3843657.79320515180006623
 20
2456437.5
 10
3843662.5
 20
2456433.71091375127434731
 10
3843687.5
 20
2456416.00072036078199744
 10
3843693.01239205757156014
 20
2456412.5
 10
3843712.5
 20
2456403.19712602207437158
 10
3843737.5
 20
2456395.49960423167794943
 10
3843762.5
 20
2456391.85928488476201892
 10
3843787.5
 20
2456390.09627897990867496
 10
3843812.5
 20
2456389.78268694318830967
 10
3843837.5
 20
2456391.83611941849812865
 10
3843862.5
 20
2456395.08552164025604725
 10
3843887.5
 20
2456400.59535967605188489
 10
3843900.0
 20
2456400.59535967605188489
  0
LWPOLYLINE
  5
99
  8
Contours
100
AcDbEntity
100
AcDbPolyline
  6
CONTINUOUS
420
15156120
 90
    13
 70
   129
 43
13.0
 10
3836337.68310723034664989
 20
2455962.5
 10
3836337.5
 20
2455962.1859529702924192
 10
3836312.5
 20
2455948.50592306675389409
 10
3836287.5
 20
2455955.20255863526836038
 10
3836276.97570725716650486
 20
2455962.5
 10
3836277.93859649123623967
 20
2455987.5
 10
3836287.5
 20
2455997.57393715344369411
 10
3836310.98901098920032382
 20
2456012.5
 10
3836312.5
 20
2456012.76432589814066887
 10
3836313.53612588671967387
 20
2456012.5
 10
3836337.5
 20
2455991.82600382389500737
 10
3836339.2674400438554585
 20
2455987.5
 10
3836337.68310723034664989
 20
2455962.5
  0
LWPOLYLINE
  5
9a
  8
Contours
100
AcDbEntity
100
AcDbPolyline
  6
CONTINUOUS
420
15156120
 90
   849
 70
   128
 43
13.0
 10
3841129.22920848801732063
 20
2460950.0
 10
3841129.22920848801732063
 20
2460937.5
 10
3841137.5
 20
2460921.01214530179277062
 10
3841146.01214530179277062
 20
2460912.5
 10
3841161.30584382964298129
 20
2460887.5
 10
3841162.5
 20
2460884.87981509231030941
 10
3841178.48996026674285531
 20
2460862.5
 10
3841187.5
 20
2460849.07282579969614744
 10
3841195.33470175182446837
 20
2460837.5
 10
3841210.39278627280145884
 20
2460812.5
 10
3841212.5
 20
2460809.77060371031984687
 10
3841234.20965364761650562
 20
2460787.5
 10
3841237.5
 20
2460785.20604494400322437
 10
3841262.5
 20
2460773.63054800732061267
 10
3841285.12537687877193093
 20
2460762.5
 10
3841287.5
 20
2460761.50564759410917759
 10
3841312.5
 20
2460753.7335913279093802
 10
3841337.5
 20
2460743.90538800368085504
 10
3841350.42902292078360915
 20
2460737.5
 10
3841362.5
 20
2460729.35338383354246616
 10
3841377.57148459786549211
 20
2460712.5
 10
3841381.45895230211317539
 20
2460687.5
 10
3841374.37638707319274545
 20
2460662.5
 10
3841362.5
 20
2460641.88087195204570889
 10
3841360.57582337781786919
 20
2460637.5
 10
3841345.94232445396482944
 20
2460612.5
 10
3841340.08969613164663315
 20
2460587.5
 10
3841337.5
 20
2460570.24261317448690534
 10
3841336.37733377004042268
 20
2460562.5
 10
3841331.65251903049647808
 20
2460537.5
 10
3841325.4435969078913331
 20
2460512.5
 10
3841315.63004140695556998
 20
2460487.5
 10
3841312.5
 20
2460481.42387389717623591
 10
3841287.5
 20
2460474.78326871013268828
 10
3841262.5
 20
2460464.62678811606019735
 10
3841259.29011662257835269
 20
2460462.5
 10
3841239.59312190022319555
 20
2460437.5
 10
3841237.5
 20
2460431.67242005793377757
 10
3841231.84848971711471677
 20
2460412.5
 10
3841230.5051985252648592
 20
2460387.5
 10
3841234.72820500284433365
 20
2460362.5
 10
3841237.5
 20
2460356.68664339603856206
 10
3841249.1749960957095027
 20
2460337.5
 10
3841262.5
 20
2460317.38684582756832242
 10
3841268.16176872234791517
 20
2460312.5
 10
3841285.0757423504255712
 20
2460287.5
 10
3841282.5324047370813787
 20
2460262.5
 10
3841272.60942198475822806
 20
2460237.5
 10
3841262.5
 20
2460223.7227939167059958
 10
3841256.42514726519584656
 20
2460212.5
 10
3841237.5
 20
2460188.24699936807155609
 10
3841236.91718622948974371
 20
2460187.5
 10
3841213.1873372495174408
 20
2460162.5
 10
3841212.5
 20
2460161.89581059850752354
 10
3841187.5
 20
2460144.51916553592309356
 10
3841172.16085989633575082
 20
2460137.5
 10
3841162.5
 20
2460134.3965065605007112
 10
3841137.5
 20
2460131.00937724160030484
 10
3841112.5
 20
2460128.34659990016371012
 10
3841087.5
 20
2460127.72432550974190235
 10
3841062.5
 20
2460128.51843258272856474
 10
3841037.5
 20
2460132.00441732769832015
 10
3841012.5
 20
2460135.37668761890381575
 10
3840999.26712210290133953
 20
2460137.5
 10
3840987.5
 20
2460139.32521159434691072
 10
3840962.5
 20
2460142.3007372859865427
 10
3840937.5
 20
2460146.62401911988854408
 10
3840912.5
 20
2460152.63323054416105151
 10
3840887.5
 20
2460156.65005680080503225
 10
3840862.5
 20
2460160.94493036670610309
 10
3840849.54686118476092815
 20
2460162.5
 10
3840837.5
 20
2460163.29181049996986985
 10
3840824.64622641494497657
 20
2460162.5
 10
3840812.5
 20
2460161.3771541197784245
 10
3840787.5
 20
2460157.36870077345520258
 10
3840762.5
 20
2460152.08421446476131678
 10
3840737.5
 20
2460146.92948190774768591
 10
3840712.5
 20
2460140.14509047148749232
 10
3840706.09348198957741261
 20
2460137.5
 10
3840687.5
 20
2460127.9812082895077765
 10
3840662.5
 20
2460116.99228625325486064
 10
3840651.83808464556932449
 20
2460112.5
 10
3840637.5
 20
2460104.91972920717671514
 10
3840612.5
 20
2460093.43220338970422745
 10
3840596.09354719100520015
 20
2460087.5
 10
3840587.5
 20
2460083.44560310756787658
 10
3840562.5
 20
2460069.48597858985885978
 10
3840551.6643730541691184
 20
2460062.5
 10
3840537.5
 20
2460052.1645101816393435
 10
3840518.17037712084129453
 20
2460037.5
 10
3840512.5
 20
2460033.52154220920056105
 10
3840487.5
 20
2460015.24631726974621415
 10
3840484.78499502362683415
 20
2460012.5
 10
3840462.5
 20
2459991.26429567625746131
 10
3840458.10966881364583969
 20
2459987.5
 10
3840437.5
 20
2459972.10005104960873723
 10
3840424.26278344821184874
 20
2459962.5
 10
3840412.5
 20
2459954.64748430857434869
 10
3840387.5
 20
2459937.99828857276588678
 10
3840386.72626672824844718
 20
2459937.5
 10
3840362.5
 20
2459920.30512458411976695
 10
3840353.22062696190550923
 20
2459912.5
 10
3840337.5
 20
2459900.04089844413101673
 10
3840319.01497850613668561
 20
2459887.5
 10
3840312.5
 20
2459883.97690620087087154
 10
3840287.5
 20
2459862.55424372712150216
 10
3840287.44590760301798582
 20
2459862.5
 10
3840263.70860258489847183
 20
2459837.5
 10
3840262.5
 20
2459836.27831213176250458
 10
3840242.31602256651967764
 20
2459812.5
 10
3840237.5
 20
2459807.68300925428047776
 10
3840224.20280787022784352
 20
2459787.5
 10
3840216.01178963202983141
 20
2459762.5
 10
3840212.5
 20
2459758.98670605616644025
 10
3840203.07029414130374789
 20
2459737.5
 10
3840212.5
 20
2459715.24250063113868237
 10
3840215.24373909318819642
 20
2459712.5
 10
3840222.04656602162867785
 20
2459687.5
 10
3840224.1796751469373703
 20
2459662.5
 10
3840227.31849081069231033
 20
2459637.5
 10
3840237.5
 20
2459618.00331134721636772
 10
3840243.00441937427967787
 20
2459612.5
 10
3840246.20733869774267077
 20
2459587.5
 10
3840245.21848041564226151
 20
2459562.5
 10
3840245.32031624624505639
 20
2459537.5
 10
3840250.34943847451359034
 20
2459512.5
 10
3840244.37552841007709503
 20
2459487.5
 10
3840262.5
 20
2459469.21211519511416554
 10
3840265.90042025595903397
 20
2459462.5
 10
3840262.5
 20
2459450.83312028646469116
 10
3840258.40974276233464479
 20
2459462.5
 10
3840237.5
 20
2459483.29548594728112221
 10
3840212.5
 20
2459464.64279588358476758
 10
3840210.84140998404473066
 20
2459462.5
 10
3840212.5
 20
2459459.59686040319502354
 10
3840237.5
 20
2459441.36406465154141188
 10
3840248.74706626916304231
 20
2459437.5
 10
3840262.5
 20
2459429.66729495534673333
 10
3840281.6427183817140758
 20
2459412.5
 10
3840287.5
 20
2459408.80566587811335921
 10
3840312.5
 20
2459389.62959141563624144
 10
3840314.79516946896910667
 20
2459387.5
 10
3840337.5
 20
2459366.52174061955884099
 10
3840341.49275096226483583
 20
2459362.5
 10
3840362.5
 20
2459341.56932625081390142
 10
3840366.26344086043536663
 20
2459337.5
 10
3840387.5
 20
2459313.48563006613403559
 10
3840388.47496355278417468
 20
2459312.5
 10
3840411.49743440328165889
 20
2459287.5
 10
3840412.5
 20
2459286.36857680417597294
 10
3840435.8276054454036057
 20
2459262.5
 10
3840437.5
 20
2459260.73602519556879997
 10
3840460.76077326200902462
 20
2459237.5
 10
3840462.5
 20
2459235.1682251850143075
 10
3840487.5
 20
2459219.13935304898768663
 10
3840494.40644122613593936
 20
2459212.5
 10
3840512.5
 20
2459193.75451289582997561
 10
3840518.29343740362673998
 20
2459187.5
 10
3840536.19094679551199079
 20
2459162.5
 10
3840537.5
 20
2459158.69227144215255976
 10
3840546.69970541307702661
 20
2459137.5
 10
3840562.5
 20
2459116.8046623794361949
 10
3840565.87542547378689051
 20
2459112.5
 10
3840587.5
 20
2459097.86654723295941949
 10
3840612.5
 20
2459091.31728593120351434
 10
3840624.94629179919138551
 20
2459087.5
 10
3840637.5
 20
2459084.53860391350463033
 10
3840662.5
 20
2459081.35041396273300052
 10
3840687.5
 20
2459081.81435603322461247
 10
3840712.5
 20
2459081.34698521066457033
 10
3840737.5
 20
2459079.27162673929706216
 10
3840762.5
 20
2459072.1803266229107976
 10
3840778.04869540967047215
 20
2459062.5
 10
3840787.5
 20
2459056.88329187408089638
 10
3840812.5
 20
2459043.74318321514874697
 10
3840821.4906331212259829
 20
2459037.5
 10
3840837.5
 20
2459019.59574909787625074
 10
3840843.38060136046260595
 20
2459012.5
 10
3840858.68122246069833636
 20
2458987.5
 10
3840862.5
 20
2458982.34268668573349714
 10
3840875.28158908616751432
 20
2458962.5
 10
3840887.5
 20
2458943.34514637896791101
 10
3840892.27313906094059348
 20
2458937.5
 10
3840912.5
 20
2458913.47372511494904757
 10
3840913.28596245730295777
 20
2458912.5
 10
3840932.98410945571959019
 20
2458887.5
 10
3840937.5
 20
2458880.22632721345871687
 10
3840948.51371094631031156
 20
2458862.5
 10
3840961.9188121110200882
 20
2458837.5
 10
3840962.5
 20
2458836.22917723236605525
 10
3840974.78514875471591949
 20
2458812.5
 10
3840986.31410691281780601
 20
2458787.5
 10
3840987.5
 20
2458784.79643519967794418
 10
3840998.75790644995868206
 20
2458762.5
 10
3841010.41311754705384374
 20
2458737.5
 10
3841012.5
 20
2458733.04221251839771867
 10
3841023.51463414635509253
 20
2458712.5
 10
3841036.08091468131169677
 20
2458687.5
 10
3841037.5
 20
2458684.75228914944455028
 10
3841050.58285031234845519
 20
2458662.5
 10
3841062.5
 20
2458644.17142819333821535
 10
3841067.87877495307475328
 20
2458637.5
 10
3841084.2903866320848465
 20
2458612.5
 10
3841087.5
 20
2458606.7803749768063426
 10
3841099.58777489699423313
 20
2458587.5
 10
3841112.5
 20
2458562.53898563096299767
 10
3841112.52312877215445042
 20
2458562.5
 10
3841124.06528629129752517
 20
2458537.5
 10
3841130.02389284130185843
 20
2458512.5
 10
3841132.55359149444848299
 20
2458487.5
 10
3841132.77619844721630216
 20
2458462.5
 10
3841132.88316533993929625
 20
2458437.5
 10
3841132.19717119866982102
 20
2458412.5
 10
3841133.03381441393867135
 20
2458387.5
 10
3841134.23495840188115835
 20
2458362.5
 10
3841134.84442328894510865
 20
2458337.5
 10
3841135.04199972236528993
 20
2458312.5
 10
3841134.62213664082810283
 20
2458287.5
 10
3841132.42547830520197749
 20
2458262.5
 10
3841130.48012400418519974
 20
2458237.5
 10
3841125.81019814172759652
 20
2458212.5
 10
3841118.63134565530344844
 20
2458187.5
 10
3841112.5
 20
2458172.88427033508196473
 10
3841107.45508365798741579
 20
2458162.5
 10
3841096.36122544575482607
 20
2458137.5
 10
3841087.5
 20
2458116.21211512200534344
 10
3841085.71179614262655377
 20
2458112.5
 10
3841079.81820548418909311
 20
2458087.5
 10
3841087.5
 20
2458066.68038570089265704
 10
3841102.3125
 20
2458062.5
 10
3841112.5
 20
2458061.63787023955956101
 10
3841115.14553127018734813
 20
2458062.5
 10
3841137.5
 20
2458070.71994111547246575
 10
3841159.24193215789273381
 20
2458087.5
 10
3841162.5
 20
2458090.0155230057425797
 10
3841187.5
 20
2458100.82760455040261149
 10
3841212.5
 20
2458103.24021012429147959
 10
3841233.47225757176056504
 20
2458087.5
 10
3841227.32314710645005107
 20
2458062.5
 10
3841219.20065549900755286
 20
2458037.5
 10
3841212.5
 20
2458024.116791354957968
 10
3841208.62343966728076339
 20
2458012.5
 10
3841203.34406294720247388
 20
2457987.5
 10
3841203.29558049328625202
 20
2457962.5
 10
3841209.21447882242500782
 20
2457937.5
 10
3841212.5
 20
2457928.04258538689464331
 10
3841218.94034396251663566
 20
2457912.5
 10
3841216.06030262587592006
 20
2457887.5
 10
3841237.5
 20
2457867.80940897576510906
 10
3841243.53849014500156045
 20
2457862.5
 10
3841262.5
 20
2457854.27023646188899875
 10
3841287.5
 20
2457837.61688778782263398
 10
3841287.61555327288806438
 20
2457837.5
 10
3841297.06657039420679212
 20
2457812.5
 10
3841305.69620253145694733
 20
2457787.5
 10
3841312.5
 20
2457778.46286605065688491
 10
3841324.31007496500387788
 20
2457762.5
 10
3841337.5
 20
2457745.7378036011941731
 10
3841343.24487113952636719
 20
2457737.5
 10
3841362.5
 20
2457713.93622961826622486
 10
3841364.45179698895663023
 20
2457712.5
 10
3841387.5
 20
2457702.2200184129178524
 10
3841398.58940883679315448
 20
2457687.5
 10
3841406.87511765072122216
 20
2457662.5
 10
3841412.5
 20
2457644.4730028654448688
 10
3841414.41241761576384306
 20
2457637.5
 10
3841426.45743795903399587
 20
2457612.5
 10
3841436.25622608838602901
 20
2457587.5
 10
3841437.5
 20
2457582.42907175235450268
 10
3841444.59072441328316927
 20
2457562.5
 10
3841451.4480033777654171
 20
2457537.5
 10
3841457.75195785006508231
 20
2457512.5
 10
3841462.5
 20
2457505.40180213330313563
 10
3841471.89127918193116784
 20
2457487.5
 10
3841484.76722304057329893
 20
2457462.5
 10
3841487.5
 20
2457460.07525892928242683
 10
3841508.12113174190744758
 20
2457437.5
 10
3841512.5
 20
2457433.58668167982250452
 10
3841529.24851727485656738
 20
2457412.5
 10
3841537.5
 20
2457403.94794614100828767
 10
3841562.5
 20
2457392.4032220677472651
 10
3841567.93947848910465837
 20
2457387.5
 10
3841587.5
 20
2457363.53648163331672549
 10
3841589.08937198063358665
 20
2457362.5
 10
3841612.5
 20
2457342.85511593986302614
 10
3841628.6926942877471447
 20
2457337.5
 10
3841637.5
 20
2457333.81991395214572549
 10
3841662.5
 20
2457320.59654727531597018
 10
3841671.25809935200959444
 20
2457312.5
 10
3841687.5
 20
2457298.22930047893896699
 10
3841700.08734073163941503
 20
2457287.5
 10
3841712.5
 20
2457276.04469591611996293
 10
3841727.28963172622025013
 20
2457262.5
 10
3841737.5
 20
2457256.27786892140284181
 10
3841760.31386553542688489
 20
2457237.5
 10
3841762.5
 20
2457235.48753234511241317
 10
3841785.55587013950571418
 20
2457212.5
 10
3841787.5
 20
2457210.30792764015495777
 10
3841806.83232614770531654
 20
2457187.5
 10
3841812.5
 20
2457177.08997722109779716
 10
3841824.30348467081785202
 20
2457162.5
 10
3841837.5
 20
2457150.12139736628159881
 10
3841849.63290833262726665
 20
2457137.5
 10
3841862.5
 20
2457125.58807898871600628
 10
3841877.95633216621354222
 20
2457112.5
 10
3841887.5
 20
2457104.55748137552291155
 10
3841906.29847309738397598
 20
2457087.5
 10
3841912.5
 20
2457081.83575915219262242
 10
3841934.56983134336769581
 20
2457062.5
 10
3841937.5
 20
2457058.51447718869894743
 10
3841954.29051966778934002
 20
2457037.5
 10
3841962.5
 20
2457028.46737036900594831
 10
3841983.19910897873342037
 20
2457012.5
 10
3841987.5
 20
2457009.9433967755176127
 10
3842012.5
 20
2456991.52867453917860985
 10
3842021.02600405272096395
 20
2456987.5
 10
3842037.5
 20
2456978.23205308057367802
 10
3842053.76008277712389827
 20
2456962.5
 10
3842062.5
 20
2456953.8857789421454072
 10
3842080.64375206083059311
 20
2456937.5
 10
3842087.5
 20
2456930.26771119516342878
 10
3842104.15987281920388341
 20
2456912.5
 10
3842112.5
 20
2456903.37063611065968871
 10
3842127.38051409041509032
 20
2456887.5
 10
3842137.5
 20
2456878.41851139860227704
 10
3842153.80441470537334681
 20
2456862.5
 10
3842162.5
 20
2456855.0858405688777566
 10
3842183.91932907328009605
 20
2456837.5
 10
3842187.5
 20
2456834.5338758765719831
 10
3842212.5
 20
2456814.19387252908200026
 10
3842214.19345579808577895
 20
2456812.5
 10
3842237.5
 20
2456791.81536427373066545
 10
3842241.81630672188475728
 20
2456787.5
 10
3842262.5
 20
2456767.5329124596901238
 10
3842267.62047474924474955
 20
2456762.5
 10
3842287.5
 20
2456741.68070635199546814
 10
3842291.73214917397126555
 20
2456737.5
 10
3842312.5
 20
2456719.14429754996672273
 10
3842319.21720136376097798
 20
2456712.5
 10
3842337.5
 20
2456695.79758270783349872
 10
3842345.88177386065945029
 20
2456687.5
 10
3842362.5
 20
2456669.97363216895610094
 10
3842370.05430437112227082
 20
2456662.5
 10
3842387.5
 20
2456642.85379305155947804
 10
3842392.88666733773425221
 20
2456637.5
 10
3842412.5
 20
2456617.56407632865011692
 10
3842417.79472332913428545
 20
2456612.5
 10
3842437.5
 20
2456589.81806427799165249
 10
3842439.83553549833595753
 20
2456587.5
 10
3842450.66801182413473725
 20
2456562.5
 10
3842462.5
 20
2456543.84686878230422735
 10
3842468.88767390372231603
 20
2456537.5
 10
3842473.35869388096034527
 20
2456512.5
 10
3842469.72890788409858942
 20
2456487.5
 10
3842462.5
 20
2456480.2252527354285121
 10
3842452.38791531370952725
 20
2456462.5
 10
3842449.28213175339624286
 20
2456437.5
 10
3842444.69229531055316329
 20
2456412.5
 10
3842437.5
 20
2456405.26051089586690068
 10
3842426.95243593445047736
 20
2456387.5
 10
3842420.90252661611884832
 20
2456362.5
 10
3842412.5
 20
2456353.99194068321958184
 10
3842403.9422883908264339
 20
2456337.5
 10
3842403.21821732958778739
 20
2456312.5
 10
3842401.75107899820432067
 20
2456287.5
 10
3842387.5
 20
2456273.18790032481774688
 10
3842381.97563674626871943
 20
2456262.5
 10
3842382.84237018227577209
 20
2456237.5
 10
3842387.5
 20
2456230.72937556589022279
 10
3842405.831681570969522
 20
2456212.5
 10
3842407.87376683624461293
 20
2456187.5
 10
3842408.36472340254113078
 20
2456162.5
 10
3842408.63549223495647311
 20
2456137.5
 10
3842408.84618973359465599
 20
2456112.5
 10
3842409.09293008642271161
 20
2456087.5
 10
3842409.91700395103543997
 20
2456062.5
 10
3842412.5
 20
2456058.60489871259778738
 10
3842433.71743926126509905
 20
2456037.5
 10
3842437.5
 20
2456031.96531637432053685
 10
3842457.01621372532099485
 20
2456012.5
 10
3842459.48680429626256227
 20
2455987.5
 10
3842462.5
 20
2455983.25486959097906947
 10
3842483.25486959097906947
 20
2455962.5
 10
3842487.5
 20
2455957.4379266002215445
 10
3842507.58275126805528998
 20
2455937.5
 10
3842512.5
 20
2455931.71148319728672504
 10
3842531.82185494527220726
 20
2455912.5
 10
3842537.5
 20
2455906.92465626494958997
 10
3842562.5
 20
2455899.1133082234300673
 10
3842587.5
 20
2455889.78242739383131266
 10
3842589.83829220477491617
 20
2455887.5
 10
3842612.5
 20
2455876.11334882210940123
 10
3842636.01779949385672808
 20
2455862.5
 10
3842637.5
 20
2455858.72458050912246108
 10
3842657.16031909408047795
 20
2455837.5
 10
3842662.5
 20
2455837.00581118417903781
 10
3842687.5
 20
2455835.21810733806341887
 10
3842698.27436798065900803
 20
2455837.5
 10
3842712.5
 20
2455848.03604436246678233
 10
3842737.5
 20
2455843.14659856539219618
 10
3842762.5
 20
2455844.6085843313485384
 10
3842787.5
 20
2455853.5753178340382874
 10
3842792.06222570315003395
 20
2455862.5
 10
3842787.5
 20
2455872.18451137747615576
 10
3842773.68081729812547565
 20
2455887.5
 10
3842762.5
 20
2455898.43355965102091432
 10
3842737.5
 20
2455906.8295323015190661
 10
3842731.77380952378734946
 20
2455912.5
 10
3842712.5
 20
2455922.12607022421434522
 10
3842687.5
 20
2455924.20874424697831273
 10
3842662.5
 20
2455928.91443002503365278
 10
3842653.91443002503365278
 20
2455937.5
 10
3842637.5
 20
2455946.83033656049519777
 10
3842612.5
 20
2455953.32660582661628723
 10
3842603.48077785829082131
 20
2455962.5
 10
3842587.5
 20
2455972.07241193996742368
 10
3842562.5
 20
2455982.72459800820797682
 10
3842557.8227917579934001
 20
2455987.5
 10
3842537.5
 20
2456005.68379297340288758
 10
3842530.8069332642480731
 20
2456012.5
 10
3842512.5
 20
2456032.22500899294391274
 10
3842507.4224761463701725
 20
2456037.5
 10
3842489.20274792797863483
 20
2456062.5
 10
3842487.5
 20
2456065.87382790260016918
 10
3842476.62437473936006427
 20
2456087.5
 10
3842471.19246380962431431
 20
2456112.5
 10
3842462.5
 20
2456128.06793979834765196
 10
3842453.2594936708919704
 20
2456137.5
 10
3842450.17140140943229198
 20
2456162.5
 10
3842451.20461596781387925
 20
2456187.5
 10
3842452.65790958981961012
 20
2456212.5
 10
3842455.06775027047842741
 20
2456237.5
 10
3842462.5
 20
2456258.46931423246860504
 10
3842463.08971624169498682
 20
2456262.5
 10
3842474.34079188155010343
 20
2456287.5
 10
3842487.5
 20
2456307.70331017579883337
 10
3842489.12524231523275375
 20
2456312.5
 10
3842503.22888170415535569
 20
2456337.5
 10
3842512.5
 20
2456350.32099048513919115
 10
3842519.4957526670768857
 20
2456362.5
 10
3842533.66016859840601683
 20
2456387.5
 10
3842537.5
 20
2456394.23368319915607572
 10
3842542.65724779851734638
 20
2456412.5
 10
3842555.98821862507611513
 20
2456437.5
 10
3842562.5
 20
2456456.89082187041640282
 10
3842563.41239846590906382
 20
2456462.5
 10
3842564.14647041074931622
 20
2456487.5
 10
3842563.31389060011133552
 20
2456512.5
 10
3842562.91411774046719074
 20
2456537.5
 10
3842563.27986725652590394
 20
2456562.5
 10
3842562.5
 20
2456585.50163132138550282
 10
3842562.33347493642941117
 20
2456587.5
 10
3842556.52008363883942366
 20
2456612.5
 10
3842548.99051885493099689
 20
2456637.5
 10
3842537.5
 20
2456655.65036956267431378
 10
3842530.73010227316990495
 20
2456662.5
 10
3842521.9638420776464045
 20
2456687.5
 10
3842512.5
 20
2456700.27421699464321136
 10
3842500.32309679314494133
 20
2456712.5
 10
3842487.5
 20
2456726.7674733642488718
 10
3842476.7674733642488718
 20
2456737.5
 10
3842462.5
 20
2456749.07596506597474217
 10
3842449.12443947838619351
 20
2456762.5
 10
3842437.5
 20
2456773.35210002772510052
 10
3842423.53976660827174783
 20
2456787.5
 10
3842412.5
 20
2456797.41320740850642323
 10
3842397.50243383040651679
 20
2456812.5
 10
3842387.5
 20
2456820.98105575982481241
 10
3842362.5
 20
2456831.18407892342656851
 10
3842356.2532318620942533
 20
2456837.5
 10
3842337.5
 20
2456851.63819112535566092
 10
3842326.77094495063647628
 20
2456862.5
 10
3842312.5
 20
2456875.28843845659866929
 10
3842300.28843845659866929
 20
2456887.5
 10
3842287.5
 20
2456897.04346974194049835
 10
3842262.5
 20
2456908.77639658516272902
 10
3842258.77639658516272902
 20
2456912.5
 10
3842237.5
 20
2456928.54682028712704778
 10
3842228.54833700368180871
 20
2456937.5
 10
3842212.5
 20
2456953.30762385064736009
 10
3842203.31154209654778242
 20
2456962.5
 10
3842187.5
 20
2456975.67319272458553314
 10
3842167.68073380272835493
 20
2456987.5
 10
3842162.5
 20
2456992.26680792309343815
 10
3842137.5
 20
2457011.14891081443056464
 10
3842136.1492477348074317
 20
2457012.5
 10
3842112.5
 20
2457032.99870310770347714
 10
3842102.46278048539534211
 20
2457037.5
 10
3842087.5
 20
2457046.50854425271973014
 10
3842070.51804423751309514
 20
2457062.5
 10
3842062.5
 20
2457071.15327765885740519
 10
3842045.58770118886604905
 20
2457087.5
 10
3842037.5
 20
2457097.6897789123468101
 10
3842025.26413705293089151
 20
2457112.5
 10
3842012.5
 20
2457128.00415699928998947
 10
3842005.02530248835682869
 20
2457137.5
 10
3841987.5
 20
2457156.53384437365457416
 10
3841982.29767224006354809
 20
2457162.5
 10
3841962.5
 20
2457182.27700586710125208
 10
3841957.53371324902400374
 20
2457187.5
 10
3841938.46675312425941229
 20
2457212.5
 10
3841937.5
 20
2457213.39208006951957941
 10
3841919.95655702007934451
 20
2457237.5
 10
3841912.5
 20
2457255.73748668795451522
 10
3841907.69303557928651571
 20
2457262.5
 10
3841887.5
 20
2457283.73652022890746593
 10
3841884.35439477348700166
 20
2457287.5
 10
3841865.40438743820413947
 20
2457312.5
 10
3841862.5
 20
2457318.24850148614495993
 10
3841848.87773104757070541
 20
2457337.5
 10
3841837.5
 20
2457351.93346746824681759
 10
3841829.34520901646465063
 20
2457362.5
 10
3841812.70892418222501874
 20
2457387.5
 10
3841812.5
 20
2457387.87690156232565641
 10
3841797.32191665610298514
 20
2457412.5
 10
3841787.5
 20
2457435.54410023661330342
 10
3841785.97582071181386709
 20
2457437.5
 10
3841771.38119103759527206
 20
2457462.5
 10
3841762.5
 20
2457470.32721662893891335
 10
3841737.5
 20
2457482.47095010243356228
 10
3841730.60579085443168879
 20
2457487.5
 10
3841712.5
 20
2457499.10510510532185435
 10
3841698.22091683186590672
 20
2457512.5
 10
3841687.5
 20
2457521.77752230037003756
 10
3841662.5
 20
2457536.32821105979382992
 10
3841660.81123987957835197
 20
2457537.5
 10
3841640.13481494830921292
 20
2457562.5
 10
3841637.5
 20
2457570.74418168189004064
 10
3841633.08044554432854056
 20
2457587.5
 10
3841628.82514041056856513
 20
2457612.5
 10
3841625.45673543307930231
 20
2457637.5
 10
3841620.61441597901284695
 20
2457662.5
 10
3841612.55494022509083152
 20
2457687.5
 10
3841612.5
 20
2457687.71999296033754945
 10
3841606.38994966167956591
 20
2457712.5
 10
3841590.30847145477309823
 20
2457737.5
 10
3841587.5
 20
2457739.81361074978485703
 10
3841562.5
 20
2457756.09897769521921873
 10
3841557.1579539286904037
 20
2457762.5
 10
3841541.94190354878082871
 20
2457787.5
 10
3841537.5
 20
2457794.44532452244311571
 10
3841528.57606263970956206
 20
2457812.5
 10
3841517.17094073025509715
 20
2457837.5
 10
3841512.5
 20
2457859.31707068672403693
 10
3841511.72414221148937941
 20
2457862.5
 10
3841512.5
 20
2457866.3762093773111701
 10
3841516.95368481613695621
 20
2457887.5
 10
3841521.87718412652611732
 20
2457912.5
 10
3841536.29592029470950365
 20
2457937.5
 10
3841537.5
 20
2457939.68733916617929935
 10
3841552.15935398545116186
 20
2457962.5
 10
3841562.5
 20
2457986.63172112172469497
 10
3841563.22705730283632874
 20
2457987.5
 10
3841569.90979381464421749
 20
2458012.5
 10
3841569.29492130922153592
 20
2458037.5
 10
3841563.32421905733644962
 20
2458062.5
 10
3841562.5
 20
2458065.83598726103082299
 10
3841550.01376651972532272
 20
2458087.5
 10
3841538.68946833722293377
 20
2458112.5
 10
3841537.5
 20
2458114.05008826125413179
 10
3841515.52419354859739542
 20
2458137.5
 10
3841512.5
 20
2458139.2692959108389914
 10
3841490.49392619775608182
 20
2458162.5
 10
3841487.5
 20
2458165.8910955348983407
 10
3841471.29489925038069487
 20
2458187.5
 10
3841462.5
 20
2458202.28481426928192377
 10
3841461.35462918784469366
 20
2458212.5
 10
3841458.91611816314980388
 20
2458237.5
 10
3841451.07847266970202327
 20
2458262.5
 10
3841444.09880771161988378
 20
2458287.5
 10
3841437.5
 20
2458304.9962165798060596
 10
3841436.63809753721579909
 20
2458312.5
 10
3841431.32595060765743256
 20
2458337.5
 10
3841412.5
 20
2458359.77181820804253221
 10
3841410.5005310676060617
 20
2458362.5
 10
3841403.00968159595504403
 20
2458387.5
 10
3841387.5
 20
2458408.90913152974098921
 10
3841384.74378760950639844
 20
2458412.5
 10
3841372.52209309348836541
 20
2458437.5
 10
3841362.5
 20
2458461.01583581883460283
 10
3841361.93231203826144338
 20
2458462.5
 10
3841352.28514990815892816
 20
2458487.5
 10
3841343.10996510973200202
 20
2458512.5
 10
3841337.5
 20
2458521.52511078305542469
 10
3841328.56198347127065063
 20
2458537.5
 10
3841315.41689299279823899
 20
2458562.5
 10
3841312.5
 20
2458570.52530636638402939
 10
3841307.70394662767648697
 20
2458587.5
 10
3841295.03742464259266853
 20
2458612.5
 10
3841289.37752292165532708
 20
2458637.5
 10
3841287.5
 20
2458644.1408411730080843
 10
3841283.72908520512282848
 20
2458662.5
 10
3841287.5
 20
2458673.87415572395548224
 10
3841290.50904018105939031
 20
2458687.5
 10
3841292.13255002163350582
 20
2458712.5
 10
3841295.11667885491624475
 20
2458737.5
 10
3841304.69731881003826857
 20
2458762.5
 10
3841312.5
 20
2458785.54242486739531159
 10
3841312.80065395683050156
 20
2458787.5
 10
3841315.06658877991139889
 20
2458812.5
 10
3841317.25024277903139591
 20
2458837.5
 10
3841318.15166225377470255
 20
2458862.5
 10
3841314.71933019487187266
 20
2458887.5
 10
3841312.5
 20
2458905.41282158857211471
 10
3841310.61679143970832229
 20
2458912.5
 10
3841301.83258227212354541
 20
2458937.5
 10
3841290.08184554940089583
 20
2458962.5
 10
3841287.5
 20
2458971.04342813231050968
 10
3841279.98239102819934487
 20
2458987.5
 10
3841262.5
 20
2459011.49748407071456313
 10
3841261.49783184751868248
 20
2459012.5
 10
3841238.86024141497910023
 20
2459037.5
 10
3841237.5
 20
2459038.77899689227342606
 10
3841212.5
 20
2459058.07753007672727108
 10
3841208.11186675541102886
 20
2459062.5
 10
3841187.5
 20
2459078.44470835197716951
 10
3841178.44470835197716951
 20
2459087.5
 10
3841162.5
 20
2459097.55004936968907714
 10
3841137.5
 20
2459101.87562313070520759
 10
3841112.5
 20
2459105.52135369041934609
 10
3841087.5
 20
2459111.40210828185081482
 10
3841085.31468850327655673
 20
2459112.5
 10
3841062.5
 20
2459122.5174969369545579
 10
3841041.02214939193800092
 20
2459137.5
 10
3841037.5
 20
2459139.64720599027350545
 10
3841012.5
 20
2459161.66956329671666026
 10
3841011.66956329671666026
 20
2459162.5
 10
3840987.5
 20
2459183.06170532619580626
 10
3840983.06170532619580626
 20
2459187.5
 10
3840962.5
 20
2459200.79684540722519159
 10
3840950.79684540722519159
 20
2459212.5
 10
3840937.5
 20
2459219.57561097620055079
 10
3840912.5
 20
2459221.08218121854588389
 10
3840887.5
 20
2459222.13901281170547009
 10
3840862.5
 20
2459223.8997979168780148
 10
3840837.5
 20
2459226.71083327615633607
 10
3840812.5
 20
2459231.25489225704222918
 10
3840789.94081976031884551
 20
2459237.5
 10
3840787.5
 20
2459238.11168795404955745
 10
3840762.5
 20
2459248.91319394716992974
 10
3840740.59898277977481484
 20
2459262.5
 10
3840737.5
 20
2459264.88876169919967651
 10
3840712.5
 20
2459277.6210535541176796
 10
3840691.51977986935526133
 20
2459287.5
 10
3840687.5
 20
2459297.72174148168414831
 10
3840682.76798857050016522
 20
2459312.5
 10
3840673.09139062697067857
 20
2459337.5
 10
3840664.49624502332881093
 20
2459362.5
 10
3840662.5
 20
2459368.95353939151391387
 10
3840655.75224378285929561
 20
2459387.5
 10
3840649.08750059129670262
 20
2459412.5
 10
3840642.34343902394175529
 20
2459437.5
 10
3840637.5
 20
2459461.25027937116101384
 10
3840637.188046267721802
 20
2459462.5
 10
3840633.00425222655758262
 20
2459487.5
 10
3840629.00481448601931334
 20
2459512.5
 10
3840624.21805910114198923
 20
2459537.5
 10
3840624.93338633328676224
 20
2459562.5
 10
3840626.39966488163918257
 20
2459587.5
 10
3840629.29146870458498597
 20
2459612.5
 10
3840637.49718634830787778
 20
2459637.5
 10
3840637.5
 20
2459637.50410105008631945
 10
3840657.75589896971359849
 20
2459662.5
 10
3840662.5
 20
2459671.86311163567006588
 10
3840668.94916950725018978
 20
2459687.5
 10
3840685.89712476311251521
 20
2459712.5
 10
3840687.5
 20
2459714.4961429969407618
 10
3840710.45496323518455029
 20
2459737.5
 10
3840712.5
 20
2459739.27618121029809117
 10
3840737.5
 20
2459751.46196679957211018
 10
3840750.93340834695845842
 20
2459762.5
 10
3840762.5
 20
2459773.11438092542812228
 10
3840777.53335295291617513
 20
2459787.5
 10
3840787.5
 20
2459797.18864730838686228
 10
3840801.00853945827111602
 20
2459812.5
 10
3840812.5
 20
2459821.90167263196781278
 10
3840830.51514428807422519
 20
2459837.5
 10
3840837.5
 20
2459842.02014096081256866
 10
3840862.5
 20
2459853.94083586893975735
 10
3840879.10565571533516049
 20
2459862.5
 10
3840887.5
 20
2459866.97930655581876636
 10
3840912.5
 20
2459881.63494401890784502
 10
3840922.12907782196998596
 20
2459887.5
 10
3840937.5
 20
2459896.57180705294013023
 10
3840955.87971747852861881
 20
2459912.5
 10
3840962.5
 20
2459918.51259005721658468
 10
3840986.67784212110564113
 20
2459937.5
 10
3840987.5
 20
2459938.19269683118909597
 10
3841012.5
 20
2459955.31770489411428571
 10
3841024.36874810559675097
 20
2459962.5
 10
3841037.5
 20
2459973.42339502740651369
 10
3841061.32222411874681711
 20
2459987.5
 10
3841062.5
 20
2459987.85675046872347593
 10
3841087.5
 20
2459993.11091637471690774
 10
3841112.5
 20
2459995.9946899488568306
 10
3841137.5
 20
2459997.96314684813842177
 10
3841162.5
 20
2459999.36786159966140985
 10
3841187.5
 20
2459999.50406071078032255
 10
3841212.5
 20
2459999.28500415058806539
 10
3841237.5
 20
2459998.87927337689325213
 10
3841255.56368243461474776
 20
2460012.5
 10
3841262.5
 20
2460020.48025473998859525
 10
3841287.5
 20
2460024.90456224326044321
 10
3841312.5
 20
2460029.3945387932471931
 10
3841337.5
 20
2460037.42090608319267631
 10
3841337.66790840355679393
 20
2460037.5
 10
3841362.5
 20
2460052.10306568210944533
 10
3841371.96763007808476686
 20
2460062.5
 10
3841387.5
 20
2460079.25660193432122469
 10
3841393.45228845393285155
 20
2460087.5
 10
3841405.90204349672421813
 20
2460112.5
 10
3841412.5
 20
2460126.28540532989427447
 10
3841416.55190811492502689
 20
2460137.5
 10
3841423.11274697771295905
 20
2460162.5
 10
3841431.31518547609448433
 20
2460187.5
 10
3841430.05111657967790961
 20
2460212.5
 10
3841434.21739730145782232
 20
2460237.5
 10
3841437.5
 20
2460261.05977748427540064
 10
3841437.61092069605365396
 20
2460262.5
 10
3841446.20536344405263662
 20
2460287.5
 10
3841447.59997014282271266
 20
2460312.5
 10
3841437.5
 20
2460328.72569316206499934
 10
3841427.87429839838296175
 20
2460337.5
 10
3841432.37255319161340594
 20
2460362.5
 10
3841437.5
 20
2460376.65922444174066186
 10
3841449.53210997208952904
 20
2460387.5
 10
3841462.5
 20
2460403.00396058149635792
 10
3841487.5
 20
2460404.86117559671401978
 10
3841512.5
 20
2460407.21369924303144217
 10
3841537.5
 20
2460406.91751953912898898
 10
3841562.5
 20
2460402.75825058156624436
 10
3841587.5
 20
2460396.97598368441686034
 10
3841609.66544661950320005
 20
2460387.5
 10
3841612.5
 20
2460386.49995647231116891
 10
3841637.5
 20
2460375.97861075820401311
 10
3841658.6966802547685802
 20
2460362.5
 10
3841662.5
 20
2460360.29594546603038907
 10
3841687.5
 20
2460343.25285943131893873
 10
3841693.41233679233118892
 20
2460337.5
 10
3841712.5
 20
2460326.20520997373387218
 10
3841737.5
 20
2460319.38031200552359223
 10
3841744.38031200552359223
 20
2460312.5
 10
3841762.5
 20
2460300.94538554502651095
 10
3841776.91503477608785033
 20
2460287.5
 10
3841787.5
 20
2460281.21076702326536179
 10
3841812.5
 20
2460278.17043144069612026
 10
3841828.53065825067460537
 20
2460262.5
 10
3841837.5
 20
2460256.37826693477109075
 10
3841856.98950806073844433
 20
2460237.5
 10
3841862.5
 20
2460233.40934817492961884
 10
3841883.92442909441888332
 20
2460212.5
 10
3841887.5
 20
2460209.35792427090927958
 10
3841909.37439791485667229
 20
2460187.5
 10
3841910.85394962038844824
 20
2460162.5
 10
3841912.5
 20
2460160.70426064357161522
 10
3841935.72449514828622341
 20
2460137.5
 10
3841937.5
 20
2460136.03811271861195564
 10
3841961.0465657883323729
 20
2460112.5
 10
3841962.5
 20
2460111.05688414070755243
 10
3841986.07369563402608037
 20
2460087.5
 10
3841987.5
 20
2460085.82467769831418991
 10
3842010.84431968722492456
 20
2460062.5
 10
3842012.5
 20
2460061.14444025559350848
 10
3842037.5
 20
2460060.46728357998654246
 10
3842062.5
 20
2460060.09050096618011594
 10
3842087.5
 20
2460059.70263088820502162
 10
3842112.5
 20
2460059.74883231334388256
 10
3842120.04236156446859241
 20
2460062.5
 10
3842137.5
 20
2460080.06160723604261875
 10
3842162.5
 20
2460081.332988899666816
 10
3842180.92056627478450537
 20
2460087.5
 10
3842187.5
 20
2460094.07943372521549463
 10
3842212.5
 20
2460094.24266678187996149
 10
3842237.5
 20
2460094.60884529771283269
 10
3842262.5
 20
2460100.5294300839304924
 10
3842270.66602931823581457
 20
2460112.5
 10
3842262.5
 20
2460119.17810450401157141
 10
3842237.5
 20
2460123.83026320114731789
 10
3842212.5
 20
2460133.04527750751003623
 10
3842204.51779638836160302
 20
2460137.5
 10
3842187.5
 20
2460146.63186967512592673
 10
3842175.84336313605308533
 20
2460162.5
 10
3842162.5
 20
2460172.54439439810812473
 10
3842144.85554605443030596
 20
2460187.5
 10
3842137.5
 20
2460193.42001769738271832
 10
3842112.5
 20
2460211.84235530439764261
 10
3842111.54173259483650327
 20
2460212.5
 10
3842087.5
 20
2460229.37045467179268599
 10
3842077.07480511162430048
 20
2460237.5
 10
3842062.5
 20
2460248.40790420118719339
 10
3842037.5
 20
2460256.39634146355092525
 10
3842018.84782608691602945
 20
2460262.5
 10
3842012.5
 20
2460268.543046357575804
 10
3841996.98659634171053767
 20
2460287.5
 10
3841987.5
 20
2460296.40326975472271442
 10
3841967.70495923142880201
 20
2460312.5
 10
3841962.5
 20
2460315.71191025944426656
 10
3841939.66197666432708502
 20
2460337.5
 10
3841937.5
 20
2460339.18136869324371219
 10
3841912.5
 20
2460351.88362004654482007
 10
3841887.5
 20
2460361.79752572253346443
 10
3841886.3798828125
 20
2460362.5
 10
3841866.96776446374133229
 20
2460387.5
 10
3841862.5
 20
2460391.98871819488704205
 10
3841842.13462032051756978
 20
2460412.5
 10
3841837.5
 20
2460417.93726072181016207
 10
3841825.30764075089246035
 20
2460437.5
 10
3841815.25930530671030283
 20
2460462.5
 10
3841812.5
 20
2460475.37899235263466835
 10
3841809.01900369487702847
 20
2460487.5
 10
3841800.8100898046977818
 20
2460512.5
 10
3841795.58976147556677461
 20
2460537.5
 10
3841790.48920594993978739
 20
2460562.5
 10
3841787.5
 20
2460572.1380570619367063
 10
3841781.22495762072503567
 20
2460587.5
 10
3841775.5459705307148397
 20
2460612.5
 10
3841765.15909715229645371
 20
2460637.5
 10
3841762.5
 20
2460641.33305614953860641
 10
3841746.08698544604703784
 20
2460662.5
 10
3841737.5
 20
2460672.60551165929064155
 10
3841725.59931671619415283
 20
2460687.5
 10
3841712.5
 20
2460703.34353757323697209
 10
3841705.26324262656271458
 20
2460712.5
 10
3841687.5
 20
2460733.10989667847752571
 10
3841684.90906857512891293
 20
2460737.5
 10
3841668.8126316936686635
 20
2460762.5
 10
3841662.5
 20
2460767.40933360019698739
 10
3841642.74102630047127604
 20
2460787.5
 10
3841637.5
 20
2460792.1516352160833776
 10
3841614.43638252699747682
 20
2460812.5
 10
3841612.5
 20
2460813.58306937757879496
 10
3841587.5
 20
2460832.71402837010100484
 10
3841582.70249555446207523
 20
2460837.5
 10
3841562.5
 20
2460849.93306730082258582
 10
3841549.93306730082258582
 20
2460862.5
 10
3841537.5
 20
2460870.14836764242500067
 10
3841512.5
 20
2460873.05620879027992487
 10
3841487.5
 20
2460875.72198055312037468
 10
3841462.5
 20
2460882.31440393393859267
 10
3841457.31440393393859267
 20
2460887.5
 10
3841437.5
 20
2460898.24056858289986849
 10
3841412.5
 20
2460903.57696312386542559
 10
3841387.5
 20
2460908.45515023916959763
 10
3841371.46883247466757894
 20
2460912.5
 10
3841362.5
 20
2460914.55405918834730983
 10
3841337.5
 20
2460921.16736895544454455
 10
3841312.5
 20
2460930.64043555175885558
 10
3841298.7922628172673285
 20
2460937.5
 10
3841298.7922628172673285
 20
2460950.0
  0
LWPOLYLINE
  5
9b
  8
Contours
100
AcDbEntity
100
AcDbPolyline
  6
CONTINUOUS
420
15156120
 90
     7
 70
   129
 43
13.0
 10
3842862.5
 20
2455831.83662667591124773
 10
3842866.39367575710639358
 20
2455837.5
 10
3842862.5
 20
2455841.33054892579093575
 10
3842837.5
 20
2455840.45460027689114213
 10
3842832.46255330182611942
 20
2455837.5
 10
3842837.5
 20
2455831.95708093186840415
 10
3842862.5
 20
2455831.83662667591124773
  0
LWPOLYLINE
  5
9c
  8
Contours
100
AcDbEntity
100
AcDbPolyline
  6
CONTINUOUS
420
15156120
 90
   169
 70
   128
 43
13.0
 10
3843900.0
 20
2455301.94398241676390171
 10
3843887.5
 20
2455301.94398241676390171
 10
3843876.29429940739646554
 20
2455312.5
 10
3843862.5
 20
2455327.51104813162237406
 10
3843853.01285894913598895
 20
2455337.5
 10
3843837.5
 20
2455362.07158194668591022
 10
3843837.26374814985319972
 20
2455362.5
 10
3843830.1850895588286221
 20
2455387.5
 10
3843827.41584308398887515
 20
2455412.5
 10
3843826.55131068918853998
 20
2455437.5
 10
3843826.74746258230879903
 20
2455462.5
 10
3843824.77581718238070607
 20
2455487.5
 10
3843819.43007109314203262
 20
2455512.5
 10
3843812.5
 20
2455536.10647181607782841
 10
3843811.96713880030438304
 20
2455537.5
 10
3843795.21331441309303045
 20
2455562.5
 10
3843787.5
 20
2455571.70706295222043991
 10
3843771.89550648396834731
 20
2455587.5
 10
3843762.5
 20
2455595.29747986467555165
 10
3843743.36450286209583282
 20
2455612.5
 10
3843737.5
 20
2455617.56450622016564012
 10
3843717.23636195110157132
 20
2455637.5
 10
3843712.5
 20
2455641.85514982976019382
 10
3843690.61043359152972698
 20
2455662.5
 10
3843687.5
 20
2455665.63590938737615943
 10
3843667.21305640088394284
 20
2455687.5
 10
3843662.5
 20
2455692.36447885679081082
 10
3843644.76329074986279011
 20
2455712.5
 10
3843637.5
 20
2455720.2521220650523901
 10
3843621.92553606256842613
 20
2455737.5
 10
3843612.5
 20
2455745.9592964262701571
 10
3843590.78565391525626183
 20
2455762.5
 10
3843587.5
 20
2455764.68917562393471599
 10
3843562.5
 20
2455779.44263314735144377
 10
3843547.82138365553691983
 20
2455787.5
 10
3843537.5
 20
2455792.83198677469044924
 10
3843512.5
 20
2455805.30433330684900284
 10
3843499.0238998276181519
 20
2455812.5
 10
3843487.5
 20
2455818.12974716816097498
 10
3843462.5
 20
2455833.60248968889936805
 10
3843457.01817222125828266
 20
2455837.5
 10
3843437.5
 20
2455851.38541204761713743
 10
3843427.2577477227896452
 20
2455862.5
 10
3843412.5
 20
2455878.89999560546129942
 10
3843406.10516096698120236
 20
2455887.5
 10
3843388.42654671333730221
 20
2455912.5
 10
3843387.5
 20
2455913.82806156296283007
 10
3843372.60076145455241203
 20
2455937.5
 10
3843362.5
 20
2455957.23714348534122109
 10
3843359.44737317599356174
 20
2455962.5
 10
3843347.30942069971933961
 20
2455987.5
 10
3843338.27395743317902088
 20
2456012.5
 10
3843337.5
 20
2456015.34236316382884979
 10
3843330.06302353134378791
 20
2456037.5
 10
3843322.04894675547257066
 20
2456062.5
 10
3843314.29665308119729161
 20
2456087.5
 10
3843312.5
 20
2456092.94554455438628793
 10
3843306.11068132752552629
 20
2456112.5
 10
3843299.50380428787320852
 20
2456137.5
 10
3843294.11450537107884884
 20
2456162.5
 10
3843289.94961275532841682
 20
2456187.5
 10
3843288.6854015733115375
 20
2456212.5
 10
3843289.06736988388001919
 20
2456237.5
 10
3843290.18064709426835179
 20
2456262.5
 10
3843291.5769399986602366
 20
2456287.5
 10
3843292.08695272309705615
 20
2456312.5
 10
3843293.63491254160180688
 20
2456337.5
 10
3843294.65528365736827254
 20
2456362.5
 10
3843294.22733761603012681
 20
2456387.5
 10
3843293.78297086106613278
 20
2456412.5
 10
3843293.43832898046821356
 20
2456437.5
 10
3843294.80901473853737116
 20
2456462.5
 10
3843296.7144459430128336
 20
2456487.5
 10
3843298.87175229517742991
 20
2456512.5
 10
3843302.43514419626444578
 20
2456537.5
 10
3843311.03323788102716208
 20
2456562.5
 10
3843312.5
 20
2456566.87192118214443326
 10
3843320.0392616493627429
 20
2456587.5
 10
3843332.13111561955884099
 20
2456612.5
 10
3843337.5
 20
2456622.73957991460338235
 10
3843345.39406830538064241
 20
2456637.5
 10
3843359.74773724190890789
 20
2456662.5
 10
3843362.5
 20
2456666.70670432038605213
 10
3843379.98593599628657103
 20
2456687.5
 10
3843387.5
 20
2456694.04159685503691435
 10
3843412.04722694354131818
 20
2456712.5
 10
3843412.5
 20
2456712.82066195970401168
 10
3843437.5
 20
2456726.7884237146936357
 10
3843460.83887721179053187
 20
2456737.5
 10
3843462.5
 20
2456738.25005067931488156
 10
3843487.5
 20
2456746.63288309099152684
 10
3843512.5
 20
2456753.15962181240320206
 10
3843537.5
 20
2456756.54100053058937192
 10
3843562.5
 20
2456757.87330231443047523
 10
3843587.5
 20
2456756.30915256449952722
 10
3843612.5
 20
2456753.85825144639238715
 10
3843637.5
 20
2456749.50680427439510822
 10
3843662.5
 20
2456744.58534945454448462
 10
3843687.5
 20
2456739.40654898434877396
 10
3843698.77551719406619668
 20
2456737.5
 10
3843712.5
 20
2456735.05554471025243402
 10
3843737.5
 20
2456732.51392338378354907
 10
3843762.5
 20
2456731.69001202099025249
 10
3843787.5
 20
2456732.29629042465239763
 10
3843812.5
 20
2456732.56466023996472359
 10
3843825.88534138258546591
 20
2456737.5
 10
3843837.5
 20
2456743.46350301243364811
 10
3843862.5
 20
2456760.78644286282360554
 10
3843864.3192907297052443
 20
2456762.5
 10
3843880.64205824863165617
 20
2456787.5
 10
3843882.1766924993135035
 20
2456812.5
 10
3843880.51070472784340382
 20
2456837.5
 10
3843881.43975191982463002
 20
2456862.5
 10
3843880.73386517958715558
 20
2456887.5
 10
3843882.9826515382155776
 20
2456912.5
 10
3843885.51209751842543483
 20
2456937.5
 10
3843886.06584570044651628
 20
2456962.5
 10
3843884.75191076844930649
 20
2456987.5
 10
3843882.7830737791955471
 20
2457012.5
 10
3843873.20240729069337249
 20
2457037.5
 10
3843863.3900949084199965
 20
2457062.5
 10
3843862.5
 20
2457065.35822529066354036
 10
3843855.43883907003328204
 20
2457087.5
 10
3843850.3086298406124115
 20
2457112.5
 10
3843849.36594801908358932
 20
2457137.5
 10
3843850.69574441527947783
 20
2457162.5
 10
3843852.11710684513673186
 20
2457187.5
 10
3843853.98904136102646589
 20
2457212.5
 10
3843856.80350750079378486
 20
2457237.5
 10
3843857.19897045660763979
 20
2457262.5
 10
3843858.46094505582004786
 20
2457287.5
 10
3843858.5982784447260201
 20
2457312.5
 10
3843858.36919289221987128
 20
2457337.5
 10
3843858.51447569718584418
 20
2457362.5
 10
3843862.5
 20
2457386.44640079187229276
 10
3843862.87832622369751334
 20
2457387.5
 10
3843871.41925160028040409
 20
2457412.5
 10
3843879.50607902742922306
 20
2457437.5
 10
3843880.14071968523785472
 20
2457462.5
 10
3843875.9651464051567018
 20
2457487.5
 10
3843871.38897283840924501
 20
2457512.5
 10
3843868.98651079135015607
 20
2457537.5
 10
3843862.5
 20
2457555.55868509318679571
 10
3843859.19286924181506038
 20
2457562.5
 10
3843848.31014938233420253
 20
2457587.5
 10
3843844.86531915981322527
 20
2457612.5
 10
3843843.22199572250247002
 20
2457637.5
 10
3843841.59831630066037178
 20
2457662.5
 10
3843837.5
 20
2457685.37298300117254257
 10
3843836.94691258296370506
 20
2457687.5
 10
3843835.66636753641068935
 20
2457712.5
 10
3843837.5
 20
2457727.88002570206299424
 10
3843838.31580545241013169
 20
2457737.5
 10
3843838.55306411860510707
 20
2457762.5
 10
3843837.87521386332809925
 20
2457787.5
 10
3843837.5
 20
2457789.55282669141888618
 10
3843831.54836305929347873
 20
2457812.5
 10
3843823.74884296907112002
 20
2457837.5
 10
3843816.31703240796923637
 20
2457862.5
 10
3843812.5
 20
2457875.31594613054767251
 10
3843808.40279600955545902
 20
2457887.5
 10
3843797.03846468450501561
 20
2457912.5
 10
3843797.22017991542816162
 20
2457937.5
 10
3843812.5
 20
2457945.36159323528409004
 10
3843826.16202629543840885
 20
2457937.5
 10
3843837.5
 20
2457931.88529299106448889
 10
3843862.5
 20
2457923.20349635556340218
 10
3843887.5
 20
2457916.17043490801006556
 10
3843900.0
 20
2457916.17043490801006556
  0
LWPOLYLINE
  5
9d
  8
Contours
100
AcDbEntity
100
AcDbPolyline
  6
CONTINUOUS
420
15156120
 90
     7
 70
   129
 43
13.0
 10
3835162.5
 20
2453736.07920193485915661
 10
3835164.64470668137073517
 20
2453737.5
 10
3835162.5
 20
2453740.74669065652415156
 10
3835137.5
 20
2453737.9773424593731761
 10
3835136.92627368681132793
 20
2453737.5
 10
3835137.5
 20
2453736.54635043395683169
 10
3835162.5
 20
2453736.07920193485915661
  0
LWPOLYLINE
  5
9e
  8
Contours
100
AcDbEntity
100
AcDbPolyline
  6
CONTINUOUS
420
15156120
 90
    55
 70
   129
 43
13.0
 10
3843236.14301501028239727
 20
2453137.5
 10
3843212.5
 20
2453120.34573760628700256
 10
3843187.5
 20
2453112.91495852125808597
 10
3843162.5
 20
2453113.86933281738311052
 10
3843137.5
 20
2453122.62209369847550988
 10
3843115.41864403337240219
 20
2453137.5
 10
3843112.5
 20
2453139.82546396180987358
 10
3843093.99023875501006842
 20
2453162.5
 10
3843087.5
 20
2453171.98609932884573936
 10
3843078.92964410688728094
 20
2453187.5
 10
3843065.91738182445988059
 20
2453212.5
 10
3843062.5
 20
2453219.05313263880088925
 10
3843052.8942454238422215
 20
2453237.5
 10
3843037.88670055335387588
 20
2453262.5
 10
3843037.5
 20
2453263.13471403811126947
 10
3843021.93921203119680285
 20
2453287.5
 10
3843012.5
 20
2453299.07020565448328853
 10
3843001.37342648440971971
 20
2453312.5
 10
3842987.5
 20
2453330.88887276314198971
 10
3842981.5064597730524838
 20
2453337.5
 10
3842962.5
 20
2453354.67319108452647924
 10
3842951.69777916558086872
 20
2453362.5
 10
3842937.5
 20
2453373.64661591639742255
 10
3842921.07085834257304668
 20
2453387.5
 10
3842912.5
 20
2453397.32660429179668427
 10
3842899.36645409930497408
 20
2453412.5
 10
3842894.93703613569959998
 20
2453437.5
 10
3842912.5
 20
2453459.06480313371866941
 10
3842937.5
 20
2453461.68724109372124076
 10
3842962.5
 20
2453452.75939507503062487
 10
3842986.78031769255176187
 20
2453437.5
 10
3842987.5
 20
2453436.9974773763678968
 10
3843012.5
 20
2453423.04712692508473992
 10
3843037.5
 20
2453414.48158591613173485
 10
3843040.99819403793662786
 20
2453412.5
 10
3843062.5
 20
2453398.89627717295661569
 10
3843076.68656152114272118
 20
2453387.5
 10
3843087.5
 20
2453379.36200915975496173
 10
3843112.5
 20
2453364.38715313980355859
 10
3843115.21457530371844769
 20
2453362.5
 10
3843137.5
 20
2453344.59640551498159766
 10
3843144.67463212227448821
 20
2453337.5
 10
3843162.5
 20
2453318.16775035625323653
 10
3843167.30672588478773832
 20
2453312.5
 10
3843187.5
 20
2453288.00194847444072366
 10
3843187.95011599222198129
 20
2453287.5
 10
3843211.08835755567997694
 20
2453262.5
 10
3843212.5
 20
2453260.91963938158005476
 10
3843228.58538319449871778
 20
2453237.5
 10
3843237.5
 20
2453220.80858677206560969
 10
3843241.77304165670648217
 20
2453212.5
 10
3843248.56261233193799853
 20
2453187.5
 10
3843247.82724588550627232
 20
2453162.5
 10
3843237.5
 20
2453139.47418548678979278
 10
3843236.14301501028239727
 20
2453137.5
  0
LWPOLYLINE
  5
9f
  8
Contours
100
AcDbEntity
100
AcDbPolyline
  6
CONTINUOUS
420
15156120
 90
  1305
 70
   128
 43
13.0
 10
3834225.0
 20
2459279.78674477152526379
 10
3834237.5
 20
2459279.78674477152526379
 10
3834262.5
 20
2459269.79961118567734957
 10
3834287.5
 20
2459264.10603255964815617
 10
3834297.80845392215996981
 20
2459262.5
 10
3834312.5
 20
2459260.53640139242634177
 10
3834337.5
 20
2459258.76704385736957192
 10
3834362.5
 20
2459261.02931075915694237
 10
3834366.65595128340646625
 20
2459262.5
 10
3834387.5
 20
2459271.53189521050080657
 10
3834412.5
 20
2459285.03324468107894063
 10
3834415.90171919763088226
 20
2459287.5
 10
3834437.5
 20
2459304.65506882220506668
 10
3834450.5679061021655798
 20
2459312.5
 10
3834462.5
 20
2459319.16901157749816775
 10
3834485.17323618847876787
 20
2459337.5
 10
3834487.5
 20
2459339.84282638086006045
 10
3834512.5
 20
2459361.64749009953811765
 10
3834513.62592236557975411
 20
2459362.5
 10
3834537.5
 20
2459376.3591193319298327
 10
3834556.06996306916698813
 20
2459387.5
 10
3834562.5
 20
2459391.34886196162551641
 10
3834587.5
 20
2459402.09082927973940969
 10
3834612.5
 20
2459408.86750476062297821
 10
3834623.60022562649101019
 20
2459412.5
 10
3834637.5
 20
2459416.37951035192236304
 10
3834662.5
 20
2459422.47205647965893149
 10
3834687.5
 20
2459429.73925000010058284
 10
3834712.5
 20
2459435.90474364906549454
 10
3834721.53519798861816525
 20
2459437.5
 10
3834737.5
 20
2459439.99606918217614293
 10
3834762.5
 20
2459445.3060310953296721
 10
3834787.5
 20
2459449.38342046644538641
 10
3834812.5
 20
2459454.00294966623187065
 10
3834837.5
 20
2459457.1858439720235765
 10
3834862.5
 20
2459459.08255921909585595
 10
3834887.5
 20
2459460.30708021204918623
 10
3834912.5
 20
2459459.60993045568466187
 10
3834937.5
 20
2459457.69619446480646729
 10
3834962.5
 20
2459455.77686880342662334
 10
3834987.5
 20
2459451.78010927699506283
 10
3835012.5
 20
2459444.70517753949388862
 10
3835034.5999164548702538
 20
2459437.5
 10
3835037.5
 20
2459436.55443312367424369
 10
3835062.5
 20
2459428.73138263588771224
 10
3835087.5
 20
2459420.83694963762536645
 10
3835112.5
 20
2459412.61612158454954624
 10
3835112.98132170364260674
 20
2459412.5
 10
3835137.5
 20
2459404.82365084066987038
 10
3835162.5
 20
2459396.73585914401337504
 10
3835187.5
 20
2459389.69836900103837252
 10
3835194.92271228367462754
 20
2459387.5
 10
3835212.5
 20
2459382.04946923069655895
 10
3835237.5
 20
2459371.42391500808298588
 10
3835257.08051861589774489
 20
2459362.5
 10
3835262.5
 20
2459360.14500446151942015
 10
3835287.5
 20
2459347.45717519335448742
 10
3835304.1851580603979528
 20
2459337.5
 10
3835312.5
 20
2459332.54575354978442192
 10
3835337.5
 20
2459317.70067475084215403
 10
3835347.72221110062673688
 20
2459312.5
 10
3835362.5
 20
2459304.72233929065987468
 10
3835387.5
 20
2459292.98476090375334024
 10
3835399.32870337599888444
 20
2459287.5
 10
3835412.5
 20
2459281.07597385533154011
 10
3835425.63184719905257225
 20
2459262.5
 10
3835437.5
 20
2459252.84029696462675929
 10
3835455.14777846401557326
 20
2459237.5
 10
3835462.5
 20
2459230.84244419587776065
 10
3835487.5
 20
2459219.72211156925186515
 10
3835512.5
 20
2459213.10713624721392989
 10
3835514.85556307854130864
 20
2459212.5
 10
3835537.5
 20
2459189.22425609966740012
 10
3835538.91941391956061125
 20
2459187.5
 10
3835556.84283529547974467
 20
2459162.5
 10
3835562.5
 20
2459153.98122857743874192
 10
3835573.03877502074465156
 20
2459137.5
 10
3835586.74233867926523089
 20
2459112.5
 10
3835587.5
 20
2459110.27347531449049711
 10
3835594.76131473109126091
 20
2459087.5
 10
3835600.13313379464671016
 20
2459062.5
 10
3835603.2866651420481503
 20
2459037.5
 10
3835604.74058608571067452
 20
2459012.5
 10
3835603.80744875594973564
 20
2458987.5
 10
3835599.6248745433986187
 20
2458962.5
 10
3835592.9010862996801734
 20
2458937.5
 10
3835587.5
 20
2458922.48718556156381965
 10
3835583.76756652351468801
 20
2458912.5
 10
3835573.35189183941110969
 20
2458887.5
 10
3835562.5
 20
2458865.28061897866427898
 10
3835560.80241318186745048
 20
2458862.5
 10
3835543.52761982148513198
 20
2458837.5
 10
3835537.5
 20
2458830.88039320660755038
 10
3835516.33689427608624101
 20
2458812.5
 10
3835512.5
 20
2458809.63026985479518771
 10
3835487.5
 20
2458799.92748470138758421
 10
3835462.5
 20
2458796.11749729979783297
 10
3835437.5
 20
2458793.53536253096535802
 10
3835412.5
 20
2458790.69676613016054034
 10
3835387.5
 20
2458789.32001626072451472
 10
3835362.5
 20
2458788.65604592813178897
 10
3835341.20444134622812271
 20
2458787.5
 10
3835337.5
 20
2458787.29158262722194195
 10
3835312.5
 20
2458786.60248227743431926
 10
3835287.5
 20
2458782.61651289323344827
 10
3835262.5
 20
2458776.3229358340613544
 10
3835237.5
 20
2458765.85537940496578813
 10
3835231.21003358345478773
 20
2458762.5
 10
3835212.5
 20
2458752.59643013682216406
 10
3835190.54631892079487443
 20
2458737.5
 10
3835187.5
 20
2458735.25760498410090804
 10
3835162.5
 20
2458717.34189358726143837
 10
3835156.34305599005892873
 20
2458712.5
 10
3835137.5
 20
2458697.02197428094223142
 10
3835126.24975335085764527
 20
2458687.5
 10
3835112.5
 20
2458674.96454023383557796
 10
3835094.8745230408385396
 20
2458662.5
 10
3835087.5
 20
2458657.27809954015538096
 10
3835062.5
 20
2458640.37918495712801814
 10
3835058.23092541145160794
 20
2458637.5
 10
3835037.5
 20
2458623.41865283623337746
 10
3835020.53567767050117254
 20
2458612.5
 10
3835012.5
 20
2458606.66928272787481546
 10
3834987.5
 20
2458593.13675268413498998
 10
3834974.93367990292608738
 20
2458587.5
 10
3834962.5
 20
2458581.16944471374154091
 10
3834937.5
 20
2458564.62777608772739768
 10
3834933.8985581872984767
 20
2458562.5
 10
3834912.5
 20
2458544.69476245995610952
 10
3834891.77118309307843447
 20
2458537.5
 10
3834887.5
 20
2458535.35769126005470753
 10
3834862.5
 20
2458526.72176863439381123
 10
3834837.5
 20
2458519.65303771011531353
 10
3834824.88755666185170412
 20
2458512.5
 10
3834812.5
 20
2458498.40940664149820805
 10
3834787.5
 20
2458492.04419911932200193
 10
3834780.46829826291650534
 20
2458487.5
 10
3834787.5
 20
2458463.56947296392172575
 10
3834789.82818029448390007
 20
2458462.5
 10
3834812.5
 20
2458454.68760028248652816
 10
3834837.5
 20
2458455.8207805547863245
 10
3834862.5
 20
2458458.18436824856325984
 10
3834875.49671190697699785
 20
2458462.5
 10
3834887.5
 20
2458468.1433575632981956
 10
3834912.5
 20
2458476.63504623901098967
 10
3834937.5
 20
2458483.32048277882859111
 10
3834962.5
 20
2458483.54737065825611353
 10
3834987.5
 20
2458486.30227037705481052
 10
3834999.12081984896212816
 20
2458487.5
 10
3835012.5
 20
2458489.4856072491966188
 10
3835037.5
 20
2458496.03741895174607635
 10
3835062.5
 20
2458501.45258615165948868
 10
3835087.5
 20
2458509.19883204903453588
 10
3835103.78623842168599367
 20
2458512.5
 10
3835112.5
 20
2458514.65950929373502731
 10
3835137.5
 20
2458518.93500736402347684
 10
3835162.5
 20
2458522.58236427698284388
 10
3835187.5
 20
2458524.89058335823938251
 10
3835212.5
 20
2458524.75741267902776599
 10
3835237.5
 20
2458524.17067548586055636
 10
3835262.5
 20
2458522.36605623411014676
 10
3835287.5
 20
2458516.74933823244646192
 10
3835298.17628198768943548
 20
2458512.5
 10
3835312.5
 20
2458507.85415325174108148
 10
3835337.5
 20
2458496.77008060924708843
 10
3835353.39737280644476414
 20
2458487.5
 10
3835362.5
 20
2458483.03260219236835837
 10
3835387.5
 20
2458469.53113101236522198
 10
3835398.81694808881729841
 20
2458462.5
 10
3835412.5
 20
2458452.08715767459943891
 10
3835425.97867007739841938
 20
2458437.5
 10
3835437.5
 20
2458417.94734902121126652
 10
3835440.05065420363098383
 20
2458412.5
 10
3835448.42219716496765614
 20
2458387.5
 10
3835453.79788256343454123
 20
2458362.5
 10
3835458.23041795426979661
 20
2458337.5
 10
3835461.47840474965050817
 20
2458312.5
 10
3835462.5
 20
2458304.93676288006827235
 10
3835465.3123494335450232
 20
2458287.5
 10
3835471.45218417933210731
 20
2458262.5
 10
3835480.7186815389432013
 20
2458237.5
 10
3835487.5
 20
2458224.15546972723677754
 10
3835493.88075313810259104
 20
2458212.5
 10
3835509.21098319673910737
 20
2458187.5
 10
3835512.5
 20
2458182.75878528319299221
 10
3835526.39520067954435945
 20
2458162.5
 10
3835537.5
 20
2458146.00949207413941622
 10
3835542.96481563989073038
 20
2458137.5
 10
3835558.2740098787471652
 20
2458112.5
 10
3835562.5
 20
2458105.52829636726528406
 10
3835574.75956495618447661
 20
2458087.5
 10
3835587.5
 20
2458069.77055839076638222
 10
3835593.2861932497471571
 20
2458062.5
 10
3835610.10186575585976243
 20
2458037.5
 10
3835612.5
 20
2458033.42742095328867435
 10
3835624.04906264366582036
 20
2458012.5
 10
3835636.24153779866173863
 20
2457987.5
 10
3835637.5
 20
2457984.52686095517128706
 10
3835646.02453781384974718
 20
2457962.5
 10
3835655.23074127919971943
 20
2457937.5
 10
3835662.5
 20
2457914.16728871688246727
 10
3835663.00345143349841237
 20
2457912.5
 10
3835672.37142227124422789
 20
2457887.5
 10
3835682.79927404737100005
 20
2457862.5
 10
3835687.5
 20
2457851.24887058651074767
 10
3835692.79808973474428058
 20
2457837.5
 10
3835704.63617616752162576
 20
2457812.5
 10
3835712.5
 20
2457797.70227536140009761
 10
3835718.42664290452376008
 20
2457787.5
 10
3835733.22548794047906995
 20
2457762.5
 10
3835737.5
 20
2457755.75171015178784728
 10
3835751.22713282750919461
 20
2457737.5
 10
3835762.5
 20
2457723.1141421184875071
 10
3835770.24882079474627972
 20
2457712.5
 10
3835787.5
 20
2457688.23823301307857037
 10
3835788.01241387287154794
 20
2457687.5
 10
3835804.32108231540769339
 20
2457662.5
 10
3835812.5
 20
2457648.16827396769076586
 10
3835817.97236346360296011
 20
2457637.5
 10
3835827.72111274860799313
 20
2457612.5
 10
3835833.66262337006628513
 20
2457587.5
 10
3835836.80151696968823671
 20
2457562.5
 10
3835835.77215421665459871
 20
2457537.5
 10
3835833.6423067944124341
 20
2457512.5
 10
3835829.28362739598378539
 20
2457487.5
 10
3835827.07596983900293708
 20
2457462.5
 10
3835824.50231037242338061
 20
2457437.5
 10
3835821.9832624071277678
 20
2457412.5
 10
3835818.36309259105473757
 20
2457387.5
 10
3835812.5
 20
2457365.7852476118132472
 10
3835811.55985356727614999
 20
2457362.5
 10
3835802.94854901824146509
 20
2457337.5
 10
3835789.5337865580804646
 20
2457312.5
 10
3835787.5
 20
2457309.31707528047263622
 10
3835773.55937021318823099
 20
2457287.5
 10
3835762.5
 20
2457271.68605832755565643
 10
3835755.68821165431290865
 20
2457262.5
 10
3835737.5
 20
2457241.09282617270946503
 10
3835734.29165090061724186
 20
2457237.5
 10
3835712.5
 20
2457216.40537156304344535
 10
3835707.93215104099363089
 20
2457212.5
 10
3835687.5
 20
2457195.76990536786615849
 10
3835677.06836938392370939
 20
2457187.5
 10
3835662.5
 20
2457175.3098711003549397
 10
3835646.24879839224740863
 20
2457162.5
 10
3835637.5
 20
2457155.54363686917349696
 10
3835612.612016293220222
 20
2457137.5
 10
3835612.5
 20
2457137.41588246915489435
 10
3835587.5
 20
2457117.50054539693519473
 10
3835582.49558382807299495
 20
2457112.5
 10
3835562.5
 20
2457092.37399238860234618
 10
3835556.74906007293611765
 20
2457087.5
 10
3835537.5
 20
2457071.17574888281524181
 10
3835525.65065594576299191
 20
2457062.5
 10
3835512.5
 20
2457052.84754160791635513
 10
3835491.62362000811845064
 20
2457037.5
 10
3835487.5
 20
2457034.38214926095679402
 10
3835462.5
 20
2457016.92729013878852129
 10
3835455.90273427171632648
 20
2457012.5
 10
3835437.5
 20
2456999.28295387513935566
 10
3835420.43102449318394065
 20
2456987.5
 10
3835412.5
 20
2456982.29604250239208341
 10
3835387.5
 20
2456963.30901015223935246
 10
3835386.5588850942440331
 20
2456962.5
 10
3835362.5
 20
2456940.57602726668119431
 10
3835359.55743947299197316
 20
2456937.5
 10
3835337.5
 20
2456914.3091540620662272
 10
3835335.68753350805491209
 20
2456912.5
 10
3835313.62979109119623899
 20
2456887.5
 10
3835312.5
 20
2456886.17288606101647019
 10
3835291.49302626401185989
 20
2456862.5
 10
3835287.5
 20
2456857.66921360231935978
 10
3835271.49015975557267666
 20
2456837.5
 10
3835262.5
 20
2456824.43262995919212699
 10
3835254.877721615601331
 20
2456812.5
 10
3835239.80027629202231765
 20
2456787.5
 10
3835237.5
 20
2456783.25863339751958847
 10
3835225.92557897791266441
 20
2456762.5
 10
3835212.52629157342016697
 20
2456737.5
 10
3835212.5
 20
2456737.44329815730452538
 10
3835199.77133166138082743
 20
2456712.5
 10
3835187.82588612195104361
 20
2456687.5
 10
3835187.5
 20
2456686.45595742389559746
 10
3835180.45113532850518823
 20
2456662.5
 10
3835177.50025413371622562
 20
2456637.5
 10
3835179.9853317909874022
 20
2456612.5
 10
3835181.91680532461032271
 20
2456587.5
 10
3835187.5
 20
2456567.69185360101982951
 10
3835190.28790376242250204
 20
2456562.5
 10
3835193.47507548378780484
 20
2456537.5
 10
3835196.53264994127675891
 20
2456512.5
 10
3835204.2905813199467957
 20
2456487.5
 10
3835212.5
 20
2456481.60036081122234464
 10
3835224.78468586364760995
 20
2456487.5
 10
3835237.5
 20
2456503.75694490922614932
 10
3835252.58140407595783472
 20
2456512.5
 10
3835262.5
 20
2456519.30557756312191486
 10
3835287.5
 20
2456530.91724702203646302
 10
3835292.51333217415958643
 20
2456537.5
 10
3835312.5
 20
2456555.37732669664546847
 10
3835318.55843439931049943
 20
2456562.5
 10
3835335.04180211201310158
 20
2456587.5
 10
3835337.5
 20
2456591.72093320218846202
 10
3835348.25359664671123028
 20
2456612.5
 10
3835362.5
 20
2456630.98406535526737571
 10
3835367.77610282460227609
 20
2456637.5
 10
3835387.5
 20
2456653.88733705785125494
 10
3835400.29062652960419655
 20
2456662.5
 10
3835412.5
 20
2456668.25370509177446365
 10
3835437.5
 20
2456680.91341272508725524
 10
3835450.29324157768860459
 20
2456687.5
 10
3835462.5
 20
2456693.27792579028755426
 10
3835487.5
 20
2456704.12671670690178871
 10
3835502.68321356410160661
 20
2456712.5
 10
3835512.5
 20
2456717.6012725755572319
 10
3835537.5
 20
2456730.32607997953891754
 10
3835551.88569957530125976
 20
2456737.5
 10
3835562.5
 20
2456742.81257801363244653
 10
3835587.5
 20
2456752.59971050499007106
 10
3835611.09240185236558318
 20
2456762.5
 10
3835612.5
 20
2456763.1366686369292438
 10
3835637.5
 20
2456775.23778284341096878
 10
3835661.91248900629580021
 20
2456787.5
 10
3835662.5
 20
2456787.85212752502411604
 10
3835687.5
 20
2456799.33150643622502685
 10
3835712.5
 20
2456805.54823581967502832
 10
3835734.41944796498864889
 20
2456812.5
 10
3835737.5
 20
2456813.57176541211083531
 10
3835762.5
 20
2456823.08781545050442219
 10
3835787.5
 20
2456835.01764556718990207
 10
3835791.5336980908177793
 20
2456837.5
 10
3835812.5
 20
2456850.33709912514314055
 10
3835832.59704015916213393
 20
2456862.5
 10
3835837.5
 20
2456865.27068854961544275
 10
3835862.5
 20
2456877.61670313635841012
 10
3835886.63946681935340166
 20
2456887.5
 10
3835887.5
 20
2456887.85982228349894285
 10
3835912.5
 20
2456899.5027965740300715
 10
3835932.86124313017353415
 20
2456912.5
 10
3835937.5
 20
2456915.39153174683451653
 10
3835962.5
 20
2456934.46402015164494514
 10
3835966.36670973617583513
 20
2456937.5
 10
3835987.5
 20
2456953.93890767032280564
 10
3835999.43096807040274143
 20
2456962.5
 10
3836012.5
 20
2456971.76899066427722573
 10
3836036.27742893202230334
 20
2456987.5
 10
3836037.5
 20
2456988.42605756688863039
 10
3836062.5
 20
2457008.79900207323953509
 10
3836067.92815223196521401
 20
2457012.5
 10
3836087.5
 20
2457027.53449453553184867
 10
3836102.66548512503504753
 20
2457037.5
 10
3836112.5
 20
2457043.03708754247054458
 10
3836137.5
 20
2457057.85217725532129407
 10
3836144.21073639951646328
 20
2457062.5
 10
3836162.5
 20
2457073.66167977778241038
 10
3836186.19186637923121452
 20
2457087.5
 10
3836187.5
 20
2457088.29061589343473315
 10
3836212.5
 20
2457102.64966233726590872
 10
3836233.703372145537287
 20
2457112.5
 10
3836237.5
 20
2457114.00942328898236156
 10
3836262.5
 20
2457124.67422229377552867
 10
3836287.5
 20
2457132.44306749990209937
 10
3836302.48232796136289835
 20
2457137.5
 10
3836312.5
 20
2457140.91448504012078047
 10
3836337.5
 20
2457147.55531094688922167
 10
3836362.5
 20
2457148.80258437106385827
 10
3836387.5
 20
2457148.45393655495718122
 10
3836412.5
 20
2457146.04263053555041552
 10
3836437.5
 20
2457143.28898588102310896
 10
3836458.40360912913456559
 20
2457137.5
 10
3836462.5
 20
2457136.21171304862946272
 10
3836487.5
 20
2457124.41397114377468824
 10
3836507.76344776945188642
 20
2457112.5
 10
3836512.5
 20
2457109.24701073812320828
 10
3836537.5
 20
2457087.5462374878115952
 10
3836537.55774771235883236
 20
2457087.5
 10
3836562.14524150593206286
 20
2457062.5
 10
3836562.5
 20
2457062.10965381888672709
 10
3836587.5
 20
2457038.64650086080655456
 10
3836588.578670933842659
 20
2457037.5
 10
3836608.75637362012639642
 20
2457012.5
 10
3836612.5
 20
2457008.13815896864980459
 10
3836633.01893681241199374
 20
2456987.5
 10
3836637.5
 20
2456982.49945675814524293
 10
3836660.88202603999525309
 20
2456962.5
 10
3836662.5
 20
2456961.40673056291416287
 10
3836687.5
 20
2456938.91338795702904463
 10
3836688.81742006121203303
 20
2456937.5
 10
3836712.41095849219709635
 20
2456912.5
 10
3836712.5
 20
2456912.41043625492602587
 10
3836737.5
 20
2456888.86501325247809291
 10
3836738.94303898792713881
 20
2456887.5
 10
3836762.5
 20
2456864.16164340078830719
 10
3836764.17726130038499832
 20
2456862.5
 10
3836787.5
 20
2456841.55474389577284455
 10
3836791.27441203640773892
 20
2456837.5
 10
3836812.5
 20
2456816.39475995907559991
 10
3836816.19308142783120275
 20
2456812.5
 10
3836837.5
 20
2456790.49748471938073635
 10
3836840.24201239878311753
 20
2456787.5
 10
3836859.84968006331473589
 20
2456762.5
 10
3836862.5
 20
2456757.86546493740752339
 10
3836873.02110068826004863
 20
2456737.5
 10
3836880.076817293651402
 20
2456712.5
 10
3836882.45446929428726435
 20
2456687.5
 10
3836880.87564385589212179
 20
2456662.5
 10
3836876.05731964390724897
 20
2456637.5
 10
3836872.30998555477708578
 20
2456612.5
 10
3836868.81048444984480739
 20
2456587.5
 10
3836864.11126690870150924
 20
2456562.5
 10
3836862.5
 20
2456544.32114275079220533
 10
3836861.81844385759904981
 20
2456537.5
 10
3836862.5
 20
2456531.07243072614073753
 10
3836864.97945494158193469
 20
2456512.5
 10
3836874.4663584497757256
 20
2456487.5
 10
3836887.5
 20
2456471.10402165492996573
 10
3836894.58851564908400178
 20
2456462.5
 10
3836912.5
 20
2456450.85288950754329562
 10
3836934.78645718097686768
 20
2456437.5
 10
3836937.5
 20
2456435.90126464702188969
 10
3836962.5
 20
2456422.58963672257959843
 10
3836979.36457083653658628
 20
2456412.5
 10
3836987.5
 20
2456408.44863404287025332
 10
3837012.5
 20
2456398.23233050247654319
 10
3837033.93319151364266872
 20
2456387.5
 10
3837037.5
 20
2456385.44093730300664902
 10
3837062.5
 20
2456372.91918936185538769
 10
3837087.5
 20
2456365.86940945778042078
 10
3837112.5
 20
2456363.52063402254134417
 10
3837137.5
 20
2456372.9104647496715188
 10
3837150.12539778742939234
 20
2456387.5
 10
3837162.5
 20
2456411.99897995917126536
 10
3837162.64905657013878226
 20
2456412.5
 10
3837169.06711102835834026
 20
2456437.5
 10
3837172.79251390788704157
 20
2456462.5
 10
3837175.68285182677209377
 20
2456487.5
 10
3837180.54060765402391553
 20
2456512.5
 10
3837186.26247883168980479
 20
2456537.5
 10
3837187.5
 20
2456542.96776894107460976
 10
3837191.98699456686154008
 20
2456562.5
 10
3837200.58644118253141642
 20
2456587.5
 10
3837212.24574779672548175
 20
2456612.5
 10
3837212.5
 20
2456612.93998955795541406
 10
3837228.1117764194495976
 20
2456637.5
 10
3837237.5
 20
2456650.61833359114825726
 10
3837248.49685242166742682
 20
2456662.5
 10
3837262.5
 20
2456681.17576205683872104
 10
3837268.44746758788824081
 20
2456687.5
 10
3837287.5
 20
2456703.1933025405742228
 10
3837301.97069807536900043
 20
2456712.5
 10
3837312.5
 20
2456720.72616482619196177
 10
3837330.29760912526398897
 20
2456737.5
 10
3837337.5
 20
2456742.59286544192582369
 10
3837362.5
 20
2456760.3972277264110744
 10
3837364.98341361433267593
 20
2456762.5
 10
3837387.5
 20
2456780.18316619656980038
 10
3837402.18607857869938016
 20
2456787.5
 10
3837412.5
 20
2456791.8286285474896431
 10
3837437.5
 20
2456799.16220511961728334
 10
3837462.5
 20
2456802.38210120005533099
 10
3837487.5
 20
2456801.27363046165555716
 10
3837512.5
 20
2456799.55517914891242981
 10
3837537.5
 20
2456789.92846424784511328
 10
3837541.78133152052760124
 20
2456787.5
 10
3837562.5
 20
2456773.83069110102951527
 10
3837573.3835102915763855
 20
2456762.5
 10
3837574.58549122652038932
 20
2456737.5
 10
3837567.30791743099689484
 20
2456712.5
 10
3837562.5
 20
2456699.80291632330045104
 10
3837557.68307444034144282
 20
2456687.5
 10
3837554.73758012801408768
 20
2456662.5
 10
3837562.21289923461154103
 20
2456637.5
 10
3837562.5
 20
2456637.11484593851491809
 10
3837579.26796409813687205
 20
2456612.5
 10
3837587.5
 20
2456604.18065351294353604
 10
3837602.23083351738750935
 20
2456587.5
 10
3837612.5
 20
2456578.66733575658872724
 10
3837634.33481701277196407
 20
2456562.5
 10
3837637.5
 20
2456560.62857390381395817
 10
3837662.5
 20
2456544.25422086287289858
 10
3837676.49074052600190043
 20
2456537.5
 10
3837687.5
 20
2456533.37392151402309537
 10
3837712.5
 20
2456526.30329684354364872
 10
3837737.5
 20
2456518.48881195858120918
 10
3837758.33625805610790849
 20
2456512.5
 10
3837762.5
 20
2456511.21649864781647921
 10
3837787.5
 20
2456503.91221744008362293
 10
3837812.5
 20
2456495.65642543788999319
 10
3837834.87126269144937396
 20
2456487.5
 10
3837837.5
 20
2456486.20028566662222147
 10
3837862.5
 20
2456476.51141822524368763
 10
3837887.5
 20
2456467.98441926343366504
 10
3837912.5
 20
2456464.67159845121204853
 10
3837937.5
 20
2456462.99574557505548
 10
3837953.70085267629474401
 20
2456462.5
 10
3837962.5
 20
2456462.19741643313318491
 10
3837965.85895117558538914
 20
2456462.5
 10
3837987.5
 20
2456464.73570401081815362
 10
3838012.5
 20
2456470.80617036297917366
 10
3838037.5
 20
2456479.36943212570622563
 10
3838050.52168447524309158
 20
2456487.5
 10
3838055.68189622601494193
 20
2456512.5
 10
3838047.72708308510482311
 20
2456537.5
 10
3838042.6402931334450841
 20
2456562.5
 10
3838037.5
 20
2456586.68092386657372117
 10
3838037.38015220360830426
 20
2456587.5
 10
3838037.5
 20
2456589.05413082288578153
 10
3838039.93206384498625994
 20
2456612.5
 10
3838052.11431730492040515
 20
2456637.5
 10
3838062.5
 20
2456647.45628559170290828
 10
3838087.5
 20
2456661.73321780236437917
 10
3838092.49905455252155662
 20
2456662.5
 10
3838112.5
 20
2456664.61833857372403145
 10
3838137.5
 20
2456663.82518908195197582
 10
3838151.74647235730662942
 20
2456662.5
 10
3838162.5
 20
2456661.02794490195810795
 10
3838187.5
 20
2456649.44942544912919402
 10
3838202.49039713898673654
 20
2456637.5
 10
3838212.5
 20
2456621.77845775103196502
 10
3838217.03836239082738757
 20
2456612.5
 10
3838215.95483686123043299
 20
2456587.5
 10
3838212.5
 20
2456573.53308477532118559
 10
3838208.98985420446842909
 20
2456562.5
 10
3838196.39403346320614219
 20
2456537.5
 10
3838187.5
 20
2456520.45142811024561524
 10
3838180.20081102102994919
 20
2456512.5
 10
3838163.68605852779000998
 20
2456487.5
 10
3838162.5
 20
2456481.71402383130043745
 10
3838153.00611413037404418
 20
2456462.5
 10
3838162.5
 20
2456459.70565201435238123
 10
3838186.42893054662272334
 20
2456437.5
 10
3838187.5
 20
2456436.28740445617586374
 10
3838201.26452736090868711
 20
2456412.5
 10
3838212.5
 20
2456395.92098868312314153
 10
3838216.40645130118355155
 20
2456387.5
 10
3838226.37361866841092706
 20
2456362.5
 10
3838236.65741629293188453
 20
2456337.5
 10
3838237.5
 20
2456335.2596372663974762
 10
3838244.70999453868716955
 20
2456312.5
 10
3838253.16468297876417637
 20
2456287.5
 10
3838262.5
 20
2456264.87096125492826104
 10
3838263.42359515372663736
 20
2456262.5
 10
3838274.34262706805020571
 20
2456237.5
 10
3838282.7959727537818253
 20
2456212.5
 10
3838287.5
 20
2456191.10569048626348376
 10
3838288.32419639499858022
 20
2456187.5
 10
3838293.13320888252928853
 20
2456162.5
 10
3838298.21693668887019157
 20
2456137.5
 10
3838301.44229893432930112
 20
2456112.5
 10
3838303.33653635950759053
 20
2456087.5
 10
3838304.20087484642863274
 20
2456062.5
 10
3838304.94497766019776464
 20
2456037.5
 10
3838305.36270691314712167
 20
2456012.5
 10
3838300.57993448153138161
 20
2455987.5
 10
3838297.13190724235028028
 20
2455962.5
 10
3838292.51475206110626459
 20
2455937.5
 10
3838287.5
 20
2455914.89866598276421428
 10
3838286.99204567074775696
 20
2455912.5
 10
3838279.9139978545717895
 20
2455887.5
 10
3838271.95410686964169145
 20
2455862.5
 10
3838265.75393541250377893
 20
2455837.5
 10
3838262.5
 20
2455824.34247219981625676
 10
3838259.75441467668861151
 20
2455812.5
 10
3838254.78291216259822249
 20
2455787.5
 10
3838249.60685954289510846
 20
2455762.5
 10
3838242.9351286324672401
 20
2455737.5
 10
3838237.5
 20
2455719.23347266810014844
 10
3838235.43957089772447944
 20
2455712.5
 10
3838225.44399659615010023
 20
2455687.5
 10
3838215.54419128503650427
 20
2455662.5
 10
3838212.5
 20
2455654.02758657187223434
 10
3838205.29774430533871055
 20
2455637.5
 10
3838193.93508678302168846
 20
2455612.5
 10
3838187.5
 20
2455599.51859293598681688
 10
3838179.93571126041933894
 20
2455587.5
 10
3838162.5
 20
2455564.61453849449753761
 10
3838160.51566599076613784
 20
2455562.5
 10
3838143.04383258614689112
 20
2455537.5
 10
3838137.5
 20
2455528.76421757461503148
 10
3838127.20773896761238575
 20
2455512.5
 10
3838115.66086222277954221
 20
2455487.5
 10
3838112.5
 20
2455479.84361914591863751
 10
3838105.23552704369649291
 20
2455462.5
 10
3838092.91579382913187146
 20
2455437.5
 10
3838087.5
 20
2455428.95481810951605439
 10
3838076.71906747948378325
 20
2455412.5
 10
3838062.5
 20
2455392.63409532327204943
 10
3838057.51667754352092743
 20
2455387.5
 10
3838037.5
 20
2455368.40973530896008015
 10
3838031.07833928242325783
 20
2455362.5
 10
3838012.5
 20
2455349.25251172157004476
 10
3837987.5
 20
2455337.59813096281141043
 10
3837987.28565750643610954
 20
2455337.5
 10
3837962.5
 20
2455325.03444607835263014
 10
3837938.75953269517049193
 20
2455312.5
 10
3837937.5
 20
2455311.93113114219158888
 10
3837912.5
 20
2455300.73230956587940454
 10
3837889.69506507832556963
 20
2455287.5
 10
3837887.5
 20
2455286.25060328189283609
 10
3837862.5
 20
2455269.94458287302404642
 10
3837851.38459918554872274
 20
2455262.5
 10
3837837.5
 20
2455253.57169053331017494
 10
3837815.83285157894715667
 20
2455237.5
 10
3837812.5
 20
2455235.09788818098604679
 10
3837787.5
 20
2455218.88417495647445321
 10
3837778.86132157500833273
 20
2455212.5
 10
3837762.5
 20
2455201.2469833199866116
 10
3837737.5
 20
2455187.86651275074109435
 10
3837736.80301941744983196
 20
2455187.5
 10
3837712.5
 20
2455175.76951789250597358
 10
3837687.5
 20
2455163.84853052394464612
 10
3837684.07416179776191711
 20
2455162.5
 10
3837662.5
 20
2455154.31975572276860476
 10
3837637.5
 20
2455143.24177054781466722
 10
3837629.29161590617150068
 20
2455137.5
 10
3837612.5
 20
2455125.35129103343933821
 10
3837595.61846870929002762
 20
2455112.5
 10
3837587.5
 20
2455106.08889448922127485
 10
3837562.5
 20
2455089.08781659323722124
 10
3837559.69437811756506562
 20
2455087.5
 10
3837537.5
 20
2455072.28739953320473433
 10
3837524.80265509057790041
 20
2455062.5
 10
3837512.5
 20
2455052.62395160086452961
 10
3837487.5
 20
2455037.63526268769055605
 10
3837487.31296322215348482
 20
2455037.5
 10
3837462.5
 20
2455019.07450674986466765
 10
3837454.75819271197542548
 20
2455012.5
 10
3837437.5
 20
2455000.5078595201484859
 10
3837416.22101373737677932
 20
2454987.5
 10
3837412.5
 20
2454985.32554251467809081
 10
3837387.5
 20
2454963.56930610211566091
 10
3837386.46350286016240716
 20
2454962.5
 10
3837362.5
 20
2454940.03846836322918534
 10
3837359.75782159250229597
 20
2454937.5
 10
3837337.5
 20
2454917.37346630496904254
 10
3837332.64582562586292624
 20
2454912.5
 10
3837312.5
 20
2454893.29218106996268034
 10
3837306.33648624969646335
 20
2454887.5
 10
3837287.5
 20
2454871.04851223342120647
 10
3837276.68369604274630547
 20
2454862.5
 10
3837262.5
 20
2454851.28043178701773286
 10
3837245.54514566389843822
 20
2454837.5
 10
3837237.5
 20
2454830.68000342231243849
 10
3837217.28885295800864697
 20
2454812.5
 10
3837212.5
 20
2454808.18369376379996538
 10
3837188.11909702094271779
 20
2454787.5
 10
3837187.5
 20
2454786.94798173941671848
 10
3837162.5
 20
2454764.19999173749238253
 10
3837160.54380637733265758
 20
2454762.5
 10
3837137.5
 20
2454741.14282724587246776
 10
3837134.0459169284440577
 20
2454737.5
 10
3837112.5
 20
2454713.88453261274844408
 10
3837111.17042618896812201
 20
2454712.5
 10
3837090.61218796251341701
 20
2454687.5
 10
3837087.5
 20
2454683.36282793432474136
 10
3837070.09855015948414803
 20
2454662.5
 10
3837062.5
 20
2454654.46851233206689358
 10
3837049.48480024421587586
 20
2454637.5
 10
3837037.5
 20
2454623.54643782041966915
 10
3837026.24218881409615278
 20
2454612.5
 10
3837012.5
 20
2454599.89168368093669415
 10
3836997.70283774379640818
 20
2454587.5
 10
3836987.5
 20
2454580.95052865287289023
 10
3836964.21474340558052063
 20
2454562.5
 10
3836962.5
 20
2454558.98473363323137164
 10
3836937.5
 20
2454548.16517428867518902
 10
3836912.5
 20
2454544.11364152235910296
 10
3836894.11364152235910296
 20
2454562.5
 10
3836887.5
 20
2454565.02791929570958018
 10
3836883.41361699160188437
 20
2454562.5
 10
3836887.5
 20
2454552.47831237828359008
 10
3836902.47831237828359008
 20
2454537.5
 10
3836899.41451272740960121
 20
2454512.5
 10
3836912.5
 20
2454498.19820423470810056
 10
3836936.34123760601505637
 20
2454487.5
 10
3836937.5
 20
2454485.73625674284994602
 10
3836962.5
 20
2454465.35062713781371713
 10
3836971.98300084285438061
 20
2454462.5
 10
3836987.5
 20
2454460.11307890107855201
 10
3837012.5
 20
2454456.71991570573300123
 10
3837037.5
 20
2454452.74610885279253125
 10
3837062.5
 20
2454452.92483730101957917
 10
3837087.5
 20
2454455.68299397639930248
 10
3837112.5
 20
2454457.38460973091423512
 10
3837137.5
 20
2454460.75312669947743416
 10
3837146.90427400451153517
 20
2454462.5
 10
3837162.5
 20
2454465.64102942030876875
 10
3837187.5
 20
2454467.71814528526738286
 10
3837212.5
 20
2454472.05374146765097976
 10
3837237.5
 20
2454475.36267880350351334
 10
3837262.5
 20
2454478.14845234202221036
 10
3837287.5
 20
2454480.89982735132798553
 10
3837312.5
 20
2454483.94162522861734033
 10
3837337.5
 20
2454483.77766001177951694
 10
3837362.5
 20
2454485.03144364664331079
 10
3837387.5
 20
2454484.17105114087462425
 10
3837412.5
 20
2454480.62334295455366373
 10
3837437.5
 20
2454475.92520762979984283
 10
3837462.5
 20
2454473.23787214746698737
 10
3837487.5
 20
2454470.89560622442513704
 10
3837512.5
 20
2454473.81790914013981819
 10
3837537.5
 20
2454473.38750677881762385
 10
3837562.5
 20
2454469.32439977675676346
 10
3837577.65561709506437182
 20
2454462.5
 10
3837587.5
 20
2454458.03695236658677459
 10
3837612.5
 20
2454445.83430458419024944
 10
3837637.5
 20
2454439.83187050092965364
 10
3837644.2115395269356668
 20
2454437.5
 10
3837662.5
 20
2454431.07208224618807435
 10
3837687.5
 20
2454419.15717934304848313
 10
3837702.69714412745088339
 20
2454412.5
 10
3837712.5
 20
2454409.24326986214146018
 10
3837737.5
 20
2454406.53213821304962039
 10
3837762.5
 20
2454406.75392509624361992
 10
3837787.5
 20
2454407.89981139823794365
 10
3837812.5
 20
2454406.38944099377840757
 10
3837837.5
 20
2454405.26170202530920506
 10
3837862.5
 20
2454405.63169471127912402
 10
3837887.5
 20
2454406.72228702669963241
 10
3837912.5
 20
2454410.41937400214374065
 10
3837937.5
 20
2454409.81290926085785031
 10
3837962.5
 20
2454408.80001151887699962
 10
3837987.5
 20
2454403.59186111250892282
 10
3838012.5
 20
2454394.09229874704033136
 10
3838025.47961519984528422
 20
2454387.5
 10
3838037.5
 20
2454381.78315506596118212
 10
3838062.5
 20
2454368.0386323519051075
 10
3838068.42959463596343994
 20
2454362.5
 10
3838087.5
 20
2454341.63869748823344707
 10
3838091.0559459924697876
 20
2454337.5
 10
3838108.95992057397961617
 20
2454312.5
 10
3838112.5
 20
2454306.62978350557386875
 10
3838121.81120343366637826
 20
2454287.5
 10
3838132.4698315872810781
 20
2454262.5
 10
3838137.5
 20
2454243.08526973100379109
 10
3838138.87428373517468572
 20
2454237.5
 10
3838145.93077716184780002
 20
2454212.5
 10
3838149.83213994093239307
 20
2454187.5
 10
3838149.70525587443262339
 20
2454162.5
 10
3838148.75590971484780312
 20
2454137.5
 10
3838150.03580912249162793
 20
2454112.5
 10
3838151.0979023901745677
 20
2454087.5
 10
3838153.14038875326514244
 20
2454062.5
 10
3838156.38984821643680334
 20
2454037.5
 10
3838161.84149306593462825
 20
2454012.5
 10
3838162.5
 20
2454010.26899216929450631
 10
3838168.93391861580312252
 20
2453987.5
 10
3838177.76754085253924131
 20
2453962.5
 10
3838187.5
 20
2453941.32362082367762923
 10
3838189.15813060197979212
 20
2453937.5
 10
3838198.68103663576766849
 20
2453912.5
 10
3838208.11416605720296502
 20
2453887.5
 10
3838212.5
 20
2453876.13592402031645179
 10
3838218.58828203286975622
 20
2453862.5
 10
3838227.53188915783539414
 20
2453837.5
 10
3838234.39514986937865615
 20
2453812.5
 10
3838232.03581555094569921
 20
2453787.5
 10
3838232.5471015446819365
 20
2453762.5
 10
3838233.38100135931745172
 20
2453737.5
 10
3838234.65523842023685575
 20
2453712.5
 10
3838237.5
 20
2453710.03713760897517204
 10
3838242.86733734793961048
 20
2453712.5
 10
3838253.12970739929005504
 20
2453737.5
 10
3838262.5
 20
2453750.00837852666154504
 10
3838287.5
 20
2453760.54453741479665041
 10
3838312.5
 20
2453759.70278404792770743
 10
3838315.91886237170547247
 20
2453762.5
 10
3838332.72184660891070962
 20
2453787.5
 10
3838337.5
 20
2453795.46807835949584842
 10
3838347.22088159574195743
 20
2453812.5
 10
3838362.29232635581865907
 20
2453837.5
 10
3838362.5
 20
2453837.80093558179214597
 10
3838377.91773611586540937
 20
2453862.5
 10
3838387.5
 20
2453878.1757743563503027
 10
3838391.78697330877184868
 20
2453887.5
 10
3838404.44013477489352226
 20
2453912.5
 10
3838412.5
 20
2453923.38880420057103038
 10
3838431.24402384832501411
 20
2453937.5
 10
3838437.5
 20
2453945.74377408856526017
 10
3838448.7168196476995945
 20
2453962.5
 10
3838462.5
 20
2453979.5418992699123919
 10
3838466.5466980691999197
 20
2453987.5
 10
3838478.99564626300707459
 20
2454012.5
 10
3838487.5
 20
2454024.62446351908147335
 10
3838496.19538116315379739
 20
2454037.5
 10
3838512.5
 20
2454052.79499473748728633
 10
3838528.24267286341637373
 20
2454062.5
 10
3838537.5
 20
2454067.02868709852918983
 10
3838562.5
 20
2454078.94913833448663354
 10
3838577.36814006324857473
 20
2454087.5
 10
3838587.5
 20
2454092.65967547055333853
 10
3838612.5
 20
2454102.02046316303312778
 10
3838637.5
 20
2454105.18577069463208318
 10
3838662.5
 20
2454106.52407653024420142
 10
3838687.5
 20
2454109.37402179790660739
 10
3838701.58784866938367486
 20
2454112.5
 10
3838712.5
 20
2454115.24901460343971848
 10
3838737.5
 20
2454122.19584837555885315
 10
3838762.5
 20
2454133.88446384947746992
 10
3838773.91801758669316769
 20
2454137.5
 10
3838787.5
 20
2454142.12385956337675452
 10
3838812.5
 20
2454152.6383785642683506
 10
3838826.86238460335880518
 20
2454162.5
 10
3838837.5
 20
2454169.94274391327053308
 10
3838862.5
 20
2454185.74747993377968669
 10
3838865.91758960299193859
 20
2454187.5
 10
3838887.5
 20
2454198.30378879327327013
 10
3838912.5
 20
2454211.50748958205804229
 10
3838914.46502898773178458
 20
2454212.5
 10
3838937.5
 20
2454227.62137106619775295
 10
3838962.5
 20
2454230.11313438694924116
 10
3838987.5
 20
2454235.10137749137356877
 10
3838989.23451857455074787
 20
2454237.5
 10
3838987.5
 20
2454242.66885068826377392
 10
3838973.6776308249682188
 20
2454262.5
 10
3838965.46304364316165447
 20
2454287.5
 10
3838962.5
 20
2454294.9726508385501802
 10
3838955.47166829509660602
 20
2454312.5
 10
3838940.84937608428299427
 20
2454337.5
 10
3838937.5
 20
2454343.03266830183565617
 10
3838928.2758496874012053
 20
2454362.5
 10
3838917.906900136731565
 20
2454387.5
 10
3838912.5
 20
2454407.24636881379410625
 10
3838911.32379686273634434
 20
2454412.5
 10
3838909.9015004956163466
 20
2454437.5
 10
3838911.64285714272409678
 20
2454462.5
 10
3838912.5
 20
2454475.10380014078691602
 10
3838913.38206427590921521
 20
2454487.5
 10
3838914.15225559985265136
 20
2454512.5
 10
3838916.30184070626273751
 20
2454537.5
 10
3838918.54374929424375296
 20
2454562.5
 10
3838919.35656946804374456
 20
2454587.5
 10
3838916.86808549240231514
 20
2454612.5
 10
3838912.5
 20
2454632.12025316478684545
 10
3838911.30069290194660425
 20
2454637.5
 10
3838907.22568194335326552
 20
2454662.5
 10
3838904.15787817444652319
 20
2454687.5
 10
3838900.96498614642769098
 20
2454712.5
 10
3838897.00049398513510823
 20
2454737.5
 10
3838896.05013077612966299
 20
2454762.5
 10
3838892.754935622215271
 20
2454787.5
 10
3838897.28029334777966142
 20
2454812.5
 10
3838902.68005838664248586
 20
2454837.5
 10
3838907.84220696333795786
 20
2454862.5
 10
3838912.5
 20
2454875.71722314693033695
 10
3838916.82456471351906657
 20
2454887.5
 10
3838931.45271469140425324
 20
2454912.5
 10
3838937.5
 20
2454930.29300443734973669
 10
3838939.72682840283960104
 20
2454937.5
 10
3838946.03120403457432985
 20
2454962.5
 10
3838952.26673531671985984
 20
2454987.5
 10
3838958.86076842714101076
 20
2455012.5
 10
3838962.5
 20
2455024.97942884778603911
 10
3838966.522063625510782
 20
2455037.5
 10
3838981.32230835128575563
 20
2455062.5
 10
3838987.5
 20
2455072.58710594940930605
 10
3838997.36894734343513846
 20
2455087.5
 10
3839012.5
 20
2455101.70671271393075585
 10
3839023.60551278945058584
 20
2455112.5
 10
3839037.5
 20
2455125.56495967647060752
 10
3839049.11851194268092513
 20
2455137.5
 10
3839062.5
 20
2455150.54246430890634656
 10
3839074.70908563863486052
 20
2455162.5
 10
3839087.5
 20
2455174.72653982182964683
 10
3839103.20606940658763051
 20
2455187.5
 10
3839112.5
 20
2455195.23630261840298772
 10
3839131.33712534280493855
 20
2455212.5
 10
3839137.5
 20
2455218.29106606310233474
 10
3839162.5
 20
2455237.26345070637762547
 10
3839162.89586719311773777
 20
2455237.5
 10
3839187.5
 20
2455250.11893137404695153
 10
3839212.5
 20
2455260.06210491294041276
 10
3839218.05703018372878432
 20
2455262.5
 10
3839237.5
 20
2455272.34681662824004889
 10
3839262.5
 20
2455285.27760087046772242
 10
3839266.9515906129963696
 20
2455287.5
 10
3839287.5
 20
2455298.03228442976251245
 10
3839311.27921816240996122
 20
2455312.5
 10
3839312.5
 20
2455313.60486322175711393
 10
3839333.35499787796288729
 20
2455337.5
 10
3839337.5
 20
2455342.3126283367164433
 10
3839352.02479094639420509
 20
2455362.5
 10
3839362.5
 20
2455377.53158854320645332
 10
3839368.72146949451416731
 20
2455387.5
 10
3839382.99349443567916751
 20
2455412.5
 10
3839387.5
 20
2455420.78964846534654498
 10
3839395.12625169148668647
 20
2455437.5
 10
3839411.86869416479021311
 20
2455462.5
 10
3839412.5
 20
2455463.65561996214091778
 10
3839424.1755580878816545
 20
2455487.5
 10
3839437.5
 20
2455504.48277000244706869
 10
3839443.05359935620799661
 20
2455512.5
 10
3839462.5
 20
2455535.06494884751737118
 10
3839464.7428691522218287
 20
2455537.5
 10
3839487.5
 20
2455562.29920748202130198
 10
3839487.71359773352742195
 20
2455562.5
 10
3839512.48185027111321688
 20
2455587.5
 10
3839512.5
 20
2455587.52170528704300523
 10
3839535.26466575730592012
 20
2455612.5
 10
3839537.5
 20
2455615.4533165106549859
 10
3839556.8579273889772594
 20
2455637.5
 10
3839562.5
 20
2455645.86108635505661368
 10
3839574.48982609715312719
 20
2455662.5
 10
3839587.5
 20
2455679.91882565896958113
 10
3839593.13412255328148603
 20
2455687.5
 10
3839611.49213089980185032
 20
2455712.5
 10
3839612.5
 20
2455713.6704664696007967
 10
3839636.03897327650338411
 20
2455737.5
 10
3839637.5
 20
2455738.82693755999207497
 10
3839662.5
 20
2455755.83988415403291583
 10
3839671.0477233505807817
 20
2455762.5
 10
3839687.5
 20
2455779.11594358319416642
 10
3839695.36940326681360602
 20
2455787.5
 10
3839712.5
 20
2455802.6785116964019835
 10
3839723.11955971363931894
 20
2455812.5
 10
3839737.5
 20
2455824.72531977714970708
 10
3839756.691328180488199
 20
2455837.5
 10
3839762.5
 20
2455841.84439633321017027
 10
3839787.5
 20
2455861.95031671784818172
 10
3839788.29681830853223801
 20
2455862.5
 10
3839810.36141774151474237
 20
2455887.5
 10
3839812.5
 20
2455890.00490700080990791
 10
3839831.62395709194242954
 20
2455912.5
 10
3839837.5
 20
2455919.29500137828290462
 10
3839855.62395182205364108
 20
2455937.5
 10
3839862.5
 20
2455945.67680760007351637
 10
3839879.37274975469335914
 20
2455962.5
 10
3839887.5
 20
2455971.7624445641413331
 10
3839898.63065400300547481
 20
2455987.5
 10
3839912.5
 20
2456002.10352490888908505
 10
3839922.1749870739877224
 20
2456012.5
 10
3839937.5
 20
2456023.97908687964081764
 10
3839962.5
 20
2456035.82505714520812035
 10
3839964.70081818662583828
 20
2456037.5
 10
3839987.5
 20
2456049.99077961873263121
 10
3840012.5
 20
2456059.10787083953619003
 10
3840021.1206660270690918
 20
2456062.5
 10
3840037.5
 20
2456068.61092931916937232
 10
3840062.5
 20
2456070.01196884782984853
 10
3840087.5
 20
2456068.19813849171623588
 10
3840112.5
 20
2456064.91773603856563568
 10
3840137.5
 20
2456065.81984099606052041
 10
3840162.5
 20
2456070.37128883693367243
 10
3840187.5
 20
2456074.16225100588053465
 10
3840212.5
 20
2456077.77694908529520035
 10
3840237.5
 20
2456084.12253274209797382
 10
3840247.58632840029895306
 20
2456087.5
 10
3840262.5
 20
2456092.21963361231610179
 10
3840287.5
 20
2456097.03773833764716983
 10
3840312.5
 20
2456100.0569809190928936
 10
3840337.5
 20
2456109.67416819743812084
 10
3840341.47209669323638082
 20
2456112.5
 10
3840357.39088027318939567
 20
2456137.5
 10
3840362.5
 20
2456160.36641929484903812
 10
3840362.92595376586541533
 20
2456162.5
 10
3840371.6284403670579195
 20
2456187.5
 10
3840377.64368553925305605
 20
2456212.5
 10
3840375.23228828422725201
 20
2456237.5
 10
3840370.28980583976954222
 20
2456262.5
 10
3840362.5
 20
2456284.32529610814526677
 10
3840361.31268786592409015
 20
2456287.5
 10
3840354.54593965597450733
 20
2456312.5
 10
3840348.19996567629277706
 20
2456337.5
 10
3840340.47473418572917581
 20
2456362.5
 10
3840337.5
 20
2456372.19728130009025335
 10
3840333.69464887119829655
 20
2456387.5
 10
3840326.05902777798473835
 20
2456412.5
 10
3840314.9735601213760674
 20
2456437.5
 10
3840312.5
 20
2456443.06852992018684745
 10
3840304.85827001743018627
 20
2456462.5
 10
3840293.18073238106444478
 20
2456487.5
 10
3840287.5
 20
2456501.38687225803732872
 10
3840283.55972938798367977
 20
2456512.5
 10
3840276.41646232176572084
 20
2456537.5
 10
3840273.60177930817008018
 20
2456562.5
 10
3840274.30646252166479826
 20
2456587.5
 10
3840275.91844998532906175
 20
2456612.5
 10
3840279.58238106500357389
 20
2456637.5
 10
3840287.16111367614939809
 20
2456662.5
 10
3840287.5
 20
2456663.36542870244011283
 10
3840299.89070854475721717
 20
2456687.5
 10
3840312.5
 20
2456706.33239998994395137
 10
3840320.34714678255841136
 20
2456712.5
 10
3840337.5
 20
2456734.69764316733926535
 10
3840343.64460562122985721
 20
2456737.5
 10
3840362.5
 20
2456745.97666598716750741
 10
3840385.26683087041601539
 20
2456737.5
 10
3840387.5
 20
2456736.77723649237304926
 10
3840412.5
 20
2456718.36810965603217483
 10
3840421.74868918815627694
 20
2456712.5
 10
3840437.5
 20
2456706.05672902008518577
 10
3840459.50650375103577971
 20
2456687.5
 10
3840462.5
 20
2456684.79369815159589052
 10
3840485.19064407190307975
 20
2456662.5
 10
3840487.5
 20
2456660.09828691137954593
 10
3840508.29116704920306802
 20
2456637.5
 10
3840512.5
 20
2456633.58874897938221693
 10
3840537.5
 20
2456614.34824390523135662
 10
3840540.08439789433032274
 20
2456612.5
 10
3840562.5
 20
2456600.74905915278941393
 10
3840579.95708836615085602
 20
2456587.5
 10
3840587.5
 20
2456582.02731499401852489
 10
3840612.5
 20
2456562.87698927940800786
 10
3840612.89252607198432088
 20
2456562.5
 10
3840637.5
 20
2456541.82473875489085913
 10
3840642.30173314595595002
 20
2456537.5
 10
3840662.5
 20
2456517.46560042910277843
 10
3840666.49687873059883714
 20
2456512.5
 10
3840687.5
 20
2456489.01278751809149981
 10
3840688.7825932796113193
 20
2456487.5
 10
3840709.24459399096667767
 20
2456462.5
 10
3840712.5
 20
2456458.47369708260521293
 10
3840728.94622884271666408
 20
2456437.5
 10
3840737.5
 20
2456428.21090747835114598
 10
3840751.62061636568978429
 20
2456412.5
 10
3840762.5
 20
2456398.83260513376444578
 10
3840771.86489230999723077
 20
2456387.5
 10
3840787.5
 20
2456367.92765222862362862
 10
3840792.10053740534931421
 20
2456362.5
 10
3840812.49970373511314392
 20
2456337.5
 10
3840812.5
 20
2456337.49958518613129854
 10
3840828.86907348642125726
 20
2456312.5
 10
3840837.5
 20
2456295.51276568463072181
 10
3840841.4724901937879622
 20
2456287.5
 10
3840851.88809423428028822
 20
2456262.5
 10
3840861.55439245281741023
 20
2456237.5
 10
3840862.5
 20
2456232.36398861277848482
 10
3840866.33238405222073197
 20
2456212.5
 10
3840870.57985990587621927
 20
2456187.5
 10
3840874.71513610007241368
 20
2456162.5
 10
3840880.19066606741398573
 20
2456137.5
 10
3840887.5
 20
2456117.37039099214598536
 10
3840889.8671708214096725
 20
2456112.5
 10
3840904.55182349216192961
 20
2456087.5
 10
3840912.5
 20
2456078.73637313162907958
 10
3840937.5
 20
2456069.09689466934651136
 10
3840962.5
 20
2456070.22526801470667124
 10
3840987.5
 20
2456077.33731739688664675
 10
3841012.5
 20
2456086.19183494290336967
 10
3841014.80359393963590264
 20
2456087.5
 10
3841037.5
 20
2456101.23618068732321262
 10
3841052.72858199384063482
 20
2456112.5
 10
3841062.5
 20
2456119.92945293663069606
 10
3841080.81192264379933476
 20
2456137.5
 10
3841087.5
 20
2456145.15601553535088897
 10
3841103.438255381770432
 20
2456162.5
 10
3841112.5
 20
2456174.02104861475527287
 10
3841125.58989664306864142
 20
2456187.5
 10
3841137.5
 20
2456202.19999258313328028
 10
3841144.43808389827609062
 20
2456212.5
 10
3841162.5
 20
2456237.21346868108958006
 10
3841162.73338901251554489
 20
2456237.5
 10
3841184.7739057494327426
 20
2456262.5
 10
3841187.5
 20
2456266.21785872150212526
 10
3841201.00806118920445442
 20
2456287.5
 10
3841212.5
 20
2456307.05850137630477548
 10
3841216.15918147657066584
 20
2456312.5
 10
3841230.921864771284163
 20
2456337.5
 10
3841237.5
 20
2456345.28648600773885846
 10
3841249.79112983541563153
 20
2456362.5
 10
3841262.5
 20
2456378.15548869548365474
 10
3841271.88857366470620036
 20
2456387.5
 10
3841287.5
 20
2456402.57320298487320542
 10
3841300.77493431698530912
 20
2456412.5
 10
3841312.5
 20
2456419.12742214184254408
 10
3841337.5
 20
2456433.02730889245867729
 10
3841347.96875
 20
2456437.5
 10
3841362.5
 20
2456442.15570085821673274
 10
3841387.5
 20
2456446.90144630568102002
 10
3841412.5
 20
2456445.55879304744303226
 10
3841437.5
 20
2456441.77283319970592856
 10
3841452.37868121219798923
 20
2456437.5
 10
3841462.5
 20
2456433.94334180001169443
 10
3841487.5
 20
2456418.74356670584529638
 10
3841497.34254675451666117
 20
2456412.5
 10
3841512.5
 20
2456401.94700284348800778
 10
3841530.96292671002447605
 20
2456387.5
 10
3841537.5
 20
2456381.92068713437765837
 10
3841562.5
 20
2456362.8340793582610786
 10
3841562.85634710639715195
 20
2456362.5
 10
3841585.75532345706596971
 20
2456337.5
 10
3841587.5
 20
2456335.20657124277204275
 10
3841604.72799380728974938
 20
2456312.5
 10
3841612.5
 20
2456302.61359906382858753
 10
3841625.33760031033307314
 20
2456287.5
 10
3841637.5
 20
2456273.61776019027456641
 10
3841648.22883008001372218
 20
2456262.5
 10
3841662.5
 20
2456248.63590079499408603
 10
3841674.47233185032382607
 20
2456237.5
 10
3841687.5
 20
2456226.37463081162422895
 10
3841706.71659024199470878
 20
2456212.5
 10
3841712.5
 20
2456208.86133913090452552
 10
3841737.5
 20
2456197.67135475482791662
 10
3841762.5
 20
2456191.2089487467892468
 10
3841783.208939079195261
 20
2456187.5
 10
3841787.5
 20
2456186.63001333363354206
 10
3841812.5
 20
2456182.68956917151808739
 10
3841837.5
 20
2456181.29073687875643373
 10
3841862.5
 20
2456179.76367449993267655
 10
3841887.5
 20
2456175.75382690085098147
 10
3841912.5
 20
2456169.59732685005292296
 10
3841936.86377002764493227
 20
2456162.5
 10
3841937.5
 20
2456162.28217257419601083
 10
3841962.5
 20
2456152.47995691234245896
 10
3841987.5
 20
2456140.86820592964068055
 10
3841994.13683300279080868
 20
2456137.5
 10
3842012.5
 20
2456128.18507229490205646
 10
3842037.5
 20
2456113.69624043116346002
 10
3842039.30720939254388213
 20
2456112.5
 10
3842062.5
 20
2456096.3137411386705935
 10
3842073.88461795309558511
 20
2456087.5
 10
3842087.5
 20
2456073.88382236333563924
 10
3842096.96735395211726427
 20
2456062.5
 10
3842112.5
 20
2456040.05507403379306197
 10
3842114.14511503512039781
 20
2456037.5
 10
3842126.53621896030381322
 20
2456012.5
 10
3842137.5
 20
2455988.73275041626766324
 10
3842138.05442604515701532
 20
2455987.5
 10
3842149.21677904669195414
 20
2455962.5
 10
3842162.5
 20
2455940.06208272511139512
 10
3842164.03253153525292873
 20
2455937.5
 10
3842180.49355355044826865
 20
2455912.5
 10
3842187.5
 20
2455903.66111745964735746
 10
3842200.45560061885043979
 20
2455887.5
 10
3842212.5
 20
2455873.75833358708769083
 10
3842220.75668102968484163
 20
2455862.5
 10
3842237.5
 20
2455840.23726239148527384
 10
3842239.57492611650377512
 20
2455837.5
 10
3842258.30071408720687032
 20
2455812.5
 10
3842262.5
 20
2455806.38829730590805411
 10
3842275.31962331803515553
 20
2455787.5
 10
3842287.5
 20
2455768.07121447939425707
 10
3842290.4579813932068646
 20
2455762.5
 10
3842301.87593994662165642
 20
2455737.5
 10
3842312.5
 20
2455714.38756740046665072
 10
3842313.23372487165033817
 20
2455712.5
 10
3842320.85256134299561381
 20
2455687.5
 10
3842330.14998284913599491
 20
2455662.5
 10
3842337.5
 20
2455647.79389526089653373
 10
3842342.41824462125077844
 20
2455637.5
 10
3842355.453957324847579
 20
2455612.5
 10
3842362.5
 20
2455600.17554760770872235
 10
3842370.29834904940798879
 20
2455587.5
 10
3842386.60150838829576969
 20
2455562.5
 10
3842387.5
 20
2455561.16150062019005418
 10
3842405.42580953380092978
 20
2455537.5
 10
3842412.5
 20
2455528.21791923092678189
 10
3842424.87802490079775453
 20
2455512.5
 10
3842437.5
 20
2455496.3496591467410326
 10
3842444.39018938457593322
 20
2455487.5
 10
3842462.5
 20
2455466.57639573654159904
 10
3842466.56856312695890665
 20
2455462.5
 10
3842487.5
 20
2455442.12524519860744476
 10
3842492.15433345595374703
 20
2455437.5
 10
3842512.5
 20
2455418.13401205977424979
 10
3842518.15873782150447369
 20
2455412.5
 10
3842537.5
 20
2455392.41550759226083755
 10
3842542.08740568719804287
 20
2455387.5
 10
3842562.5
 20
2455363.81678937282413244
 10
3842563.46655365778133273
 20
2455362.5
 10
3842577.33476459281519055
 20
2455337.5
 10
3842587.5
 20
2455318.28599598677828908
 10
3842590.30650942400097847
 20
2455312.5
 10
3842601.96825952129438519
 20
2455287.5
 10
3842612.5
 20
2455265.16092890594154596
 10
3842613.75340123241767287
 20
2455262.5
 10
3842623.57887105457484722
 20
2455237.5
 10
3842632.64403724670410156
 20
2455212.5
 10
3842637.5
 20
2455189.84922756999731064
 10
3842637.91054888674989343
 20
2455187.5
 10
3842638.6335219070315361
 20
2455162.5
 10
3842637.5
 20
2455153.74291115300729871
 10
3842634.84866484394297004
 20
2455137.5
 10
3842625.00374907720834017
 20
2455112.5
 10
3842612.5
 20
2455090.85396904638037086
 10
3842610.03194365883246064
 20
2455087.5
 10
3842587.5
 20
2455063.67676077131181955
 10
3842586.13410521391779184
 20
2455062.5
 10
3842562.5
 20
2455043.88855751091614366
 10
3842554.48721945146098733
 20
2455037.5
 10
3842537.5
 20
2455023.14420710364356637
 10
3842524.6969436346553266
 20
2455012.5
 10
3842512.5
 20
2455001.02740309294313192
 10
3842497.92681528348475695
 20
2454987.5
 10
3842487.5
 20
2454977.43985554715618491
 10
3842470.58505201153457165
 20
2454962.5
 10
3842462.5
 20
2454955.41395120043307543
 10
3842441.19517303351312876
 20
2454937.5
 10
3842437.5
 20
2454934.49779343139380217
 10
3842412.5
 20
2454918.85914304433390498
 10
3842399.08979480667039752
 20
2454912.5
 10
3842387.5
 20
2454907.44259158009663224
 10
3842362.5
 20
2454896.52709144819527864
 10
3842343.37451886059716344
 20
2454887.5
 10
3842337.5
 20
2454885.0603907979093492
 10
3842312.5
 20
2454873.81386861298233271
 10
3842293.24364509433507919
 20
2454862.5
 10
3842287.5
 20
2454859.00464483443647623
 10
3842262.5
 20
2454840.90168099664151669
 10
3842257.81680862791836262
 20
2454837.5
 10
3842237.5
 20
2454820.74433139059692621
 10
3842227.90100422687828541
 20
2454812.5
 10
3842212.5
 20
2454797.00921304430812597
 10
3842204.53943022293969989
 20
2454787.5
 10
3842187.5
 20
2454765.33307193173095584
 10
3842185.50807420117780566
 20
2454762.5
 10
3842164.68468296388164163
 20
2454737.5
 10
3842162.5
 20
2454735.09496917761862278
 10
3842141.78287774231284857
 20
2454712.5
 10
3842137.5
 20
2454708.45203737309202552
 10
3842116.15072999754920602
 20
2454687.5
 10
3842112.5
 20
2454683.76210860861465335
 10
3842090.90005870489403605
 20
2454662.5
 10
3842087.5
 20
2454658.92506172461435199
 10
3842064.43953459896147251
 20
2454637.5
 10
3842062.5
 20
2454635.68287169747054577
 10
3842037.5
 20
2454614.18586391676217318
 10
3842035.50968044018372893
 20
2454612.5
 10
3842012.5
 20
2454587.73425285937264562
 10
3842012.30355710443109274
 20
2454587.5
 10
3841999.29730576928704977
 20
2454562.5
 10
3841992.95390173932537436
 20
2454537.5
 10
3841993.00734945479780436
 20
2454512.5
 10
3841993.835009281989187
 20
2454487.5
 10
3841993.10270695667713881
 20
2454462.5
 10
3841991.58959897421300411
 20
2454437.5
 10
3841990.90275442553684115
 20
2454412.5
 10
3841987.52041586255654693
 20
2454387.5
 10
3841987.5
 20
2454387.39343935390934348
 10
3841981.33640481904149055
 20
2454362.5
 10
3841972.29528015991672873
 20
2454337.5
 10
3841962.8624915718100965
 20
2454312.5
 10
3841962.5
 20
2454311.16764293564483523
 10
3841955.07017461163923144
 20
2454287.5
 10
3841951.17656360752880573
 20
2454262.5
 10
3841951.46295768162235618
 20
2454237.5
 10
3841955.77257987018674612
 20
2454212.5
 10
3841962.013076426461339
 20
2454187.5
 10
3841962.5
 20
2454186.26932123675942421
 10
3841972.7249261774122715
 20
2454162.5
 10
3841987.5
 20
2454138.15207404643297195
 10
3841987.87422372400760651
 20
2454137.5
 10
3842004.96855592075735331
 20
2454112.5
 10
3842012.5
 20
2454102.21916676172986627
 10
3842021.42144670709967613
 20
2454087.5
 10
3842036.29161826940253377
 20
2454062.5
 10
3842037.5
 20
2454060.47474919725209475
 10
3842050.5891567631624639
 20
2454037.5
 10
3842062.5
 20
2454014.30949828960001469
 10
3842063.38579563423991203
 20
2454012.5
 10
3842075.82094223238527775
 20
2453987.5
 10
3842087.5
 20
2453964.9461969337426126
 10
3842088.73362721316516399
 20
2453962.5
 10
3842101.43735563429072499
 20
2453937.5
 10
3842112.5
 20
2453915.17295836238190532
 10
3842114.06720205117017031
 20
2453912.5
 10
3842124.71172065334394574
 20
2453887.5
 10
3842131.19571474520489573
 20
2453862.5
 10
3842134.16895108949393034
 20
2453837.5
 10
3842135.54597831331193447
 20
2453812.5
 10
3842137.5
 20
2453800.42970754252746701
 10
3842139.82018949883058667
 20
2453787.5
 10
3842145.25163167435675859
 20
2453762.5
 10
3842148.3143736720085144
 20
2453737.5
 10
3842147.85092502739280462
 20
2453712.5
 10
3842143.35651181964203715
 20
2453687.5
 10
3842137.5
 20
2453665.69512635935097933
 10
3842136.63311921805143356
 20
2453662.5
 10
3842127.13652944238856435
 20
2453637.5
 10
3842116.8936367086134851
 20
2453612.5
 10
3842112.5
 20
2453604.52124667819589376
 10
3842100.69611705373972654
 20
2453587.5
 10
3842087.5
 20
2453571.99057360598817468
 10
3842077.18523846892639995
 20
2453562.5
 10
3842062.5
 20
2453547.98239133134484291
 10
3842051.71467394754290581
 20
2453537.5
 10
3842037.5
 20
2453520.18355172779411077
 10
3842031.36280142003670335
 20
2453512.5
 10
3842014.132935531437397
 20
2453487.5
 10
3842012.5
 20
2453484.28709755511954427
 10
3842000.5237787920050323
 20
2453462.5
 10
3841989.21955339098349214
 20
2453437.5
 10
3841987.5
 20
2453432.57077856408432126
 10
3841981.05221568420529366
 20
2453412.5
 10
3841970.98454116890206933
 20
2453387.5
 10
3841962.5
 20
2453373.49416329199448228
 10
3841955.37018969794735312
 20
2453362.5
 10
3841941.15884344419464469
 20
2453337.5
 10
3841937.5
 20
2453332.36494874022901058
 10
3841925.75557706644758582
 20
2453312.5
 10
3841913.47497674869373441
 20
2453287.5
 10
3841912.5
 20
2453285.42185700125992298
 10
3841902.42392750736325979
 20
2453262.5
 10
3841893.25336943380534649
 20
2453237.5
 10
3841887.5
 20
2453223.08854834735393524
 10
3841882.9164451532997191
 20
2453212.5
 10
3841868.37227525701746345
 20
2453187.5
 10
3841862.5
 20
2453178.25822939118370414
 10
3841839.35027003195136786
 20
2453162.5
 10
3841837.5
 20
2453161.48144917842000723
 10
3841812.5
 20
2453151.07983640348538756
 10
3841792.33757497975602746
 20
2453137.5
 10
3841787.5
 20
2453133.12692462187260389
 10
3841767.70822181785479188
 20
2453112.5
 10
3841767.70822181785479188
 20
2453100.0
  0
LWPOLYLINE
  5
a0
  8
Contours
100
AcDbEntity
100
AcDbPolyline
  6
CONTINUOUS
420
15156120
 90
    94
 70
   128
 43
13.0
 10
3842866.50816249055787921
 20
2453100.0
 10
3842866.50816249055787921
 20
2453112.5
 10
3842862.5
 20
2453119.81196324666962028
 10
3842854.06338950945064425
 20
2453137.5
 10
3842840.9659581845626235
 20
2453162.5
 10
3842837.5
 20
2453168.30448487540706992
 10
3842826.55456752749159932
 20
2453187.5
 10
3842812.5
 20
2453210.26443699141964316
 10
3842811.25193061679601669
 20
2453212.5
 10
3842797.55748126190155745
 20
2453237.5
 10
3842787.5
 20
2453255.78067972371354699
 10
3842784.11042245803400874
 20
2453262.5
 10
3842771.90418737009167671
 20
2453287.5
 10
3842762.5
 20
2453306.67389643704518676
 10
3842760.01050163013860583
 20
2453312.5
 10
3842748.43576419819146395
 20
2453337.5
 10
3842737.9858890762552619
 20
2453362.5
 10
3842737.5
 20
2453363.58958642510697246
 10
3842727.43894886178895831
 20
2453387.5
 10
3842717.07974535739049315
 20
2453412.5
 10
3842712.5
 20
2453426.24140344187617302
 10
3842708.7907950347289443
 20
2453437.5
 10
3842704.44814193248748779
 20
2453462.5
 10
3842704.40761334495618939
 20
2453487.5
 10
3842709.14470663759857416
 20
2453512.5
 10
3842712.5
 20
2453524.76017134124413133
 10
3842716.76483176741749048
 20
2453537.5
 10
3842727.11823856784030795
 20
2453562.5
 10
3842737.5
 20
2453583.12107405625283718
 10
3842739.93774582585319877
 20
2453587.5
 10
3842756.81188087956979871
 20
2453612.5
 10
3842762.5
 20
2453619.39967882120981812
 10
3842779.00865366728976369
 20
2453637.5
 10
3842787.5
 20
2453645.50430118711665273
 10
3842808.82999282423406839
 20
2453662.5
 10
3842812.5
 20
2453665.17656434001401067
 10
3842837.5
 20
2453680.14503523474559188
 10
3842852.92410993110388517
 20
2453687.5
 10
3842862.5
 20
2453691.90789171028882265
 10
3842887.5
 20
2453700.34532248834148049
 10
3842912.5
 20
2453707.26990079088136554
 10
3842930.23250648565590382
 20
2453712.5
 10
3842937.5
 20
2453714.76298171374946833
 10
3842962.5
 20
2453720.81866864021867514
 10
3842987.5
 20
2453726.53247050382196903
 10
3843012.5
 20
2453730.61127134598791599
 10
3843037.5
 20
2453731.84984475560486317
 10
3843062.5
 20
2453730.0414944807998836
 10
3843087.5
 20
2453724.00233287923038006
 10
3843112.5
 20
2453713.64844239177182317
 10
3843114.64253380428999662
 20
2453712.5
 10
3843137.5
 20
2453698.90644539380446076
 10
3843154.41401823423802853
 20
2453687.5
 10
3843162.5
 20
2453681.83883589692413807
 10
3843187.5
 20
2453663.1700713699683547
 10
3843188.52398899523541331
 20
2453662.5
 10
3843212.5
 20
2453646.723348050378263
 10
3843226.55988200986757874
 20
2453637.5
 10
3843237.5
 20
2453629.36847227765247226
 10
3843257.5165164046920836
 20
2453612.5
 10
3843262.5
 20
2453607.66395319392904639
 10
3843284.4399061156436801
 20
2453587.5
 10
3843287.5
 20
2453584.09520301129668951
 10
3843308.67021124437451363
 20
2453562.5
 10
3843312.5
 20
2453557.43914308911189437
 10
3843328.97999750077724457
 20
2453537.5
 10
3843337.5
 20
2453527.91482874378561974
 10
3843354.54461544426158071
 20
2453512.5
 10
3843362.5
 20
2453505.86337699368596077
 10
3843387.5
 20
2453492.82404315611347556
 10
3843395.71220098435878754
 20
2453487.5
 10
3843412.5
 20
2453476.2223392641171813
 10
3843430.59893720597028732
 20
2453462.5
 10
3843437.5
 20
2453457.33961477223783731
 10
3843462.5
 20
2453442.52982291206717491
 10
3843469.56568805733695626
 20
2453437.5
 10
3843487.5
 20
2453424.66651690285652876
 10
3843504.10218600044026971
 20
2453412.5
 10
3843512.5
 20
2453405.90738220512866974
 10
3843528.20273675862699747
 20
2453387.5
 10
3843537.5
 20
2453373.79299908177927136
 10
3843543.88422779180109501
 20
2453362.5
 10
3843550.45814173668622971
 20
2453337.5
 10
3843554.4444184135645628
 20
2453312.5
 10
3843554.654925427865237
 20
2453287.5
 10
3843552.37299359450116754
 20
2453262.5
 10
3843549.05040538450703025
 20
2453237.5
 10
3843545.08646623557433486
 20
2453212.5
 10
3843539.8383957939222455
 20
2453187.5
 10
3843537.5
 20
2453177.14508656924590468
 10
3843534.59436828177422285
 20
2453162.5
 10
3843527.57277049543336034
 20
2453137.5
 10
3843517.23022238444536924
 20
2453112.5
 10
3843517.23022238444536924
 20
2453100.0
  0
LWPOLYLINE
  5
a1
  8
Contours
100
AcDbEntity
100
AcDbPolyline
  6
CONTINUOUS
420
15156120
 90
   604
 70
   128
 43
13.0
 10
3834225.0
 20
2457231.51247263327240944
 10
3834237.5
 20
2457231.51247263327240944
 10
3834262.5
 20
2457231.45370879955589771
 10
3834284.02732418896630406
 20
2457237.5
 10
3834287.5
 20
2457238.15237842034548521
 10
3834312.5
 20
2457243.41832997603341937
 10
3834337.5
 20
2457253.49208817025646567
 10
3834351.90230900933966041
 20
2457262.5
 10
3834362.5
 20
2457267.47652460355311632
 10
3834387.5
 20
2457278.78546012844890356
 10
3834400.90587860392406583
 20
2457287.5
 10
3834412.5
 20
2457296.01599933905526996
 10
3834437.5
 20
2457310.77771298307925463
 10
3834441.32115972694009542
 20
2457312.5
 10
3834462.5
 20
2457321.18294153083115816
 10
3834487.5
 20
2457331.86551540531218052
 10
3834500.55225386843085289
 20
2457337.5
 10
3834512.5
 20
2457341.88847587490454316
 10
3834537.5
 20
2457351.050042858812958
 10
3834562.5
 20
2457356.13539401907473803
 10
3834587.5
 20
2457355.13023747364059091
 10
3834612.5
 20
2457352.78095869487151504
 10
3834637.5
 20
2457347.21180288214236498
 10
3834662.5
 20
2457339.85223254794254899
 10
3834687.5
 20
2457343.93350905971601605
 10
3834712.5
 20
2457358.17625371087342501
 10
3834719.55211641592904925
 20
2457362.5
 10
3834737.5
 20
2457370.32612150395289063
 10
3834762.5
 20
2457383.62353984732180834
 10
3834768.88084041280671954
 20
2457387.5
 10
3834787.5
 20
2457396.07374873384833336
 10
3834812.5
 20
2457405.06590797426179051
 10
3834837.5
 20
2457412.15481603983789682
 10
3834838.8801652891561389
 20
2457412.5
 10
3834862.5
 20
2457421.70628784969449043
 10
3834887.5
 20
2457428.20567046897485852
 10
3834912.5
 20
2457428.39831269951537251
 10
3834937.5
 20
2457424.68147794250398874
 10
3834962.5
 20
2457416.24230490671470761
 10
3834974.75722757587209344
 20
2457412.5
 10
3834987.5
 20
2457407.46056990418583155
 10
3835012.5
 20
2457395.11811797041445971
 10
3835022.64768898626789451
 20
2457387.5
 10
3835037.5
 20
2457373.97493372252210975
 10
3835052.26297233067452908
 20
2457362.5
 10
3835062.5
 20
2457349.58854947052896023
 10
3835070.53069710684940219
 20
2457337.5
 10
3835079.8225138122215867
 20
2457312.5
 10
3835082.58461093436926603
 20
2457287.5
 10
3835083.21709751430898905
 20
2457262.5
 10
3835081.70521691208705306
 20
2457237.5
 10
3835079.93260718183591962
 20
2457212.5
 10
3835078.28892321558669209
 20
2457187.5
 10
3835076.82956697791814804
 20
2457162.5
 10
3835075.53967894380912185
 20
2457137.5
 10
3835072.57706783758476377
 20
2457112.5
 10
3835064.07004830939695239
 20
2457087.5
 10
3835062.5
 20
2457085.02366364235058427
 10
3835049.74619148205965757
 20
2457062.5
 10
3835037.5
 20
2457040.89486797200515866
 10
3835035.51947903307154775
 20
2457037.5
 10
3835022.46760869957506657
 20
2457012.5
 10
3835012.5
 20
2456989.54905094532296062
 10
3835011.49368204828351736
 20
2456987.5
 10
3834999.2532699815928936
 20
2456962.5
 10
3834989.2915193890221417
 20
2456937.5
 10
3834987.5
 20
2456931.51220195740461349
 10
3834981.32881054701283574
 20
2456912.5
 10
3834967.04835551604628563
 20
2456887.5
 10
3834962.5
 20
2456881.0407940587028861
 10
3834947.43091413611546159
 20
2456862.5
 10
3834937.5
 20
2456852.69377983687445521
 10
3834922.43684888537973166
 20
2456837.5
 10
3834912.5
 20
2456828.6611946988850832
 10
3834894.86281585972756147
 20
2456812.5
 10
3834887.5
 20
2456805.94155608303844929
 10
3834867.17730529559776187
 20
2456787.5
 10
3834862.5
 20
2456782.97548981662839651
 10
3834844.80076647596433759
 20
2456762.5
 10
3834837.5
 20
2456753.95434481697157025
 10
3834823.64209038624539971
 20
2456737.5
 10
3834812.5
 20
2456717.5682721440680325
 10
3834809.5161701338365674
 20
2456712.5
 10
3834798.08774771634489298
 20
2456687.5
 10
3834794.08543830411508679
 20
2456662.5
 10
3834794.16632656054571271
 20
2456637.5
 10
3834800.11253280192613602
 20
2456612.5
 10
3834807.16110394336283207
 20
2456587.5
 10
3834812.5
 20
2456574.74261313769966364
 10
3834817.26145672891288996
 20
2456562.5
 10
3834823.65314155351370573
 20
2456537.5
 10
3834823.99290062673389912
 20
2456512.5
 10
3834821.59695067163556814
 20
2456487.5
 10
3834816.63307798514142632
 20
2456462.5
 10
3834812.5
 20
2456451.80998732848092914
 10
3834805.55811679223552346
 20
2456437.5
 10
3834790.93371608620509505
 20
2456412.5
 10
3834787.5
 20
2456407.68471154430881143
 10
3834771.75261231465265155
 20
2456387.5
 10
3834762.5
 20
2456377.3588140900246799
 10
3834745.78432086203247309
 20
2456362.5
 10
3834737.5
 20
2456356.00473690219223499
 10
3834712.5
 20
2456341.39966395730152726
 10
3834705.52856133226305246
 20
2456337.5
 10
3834687.5
 20
2456327.2999506052583456
 10
3834662.5
 20
2456313.61565891467034817
 10
3834660.11120701115578413
 20
2456312.5
 10
3834637.5
 20
2456303.31298488285392523
 10
3834612.5
 20
2456290.89888717234134674
 10
3834607.39327538944780827
 20
2456287.5
 10
3834587.5
 20
2456274.30406821239739656
 10
3834574.56436102045699954
 20
2456262.5
 10
3834562.5
 20
2456247.8588969805277884
 10
3834555.96161321690306067
 20
2456237.5
 10
3834541.1553391763009131
 20
2456212.5
 10
3834537.5
 20
2456205.31120180757716298
 10
3834528.57333643827587366
 20
2456187.5
 10
3834518.71983574330806732
 20
2456162.5
 10
3834512.5
 20
2456143.34815702913329005
 10
3834510.46200932748615742
 20
2456137.5
 10
3834502.54834135249257088
 20
2456112.5
 10
3834496.54548819037154317
 20
2456087.5
 10
3834491.28750155586749315
 20
2456062.5
 10
3834487.5
 20
2456044.91922280518338084
 10
3834486.08714191382750869
 20
2456037.5
 10
3834482.68705338379368186
 20
2456012.5
 10
3834480.69036318082362413
 20
2455987.5
 10
3834480.58230271609500051
 20
2455962.5
 10
3834482.00065025314688683
 20
2455937.5
 10
3834484.42140396218746901
 20
2455912.5
 10
3834487.5
 20
2455890.56670348532497883
 10
3834487.98484583897516131
 20
2455887.5
 10
3834494.22167724929749966
 20
2455862.5
 10
3834502.60420983796939254
 20
2455837.5
 10
3834512.5
 20
2455815.14351553237065673
 10
3834513.64425441063940525
 20
2455812.5
 10
3834522.90706817666068673
 20
2455787.5
 10
3834530.13908953033387661
 20
2455762.5
 10
3834536.74898184835910797
 20
2455737.5
 10
3834537.5
 20
2455730.33305509202182293
 10
3834539.3888142304494977
 20
2455712.5
 10
3834540.35144147463142872
 20
2455687.5
 10
3834541.50083253346383572
 20
2455662.5
 10
3834544.3166566165164113
 20
2455637.5
 10
3834547.44672314124181867
 20
2455612.5
 10
3834546.94902955926954746
 20
2455587.5
 10
3834548.35763130383566022
 20
2455562.5
 10
3834550.338063586037606
 20
2455537.5
 10
3834552.26473680743947625
 20
2455512.5
 10
3834544.45770309353247285
 20
2455487.5
 10
3834537.5
 20
2455478.87424793746322393
 10
3834530.90314820036292076
 20
2455462.5
 10
3834532.4240588448010385
 20
2455437.5
 10
3834537.5
 20
2455433.38907203730195761
 10
3834548.09129153843969107
 20
2455437.5
 10
3834562.5
 20
2455449.74566330574452877
 10
3834582.12760787317529321
 20
2455462.5
 10
3834587.5
 20
2455470.48815422737970948
 10
3834610.67855761433020234
 20
2455487.5
 10
3834612.5
 20
2455488.83391702920198441
 10
3834637.5
 20
2455509.07010353356599808
 10
3834641.36205236613750458
 20
2455512.5
 10
3834662.5
 20
2455533.87324614310637116
 10
3834665.72624672902747989
 20
2455537.5
 10
3834687.5
 20
2455556.99041151301935315
 10
3834695.07617889018729329
 20
2455562.5
 10
3834712.5
 20
2455573.96401890553534031
 10
3834737.5
 20
2455587.30882645305246115
 10
3834738.00266578374430537
 20
2455587.5
 10
3834762.5
 20
2455596.93877551006153226
 10
3834787.5
 20
2455606.81043747998774052
 10
3834806.34658952988684177
 20
2455612.5
 10
3834812.5
 20
2455614.4390122639015317
 10
3834837.5
 20
2455620.97343059023842216
 10
3834862.5
 20
2455626.34196652332320809
 10
3834887.5
 20
2455633.39874154794961214
 10
3834902.71245647268369794
 20
2455637.5
 10
3834912.5
 20
2455640.22654715133830905
 10
3834937.5
 20
2455647.91222459124401212
 10
3834962.5
 20
2455656.61667001433670521
 10
3834983.35638385266065598
 20
2455662.5
 10
3834987.5
 20
2455663.75781457824632525
 10
3835012.5
 20
2455672.77445582021027803
 10
3835037.5
 20
2455679.24348880490288138
 10
3835062.5
 20
2455686.26225613243877888
 10
3835087.5
 20
2455687.36714305030182004
 10
3835112.5
 20
2455686.95580607885494828
 10
3835137.5
 20
2455683.73164988216012716
 10
3835162.5
 20
2455683.83037426508963108
 10
3835187.5
 20
2455683.27359176520258188
 10
3835212.5
 20
2455687.4909386495128274
 10
3835212.54978621192276478
 20
2455687.5
 10
3835237.5
 20
2455691.87984535982832313
 10
3835262.5
 20
2455697.07704690052196383
 10
3835287.5
 20
2455703.3559453934431076
 10
3835312.5
 20
2455711.83476155530661345
 10
3835314.10119460429996252
 20
2455712.5
 10
3835337.5
 20
2455722.18266017409041524
 10
3835362.5
 20
2455732.6239413064904511
 10
3835373.98142267391085625
 20
2455737.5
 10
3835387.5
 20
2455743.05024380935356021
 10
3835412.5
 20
2455754.80251040309667587
 10
3835427.71002881275489926
 20
2455762.5
 10
3835437.5
 20
2455768.56542231701314449
 10
3835460.90296504646539688
 20
2455787.5
 10
3835462.5
 20
2455789.12289557885378599
 10
3835486.56886170944198966
 20
2455812.5
 10
3835487.5
 20
2455813.46096242545172572
 10
3835512.5
 20
2455832.40016977908089757
 10
3835518.36487246351316571
 20
2455837.5
 10
3835537.5
 20
2455862.48419431829825044
 10
3835537.51160318590700626
 20
2455862.5
 10
3835555.22544486587867141
 20
2455887.5
 10
3835562.5
 20
2455895.46564694959670305
 10
3835577.55427590105682611
 20
2455912.5
 10
3835587.5
 20
2455922.76663739280775189
 10
3835606.83341158414259553
 20
2455937.5
 10
3835612.5
 20
2455941.53061766643077135
 10
3835637.5
 20
2455957.3222605693154037
 10
3835645.41688654338940978
 20
2455962.5
 10
3835662.5
 20
2455978.36070894869044423
 10
3835679.07742723822593689
 20
2455987.5
 10
3835687.5
 20
2455994.14318508375436068
 10
3835712.5
 20
2455994.72263405006378889
 10
3835737.5
 20
2455990.75978591665625572
 10
3835759.77500896388664842
 20
2455987.5
 10
3835762.5
 20
2455987.04365317663177848
 10
3835787.5
 20
2455976.76172664249315858
 10
3835807.50574492523446679
 20
2455962.5
 10
3835812.5
 20
2455958.56660231668502092
 10
3835833.87086903303861618
 20
2455937.5
 10
3835837.5
 20
2455933.5
 10
3835851.76068434817716479
 20
2455912.5
 10
3835862.5
 20
2455894.18502460746094584
 10
3835865.08199318125844002
 20
2455887.5
 10
3835869.10806348826736212
 20
2455862.5
 10
3835870.32410306902602315
 20
2455837.5
 10
3835873.93530559167265892
 20
2455812.5
 10
3835875.47212147852405906
 20
2455787.5
 10
3835882.69549047853797674
 20
2455762.5
 10
3835887.5
 20
2455750.12040939182043076
 10
3835898.29428424313664436
 20
2455737.5
 10
3835912.5
 20
2455731.32875997293740511
 10
3835926.87597707146778703
 20
2455737.5
 10
3835937.5
 20
2455741.42772283591330051
 10
3835962.5
 20
2455757.37438403768464923
 10
3835976.29847770929336548
 20
2455762.5
 10
3835987.5
 20
2455767.0239628772251308
 10
3836012.5
 20
2455764.82341753086075187
 10
3836037.5
 20
2455770.09280225448310375
 10
3836062.5
 20
2455780.75208591809496284
 10
3836087.5
 20
2455785.97514691483229399
 10
3836093.76887457212433219
 20
2455787.5
 10
3836112.5
 20
2455791.42621273174881935
 10
3836137.5
 20
2455793.50809947960078716
 10
3836162.5
 20
2455793.11948166321963072
 10
3836180.3409520210698247
 20
2455787.5
 10
3836187.5
 20
2455783.74945572577416897
 10
3836212.5
 20
2455766.30750073259696364
 10
3836215.66164663527160883
 20
2455762.5
 10
3836237.5
 20
2455741.47892271680757403
 10
3836241.62178554106503725
 20
2455737.5
 10
3836262.5
 20
2455722.95989051833748817
 10
3836276.97171575482934713
 20
2455712.5
 10
3836287.5
 20
2455706.43857831135392189
 10
3836306.98775826720520854
 20
2455687.5
 10
3836312.5
 20
2455681.23741346737369895
 10
3836332.26811738545075059
 20
2455662.5
 10
3836337.5
 20
2455658.79664442129433155
 10
3836362.5
 20
2455647.87876568222418427
 10
3836387.5
 20
2455639.00116569083184004
 10
3836391.04490749631077051
 20
2455637.5
 10
3836412.5
 20
2455630.65517523093149066
 10
3836437.5
 20
2455622.82050243113189936
 10
3836462.5
 20
2455613.54711608495563269
 10
3836464.51228047860786319
 20
2455612.5
 10
3836487.5
 20
2455598.03424492990598083
 10
3836509.0169297456741333
 20
2455587.5
 10
3836512.5
 20
2455585.71630507614463568
 10
3836537.5
 20
2455573.04743979638442397
 10
3836555.70019787503406405
 20
2455562.5
 10
3836562.5
 20
2455558.33454109448939562
 10
3836587.5
 20
2455542.15121078724041581
 10
3836591.99534574477002025
 20
2455537.5
 10
3836612.5
 20
2455517.39792193565517664
 10
3836616.52076198626309633
 20
2455512.5
 10
3836631.61250708485022187
 20
2455487.5
 10
3836637.5
 20
2455479.10125324269756675
 10
3836647.49584161629900336
 20
2455462.5
 10
3836662.5
 20
2455439.50587540399283171
 10
3836664.13889664970338345
 20
2455437.5
 10
3836679.67588864592835307
 20
2455412.5
 10
3836687.5
 20
2455398.50111143104732037
 10
3836694.46562149748206139
 20
2455387.5
 10
3836706.23179548513144255
 20
2455362.5
 10
3836708.92221503099426627
 20
2455337.5
 10
3836707.23035879572853446
 20
2455312.5
 10
3836706.67816658457741141
 20
2455287.5
 10
3836704.88431450538337231
 20
2455262.5
 10
3836704.98716729087755084
 20
2455237.5
 10
3836708.05229716515168548
 20
2455212.5
 10
3836712.5
 20
2455191.17002343945205212
 10
3836713.38712385110557079
 20
2455187.5
 10
3836716.71378768887370825
 20
2455162.5
 10
3836721.59718480613082647
 20
2455137.5
 10
3836721.89753469405695796
 20
2455112.5
 10
3836721.93595085386186838
 20
2455087.5
 10
3836726.50751200877130032
 20
2455062.5
 10
3836727.07143433764576912
 20
2455037.5
 10
3836731.65860150009393692
 20
2455012.5
 10
3836733.09449636563658714
 20
2454987.5
 10
3836730.39785238727927208
 20
2454962.5
 10
3836717.52336830412968993
 20
2454937.5
 10
3836712.5
 20
2454933.69413148425519466
 10
3836687.5
 20
2454921.82321470370516181
 10
3836667.67841798206791282
 20
2454912.5
 10
3836662.5
 20
2454910.78777365712448955
 10
3836637.5
 20
2454898.32182769617065787
 10
3836619.39232976315543056
 20
2454887.5
 10
3836612.5
 20
2454883.998184057418257
 10
3836587.5
 20
2454868.34625762747600675
 10
3836575.59604818793013692
 20
2454862.5
 10
3836562.5
 20
2454857.21447752555832267
 10
3836537.5
 20
2454846.99428429407998919
 10
3836512.5
 20
2454837.55675088847056031
 10
3836512.32035843096673489
 20
2454837.5
 10
3836487.5
 20
2454830.93859807169064879
 10
3836462.5
 20
2454823.90686281910166144
 10
3836437.5
 20
2454819.93384928023442626
 10
3836412.5
 20
2454815.03820827417075634
 10
3836406.68283987743780017
 20
2454812.5
 10
3836387.5
 20
2454803.78290907526388764
 10
3836362.5
 20
2454790.65196099597960711
 10
3836357.79957901081070304
 20
2454787.5
 10
3836337.5
 20
2454772.65961748315021396
 10
3836324.89393467037007213
 20
2454762.5
 10
3836312.5
 20
2454751.84592000814154744
 10
3836296.13622035225853324
 20
2454737.5
 10
3836287.5
 20
2454729.2494068262167275
 10
3836271.84119373420253396
 20
2454712.5
 10
3836262.5
 20
2454700.75894867768511176
 10
3836252.79100674530491233
 20
2454687.5
 10
3836237.5
 20
2454663.27893728716298938
 10
3836237.03907808242365718
 20
2454662.5
 10
3836222.10603168094530702
 20
2454637.5
 10
3836212.5
 20
2454623.1415322944521904
 10
3836204.05933680012822151
 20
2454612.5
 10
3836187.5
 20
2454596.41341145243495703
 10
3836174.56572383595630527
 20
2454587.5
 10
3836162.5
 20
2454579.76487609697505832
 10
3836137.5
 20
2454571.63845800375565886
 10
3836112.5
 20
2454569.34003865718841553
 10
3836087.5
 20
2454567.76434639794752002
 10
3836062.5
 20
2454566.79972078697755933
 10
3836037.5
 20
2454566.10073647135868669
 10
3836012.5
 20
2454565.08394905971363187
 10
3835987.5
 20
2454562.7113008233718574
 10
3835986.50670362263917923
 20
2454562.5
 10
3835962.5
 20
2454557.10928770340979099
 10
3835937.5
 20
2454550.94645265722647309
 10
3835912.5
 20
2454545.79521947121247649
 10
3835887.5
 20
2454539.78458660235628486
 10
3835880.38400239078328013
 20
2454537.5
 10
3835862.5
 20
2454531.29178289044648409
 10
3835837.5
 20
2454522.65952882682904601
 10
3835813.22118067182600498
 20
2454512.5
 10
3835812.5
 20
2454512.14102706545963883
 10
3835787.5
 20
2454494.50891432585194707
 10
3835780.00709479814395308
 20
2454487.5
 10
3835762.5
 20
2454465.16183552518486977
 10
3835760.55432391259819269
 20
2454462.5
 10
3835743.51226810505613685
 20
2454437.5
 10
3835737.5
 20
2454429.22170442156493664
 10
3835724.92544385557994246
 20
2454412.5
 10
3835712.5
 20
2454397.37907401472330093
 10
3835703.70949772140011191
 20
2454387.5
 10
3835687.5
 20
2454370.90444600721821189
 10
3835679.22066812543198466
 20
2454362.5
 10
3835662.5
 20
2454345.69913239823654294
 10
3835653.9959232909604907
 20
2454337.5
 10
3835637.5
 20
2454323.48757675709202886
 10
3835624.25039458833634853
 20
2454312.5
 10
3835612.5
 20
2454302.71704850066453218
 10
3835591.3730191825889051
 20
2454287.5
 10
3835587.5
 20
2454284.55352823156863451
 10
3835562.5
 20
2454269.32422481523826718
 10
3835549.55569319427013397
 20
2454262.5
 10
3835537.5
 20
2454255.25904218154028058
 10
3835512.5
 20
2454243.38887413684278727
 10
3835500.38561596116051078
 20
2454237.5
 10
3835487.5
 20
2454229.53068386251106858
 10
3835462.5
 20
2454217.81167176133021712
 10
3835452.1973189371638
 20
2454212.5
 10
3835437.5
 20
2454203.25843393011018634
 10
3835412.5
 20
2454188.48952428484335542
 10
3835410.9379697903059423
 20
2454187.5
 10
3835387.5
 20
2454171.45435343030840158
 10
3835374.80087019363418221
 20
2454162.5
 10
3835362.5
 20
2454153.26304801693186164
 10
3835341.75116790318861604
 20
2454137.5
 10
3835337.5
 20
2454134.20518076792359352
 10
3835312.5
 20
2454113.23869403405115008
 10
3835311.63860095897689462
 20
2454112.5
 10
3835287.5
 20
2454090.07037637755274773
 10
3835285.05347720813006163
 20
2454087.5
 10
3835263.91843157075345516
 20
2454062.5
 10
3835262.5
 20
2454060.47045241668820381
 10
3835249.66342180175706744
 20
2454037.5
 10
3835237.62304893229156733
 20
2454012.5
 10
3835237.5
 20
2454011.62477864045649767
 10
3835234.66051659034565091
 20
2453987.5
 10
3835232.74296292616054416
 20
2453962.5
 10
3835230.73469583736732602
 20
2453937.5
 10
3835227.34577246429398656
 20
2453912.5
 10
3835222.72633131174370646
 20
2453887.5
 10
3835214.11630462016910315
 20
2453862.5
 10
3835212.5
 20
2453855.80973019171506166
 10
3835208.75324772670865059
 20
2453837.5
 10
3835199.28979842038825154
 20
2453812.5
 10
3835187.5
 20
2453789.97042783629149199
 10
3835186.16882579354569316
 20
2453787.5
 10
3835174.43544406443834305
 20
2453762.5
 10
3835187.5
 20
2453752.30857559340074658
 10
3835212.5
 20
2453760.00664073275402188
 10
3835215.21083862008526921
 20
2453762.5
 10
3835237.5
 20
2453786.21029747510328889
 10
3835238.70970916608348489
 20
2453787.5
 10
3835262.5
 20
2453807.60392271680757403
 10
3835267.92747145751491189
 20
2453812.5
 10
3835287.5
 20
2453827.57275680731981993
 10
3835297.7686649588868022
 20
2453837.5
 10
3835312.5
 20
2453851.55190482083708048
 10
3835322.49161228304728866
 20
2453862.5
 10
3835337.5
 20
2453877.39019464561715722
 10
3835346.89332792721688747
 20
2453887.5
 10
3835362.5
 20
2453902.60352505324408412
 10
3835371.23672805214300752
 20
2453912.5
 10
3835387.5
 20
2453928.67052208306267858
 10
3835395.49748247908428311
 20
2453937.5
 10
3835412.5
 20
2453955.19499395973980427
 10
3835420.23534444160759449
 20
2453962.5
 10
3835437.5
 20
2453978.90276047540828586
 10
3835448.41751393908634782
 20
2453987.5
 10
3835462.5
 20
2453998.33178138686344028
 10
3835487.5
 20
2454011.33534059394150972
 10
3835490.4054723191075027
 20
2454012.5
 10
3835512.5
 20
2454021.5488931336440146
 10
3835537.5
 20
2454028.32203162834048271
 10
3835562.5
 20
2454033.73008061898872256
 10
3835579.11010558065026999
 20
2454037.5
 10
3835587.5
 20
2454039.82088343100622296
 10
3835612.5
 20
2454045.30524196941405535
 10
3835637.5
 20
2454050.37453549448400736
 10
3835662.5
 20
2454055.74718014104291797
 10
3835687.5
 20
2454059.42786766774952412
 10
3835710.15225666109472513
 20
2454062.5
 10
3835712.5
 20
2454062.81143153924494982
 10
3835737.5
 20
2454067.1806049756705761
 10
3835762.5
 20
2454070.26634917128831148
 10
3835787.5
 20
2454071.96714467322453856
 10
3835812.5
 20
2454074.4388671787455678
 10
3835837.5
 20
2454076.15718453004956245
 10
3835862.5
 20
2454075.43311484390869737
 10
3835887.5
 20
2454073.21939800959080458
 10
3835912.5
 20
2454070.71384697174653411
 10
3835937.5
 20
2454066.18973564868792892
 10
3835961.95594635931774974
 20
2454062.5
 10
3835962.5
 20
2454062.42113564675673842
 10
3835966.5874944762326777
 20
2454062.5
 10
3835987.5
 20
2454062.92055825609713793
 10
3836012.5
 20
2454063.72612724592909217
 10
3836037.5
 20
2454064.91308581596240401
 10
3836062.5
 20
2454067.57139753131195903
 10
3836087.5
 20
2454070.98946179775521159
 10
3836112.5
 20
2454074.0830778987146914
 10
3836137.5
 20
2454076.90057645132765174
 10
3836162.5
 20
2454081.0453636166639626
 10
3836187.5
 20
2454086.15108660236001015
 10
3836192.11119479546323419
 20
2454087.5
 10
3836212.5
 20
2454093.72218520985916257
 10
3836237.5
 20
2454102.10822710581123829
 10
3836262.5
 20
2454110.11084394343197346
 10
3836268.06397860217839479
 20
2454112.5
 10
3836287.5
 20
2454120.50731875468045473
 10
3836312.5
 20
2454131.08118096459656954
 10
3836331.24697775626555085
 20
2454137.5
 10
3836337.5
 20
2454139.49265292659401894
 10
3836362.5
 20
2454147.30103505123406649
 10
3836387.5
 20
2454155.10441511403769255
 10
3836412.5
 20
2454162.34289868641644716
 10
3836413.07031913613900542
 20
2454162.5
 10
3836437.5
 20
2454169.35767910163849592
 10
3836462.5
 20
2454174.7439844929613173
 10
3836487.5
 20
2454176.89010276272892952
 10
3836512.5
 20
2454177.79033264610916376
 10
3836537.5
 20
2454178.899320297408849
 10
3836562.5
 20
2454178.1116047278046608
 10
3836587.5
 20
2454176.63626919081434608
 10
3836612.5
 20
2454171.27448266092687845
 10
3836629.78651884943246841
 20
2454162.5
 10
3836637.5
 20
2454157.75159295368939638
 10
3836662.5
 20
2454138.94557224772870541
 10
3836663.71877966308966279
 20
2454137.5
 10
3836678.19375948421657085
 20
2454112.5
 10
3836685.71540702786296606
 20
2454087.5
 10
3836687.5
 20
2454080.94678103690966964
 10
3836692.07054058089852333
 20
2454062.5
 10
3836701.23280533542856574
 20
2454037.5
 10
3836712.5
 20
2454019.53952614171430469
 10
3836717.31858821073547006
 20
2454012.5
 10
3836737.5
 20
2453994.04551828233525157
 10
3836747.03710437007248402
 20
2453987.5
 10
3836762.5
 20
2453977.9979891050606966
 10
3836787.5
 20
2453963.94014274794608355
 10
3836790.91963163949549198
 20
2453962.5
 10
3836812.5
 20
2453952.72213071072474122
 10
3836837.5
 20
2453938.92089696368202567
 10
3836839.77558339620009065
 20
2453937.5
 10
3836861.45626951567828655
 20
2453912.5
 10
3836862.5
 20
2453910.3300270214676857
 10
3836872.218053022865206
 20
2453887.5
 10
3836879.68206992046907544
 20
2453862.5
 10
3836885.63709611585363746
 20
2453837.5
 10
3836887.5
 20
2453824.34779475349932909
 10
3836889.21758117759600282
 20
2453812.5
 10
3836894.27144928090274334
 20
2453787.5
 10
3836899.44656397961080074
 20
2453762.5
 10
3836901.40859402250498533
 20
2453737.5
 10
3836901.35874435817822814
 20
2453712.5
 10
3836905.53897598152980208
 20
2453687.5
 10
3836912.5
 20
2453672.77009890927001834
 10
3836922.60102269891649485
 20
2453662.5
 10
3836937.5
 20
2453655.74198950035497546
 10
3836962.5
 20
2453647.2775459703989327
 10
3836987.5
 20
2453638.44853408355265856
 10
3837012.5
 20
2453639.29343000892549753
 10
3837037.5
 20
2453641.23105541057884693
 10
3837062.5
 20
2453645.75241342838853598
 10
3837087.5
 20
2453656.92307692300528288
 10
3837102.82297297287732363
 20
2453662.5
 10
3837112.5
 20
2453666.52384751988574862
 10
3837137.5
 20
2453674.73815974080935121
 10
3837157.90926850028336048
 20
2453687.5
 10
3837162.5
 20
2453691.01963343005627394
 10
3837187.5
 20
2453711.02123770164325833
 10
3837189.41279941564425826
 20
2453712.5
 10
3837212.5
 20
2453728.01775377290323377
 10
3837234.22696589305996895
 20
2453737.5
 10
3837237.5
 20
2453738.8770553064532578
 10
3837262.5
 20
2453749.66875355038791895
 10
3837287.5
 20
2453757.44137061294168234
 10
3837310.49085365841165185
 20
2453762.5
 10
3837312.5
 20
2453762.99097031820565462
 10
3837337.5
 20
2453768.73504585959017277
 10
3837362.5
 20
2453771.64411470759660006
 10
3837387.5
 20
2453780.52515794243663549
 10
3837412.5
 20
2453784.43306448590010405
 10
3837437.5
 20
2453783.36034912709146738
 10
3837462.5
 20
2453785.45663212984800339
 10
3837487.5
 20
2453784.97554242564365268
 10
3837512.5
 20
2453783.83423636993393302
 10
3837537.5
 20
2453783.14230408240109682
 10
3837562.5
 20
2453781.41333604604005814
 10
3837587.5
 20
2453773.51270861178636551
 10
3837612.5
 20
2453765.51576367300003767
 10
3837621.46343205403536558
 20
2453762.5
 10
3837637.5
 20
2453758.43256364436820149
 10
3837662.5
 20
2453746.37956128502264619
 10
3837673.28713058866560459
 20
2453737.5
 10
3837687.5
 20
2453723.82053970266133547
 10
3837698.33330909954383969
 20
2453712.5
 10
3837712.5
 20
2453692.9490909818559885
 10
3837715.65888046147301793
 20
2453687.5
 10
3837726.21708298474550247
 20
2453662.5
 10
3837737.5
 20
2453641.97066072281450033
 10
3837739.85041920747607946
 20
2453637.5
 10
3837757.75841098744422197
 20
2453612.5
 10
3837762.5
 20
2453602.06772334314882755
 10
3837768.07042331108823419
 20
2453587.5
 10
3837782.13982345815747976
 20
2453562.5
 10
3837787.5
 20
2453551.77870805002748966
 10
3837792.95452112378552556
 20
2453537.5
 10
3837800.42050512367859483
 20
2453512.5
 10
3837808.23179366765543818
 20
2453487.5
 10
3837812.5
 20
2453477.46406570822000504
 10
3837818.01535637211054564
 20
2453462.5
 10
3837825.7549015935510397
 20
2453437.5
 10
3837832.02867750823497772
 20
2453412.5
 10
3837837.34348059305921197
 20
2453387.5
 10
3837837.5
 20
2453386.90769632300361991
 10
3837843.90895315539091825
 20
2453362.5
 10
3837848.25127514079213142
 20
2453337.5
 10
3837851.89622545940801501
 20
2453312.5
 10
3837855.35121011873707175
 20
2453287.5
 10
3837859.44634748995304108
 20
2453262.5
 10
3837862.5
 20
2453239.5996270002797246
 10
3837862.76591691793873906
 20
2453237.5
 10
3837864.34419651608914137
 20
2453212.5
 10
3837865.54572071367874742
 20
2453187.5
 10
3837864.75441103335469961
 20
2453162.5
 10
3837862.5
 20
2453149.15943330340087414
 10
3837860.19476964976638556
 20
2453137.5
 10
3837851.08963025594130158
 20
2453112.5
 10
3837851.08963025594130158
 20
2453100.0
  0
LWPOLYLINE
  5
a2
  8
Contours
100
AcDbEntity
100
AcDbPolyline
  6
CONTINUOUS
420
15156120
 90
   306
 70
   128
 43
13.0
 10
3839791.7945720674470067
 20
2453100.0
 10
3839791.7945720674470067
 20
2453112.5
 10
3839805.53384322300553322
 20
2453137.5
 10
3839811.42801035009324551
 20
2453162.5
 10
3839812.5
 20
2453165.58428609417751431
 10
3839817.18403705162927508
 20
2453187.5
 10
3839822.34717377973720431
 20
2453212.5
 10
3839826.6725060367025435
 20
2453237.5
 10
3839832.27411864046007395
 20
2453262.5
 10
3839834.95564531721174717
 20
2453287.5
 10
3839837.5
 20
2453298.85109501658007503
 10
3839841.02804831834509969
 20
2453312.5
 10
3839847.93945962050929666
 20
2453337.5
 10
3839852.19318020017817616
 20
2453362.5
 10
3839854.53072024183347821
 20
2453387.5
 10
3839860.26235737325623631
 20
2453412.5
 10
3839862.5
 20
2453421.11896422319114208
 10
3839867.731721933465451
 20
2453437.5
 10
3839872.86736262962222099
 20
2453462.5
 10
3839879.59027855470776558
 20
2453487.5
 10
3839887.5
 20
2453506.58264061296358705
 10
3839891.19892364274710417
 20
2453512.5
 10
3839903.25501485867425799
 20
2453537.5
 10
3839904.63543893164023757
 20
2453562.5
 10
3839905.35924443928524852
 20
2453587.5
 10
3839905.77219570148736238
 20
2453612.5
 10
3839903.85603135591372848
 20
2453637.5
 10
3839899.20279980171471834
 20
2453662.5
 10
3839894.51912478776648641
 20
2453687.5
 10
3839887.5
 20
2453711.5531849735416472
 10
3839887.23818664252758026
 20
2453712.5
 10
3839883.09517297940328717
 20
2453737.5
 10
3839877.87656502053141594
 20
2453762.5
 10
3839874.26640462037175894
 20
2453787.5
 10
3839871.48198108188807964
 20
2453812.5
 10
3839869.48306469339877367
 20
2453837.5
 10
3839869.59961568564176559
 20
2453862.5
 10
3839868.85655586887151003
 20
2453887.5
 10
3839866.94066258240491152
 20
2453912.5
 10
3839867.24002797482535243
 20
2453937.5
 10
3839870.11069052526727319
 20
2453962.5
 10
3839876.06780122127383947
 20
2453987.5
 10
3839887.5
 20
2454011.05505729932337999
 10
3839888.014480862300843
 20
2454012.5
 10
3839900.1559230643324554
 20
2454037.5
 10
3839912.5
 20
2454058.65397876175120473
 10
3839914.32378523331135511
 20
2454062.5
 10
3839933.49429178284481168
 20
2454087.5
 10
3839937.5
 20
2454094.45597049314528704
 10
3839945.60915809124708176
 20
2454112.5
 10
3839956.92352002859115601
 20
2454137.5
 10
3839958.57752795191481709
 20
2454162.5
 10
3839954.22630168870091438
 20
2454187.5
 10
3839951.32226141495630145
 20
2454212.5
 10
3839956.96083286684006453
 20
2454237.5
 10
3839962.5
 20
2454248.97003745334222913
 10
3839967.66282155970111489
 20
2454262.5
 10
3839982.96462220558896661
 20
2454287.5
 10
3839987.5
 20
2454292.99069601017981768
 10
3840004.86749890493229032
 20
2454312.5
 10
3840012.5
 20
2454319.3710567825473845
 10
3840032.37990880152210593
 20
2454337.5
 10
3840037.5
 20
2454341.33708940912038088
 10
3840062.5
 20
2454358.30969009175896645
 10
3840069.57872478850185871
 20
2454362.5
 10
3840087.5
 20
2454374.03185966657474637
 10
3840112.5
 20
2454384.02956145349889994
 10
3840118.06838128669187427
 20
2454387.5
 10
3840137.5
 20
2454404.52410403871908784
 10
3840147.97622184175997972
 20
2454412.5
 10
3840162.5
 20
2454423.73128119809553027
 10
3840177.79228738462552428
 20
2454437.5
 10
3840187.5
 20
2454447.81208685552701354
 10
3840200.2984709907323122
 20
2454462.5
 10
3840212.5
 20
2454472.01580408914014697
 10
3840233.64783966680988669
 20
2454487.5
 10
3840237.5
 20
2454490.32404252421110868
 10
3840262.5
 20
2454504.10377358505502343
 10
3840282.89606777066364884
 20
2454512.5
 10
3840287.5
 20
2454514.24598417663946748
 10
3840312.5
 20
2454523.13068181835114956
 10
3840337.5
 20
2454526.21780612412840128
 10
3840362.5
 20
2454528.87425426440313458
 10
3840387.5
 20
2454529.15498382365331054
 10
3840412.5
 20
2454532.34576501837000251
 10
3840428.67682951642200351
 20
2454537.5
 10
3840437.5
 20
2454539.94554187543690205
 10
3840462.5
 20
2454542.09999535838142037
 10
3840487.5
 20
2454544.58016648562625051
 10
3840512.5
 20
2454546.69885348109528422
 10
3840537.5
 20
2454546.52691970858722925
 10
3840562.5
 20
2454545.04571491526439786
 10
3840587.5
 20
2454543.18541192403063178
 10
3840612.5
 20
2454541.37394383689388633
 10
3840637.5
 20
2454543.27192694367840886
 10
3840662.5
 20
2454546.78012260282412171
 10
3840687.5
 20
2454556.58764916798099875
 10
3840697.91769169038161635
 20
2454562.5
 10
3840712.5
 20
2454572.72320861229673028
 10
3840725.87765432894229889
 20
2454587.5
 10
3840737.5
 20
2454602.49851531349122524
 10
3840744.21733215590938926
 20
2454612.5
 10
3840760.66106178937479854
 20
2454637.5
 10
3840762.5
 20
2454641.23281386308372021
 10
3840774.08624532865360379
 20
2454662.5
 10
3840786.3376200650818646
 20
2454687.5
 10
3840787.5
 20
2454689.36102881748229265
 10
3840804.81214862875640392
 20
2454712.5
 10
3840812.5
 20
2454721.43480246374383569
 10
3840826.85176468128338456
 20
2454737.5
 10
3840837.5
 20
2454753.29392416076734662
 10
3840842.78032393008470535
 20
2454762.5
 10
3840857.17196007259190083
 20
2454787.5
 10
3840862.5
 20
2454795.82884135283529758
 10
3840871.78992632869631052
 20
2454812.5
 10
3840881.78437865758314729
 20
2454837.5
 10
3840887.5
 20
2454857.07685538288205862
 10
3840889.01499631255865097
 20
2454862.5
 10
3840900.15915110427886248
 20
2454887.5
 10
3840912.5
 20
2454906.29633042542263865
 10
3840917.22952931094914675
 20
2454912.5
 10
3840937.5
 20
2454935.65473642898723483
 10
3840939.66837803833186626
 20
2454937.5
 10
3840962.5
 20
2454955.94682796346023679
 10
3840973.26813932787626982
 20
2454962.5
 10
3840987.5
 20
2454971.12327635614201427
 10
3841012.5
 20
2454985.53999725682660937
 10
3841015.24489795928820968
 20
2454987.5
 10
3841037.5
 20
2455006.92872413992881775
 10
3841043.15700421389192343
 20
2455012.5
 10
3841062.5
 20
2455033.44413974275812507
 10
3841067.11954382015392184
 20
2455037.5
 10
3841087.5
 20
2455052.25543013494461775
 10
3841107.98563611507415771
 20
2455062.5
 10
3841112.5
 20
2455064.59886576468124986
 10
3841137.5
 20
2455072.69750870717689395
 10
3841162.5
 20
2455076.78955866536125541
 10
3841187.5
 20
2455084.88066878402605653
 10
3841193.64966338686645031
 20
2455087.5
 10
3841212.5
 20
2455096.15409761993214488
 10
3841237.5
 20
2455105.42401896230876446
 10
3841262.5
 20
2455107.5970707549713552
 10
3841287.5
 20
2455103.40262879012152553
 10
3841309.89706578338518739
 20
2455087.5
 10
3841312.5
 20
2455085.62685022642835975
 10
3841337.5
 20
2455068.24387328932061791
 10
3841343.7567954221740365
 20
2455062.5
 10
3841362.5
 20
2455046.37864842265844345
 10
3841374.29697207501158118
 20
2455037.5
 10
3841387.5
 20
2455029.74657718371599913
 10
3841412.5
 20
2455018.78427117271348834
 10
3841430.93870382942259312
 20
2455012.5
 10
3841437.5
 20
2455009.64013393130153418
 10
3841462.5
 20
2455001.05947380419820547
 10
3841487.5
 20
2454992.95116953458636999
 10
3841501.55493038333952427
 20
2454987.5
 10
3841512.5
 20
2454982.7278586276806891
 10
3841537.5
 20
2454972.87611575005576015
 10
3841562.5
 20
2454963.54812915343791246
 10
3841565.39112412557005882
 20
2454962.5
 10
3841587.5
 20
2454953.07937549613416195
 10
3841612.5
 20
2454941.96615615440532565
 10
3841624.13697720738127828
 20
2454937.5
 10
3841637.5
 20
2454930.70432507432997227
 10
3841662.5
 20
2454913.48490972770377994
 10
3841664.11697044782340527
 20
2454912.5
 10
3841687.5
 20
2454894.56075347866863012
 10
3841694.52403997676447034
 20
2454887.5
 10
3841710.34171892050653696
 20
2454862.5
 10
3841712.5
 20
2454858.50039658928290009
 10
3841726.46574005717411637
 20
2454837.5
 10
3841736.42053227219730616
 20
2454812.5
 10
3841737.5
 20
2454808.44581971038132906
 10
3841744.61260904045775533
 20
2454787.5
 10
3841753.23838984407484531
 20
2454762.5
 10
3841762.5
 20
2454739.64710547169670463
 10
3841763.24271684885025024
 20
2454737.5
 10
3841765.41393239656463265
 20
2454712.5
 10
3841762.5
 20
2454706.85913952719420195
 10
3841751.86641158582642674
 20
2454687.5
 10
3841737.5
 20
2454670.14635722106322646
 10
3841729.73979663895443082
 20
2454662.5
 10
3841712.5
 20
2454648.47184601472690701
 10
3841698.56035957112908363
 20
2454637.5
 10
3841687.5
 20
2454631.03592237737029791
 10
3841662.5
 20
2454617.13142980588600039
 10
3841655.42047860473394394
 20
2454612.5
 10
3841637.5
 20
2454600.76865368010476232
 10
3841623.10649948986247182
 20
2454587.5
 10
3841612.5
 20
2454574.83029064768925309
 10
3841605.3009350560605526
 20
2454562.5
 10
3841596.55452534882351756
 20
2454537.5
 10
3841588.61437289975583553
 20
2454512.5
 10
3841587.5
 20
2454492.99093859875574708
 10
3841587.26311889570206404
 20
2454487.5
 10
3841586.8798997919075191
 20
2454462.5
 10
3841587.49225133471190929
 20
2454437.5
 10
3841587.5
 20
2454437.39531441777944565
 10
3841589.73411837127059698
 20
2454412.5
 10
3841591.72187230084091425
 20
2454387.5
 10
3841591.84425935009494424
 20
2454362.5
 10
3841591.90426601562649012
 20
2454337.5
 10
3841592.30593328876420856
 20
2454312.5
 10
3841594.4372205208055675
 20
2454287.5
 10
3841599.10599059471860528
 20
2454262.5
 10
3841608.32078947173431516
 20
2454237.5
 10
3841612.5
 20
2454228.34285166161134839
 10
3841619.63078277045860887
 20
2454212.5
 10
3841632.75896427454426885
 20
2454187.5
 10
3841637.5
 20
2454180.49286312377080321
 10
3841649.77735368954017758
 20
2454162.5
 10
3841662.5
 20
2454145.05697447760030627
 10
3841667.63152767578139901
 20
2454137.5
 10
3841683.10975685948505998
 20
2454112.5
 10
3841687.5
 20
2454103.96987761650234461
 10
3841695.51084825443103909
 20
2454087.5
 10
3841704.67518973629921675
 20
2454062.5
 10
3841710.60898505011573434
 20
2454037.5
 10
3841712.37018098495900631
 20
2454012.5
 10
3841710.06258409190922976
 20
2453987.5
 10
3841704.67759605590254068
 20
2453962.5
 10
3841696.91379745304584503
 20
2453937.5
 10
3841687.5
 20
2453916.53811185201629996
 10
3841685.57188688963651657
 20
2453912.5
 10
3841674.73759541986510158
 20
2453887.5
 10
3841664.00725687108933926
 20
2453862.5
 10
3841662.5
 20
2453857.09589118417352438
 10
3841655.86530928127467632
 20
2453837.5
 10
3841649.03357599582523108
 20
2453812.5
 10
3841643.01898720441386104
 20
2453787.5
 10
3841637.5
 20
2453763.92115268716588616
 10
3841637.06756070395931602
 20
2453762.5
 10
3841627.85508867213502526
 20
2453737.5
 10
3841614.97269067028537393
 20
2453712.5
 10
3841612.5
 20
2453708.81011302350088954
 10
3841589.25962726259604096
 20
2453687.5
 10
3841587.5
 20
2453686.01015211129561067
 10
3841563.61678292602300644
 20
2453662.5
 10
3841562.5
 20
2453661.1965195587836206
 10
3841542.89665016299113631
 20
2453637.5
 10
3841537.5
 20
2453629.15574675006791949
 10
3841521.54940391657873988
 20
2453612.5
 10
3841512.5
 20
2453602.39620589232072234
 10
3841490.3204776281490922
 20
2453587.5
 10
3841487.5
 20
2453585.73307882808148861
 10
3841462.5
 20
2453587.43847008841112256
 10
3841437.5
 20
2453587.05431798798963428
 10
3841435.23019444011151791
 20
2453587.5
 10
3841412.5
 20
2453592.4636803874745965
 10
3841387.5
 20
2453593.30157422041520476
 10
3841362.5
 20
2453589.85404586186632514
 10
3841337.5
 20
2453588.2991794953122735
 10
3841312.5
 20
2453594.94333089608699083
 10
3841287.5
 20
2453602.71748653007671237
 10
3841263.67612545331940055
 20
2453612.5
 10
3841262.5
 20
2453613.0574939320795238
 10
3841237.5
 20
2453628.90571192419156432
 10
3841213.60430231085047126
 20
2453637.5
 10
3841212.5
 20
2453637.93596592918038368
 10
3841187.5
 20
2453639.58654920943081379
 10
3841175.58872683066874743
 20
2453637.5
 10
3841162.5
 20
2453634.42804164905101061
 10
3841137.5
 20
2453636.38042650418356061
 10
3841112.5
 20
2453634.93239406635984778
 10
3841087.5
 20
2453631.73336482653394341
 10
3841062.5
 20
2453627.43006284208968282
 10
3841037.5
 20
2453622.13373561622574925
 10
3841017.74744641035795212
 20
2453612.5
 10
3841012.5
 20
2453610.73587734578177333
 10
3840987.5
 20
2453599.13152305828407407
 10
3840962.5
 20
2453588.64090454997494817
 10
3840960.74349832208827138
 20
2453587.5
 10
3840937.5
 20
2453569.39824141142889857
 10
3840928.78790483390912414
 20
2453562.5
 10
3840912.5
 20
2453543.67499801330268383
 10
3840908.32841189717873931
 20
2453537.5
 10
3840888.17031513992697001
 20
2453512.5
 10
3840887.5
 20
2453511.61937849828973413
 10
3840877.39180990913882852
 20
2453487.5
 10
3840870.49581411574035883
 20
2453462.5
 10
3840862.5
 20
2453438.39953271020203829
 10
3840862.30713355354964733
 20
2453437.5
 10
3840856.69716140115633607
 20
2453412.5
 10
3840847.05300737917423248
 20
2453387.5
 10
3840837.5
 20
2453376.23376115178689361
 10
3840825.03515924653038383
 20
2453362.5
 10
3840812.5
 20
2453352.90139236394315958
 10
3840793.10266878549009562
 20
2453337.5
 10
3840787.5
 20
2453330.58598769176751375
 10
3840773.01455653365701437
 20
2453312.5
 10
3840762.5
 20
2453300.83523614937439561
 10
3840747.6980924429371953
 20
2453287.5
 10
3840737.5
 20
2453277.95299865771085024
 10
3840726.99543718155473471
 20
2453262.5
 10
3840712.5
 20
2453239.4645205894485116
 10
3840710.83913093060255051
 20
2453237.5
 10
3840692.92696072719991207
 20
2453212.5
 10
3840687.5
 20
2453203.37826257292181253
 10
3840672.72711740853264928
 20
2453187.5
 10
3840662.5
 20
2453179.55116855539381504
 10
3840648.28649861272424459
 20
2453162.5
 10
3840637.5
 20
2453149.74698122404515743
 10
3840625.73070731479674578
 20
2453137.5
 10
3840612.5
 20
2453120.97989949770271778
 10
3840607.21265568304806948
 20
2453112.5
 10
3840607.21265568304806948
 20
2453100.0
  0
LWPOLYLINE
  5
a3
  8
Contours
100
AcDbEntity
100
AcDbPolyline
  6
CONTINUOUS
420
15156120
 90
    94
 70
   128
 43
13.0
 10
3838471.91454341681674123
 20
2453100.0
 10
3838471.91454341681674123
 20
2453112.5
 10
3838487.5
 20
2453122.88087931927293539
 10
3838512.5
 20
2453135.08120356127619743
 10
3838517.26713263476267457
 20
2453137.5
 10
3838537.5
 20
2453147.94915698375552893
 10
3838562.5
 20
2453160.80464373109862208
 10
3838565.897425452247262
 20
2453162.5
 10
3838587.5
 20
2453175.48189438227564096
 10
3838604.92641525529325008
 20
2453187.5
 10
3838612.5
 20
2453193.5043901614844799
 10
3838632.2846808610484004
 20
2453212.5
 10
3838637.5
 20
2453218.6749517610296607
 10
3838650.51289678737521172
 20
2453237.5
 10
3838662.15875357203185558
 20
2453262.5
 10
3838662.5
 20
2453263.28626068076118827
 10
3838670.80683479551225901
 20
2453287.5
 10
3838678.83727695234119892
 20
2453312.5
 10
3838686.00881334580481052
 20
2453337.5
 10
3838687.5
 20
2453343.74419614765793085
 10
3838691.67664480907842517
 20
2453362.5
 10
3838697.08225764194503427
 20
2453387.5
 10
3838704.6302891313098371
 20
2453412.5
 10
3838712.5
 20
2453429.7186734713613987
 10
3838715.98735916242003441
 20
2453437.5
 10
3838730.99525520531460643
 20
2453462.5
 10
3838737.5
 20
2453470.01826255489140749
 10
3838753.39907608274370432
 20
2453487.5
 10
3838762.5
 20
2453496.38124940916895866
 10
3838779.84526279382407665
 20
2453512.5
 10
3838787.5
 20
2453518.39404155034571886
 10
3838812.5
 20
2453535.69115146063268185
 10
3838815.09105564840137959
 20
2453537.5
 10
3838837.5
 20
2453554.67234342405572534
 10
3838849.21891055069863796
 20
2453562.5
 10
3838862.5
 20
2453572.06666765362024307
 10
3838884.6669029057957232
 20
2453587.5
 10
3838887.5
 20
2453589.36039260216057301
 10
3838912.5
 20
2453600.94081514002755284
 10
3838937.5
 20
2453611.10467870905995369
 10
3838941.44375627720728517
 20
2453612.5
 10
3838962.5
 20
2453620.1231743530370295
 10
3838987.5
 20
2453625.04701593378558755
 10
3839012.5
 20
2453628.52690701046958566
 10
3839037.5
 20
2453630.43658392876386642
 10
3839062.5
 20
2453628.57610392244532704
 10
3839087.5
 20
2453628.97803640272468328
 10
3839112.5
 20
2453628.5671902378089726
 10
3839137.5
 20
2453625.87306196661666036
 10
3839162.5
 20
2453623.51856980845332146
 10
3839187.5
 20
2453620.78059875080361962
 10
3839212.5
 20
2453619.52670055441558361
 10
3839237.5
 20
2453622.22837052447721362
 10
3839262.5
 20
2453626.89465902652591467
 10
3839287.5
 20
2453631.66271613957360387
 10
3839312.5
 20
2453636.11356151476502419
 10
3839316.42442465340718627
 20
2453637.5
 10
3839337.5
 20
2453646.51272468408569694
 10
3839362.5
 20
2453659.92113638482987881
 10
3839387.5
 20
2453661.26934384880587459
 10
3839412.5
 20
2453653.64862225065007806
 10
3839436.35264265583828092
 20
2453637.5
 10
3839437.5
 20
2453636.54630230506882071
 10
3839457.98913304787129164
 20
2453612.5
 10
3839462.5
 20
2453604.82177934190258384
 10
3839471.27490308275446296
 20
2453587.5
 10
3839478.23637236282229424
 20
2453562.5
 10
3839481.24836888164281845
 20
2453537.5
 10
3839480.57866228185594082
 20
2453512.5
 10
3839480.20676784357056022
 20
2453487.5
 10
3839480.19373713014647365
 20
2453462.5
 10
3839482.53281171107664704
 20
2453437.5
 10
3839487.5
 20
2453422.84296566620469093
 10
3839492.39375572605058551
 20
2453412.5
 10
3839508.8390051107853651
 20
2453387.5
 10
3839512.5
 20
2453379.28713858406990767
 10
3839519.1194434305652976
 20
2453362.5
 10
3839530.04645965667441487
 20
2453337.5
 10
3839537.5
 20
2453316.58442801516503096
 10
3839539.06396127678453922
 20
2453312.5
 10
3839550.26979806181043386
 20
2453287.5
 10
3839559.83014950156211853
 20
2453262.5
 10
3839562.5
 20
2453255.64985295990481973
 10
3839571.30237293057143688
 20
2453237.5
 10
3839584.83658174006268382
 20
2453212.5
 10
3839587.5
 20
2453207.17514240881428123
 10
3839599.32695647841319442
 20
2453187.5
 10
3839612.5
 20
2453167.19168388051912189
 10
3839617.07001266861334443
 20
2453162.5
 10
3839637.5
 20
2453142.23012939002364874
 10
3839643.27001127414405346
 20
2453137.5
 10
3839662.5
 20
2453115.72251161839812994
 10
3839665.63042615447193384
 20
2453112.5
 10
3839665.63042615447193384
 20
2453100.0
  0
LWPOLYLINE
  5
a4
  8
Contours
100
AcDbEntity
100
AcDbPolyline
  6
CONTINUOUS
420
15156120
 90
    62
 70
   128
 43
13.0
 10
3835573.15292096231132746
 20
2453100.0
 10
3835573.15292096231132746
 20
2453112.5
 10
3835587.5
 20
2453127.93348928540945053
 10
3835606.15776726370677352
 20
2453137.5
 10
3835612.5
 20
2453139.86584443412721157
 10
3835637.5
 20
2453143.12322293082252145
 10
3835662.5
 20
2453144.63295388221740723
 10
3835687.5
 20
2453144.46782764233648777
 10
3835712.5
 20
2453142.1095596132799983
 10
3835723.02096101967617869
 20
2453137.5
 10
3835737.5
 20
2453130.1474615940824151
 10
3835762.5
 20
2453122.41130739450454712
 10
3835787.5
 20
2453121.22396728303283453
 10
3835812.5
 20
2453120.77912537753582001
 10
3835837.5
 20
2453122.85378883266821504
 10
3835862.5
 20
2453124.43389906222000718
 10
3835887.5
 20
2453127.5482663344591856
 10
3835912.5
 20
2453129.95088028442114592
 10
3835937.5
 20
2453134.29650527844205499
 10
3835945.0951115102507174
 20
2453137.5
 10
3835962.5
 20
2453145.93695088289678097
 10
3835987.08638678444549441
 20
2453162.5
 10
3835987.5
 20
2453162.7853323738090694
 10
3836012.5
 20
2453181.4508580956608057
 10
3836018.41233356902375817
 20
2453187.5
 10
3836037.5
 20
2453209.07854486024007201
 10
3836040.57506053289398551
 20
2453212.5
 10
3836062.5
 20
2453234.25501821283251047
 10
3836065.85938252182677388
 20
2453237.5
 10
3836087.5
 20
2453254.31713886652141809
 10
3836101.39459419390186667
 20
2453262.5
 10
3836112.5
 20
2453268.16565122967585921
 10
3836137.5
 20
2453280.92474354151636362
 10
3836149.79618407366797328
 20
2453287.5
 10
3836162.5
 20
2453293.78719645366072655
 10
3836187.5
 20
2453302.50763837387785316
 10
3836212.5
 20
2453309.98209579102694988
 10
3836221.20402184268459678
 20
2453312.5
 10
3836237.5
 20
2453316.81848852895200253
 10
3836262.5
 20
2453322.20658370573073626
 10
3836287.5
 20
2453323.92500447342172265
 10
3836312.5
 20
2453321.35215984471142292
 10
3836337.5
 20
2453317.51873500598594546
 10
3836353.42494526179507375
 20
2453312.5
 10
3836362.5
 20
2453309.61053647007793188
 10
3836387.5
 20
2453297.47735734283924103
 10
3836403.49587577255442739
 20
2453287.5
 10
3836412.5
 20
2453282.35615139128640294
 10
3836437.5
 20
2453265.4487085142172873
 10
3836441.4428886310197413
 20
2453262.5
 10
3836462.5
 20
2453248.59961740579456091
 10
3836477.92925895471125841
 20
2453237.5
 10
3836487.5
 20
2453230.17929662670940161
 10
3836510.02230453817173839
 20
2453212.5
 10
3836512.5
 20
2453210.35177556565031409
 10
3836536.12662281328812242
 20
2453187.5
 10
3836537.5
 20
2453185.93391644535586238
 10
3836557.0050194263458252
 20
2453162.5
 10
3836562.5
 20
2453153.15353027312085032
 10
3836571.51395335188135505
 20
2453137.5
 10
3836583.97666420182213187
 20
2453112.5
 10
3836583.97666420182213187
 20
2453100.0
  0
ENDSEC
0
SECTION
2
OBJECTS
0
DICTIONARY
5
C
330
0
100
AcDbDictionary
281
   1
3
ACAD_GROUP
350
D
3
ACAD_LAYOUT
350
1A
3
ACAD_MLEADERSTYLE
350
43
3
ACAD_MLINESTYLE
350
17
3
ACAD_PLOTSETTINGS
350
19
3
ACAD_PLOTSTYLENAME
350
E
3
ACAD_TABLESTYLE
350
42
3
ACAD_VISUALSTYLE
350
2A
0
DICTIONARY
5
D
102
{ACAD_REACTORS
330
C
102
}
330
C
100
AcDbDictionary
281
   1
0
DICTIONARY
5
1A
102
{ACAD_REACTORS
330
C
102
}
330
C
100
AcDbDictionary
281
   1
3
Layout1
350
1E
3
Layout2
350
26
3
Model
350
22
0
DICTIONARY
5
43
102
{ACAD_REACTORS
330
C
102
}
330
C
100
AcDbDictionary
281
   1
0
DICTIONARY
5
17
102
{ACAD_REACTORS
330
C
102
}
330
C
100
AcDbDictionary
281
   1
3
Standard
350
18
0
DICTIONARY
5
19
102
{ACAD_REACTORS
330
C
102
}
330
C
100
AcDbDictionary
281
   1
0
ACDBDICTIONARYWDFLT
5
E
102
{ACAD_REACTORS
330
C
102
}
330
C
100
AcDbDictionary
281
   1
3
Normal
350
F
100
AcDbDictionaryWithDefault
340
F
0
DICTIONARY
5
42
102
{ACAD_REACTORS
330
C
102
}
330
C
100
AcDbDictionary
281
   1
0
DICTIONARY
5
2A
102
{ACAD_REACTORS
330
C
102
}
330
C
100
AcDbDictionary
281
   1
3
2dWireframe
350
2F
3
3D Hidden
350
31
3
3dWireframe
350
30
3
Basic
350
32
3
Brighten
350
36
3
ColorChange
350
3A
3
Conceptual
350
34
3
Dim
350
35
3
Facepattern
350
39
3
Flat
350
2B
3
FlatWithEdges
350
2C
3
Gouraud
350
2D
3
GouraudWithEdges
350
2E
3
Linepattern
350
38
3
Realistic
350
33
3
Thicken
350
37
0
LAYOUT
5
1E
102
{ACAD_REACTORS
330
1A
102
}
330
1A
100
AcDbPlotSettings
1

2
none_device
4

6

40
0.0
41
0.0
42
0.0
43
0.0
44
0.0
45
0.0
46
0.0
47
0.0
48
0.0
49
0.0
140
0.0
141
0.0
142
1.0
143
1.0
70
 688
72
   0
73
   0
74
   5
7

75
  16
76
   0
77
   2
78
 300
147
1.0
148
0.0
149
0.0
100
AcDbLayout
1
Layout1
70
   1
71
   1
10
0.0
20
0.0
11
12.0
21
9.0
12
0.0
22
0.0
32
0.0
14
1.000000000000000E+20
24
1.000000000000000E+20
34
1.000000000000000E+20
15
-1.000000000000000E+20
25
-1.000000000000000E+20
35
-1.000000000000000E+20
146
0.0
13
0.0
23
0.0
33
0.0
16
1.0
26
0.0
36
0.0
17
0.0
27
1.0
37
0.0
76
   0
330
1B
0
LAYOUT
5
26
102
{ACAD_REACTORS
330
1A
102
}
330
1A
100
AcDbPlotSettings
1

2
none_device
4

6

40
0.0
41
0.0
42
0.0
43
0.0
44
0.0
45
0.0
46
0.0
47
0.0
48
0.0
49
0.0
140
0.0
141
0.0
142
1.0
143
1.0
70
 688
72
   0
73
   0
74
   5
7

75
  16
76
   0
77
   2
78
 300
147
1.0
148
0.0
149
0.0
100
AcDbLayout
1
Layout2
70
   1
71
   2
10
0.0
20
0.0
11
0.0
21
0.0
12
0.0
22
0.0
32
0.0
14
0.0
24
0.0
34
0.0
15
0.0
25
0.0
35
0.0
146
0.0
13
0.0
23
0.0
33
0.0
16
1.0
26
0.0
36
0.0
17
0.0
27
1.0
37
0.0
76
   0
330
23
0
LAYOUT
5
22
102
{ACAD_REACTORS
330
1A
102
}
330
1A
100
AcDbPlotSettings
1

2
none_device
4

6

40
0.0
41
0.0
42
0.0
43
0.0
44
0.0
45
0.0
46
0.0
47
0.0
48
0.0
49
0.0
140
0.0
141
0.0
142
1.0
143
1.0
70
1712
72
   0
73
   0
74
   0
7

75
   0
76
   0
77
   2
78
 300
147
1.0
148
0.0
149
0.0
100
AcDbLayout
1
Model
70
   1
71
   0
10
0.0
20
0.0
11
12.0
21
9.0
12
0.0
22
0.0
32
0.0
14
30.0
24
49.75
34
0.0
15
130.5
25
163.1318914119703
35
0.0
146
0.0
13
0.0
23
0.0
33
0.0
16
1.0
26
0.0
36
0.0
17
0.0
27
1.0
37
0.0
76
   0
330
1F
331
29
0
MLINESTYLE
5
18
102
{ACAD_REACTORS
330
17
102
}
330
17
100
AcDbMlineStyle
2
Standard
70
   0
3

62
 256
51
90.0
52
90.0
71
   2
49
0.5
62
 256
6
BYLAYER
49
-0.5
62
 256
6
BYLAYER
0
ACDBPLACEHOLDER
5
F
102
{ACAD_REACTORS
330
E
102
}
330
E
0
VISUALSTYLE
5
2F
102
{ACAD_REACTORS
330
2A
102
}
330
2A
100
AcDbVisualStyle
2
2dWireframe
70
   4
71
   0
72
   2
73
   0
90
      0
40
-0.6
41
-30.0
62
   5
63
   7
421
16777215
74
   1
91
      4
64
   7
65
 257
75
   1
175
   1
42
1.0
92
      0
66
 257
43
1.0
76
   1
77
   6
78
   2
67
   7
79
   5
170
   0
171
   0
290
   0
174
   0
93
      1
44
0.0
173
   0
291
   0
45
0.0
1001
ACAD
1000
AcDbSavedByObjectVersion
1070
   0
0
VISUALSTYLE
5
31
102
{ACAD_REACTORS
330
2A
102
}
330
2A
100
AcDbVisualStyle
2
3D Hidden
70
   6
71
   1
72
   2
73
   2
90
      0
40
-0.6
41
-30.0
62
   5
63
   7
421
16777215
74
   2
91
      2
64
   7
65
 257
75
   2
175
   1
42
40.0
92
      0
66
 257
43
1.0
76
   1
77
   6
78
   2
67
   7
79
   3
170
   0
171
   0
290
   0
174
   0
93
      1
44
0.0
173
   0
291
   0
45
0.0
1001
ACAD
1000
AcDbSavedByObjectVersion
1070
   0
0
VISUALSTYLE
5
30
102
{ACAD_REACTORS
330
2A
102
}
330
2A
100
AcDbVisualStyle
2
3dWireframe
70
   5
71
   0
72
   2
73
   0
90
      0
40
-0.6
41
-30.0
62
   5
63
   7
421
16777215
74
   1
91
      4
64
   7
65
 257
75
   1
175
   1
42
1.0
92
      0
66
 257
43
1.0
76
   1
77
   6
78
   2
67
   7
79
   5
170
   0
171
   0
290
   0
174
   0
93
      1
44
0.0
173
   0
291
   0
45
0.0
1001
ACAD
1000
AcDbSavedByObjectVersion
1070
   0
0
VISUALSTYLE
5
32
102
{ACAD_REACTORS
330
2A
102
}
330
2A
100
AcDbVisualStyle
2
Basic
70
   7
71
   1
72
   0
73
   1
90
      0
40
-0.6
41
-30.0
62
   5
63
   7
421
16777215
74
   0
91
      4
64
   7
65
 257
75
   1
175
   1
42
1.0
92
      8
66
   7
43
1.0
76
   1
77
   6
78
   2
67
   7
79
   5
170
   0
171
   0
290
   0
174
   0
93
      1
44
0.0
173
   0
291
   1
45
0.0
1001
ACAD
1000
AcDbSavedByObjectVersion
1070
   0
0
VISUALSTYLE
5
36
102
{ACAD_REACTORS
330
2A
102
}
330
2A
100
AcDbVisualStyle
2
Brighten
70
  12
71
   2
72
   2
73
   0
90
      0
40
-0.6
41
-30.0
62
   5
63
   7
421
16777215
74
   1
91
      4
64
   7
65
 257
75
   1
175
   1
42
1.0
92
      8
66
   7
43
1.0
76
   1
77
   6
78
   2
67
   7
79
   5
170
   0
171
   0
290
   0
174
   0
93
      1
44
50.0
173
   0
291
   1
45
0.0
1001
ACAD
1000
AcDbSavedByObjectVersion
1070
   0
0
VISUALSTYLE
5
3A
102
{ACAD_REACTORS
330
2A
102
}
330
2A
100
AcDbVisualStyle
2
ColorChange
70
  16
71
   2
72
   2
73
   3
90
      0
40
-0.6
41
-30.0
62
   5
63
   8
421
8421504
74
   1
91
      4
64
   7
65
 257
75
   1
175
   1
42
1.0
92
      8
66
   8
424
8421504
43
1.0
76
   1
77
   6
78
   2
67
   7
79
   5
170
   0
171
   0
290
   0
174
   0
93
      1
44
0.0
173
   0
291
   1
45
0.0
1001
ACAD
1000
AcDbSavedByObjectVersion
1070
   0
0
VISUALSTYLE
5
34
102
{ACAD_REACTORS
330
2A
102
}
330
2A
100
AcDbVisualStyle
2
Conceptual
70
   9
71
   3
72
   2
73
   0
90
      0
40
-0.6
41
-30.0
62
   5
63
   7
421
16777215
74
   2
91
      2
64
   7
65
 257
75
   1
175
   1
42
40.0
92
      8
66
   7
43
1.0
76
   1
77
   6
78
   2
67
   7
79
   3
170
   0
171
   0
290
   0
174
   0
93
      1
44
0.0
173
   0
291
   0
45
0.0
1001
ACAD
1000
AcDbSavedByObjectVersion
1070
   0
0
VISUALSTYLE
5
35
102
{ACAD_REACTORS
330
2A
102
}
330
2A
100
AcDbVisualStyle
2
Dim
70
  11
71
   2
72
   2
73
   0
90
      0
40
-0.6
41
-30.0
62
   5
63
   7
421
16777215
74
   1
91
      4
64
   7
65
 257
75
   1
175
   1
42
1.0
92
      8
66
   7
43
1.0
76
   1
77
   6
78
   2
67
   7
79
   5
170
   0
171
   0
290
   0
174
   0
93
      1
44
-50.0
173
   0
291
   1
45
0.0
1001
ACAD
1000
AcDbSavedByObjectVersion
1070
   0
0
VISUALSTYLE
5
39
102
{ACAD_REACTORS
330
2A
102
}
330
2A
100
AcDbVisualStyle
2
Facepattern
70
  15
71
   2
72
   2
73
   0
90
      0
40
-0.6
41
-30.0
62
   5
63
   7
421
16777215
74
   1
91
      4
64
   7
65
 257
75
   1
175
   1
42
1.0
92
      8
66
   7
43
1.0
76
   1
77
   6
78
   2
67
   7
79
   5
170
   0
171
   0
290
   0
174
   0
93
      1
44
0.0
173
   0
291
   1
45
0.0
1001
ACAD
1000
AcDbSavedByObjectVersion
1070
   0
0
VISUALSTYLE
5
2B
102
{ACAD_REACTORS
330
2A
102
}
330
2A
100
AcDbVisualStyle
2
Flat
70
   0
71
   2
72
   1
73
   1
90
      2
40
-0.6
41
30.0
62
   5
63
   7
421
16777215
74
   0
91
      4
64
   7
65
 257
75
   1
175
   1
42
1.0
92
      8
66
   7
43
1.0
76
   1
77
   6
78
   2
67
   7
79
   5
170
   0
171
   0
290
   0
174
   0
93
     13
44
0.0
173
   0
291
   1
45
0.0
1001
ACAD
1000
AcDbSavedByObjectVersion
1070
   0
0
VISUALSTYLE
5
2C
102
{ACAD_REACTORS
330
2A
102
}
330
2A
100
AcDbVisualStyle
2
FlatWithEdges
70
   1
71
   2
72
   1
73
   1
90
      2
40
-0.6
41
30.0
62
   5
63
   7
421
16777215
74
   1
91
      4
64
   7
65
 257
75
   1
175
   1
42
1.0
92
      0
66
 257
43
1.0
76
   1
77
   6
78
   2
67
   7
79
   5
170
   0
171
   0
290
   0
174
   0
93
     13
44
0.0
173
   0
291
   1
45
0.0
1001
ACAD
1000
AcDbSavedByObjectVersion
1070
   0
0
VISUALSTYLE
5
2D
102
{ACAD_REACTORS
330
2A
102
}
330
2A
100
AcDbVisualStyle
2
Gouraud
70
   2
71
   2
72
   2
73
   1
90
      2
40
-0.6
41
30.0
62
   5
63
   7
421
16777215
74
   0
91
      4
64
   7
65
 257
75
   1
175
   1
42
1.0
92
      0
66
   7
43
1.0
76
   1
77
   6
78
   2
67
   7
79
   5
170
   0
171
   0
290
   0
174
   0
93
     13
44
0.0
173
   0
291
   1
45
0.0
1001
ACAD
1000
AcDbSavedByObjectVersion
1070
   0
0
VISUALSTYLE
5
2E
102
{ACAD_REACTORS
330
2A
102
}
330
2A
100
AcDbVisualStyle
2
GouraudWithEdges
70
   3
71
   2
72
   2
73
   1
90
      2
40
-0.6
41
30.0
62
   5
63
   7
421
16777215
74
   1
91
      4
64
   7
65
 257
75
   1
175
   1
42
1.0
92
      0
66
 257
43
1.0
76
   1
77
   6
78
   2
67
   7
79
   5
170
   0
171
   0
290
   0
174
   0
93
     13
44
0.0
173
   0
291
   1
45
0.0
1001
ACAD
1000
AcDbSavedByObjectVersion
1070
   0
0
VISUALSTYLE
5
38
102
{ACAD_REACTORS
330
2A
102
}
330
2A
100
AcDbVisualStyle
2
Linepattern
70
  14
71
   2
72
   2
73
   0
90
      0
40
-0.6
41
-30.0
62
   5
63
   7
421
16777215
74
   1
91
      4
64
   7
65
 257
75
   7
175
   7
42
1.0
92
      8
66
   7
43
1.0
76
   1
77
   6
78
   2
67
   7
79
   5
170
   0
171
   0
290
   0
174
   0
93
      1
44
0.0
173
   0
291
   1
45
0.0
1001
ACAD
1000
AcDbSavedByObjectVersion
1070
   0
0
VISUALSTYLE
5
33
102
{ACAD_REACTORS
330
2A
102
}
330
2A
100
AcDbVisualStyle
2
Realistic
70
   8
71
   2
72
   2
73
   0
90
      0
40
-0.6
41
-30.0
62
   5
63
   7
421
16777215
74
   1
91
      0
64
   7
65
 257
75
   1
175
   1
42
1.0
92
      8
66
   8
424
7895160
43
1.0
76
   1
77
   6
78
   2
67
   7
79
   5
170
   0
171
   0
290
   0
174
   0
93
     13
44
0.0
173
   0
291
   0
45
0.0
1001
ACAD
1000
AcDbSavedByObjectVersion
1070
   0
0
VISUALSTYLE
5
37
102
{ACAD_REACTORS
330
2A
102
}
330
2A
100
AcDbVisualStyle
2
Thicken
70
  13
71
   2
72
   2
73
   0
90
      0
40
-0.6
41
-30.0
62
   5
63
   7
421
16777215
74
   1
91
      4
64
   7
65
 257
75
   1
175
   1
42
1.0
92
     12
66
   7
43
1.0
76
   1
77
   6
78
   2
67
   7
79
   5
170
   0
171
   0
290
   0
174
   0
93
      1
44
0.0
173
   0
291
   1
45
0.0
1001
ACAD
1000
AcDbSavedByObjectVersion
1070
   0
0
ENDSEC
  0
EOF
