0
SECTION
2
HEADER
9
$INSUNITS
70
4
9
$ACADVER
1
AC1014
9
$HANDSEED
5
FFFF
0
ENDSEC
0
SECTION
2
TABLES
0
TABLE
2
VPORT
5
8
100
AcDbSymbolTable
0
ENDTAB
0
TABLE
2
LTYPE
5
5
100
AcDbSymbolTable
0
LTYPE
5
14
100
AcDbSymbolTableRecord
100
AcDbLinetypeTableRecord
2
BYBLOCK
70
0
0
LTYPE
5
15
100
AcDbSymbolTableRecord
100
AcDbLinetypeTableRecord
2
BYLAYER
70
0
0
ENDTAB
0
TABLE
2
LAYER
5
2
100
AcDbSymbolTable
70
2
0
LAYER
5
50
100
AcDbSymbolTableRecord
100
AcDbLayerTableRecord
2
0
70
0
6
CONTINUOUS
0
ENDTAB
0
TABLE
2
STYLE
5
3
100
AcDbSymbolTable
70
1
0
STYLE
5
11
100
AcDbSymbolTableRecord
100
AcDbTextStyleTableRecord
2
STANDARD
70
0
0
ENDTAB
0
TABLE
2
VIEW
5
6
100
AcDbSymbolTable
70
0
0
ENDTAB
0
TABLE
2
UCS
5
7
100
AcDbSymbolTable
70
0
0
ENDTAB
0
TABLE
2
APPID
5
9
100
AcDbSymbolTable
70
2
0
APPID
5
12
100
AcDbSymbolTableRecord
100
AcDbRegAppTableRecord
2
ACAD
70
0
0
ENDTAB
0
TABLE
2
DIMSTYLE
5
A
100
AcDbSymbolTable
70
1
0
ENDTAB
0
TABLE
2
BLOCK_RECORD
5
1
100
AcDbSymbolTable
70
1
0
BLOCK_RECORD
5
1F
100
AcDbSymbolTableRecord
100
AcDbBlockTableRecord
2
*MODEL_SPACE
0
BLOCK_RECORD
5
1B
100
AcDbSymbolTableRecord
100
AcDbBlockTableRecord
2
*PAPER_SPACE
0
ENDTAB
0
ENDSEC
0
SECTION
2
BLOCKS
0
BLOCK
5
20
100
AcDbEntity
100
AcDbBlockBegin
2
*MODEL_SPACE
0
ENDBLK
5
21
100
AcDbEntity
100
AcDbBlockEnd
0
BLOCK
5
1C
100
AcDbEntity
100
AcDbBlockBegin
2
*PAPER_SPACE
0
ENDBLK
5
1D
100
AcDbEntity
100
AcDbBlockEnd
0
ENDSEC
0
SECTION
2
ENTITIES
0
LWPOLYLINE
5
100
100
AcDbEntity
8
0
100
AcDbPolyline
90
8
70
1
43
0.0
10
143.74264068711929
20
-149.00000000000003
10
106.25735931288071
20
-149.00000000000003
10
101
20
-143.74264068711929
10
101
20
-106.25735931288071
10
106.25735931288071
20
-100.99999999999997
10
143.74264068711929
20
-100.99999999999997
10
149
20
-106.25735931288071
10
149
20
-143.74264068711929
0
CIRCLE
5
101
100
AcDbEntity
8
0
100
AcDbCircle
10
239.44549920600485
20
-260.55450079399515
30
0
40
1.4999999999999858
0
CIRCLE
5
102
100
AcDbEntity
8
0
100
AcDbCircle
10
260.60660171779824
20
-239.39339828220176
30
0
40
1.500000000000004
0
CIRCLE
5
103
100
AcDbEntity
8
0
100
AcDbCircle
10
270
20
-270
30
0
40
10
0
LINE
5
104
100
AcDbEntity
8
0
100
AcDbLine
10
300
20
-250
30
0
11
297
21
-250
31
0
0
LINE
5
105
100
AcDbEntity
8
0
100
AcDbLine
10
300
20
-200
30
0
11
297
21
-200
31
0
0
LINE
5
106
100
AcDbEntity
8
0
100
AcDbLine
10
300
20
-150
30
0
11
297
21
-150
31
0
0
LINE
5
107
100
AcDbEntity
8
0
100
AcDbLine
10
300
20
-100
30
0
11
297
21
-100
31
0
0
LINE
5
108
100
AcDbEntity
8
0
100
AcDbLine
10
297
20
-53
30
0
11
297
21
-100
31
0
0
LINE
5
109
100
AcDbEntity
8
0
100
AcDbLine
10
300
20
-100
30
0
11
300
21
-150
31
0
0
LINE
5
110
100
AcDbEntity
8
0
100
AcDbLine
10
300
20
-200
30
0
11
300
21
-250
31
0
0
LINE
5
111
100
AcDbEntity
8
0
100
AcDbLine
10
297
20
-250
30
0
11
297
21
-297
31
0
0
LINE
5
112
100
AcDbEntity
8
0
100
AcDbLine
10
249.99999999999997
20
-53.000000000000007
30
0
11
297
21
-53.000000000000007
31
0
0
LINE
5
113
100
AcDbEntity
8
0
100
AcDbLine
10
99.999999999999915
20
-50.000000000000036
30
0
11
149.99999999999994
21
-50.000000000000036
31
0
0
LINE
5
114
100
AcDbEntity
8
0
100
AcDbLine
10
199.99999999999994
20
-50.000000000000036
30
0
11
249.99999999999997
21
-50
31
0
0
LINE
5
115
100
AcDbEntity
8
0
100
AcDbLine
10
52.999999999999901
20
-53.000000000000078
30
0
11
99.999999999999915
21
-53.000000000000043
31
0
0
LINE
5
116
100
AcDbEntity
8
0
100
AcDbLine
10
199.99999999999994
20
-50.000000000000036
30
0
11
199.99999999999994
21
-53.000000000000043
31
0
0
LINE
5
117
100
AcDbEntity
8
0
100
AcDbLine
10
149.99999999999994
20
-50.000000000000036
30
0
11
149.99999999999994
21
-53.000000000000043
31
0
0
LINE
5
118
100
AcDbEntity
8
0
100
AcDbLine
10
99.999999999999915
20
-50.000000000000036
30
0
11
99.999999999999915
21
-53.000000000000043
31
0
0
LINE
5
119
100
AcDbEntity
8
0
100
AcDbLine
10
249.99999999999997
20
-50
30
0
11
249.99999999999997
21
-53.000000000000007
31
0
0
LINE
5
120
100
AcDbEntity
8
0
100
AcDbLine
10
99.999999999999886
20
-296.99999999999994
30
0
11
52.999999999999901
21
-296.99999999999994
31
0
0
LINE
5
121
100
AcDbEntity
8
0
100
AcDbLine
10
249.99999999999997
20
-299.99999999999994
30
0
11
199.99999999999989
21
-299.99999999999994
31
0
0
LINE
5
122
100
AcDbEntity
8
0
100
AcDbLine
10
149.99999999999989
20
-299.99999999999994
30
0
11
99.999999999999886
21
-299.99999999999994
31
0
0
LINE
5
123
100
AcDbEntity
8
0
100
AcDbLine
10
297
20
-297
30
0
11
249.99999999999997
21
-296.99999999999994
31
0
0
LINE
5
124
100
AcDbEntity
8
0
100
AcDbLine
10
149.99999999999989
20
-299.99999999999994
30
0
11
149.99999999999989
21
-296.99999999999994
31
0
0
LINE
5
125
100
AcDbEntity
8
0
100
AcDbLine
10
199.99999999999989
20
-299.99999999999994
30
0
11
199.99999999999989
21
-296.99999999999994
31
0
0
LINE
5
126
100
AcDbEntity
8
0
100
AcDbLine
10
249.99999999999997
20
-299.99999999999994
30
0
11
249.99999999999997
21
-296.99999999999994
31
0
0
LINE
5
127
100
AcDbEntity
8
0
100
AcDbLine
10
99.999999999999886
20
-299.99999999999994
30
0
11
99.999999999999886
21
-296.99999999999994
31
0
0
LINE
5
128
100
AcDbEntity
8
0
100
AcDbLine
10
52.999999999999901
20
-100.00000000000007
30
0
11
52.999999999999901
21
-53.000000000000078
31
0
0
LINE
5
129
100
AcDbEntity
8
0
100
AcDbLine
10
49.999999999999858
20
-250.00000000000011
30
0
11
49.999999999999893
21
-200.00000000000011
31
0
0
LINE
5
130
100
AcDbEntity
8
0
100
AcDbLine
10
49.999999999999893
20
-150.00000000000006
30
0
11
49.999999999999893
21
-100.00000000000007
31
0
0
LINE
5
131
100
AcDbEntity
8
0
100
AcDbLine
10
52.999999999999865
20
-297.00000000000006
30
0
11
52.999999999999865
21
-250.00000000000011
31
0
0
LINE
5
132
100
AcDbEntity
8
0
100
AcDbLine
10
49.999999999999893
20
-150.00000000000006
30
0
11
52.999999999999901
21
-150.00000000000006
31
0
0
LINE
5
133
100
AcDbEntity
8
0
100
AcDbLine
10
49.999999999999893
20
-200.00000000000011
30
0
11
52.999999999999901
21
-200.00000000000011
31
0
0
LINE
5
134
100
AcDbEntity
8
0
100
AcDbLine
10
49.999999999999858
20
-250.00000000000011
30
0
11
52.999999999999865
21
-250.00000000000011
31
0
0
LINE
5
135
100
AcDbEntity
8
0
100
AcDbLine
10
49.999999999999893
20
-100.00000000000007
30
0
11
52.999999999999901
21
-100.00000000000007
31
0
0
LINE
5
136
100
AcDbEntity
8
0
100
AcDbLine
10
7.0492392341690646
20
-172.75640179055273
30
0
11
5.8992391030388802
21
-172.75640179055273
31
0
0
LINE
5
137
100
AcDbEntity
8
0
100
AcDbLine
10
7.0492392341690646
20
-172.75640179055273
30
0
11
7.0492392341690646
21
-178.00638491051734
31
0
0
LINE
5
138
100
AcDbEntity
8
0
100
AcDbLine
10
11.199239103038892
20
-170.55640179055274
30
0
11
11.199239103038892
21
-172.75640179055273
31
0
0
LINE
5
139
100
AcDbEntity
8
0
100
AcDbLine
10
5.8992391030388802
20
-170.55640179055274
30
0
11
7.0492392341690646
21
-170.55640179055274
31
0
0
LINE
5
140
100
AcDbEntity
8
0
100
AcDbLine
10
10.049239234169036
20
-166.57640162842824
30
0
11
7.0492392341690646
21
-166.57640162842824
31
0
0
LINE
5
141
100
AcDbEntity
8
0
100
AcDbLine
10
7.0492392341690646
20
-166.57640162842824
30
0
11
7.0492392341690646
21
-170.55640179055274
31
0
0
LINE
5
142
100
AcDbEntity
8
0
100
AcDbLine
10
10.049239234169036
20
-170.55640179055274
30
0
11
10.049239234169036
21
-166.57640162842824
31
0
0
LINE
5
143
100
AcDbEntity
8
0
100
AcDbLine
10
11.199239103038892
20
-172.75640179055273
30
0
11
10.049239234169036
21
-172.75640179055273
31
0
0
LINE
5
144
100
AcDbEntity
8
0
100
AcDbLine
10
5.8992391030388802
20
-172.75640179055273
30
0
11
5.8992391030388802
21
-170.55640179055274
31
0
0
LINE
5
145
100
AcDbEntity
8
0
100
AcDbLine
10
10.049239234169036
20
-170.55640179055274
30
0
11
11.199239103038892
21
-170.55640179055274
31
0
0
LINE
5
146
100
AcDbEntity
8
0
100
AcDbLine
10
10.049239234169036
20
-178.00638491051734
30
0
11
10.049239234169036
21
-172.75640179055273
31
0
0
LINE
5
147
100
AcDbEntity
8
0
100
AcDbLine
10
177.64999986886974
20
-289.55001688003534
30
0
11
177.64999986886974
21
-291.75001688003533
31
0
0
LINE
5
148
100
AcDbEntity
8
0
100
AcDbLine
10
176.49999999999989
20
-289.55001688003534
30
0
11
177.64999986886974
21
-289.55001688003534
31
0
0
LINE
5
149
100
AcDbEntity
8
0
100
AcDbLine
10
172.34999986886973
20
-289.55001688003534
30
0
11
173.49999999999991
21
-289.55001688003534
31
0
0
LINE
5
150
100
AcDbEntity
8
0
100
AcDbLine
10
173.49999999999991
20
-291.75001688003533
30
0
11
172.34999986886973
21
-291.75001688003533
31
0
0
LINE
5
151
100
AcDbEntity
8
0
100
AcDbLine
10
172.34999986886973
20
-291.75001688003533
30
0
11
172.34999986886973
21
-289.55001688003534
31
0
0
LINE
5
152
100
AcDbEntity
8
0
100
AcDbLine
10
173.49999999999991
20
-291.75001688003533
30
0
11
173.49999999999991
21
-296.99999999999994
31
0
0
LINE
5
153
100
AcDbEntity
8
0
100
AcDbLine
10
176.49999999999989
20
-289.55001688003534
30
0
11
176.49999999999989
21
-285.57001671791085
31
0
0
LINE
5
154
100
AcDbEntity
8
0
100
AcDbLine
10
173.49999999999991
20
-285.57001671791085
30
0
11
173.49999999999991
21
-289.55001688003534
31
0
0
LINE
5
155
100
AcDbEntity
8
0
100
AcDbLine
10
176.49999999999989
20
-296.99999999999994
30
0
11
176.49999999999989
21
-291.75001688003533
31
0
0
LINE
5
156
100
AcDbEntity
8
0
100
AcDbLine
10
177.64999986886974
20
-291.75001688003533
30
0
11
176.49999999999989
21
-291.75001688003533
31
0
0
LINE
5
157
100
AcDbEntity
8
0
100
AcDbLine
10
176.49999999999989
20
-285.57001671791085
30
0
11
173.49999999999991
21
-285.57001671791085
31
0
0
LINE
5
158
100
AcDbEntity
8
0
100
AcDbLine
10
199.99999999999989
20
-296.99999999999994
30
0
11
176.49999999999989
21
-296.99999999999994
31
0
0
LINE
5
159
100
AcDbEntity
8
0
100
AcDbLine
10
173.49999999999991
20
-296.99999999999994
30
0
11
149.99999999999989
21
-296.99999999999994
31
0
0
LINE
5
160
100
AcDbEntity
8
0
100
AcDbLine
10
64.429983282088983
20
-176.50000000000006
30
0
11
64.429983282088983
21
-173.50000000000009
31
0
0
LINE
5
161
100
AcDbEntity
8
0
100
AcDbLine
10
58.249983119964526
20
-177.64999986886991
30
0
11
58.249983119964526
21
-176.50000000000006
31
0
0
LINE
5
162
100
AcDbEntity
8
0
100
AcDbLine
10
60.449983119964514
20
-176.50000000000006
30
0
11
60.449983119964514
21
-177.64999986886991
31
0
0
LINE
5
163
100
AcDbEntity
8
0
100
AcDbLine
10
64.429983282088983
20
-173.50000000000009
30
0
11
60.449983119964514
21
-173.50000000000009
31
0
0
LINE
5
164
100
AcDbEntity
8
0
100
AcDbLine
10
58.249983119964526
20
-172.3499998688699
30
0
11
60.449983119964514
21
-172.3499998688699
31
0
0
LINE
5
165
100
AcDbEntity
8
0
100
AcDbLine
10
60.449983119964514
20
-177.64999986886991
30
0
11
58.249983119964526
21
-177.64999986886991
31
0
0
LINE
5
166
100
AcDbEntity
8
0
100
AcDbLine
10
58.249983119964526
20
-173.50000000000009
30
0
11
58.249983119964526
21
-172.3499998688699
31
0
0
LINE
5
167
100
AcDbEntity
8
0
100
AcDbLine
10
60.449983119964514
20
-176.50000000000006
30
0
11
64.429983282088983
21
-176.50000000000006
31
0
0
LINE
5
168
100
AcDbEntity
8
0
100
AcDbLine
10
58.249983119964526
20
-173.50000000000009
30
0
11
52.999999999999901
21
-173.50000000000009
31
0
0
LINE
5
169
100
AcDbEntity
8
0
100
AcDbLine
10
52.999999999999901
20
-176.50000000000006
30
0
11
58.249983119964526
21
-176.50000000000006
31
0
0
LINE
5
170
100
AcDbEntity
8
0
100
AcDbLine
10
60.449983119964514
20
-172.3499998688699
30
0
11
60.449983119964514
21
-173.50000000000009
31
0
0
LINE
5
171
100
AcDbEntity
8
0
100
AcDbLine
10
285.5700167179109
20
-173.5
30
0
11
285.5700167179109
21
-176.5
31
0
0
LINE
5
172
100
AcDbEntity
8
0
100
AcDbLine
10
291.75001688003539
20
-172.35000013113017
30
0
11
291.75001688003539
21
-173.5
31
0
0
LINE
5
173
100
AcDbEntity
8
0
100
AcDbLine
10
289.5500168800354
20
-173.5
30
0
11
289.5500168800354
21
-172.35000013113017
31
0
0
LINE
5
174
100
AcDbEntity
8
0
100
AcDbLine
10
285.5700167179109
20
-176.5
30
0
11
289.5500168800354
21
-176.5
31
0
0
LINE
5
175
100
AcDbEntity
8
0
100
AcDbLine
10
291.75001688003539
20
-177.65000013113018
30
0
11
289.5500168800354
21
-177.65000013113018
31
0
0
LINE
5
176
100
AcDbEntity
8
0
100
AcDbLine
10
289.5500168800354
20
-172.35000013113017
30
0
11
291.75001688003539
21
-172.35000013113017
31
0
0
LINE
5
177
100
AcDbEntity
8
0
100
AcDbLine
10
291.75001688003539
20
-176.5
30
0
11
291.75001688003539
21
-177.65000013113018
31
0
0
LINE
5
178
100
AcDbEntity
8
0
100
AcDbLine
10
289.5500168800354
20
-173.5
30
0
11
285.5700167179109
21
-173.5
31
0
0
LINE
5
179
100
AcDbEntity
8
0
100
AcDbLine
10
291.75001688003539
20
-176.5
30
0
11
297
21
-176.5
31
0
0
LINE
5
180
100
AcDbEntity
8
0
100
AcDbLine
10
297
20
-173.5
30
0
11
291.75001688003539
21
-173.5
31
0
0
LINE
5
181
100
AcDbEntity
8
0
100
AcDbLine
10
289.5500168800354
20
-177.65000013113018
30
0
11
289.5500168800354
21
-176.5
31
0
0
LINE
5
182
100
AcDbEntity
8
0
100
AcDbLine
10
173.49999999999994
20
-64.429983282089154
30
0
11
176.49999999999991
21
-64.429983282089154
31
0
0
LINE
5
183
100
AcDbEntity
8
0
100
AcDbLine
10
172.35000013113009
20
-58.249983119964668
30
0
11
173.49999999999994
21
-58.249983119964668
31
0
0
LINE
5
184
100
AcDbEntity
8
0
100
AcDbLine
10
173.49999999999994
20
-60.449983119964656
30
0
11
172.35000013113009
21
-60.449983119964656
31
0
0
LINE
5
185
100
AcDbEntity
8
0
100
AcDbLine
10
176.49999999999991
20
-64.429983282089154
30
0
11
176.49999999999991
21
-60.449983119964656
31
0
0
LINE
5
186
100
AcDbEntity
8
0
100
AcDbLine
10
177.6500001311301
20
-58.249983119964668
30
0
11
177.6500001311301
21
-60.449983119964656
31
0
0
LINE
5
187
100
AcDbEntity
8
0
100
AcDbLine
10
172.35000013113009
20
-60.449983119964656
30
0
11
172.35000013113009
21
-58.249983119964668
31
0
0
LINE
5
188
100
AcDbEntity
8
0
100
AcDbLine
10
176.49999999999991
20
-58.249983119964668
30
0
11
177.6500001311301
21
-58.249983119964668
31
0
0
LINE
5
189
100
AcDbEntity
8
0
100
AcDbLine
10
173.49999999999994
20
-60.449983119964656
30
0
11
173.49999999999994
21
-64.429983282089154
31
0
0
LINE
5
190
100
AcDbEntity
8
0
100
AcDbLine
10
176.49999999999991
20
-58.249983119964668
30
0
11
176.49999999999991
21
-53.000000000000043
31
0
0
LINE
5
191
100
AcDbEntity
8
0
100
AcDbLine
10
173.49999999999994
20
-53.000000000000043
30
0
11
173.49999999999994
21
-58.249983119964668
31
0
0
LINE
5
192
100
AcDbEntity
8
0
100
AcDbLine
10
177.6500001311301
20
-60.449983119964656
30
0
11
176.49999999999991
21
-60.449983119964656
31
0
0
LINE
5
193
100
AcDbEntity
8
0
100
AcDbLine
10
149.99999999999994
20
-53.000000000000043
30
0
11
173.49999999999994
21
-53.000000000000043
31
0
0
LINE
5
194
100
AcDbEntity
8
0
100
AcDbLine
10
176.49999999999991
20
-53.000000000000043
30
0
11
199.99999999999994
21
-53.000000000000043
31
0
0
LINE
5
195
100
AcDbEntity
8
0
100
AcDbLine
10
52.999999999999901
20
-200.00000000000011
30
0
11
52.999999999999901
21
-176.50000000000006
31
0
0
LINE
5
196
100
AcDbEntity
8
0
100
AcDbLine
10
52.999999999999901
20
-173.50000000000009
30
0
11
52.999999999999901
21
-150.00000000000006
31
0
0
LINE
5
197
100
AcDbEntity
8
0
100
AcDbLine
10
297
20
-150
30
0
11
297
21
-173.5
31
0
0
LINE
5
198
100
AcDbEntity
8
0
100
AcDbLine
10
297
20
-176.5
30
0
11
297
21
-200
31
0
0
LINE
5
199
100
AcDbEntity
8
0
100
AcDbLine
10
353
20
-200.00000000000011
30
0
11
353
21
-176.50000000000006
31
0
0
LINE
5
200
100
AcDbEntity
8
0
100
AcDbLine
10
399.99999999999994
20
-50.000000000000036
30
0
11
450
21
-50.000000000000036
31
0
0
LINE
5
201
100
AcDbEntity
8
0
100
AcDbLine
10
476.49999999999989
20
-53.000000000000043
30
0
11
500
21
-53.000000000000043
31
0
0
LINE
5
202
100
AcDbEntity
8
0
100
AcDbLine
10
499.99999999999994
20
-296.99999999999994
30
0
11
476.49999999999989
21
-296.99999999999994
31
0
0
LINE
5
203
100
AcDbEntity
8
0
100
AcDbLine
10
550
20
-299.99999999999994
30
0
11
499.99999999999994
21
-299.99999999999994
31
0
0
LINE
5
204
100
AcDbEntity
8
0
100
AcDbLine
10
399.99999999999994
20
-50.000000000000036
30
0
11
399.99999999999994
21
-53.000000000000043
31
0
0
LINE
5
205
100
AcDbEntity
8
0
100
AcDbLine
10
591.75001688003545
20
-177.65000013113018
30
0
11
589.5500168800354
21
-177.65000013113018
31
0
0
LINE
5
206
100
AcDbEntity
8
0
100
AcDbLine
10
589.5500168800354
20
-173.5
30
0
11
585.5700167179109
21
-173.5
31
0
0
LINE
5
207
100
AcDbEntity
8
0
100
AcDbLine
10
472.34999986886976
20
-291.75001688003533
30
0
11
472.34999986886976
21
-289.55001688003534
31
0
0
LINE
5
208
100
AcDbEntity
8
0
100
AcDbLine
10
591.75001688003545
20
-172.35000013113017
30
0
11
591.75001688003545
21
-173.5
31
0
0
LINE
5
209
100
AcDbEntity
8
0
100
AcDbLine
10
476.49999999999989
20
-296.99999999999994
30
0
11
476.49999999999989
21
-291.75001688003533
31
0
0
LINE
5
210
100
AcDbEntity
8
0
100
AcDbLine
10
473.49999999999994
20
-53.000000000000043
30
0
11
473.49999999999994
21
-58.249983119964668
31
0
0
LINE
5
211
100
AcDbEntity
8
0
100
AcDbLine
10
585.5700167179109
20
-176.5
30
0
11
589.5500168800354
21
-176.5
31
0
0
LINE
5
212
100
AcDbEntity
8
0
100
AcDbLine
10
349.99999999999994
20
-100.00000000000007
30
0
11
353
21
-100.00000000000007
31
0
0
LINE
5
213
100
AcDbEntity
8
0
100
AcDbLine
10
472.34999986886976
20
-289.55001688003534
30
0
11
473.49999999999994
21
-289.55001688003534
31
0
0
LINE
5
214
100
AcDbEntity
8
0
100
AcDbLine
10
450
20
-53.000000000000043
30
0
11
473.49999999999994
21
-53.000000000000043
31
0
0
LINE
5
215
100
AcDbEntity
8
0
100
AcDbLine
10
476.49999999999989
20
-58.249983119964668
30
0
11
476.49999999999989
21
-53.000000000000043
31
0
0
LINE
5
216
100
AcDbEntity
8
0
100
AcDbLine
10
353
20
-100.00000000000007
30
0
11
353
21
-53.000000000000078
31
0
0
LINE
5
217
100
AcDbEntity
8
0
100
AcDbLine
10
597
20
-150
30
0
11
597
21
-173.5
31
0
0
LINE
5
218
100
AcDbEntity
8
0
100
AcDbLine
10
550
20
-50
30
0
11
550
21
-53.000000000000007
31
0
0
LINE
5
219
100
AcDbEntity
8
0
100
AcDbLine
10
550
20
-53.000000000000007
30
0
11
597
21
-53.000000000000007
31
0
0
LINE
5
220
100
AcDbEntity
8
0
100
AcDbLine
10
550
20
-299.99999999999994
30
0
11
550
21
-296.99999999999994
31
0
0
LINE
5
221
100
AcDbEntity
8
0
100
AcDbLine
10
600
20
-100
30
0
11
600
21
-150
31
0
0
LINE
5
222
100
AcDbEntity
8
0
100
AcDbLine
10
349.99999999999994
20
-150.00000000000006
30
0
11
349.99999999999994
21
-100.00000000000007
31
0
0
LINE
5
223
100
AcDbEntity
8
0
100
AcDbLine
10
597
20
-297
30
0
11
550
21
-296.99999999999994
31
0
0
LINE
5
224
100
AcDbEntity
8
0
100
AcDbLine
10
600
20
-100
30
0
11
597
21
-100
31
0
0
LINE
5
225
100
AcDbEntity
8
0
100
AcDbLine
10
600
20
-150
30
0
11
597
21
-150
31
0
0
LINE
5
226
100
AcDbEntity
8
0
100
AcDbLine
10
597
20
-250
30
0
11
597
21
-297
31
0
0
LINE
5
227
100
AcDbEntity
8
0
100
AcDbLine
10
600
20
-200
30
0
11
597
21
-200
31
0
0
LINE
5
228
100
AcDbEntity
8
0
100
AcDbLine
10
499.99999999999994
20
-299.99999999999994
30
0
11
499.99999999999994
21
-296.99999999999994
31
0
0
LINE
5
229
100
AcDbEntity
8
0
100
AcDbLine
10
449.99999999999994
20
-299.99999999999994
30
0
11
399.99999999999994
21
-299.99999999999994
31
0
0
LINE
5
230
100
AcDbEntity
8
0
100
AcDbLine
10
360.44998311996449
20
-176.50000000000006
30
0
11
364.42998328208898
21
-176.50000000000006
31
0
0
LINE
5
231
100
AcDbEntity
8
0
100
AcDbLine
10
449.99999999999994
20
-299.99999999999994
30
0
11
449.99999999999994
21
-296.99999999999994
31
0
0
LINE
5
232
100
AcDbEntity
8
0
100
AcDbLine
10
358.24998311996455
20
-172.3499998688699
30
0
11
360.44998311996449
21
-172.3499998688699
31
0
0
LINE
5
233
100
AcDbEntity
8
0
100
AcDbLine
10
399.99999999999994
20
-296.99999999999994
30
0
11
353
21
-296.99999999999994
31
0
0
LINE
5
234
100
AcDbEntity
8
0
100
AcDbLine
10
360.44998311996449
20
-172.3499998688699
30
0
11
360.44998311996449
21
-173.50000000000009
31
0
0
LINE
5
235
100
AcDbEntity
8
0
100
AcDbLine
10
500
20
-50.000000000000036
30
0
11
500
21
-53.000000000000043
31
0
0
LINE
5
236
100
AcDbEntity
8
0
100
AcDbLine
10
500
20
-50.000000000000036
30
0
11
550
21
-50
31
0
0
LINE
5
237
100
AcDbEntity
8
0
100
AcDbLine
10
360.44998311996449
20
-177.64999986886991
30
0
11
358.24998311996455
21
-177.64999986886991
31
0
0
LINE
5
238
100
AcDbEntity
8
0
100
AcDbLine
10
353
20
-173.50000000000009
30
0
11
353
21
-150.00000000000006
31
0
0
LINE
5
239
100
AcDbEntity
8
0
100
AcDbLine
10
358.24998311996455
20
-173.50000000000009
30
0
11
358.24998311996455
21
-172.3499998688699
31
0
0
LINE
5
240
100
AcDbEntity
8
0
100
AcDbLine
10
399.99999999999994
20
-299.99999999999994
30
0
11
399.99999999999994
21
-296.99999999999994
31
0
0
LINE
5
241
100
AcDbEntity
8
0
100
AcDbLine
10
349.99999999999994
20
-150.00000000000006
30
0
11
353
21
-150.00000000000006
31
0
0
LINE
5
242
100
AcDbEntity
8
0
100
AcDbLine
10
450
20
-50.000000000000036
30
0
11
450
21
-53.000000000000043
31
0
0
LINE
5
243
100
AcDbEntity
8
0
100
AcDbLine
10
364.42998328208898
20
-176.50000000000006
30
0
11
364.42998328208898
21
-173.50000000000009
31
0
0
LINE
5
244
100
AcDbEntity
8
0
100
AcDbLine
10
364.42998328208898
20
-173.50000000000009
30
0
11
360.44998311996449
21
-173.50000000000009
31
0
0
LINE
5
245
100
AcDbEntity
8
0
100
AcDbLine
10
352.99999999999989
20
-297.00000000000006
30
0
11
352.99999999999989
21
-250.00000000000011
31
0
0
LINE
5
246
100
AcDbEntity
8
0
100
AcDbLine
10
349.99999999999989
20
-250.00000000000011
30
0
11
349.99999999999994
21
-200.00000000000011
31
0
0
LINE
5
247
100
AcDbEntity
8
0
100
AcDbLine
10
349.99999999999994
20
-200.00000000000011
30
0
11
353
21
-200.00000000000011
31
0
0
LINE
5
248
100
AcDbEntity
8
0
100
AcDbLine
10
472.35000013113006
20
-58.249983119964668
30
0
11
473.49999999999994
21
-58.249983119964668
31
0
0
LINE
5
249
100
AcDbEntity
8
0
100
AcDbLine
10
472.35000013113006
20
-60.449983119964656
30
0
11
472.35000013113006
21
-58.249983119964668
31
0
0
LINE
5
250
100
AcDbEntity
8
0
100
AcDbLine
10
477.65000013113013
20
-58.249983119964668
30
0
11
477.65000013113013
21
-60.449983119964656
31
0
0
LINE
5
251
100
AcDbEntity
8
0
100
AcDbLine
10
358.24998311996455
20
-177.64999986886991
30
0
11
358.24998311996455
21
-176.50000000000006
31
0
0
LINE
5
252
100
AcDbEntity
8
0
100
AcDbLine
10
349.99999999999989
20
-250.00000000000011
30
0
11
352.99999999999989
21
-250.00000000000011
31
0
0
LINE
5
253
100
AcDbEntity
8
0
100
AcDbLine
10
353
20
-176.50000000000006
30
0
11
358.24998311996455
21
-176.50000000000006
31
0
0
LINE
5
254
100
AcDbEntity
8
0
100
AcDbLine
10
358.24998311996455
20
-173.50000000000009
30
0
11
353
21
-173.50000000000009
31
0
0
LINE
5
255
100
AcDbEntity
8
0
100
AcDbLine
10
360.44998311996449
20
-176.50000000000006
30
0
11
360.44998311996449
21
-177.64999986886991
31
0
0
LINE
5
256
100
AcDbEntity
8
0
100
AcDbLine
10
589.5500168800354
20
-173.5
30
0
11
589.5500168800354
21
-172.35000013113017
31
0
0
LINE
5
257
100
AcDbEntity
8
0
100
AcDbLine
10
597
20
-173.5
30
0
11
591.75001688003545
21
-173.5
31
0
0
LINE
5
258
100
AcDbEntity
8
0
100
AcDbLine
10
476.49999999999989
20
-289.55001688003534
30
0
11
476.49999999999989
21
-285.57001671791085
31
0
0
LINE
5
259
100
AcDbEntity
8
0
100
AcDbLine
10
473.49999999999994
20
-291.75001688003533
30
0
11
472.34999986886976
21
-291.75001688003533
31
0
0
LINE
5
260
100
AcDbEntity
8
0
100
AcDbLine
10
597
20
-176.5
30
0
11
597
21
-200
31
0
0
LINE
5
261
100
AcDbEntity
8
0
100
AcDbLine
10
597
20
-53
30
0
11
597
21
-100
31
0
0
LINE
5
262
100
AcDbEntity
8
0
100
AcDbLine
10
473.49999999999994
20
-64.429983282089154
30
0
11
476.49999999999989
21
-64.429983282089154
31
0
0
LINE
5
263
100
AcDbEntity
8
0
100
AcDbLine
10
473.49999999999994
20
-285.57001671791085
30
0
11
473.49999999999994
21
-289.55001688003534
31
0
0
LINE
5
264
100
AcDbEntity
8
0
100
AcDbLine
10
600
20
-200
30
0
11
600
21
-250
31
0
0
LINE
5
265
100
AcDbEntity
8
0
100
AcDbLine
10
600
20
-250
30
0
11
597
21
-250
31
0
0
LINE
5
266
100
AcDbEntity
8
0
100
AcDbLine
10
591.75001688003545
20
-176.5
30
0
11
597
21
-176.5
31
0
0
LINE
5
267
100
AcDbEntity
8
0
100
AcDbLine
10
477.64999986886977
20
-291.75001688003533
30
0
11
476.49999999999989
21
-291.75001688003533
31
0
0
LINE
5
268
100
AcDbEntity
8
0
100
AcDbLine
10
477.65000013113013
20
-60.449983119964656
30
0
11
476.49999999999989
21
-60.449983119964656
31
0
0
LINE
5
269
100
AcDbEntity
8
0
100
AcDbLine
10
473.49999999999994
20
-296.99999999999994
30
0
11
449.99999999999994
21
-296.99999999999994
31
0
0
LINE
5
270
100
AcDbEntity
8
0
100
AcDbLine
10
473.49999999999994
20
-60.449983119964656
30
0
11
473.49999999999994
21
-64.429983282089154
31
0
0
LINE
5
271
100
AcDbEntity
8
0
100
AcDbLine
10
353
20
-53.000000000000078
30
0
11
399.99999999999994
21
-53.000000000000043
31
0
0
LINE
5
272
100
AcDbEntity
8
0
100
AcDbLine
10
591.75001688003545
20
-176.5
30
0
11
591.75001688003545
21
-177.65000013113018
31
0
0
LINE
5
273
100
AcDbEntity
8
0
100
AcDbLine
10
589.5500168800354
20
-177.65000013113018
30
0
11
589.5500168800354
21
-176.5
31
0
0
LINE
5
274
100
AcDbEntity
8
0
100
AcDbLine
10
473.49999999999994
20
-291.75001688003533
30
0
11
473.49999999999994
21
-296.99999999999994
31
0
0
LINE
5
275
100
AcDbEntity
8
0
100
AcDbLine
10
585.5700167179109
20
-173.5
30
0
11
585.5700167179109
21
-176.5
31
0
0
LINE
5
276
100
AcDbEntity
8
0
100
AcDbLine
10
476.49999999999989
20
-285.57001671791085
30
0
11
473.49999999999994
21
-285.57001671791085
31
0
0
LINE
5
277
100
AcDbEntity
8
0
100
AcDbLine
10
476.49999999999989
20
-58.249983119964668
30
0
11
477.65000013113013
21
-58.249983119964668
31
0
0
LINE
5
278
100
AcDbEntity
8
0
100
AcDbLine
10
473.49999999999994
20
-60.449983119964656
30
0
11
472.35000013113006
21
-60.449983119964656
31
0
0
LINE
5
279
100
AcDbEntity
8
0
100
AcDbLine
10
476.49999999999989
20
-64.429983282089154
30
0
11
476.49999999999989
21
-60.449983119964656
31
0
0
LINE
5
280
100
AcDbEntity
8
0
100
AcDbLine
10
589.5500168800354
20
-172.35000013113017
30
0
11
591.75001688003545
21
-172.35000013113017
31
0
0
LINE
5
281
100
AcDbEntity
8
0
100
AcDbLine
10
476.49999999999989
20
-289.55001688003534
30
0
11
477.64999986886977
21
-289.55001688003534
31
0
0
LINE
5
282
100
AcDbEntity
8
0
100
AcDbLine
10
477.64999986886977
20
-289.55001688003534
30
0
11
477.64999986886977
21
-291.75001688003533
31
0
0
CIRCLE
5
283
100
AcDbEntity
8
0
100
AcDbCircle
10
544.5
20
-76.5
30
0
40
1.4999999999999969
0
CIRCLE
5
284
100
AcDbEntity
8
0
100
AcDbCircle
10
593.5
20
-76.5
30
0
40
1.4999999999999905
0
CIRCLE
5
285
100
AcDbEntity
8
0
100
AcDbCircle
10
593.5
20
-134.5
30
0
40
1.5000000000000107
0
CIRCLE
5
286
100
AcDbEntity
8
0
100
AcDbCircle
10
544.5
20
-134.5
30
0
40
1.5000000000000071
0
LWPOLYLINE
5
287
100
AcDbEntity
8
0
100
AcDbPolyline
90
4
70
1
43
0.0
10
470
20
-80
10
380
20
-80
10
380
20
-170
10
470
20
-170
0
LWPOLYLINE
5
288
100
AcDbEntity
8
0
100
AcDbPolyline
90
11
70
1
43
0.0
10
300
20
-350
10
50
20
-350
10
50
20
-600
10
300
20
-600
10
300
20
-571
10
244
20
-571
10
240.99999999999997
20
-571
10
240.99999999999997
20
-555
10
241.00000359117985
20
-553.00000824034214
10
244
20
-553
10
300
20
-553
0
LWPOLYLINE
5
289
100
AcDbEntity
8
0
100
AcDbPolyline
90
4
70
1
43
0.0
10
600
20
-600
10
350
20
-600
10
350
20
-500
10
600
20
-500
0
LWPOLYLINE
5
290
100
AcDbEntity
8
0
100
AcDbPolyline
90
4
70
1
43
0.0
10
450
20
-530
10
400
20
-530
10
400
20
-527
10
450
20
-527
0
LWPOLYLINE
5
291
100
AcDbEntity
8
0
100
AcDbPolyline
90
4
70
1
43
0.0
10
550.00000819563866
20
-530
10
500
20
-530
10
500
20
-527.00000785291195
10
550.00000819563866
20
-527.00000785291195
0
LWPOLYLINE
5
292
100
AcDbEntity
8
0
100
AcDbPolyline
90
4
70
1
43
0.0
10
550.00000819563866
20
-575.00000785291195
10
550.00000819563866
20
-578
10
500
20
-578
10
500
20
-575.00000785291195
0
LWPOLYLINE
5
293
100
AcDbEntity
8
0
100
AcDbPolyline
90
4
70
1
43
0.0
10
400
20
-575
10
450
20
-575
10
450
20
-578
10
400
20
-578
0
LWPOLYLINE
5
294
100
AcDbEntity
8
0
100
AcDbPolyline
90
4
70
1
43
0.0
10
150
20
-578
10
100
20
-578
10
100
20
-575
10
150
20
-575
0
LWPOLYLINE
5
295
100
AcDbEntity
8
0
100
AcDbPolyline
90
4
70
1
43
0.0
10
100
20
-527
10
150
20
-527
10
150
20
-530
10
100
20
-530
0
LWPOLYLINE
5
296
100
AcDbEntity
8
0
100
AcDbPolyline
90
4
70
1
43
0.0
10
200
20
-578
10
200
20
-575.00000785291195
10
250.00000819563866
20
-575.00000785291195
10
250.00000819563866
20
-578
0
LWPOLYLINE
5
297
100
AcDbEntity
8
0
100
AcDbPolyline
90
4
70
1
43
0.0
10
250.00000819563866
20
-527.00000785291195
10
250.00000819563866
20
-530
10
200
20
-530
10
200
20
-527.00000785291195
0
CIRCLE
5
298
100
AcDbEntity
8
0
100
AcDbCircle
10
175
20
-576.50000196322799
30
0
40
1.4999999999999858
0
CIRCLE
5
299
100
AcDbEntity
8
0
100
AcDbCircle
10
175
20
-528.50000196322799
30
0
40
1.4999999999999858
0
LWPOLYLINE
5
300
100
AcDbEntity
8
0
100
AcDbPolyline
90
4
70
1
43
0.0
10
850.00000819563866
20
-527.00000785291195
10
850.00000819563866
20
-530
10
800
20
-530
10
800
20
-527.00000785291195
0
LWPOLYLINE
5
301
100
AcDbEntity
8
0
100
AcDbPolyline
90
4
70
1
43
0.0
10
800
20
-578
10
800
20
-575.00000785291195
10
850.00000819563866
20
-575.00000785291195
10
850.00000819563866
20
-578
0
LWPOLYLINE
5
302
100
AcDbEntity
8
0
100
AcDbPolyline
90
4
70
1
43
0.0
10
750
20
-527
10
750
20
-530
10
700
20
-530
10
700
20
-527
0
LINE
5
303
100
AcDbEntity
8
0
100
AcDbLine
10
897
20
-600
30
0
11
653
21
-600
31
0
0
LWPOLYLINE
5
304
100
AcDbEntity
8
0
100
AcDbPolyline
90
4
70
1
43
0.0
10
700
20
-578
10
700
20
-575
10
750
20
-575
10
750
20
-578
0
LINE
5
305
100
AcDbEntity
8
0
100
AcDbLine
10
882.59999115268397
20
-350
30
0
11
897
21
-350
31
0
0
CIRCLE
5
306
100
AcDbEntity
8
0
100
AcDbCircle
10
775
20
-576.50000196322799
30
0
40
1.4999999999999858
0
CIRCLE
5
307
100
AcDbEntity
8
0
100
AcDbCircle
10
775
20
-528.50000196322799
30
0
40
1.4999999999999858
0
LINE
5
308
100
AcDbEntity
8
0
100
AcDbLine
10
653
20
-600
30
0
11
653
21
-350
31
0
0
LINE
5
309
100
AcDbEntity
8
0
100
AcDbLine
10
653
20
-500
30
0
11
872.59999115268386
21
-365.00000543892384
31
0
0
LINE
5
310
100
AcDbEntity
8
0
100
AcDbLine
10
812
20
-555
30
0
11
812
21
-571
31
0
0
LINE
5
311
100
AcDbEntity
8
0
100
AcDbLine
10
897
20
-571
30
0
11
812
21
-571
31
0
0
LINE
5
312
100
AcDbEntity
8
0
100
AcDbLine
10
897
20
-350
30
0
11
897
21
-553
31
0
0
LINE
5
313
100
AcDbEntity
8
0
100
AcDbLine
10
897
20
-571
30
0
11
897
21
-600
31
0
0
LWPOLYLINE
5
314
100
AcDbEntity
8
0
100
AcDbPolyline
90
4
70
1
43
0.0
10
800
20
-359
10
800
20
-356.00000785291195
10
850.00000819563866
20
-356.00000785291195
10
850.00000819563866
20
-359
0
LWPOLYLINE
5
315
100
AcDbEntity
8
0
100
AcDbPolyline
90
4
70
1
43
0.0
10
700
20
-359
10
700
20
-356
10
750
20
-356
10
750
20
-359
0
CIRCLE
5
316
100
AcDbEntity
8
0
100
AcDbCircle
10
775
20
-357.50000196322793
30
0
40
1.4999999999999858
0
CIRCLE
5
317
100
AcDbEntity
8
0
100
AcDbCircle
10
657.50000196322787
20
-425.00000000000011
30
0
40
1.499999999999986
0
LWPOLYLINE
5
318
100
AcDbEntity
8
0
100
AcDbPolyline
90
4
70
1
43
0.0
10
658.99999999999989
20
-450.00000000000011
10
658.99999999999989
20
-475.00000000000011
10
656
20
-475.00000000000011
10
656
20
-450.00000000000011
0
LWPOLYLINE
5
319
100
AcDbEntity
8
0
100
AcDbPolyline
90
4
70
1
43
0.0
10
658.99999999999989
20
-400.00000000000011
10
656.00000785291184
20
-400.00000000000011
10
656.00000785291172
20
-374.99999590218079
10
658.99999999999977
20
-374.99999590218079
0
LWPOLYLINE
5
320
100
AcDbEntity
8
0
100
AcDbPolyline
90
54
70
1
43
0.0
10
776.49999999999989
20
-60.449983119964656
10
777.65000013113013
20
-60.449983119964656
10
777.65000013113013
20
-58.249983119964668
10
776.49999999999989
20
-58.249983119964668
10
776.49999999999989
20
-53.000000000000043
10
800
20
-53.000000000000043
10
800
20
-50.000000000000036
10
850
20
-50
10
850
20
-53.000000000000007
10
875
20
-53.000000000000007
10
885.49998681247246
20
-53
10
885.49998681247246
20
-49.499999999999986
10
888.99998681247234
20
-49.499999999999986
10
888.99998681247234
20
-53
10
897
20
-53.000000000000007
10
897
20
-297
10
886.50001318752754
20
-297
10
886.50001318752754
20
-300.5
10
883.00001318752766
20
-300.5
10
883.00001318752766
20
-297
10
875
20
-297
10
850
20
-296.99999999999994
10
850
20
-299.99999999999994
10
800
20
-299.99999999999994
10
800
20
-296.99999999999994
10
776.49999999999989
20
-296.99999999999994
10
776.49999999999989
20
-291.75001688003533
10
777.64999986886983
20
-291.75001688003533
10
777.64999986886983
20
-289.55001688003534
10
776.49999999999989
20
-289.55001688003534
10
776.49999999999989
20
-285.57001671791085
10
773.5
20
-285.57001671791085
10
773.5
20
-289.55001688003534
10
772.34999986886976
20
-289.55001688003534
10
772.34999986886976
20
-291.75001688003533
10
773.5
20
-291.75001688003533
10
773.5
20
-296.99999999999994
10
750
20
-296.99999999999994
10
750
20
-299.99999999999994
10
700
20
-299.99999999999994
10
700
20
-296.99999999999994
10
658.99999999999977
20
-296.99999999999994
10
658.99999999999955
20
-53.000000000000071
10
700
20
-53.000000000000043
10
700
20
-50.000000000000036
10
750
20
-50.000000000000036
10
750
20
-53.000000000000043
10
773.5
20
-53.000000000000043
10
773.5
20
-58.249983119964668
10
772.35000013113006
20
-58.249983119964668
10
772.35000013113006
20
-60.449983119964656
10
773.5
20
-60.449983119964656
10
773.5
20
-64.429983282089154
10
776.49999999999989
20
-64.429983282089154
0
LINE
5
321
100
AcDbEntity
8
0
100
AcDbLine
10
1076.5
20
-296.99999999999994
30
0
11
1076.5
21
-291.75001688003533
31
0
0
LINE
5
322
100
AcDbEntity
8
0
100
AcDbLine
10
1077.6499998688698
20
-291.75001688003533
30
0
11
1076.5
21
-291.75001688003533
31
0
0
LINE
5
323
100
AcDbEntity
8
0
100
AcDbLine
10
1076.5
20
-289.55001688003534
30
0
11
1076.5
21
-285.57001671791085
31
0
0
LINE
5
324
100
AcDbEntity
8
0
100
AcDbLine
10
1073.5
20
-291.75001688003533
30
0
11
1073.5
21
-296.99999999999994
31
0
0
LINE
5
325
100
AcDbEntity
8
0
100
AcDbLine
10
1072.3499998688699
20
-291.75001688003533
30
0
11
1072.3499998688699
21
-289.55001688003534
31
0
0
LINE
5
326
100
AcDbEntity
8
0
100
AcDbLine
10
1076.5
20
-285.57001671791085
30
0
11
1073.5
21
-285.57001671791085
31
0
0
LINE
5
327
100
AcDbEntity
8
0
100
AcDbLine
10
1073.5
20
-285.57001671791085
30
0
11
1073.5
21
-289.55001688003534
31
0
0
LINE
5
328
100
AcDbEntity
8
0
100
AcDbLine
10
1076.5
20
-289.55001688003534
30
0
11
1077.6499998688698
21
-289.55001688003534
31
0
0
LINE
5
329
100
AcDbEntity
8
0
100
AcDbLine
10
1073.5
20
-291.75001688003533
30
0
11
1072.3499998688699
21
-291.75001688003533
31
0
0
LINE
5
330
100
AcDbEntity
8
0
100
AcDbLine
10
1077.6499998688698
20
-289.55001688003534
30
0
11
1077.6499998688698
21
-291.75001688003533
31
0
0
LINE
5
331
100
AcDbEntity
8
0
100
AcDbLine
10
1073.5
20
-296.99999999999994
30
0
11
1050
21
-296.99999999999994
31
0
0
LINE
5
332
100
AcDbEntity
8
0
100
AcDbLine
10
1050
20
-299.99999999999994
30
0
11
1050
21
-296.99999999999994
31
0
0
LINE
5
333
100
AcDbEntity
8
0
100
AcDbLine
10
1125
20
-299.99999999999994
30
0
11
1100
21
-299.99999999999994
31
0
0
LINE
5
334
100
AcDbEntity
8
0
100
AcDbLine
10
1072.3499998688699
20
-289.55001688003534
30
0
11
1073.5
21
-289.55001688003534
31
0
0
LINE
5
335
100
AcDbEntity
8
0
100
AcDbLine
10
1100
20
-299.99999999999994
30
0
11
1100
21
-296.99999999999994
31
0
0
LINE
5
336
100
AcDbEntity
8
0
100
AcDbLine
10
1100
20
-296.99999999999994
30
0
11
1076.5
21
-296.99999999999994
31
0
0
LINE
5
337
100
AcDbEntity
8
0
100
AcDbLine
10
1000
20
-296.99999999999994
30
0
11
1025
21
-296.99999999999994
31
0
0
LINE
5
338
100
AcDbEntity
8
0
100
AcDbLine
10
1025
20
-296.99999999999994
30
0
11
1025
21
-299.99999999999994
31
0
0
LINE
5
339
100
AcDbEntity
8
0
100
AcDbLine
10
1050
20
-299.99999999999994
30
0
11
1025
21
-299.99999999999994
31
0
0
LINE
5
340
100
AcDbEntity
8
0
100
AcDbLine
10
1000
20
-296.99999999999994
30
0
11
1000
21
-53.000000000000043
31
0
0
LINE
5
341
100
AcDbEntity
8
0
100
AcDbLine
10
1150
20
-53.000000000000007
30
0
11
1150
21
-296.99999999999994
31
0
0
LINE
5
342
100
AcDbEntity
8
0
100
AcDbLine
10
1125
20
-299.99999999999994
30
0
11
1125
21
-296.99999999999994
31
0
0
LINE
5
343
100
AcDbEntity
8
0
100
AcDbLine
10
1125
20
-296.99999999999994
30
0
11
1150
21
-296.99999999999994
31
0
0
LINE
5
344
100
AcDbEntity
8
0
100
AcDbLine
10
1076.5
20
-58.249983119964561
30
0
11
1076.5
21
-52.999999999999936
31
0
0
LINE
5
345
100
AcDbEntity
8
0
100
AcDbLine
10
1076.5
20
-52.999999999999936
30
0
11
1100
21
-52.999999999999936
31
0
0
LINE
5
346
100
AcDbEntity
8
0
100
AcDbLine
10
1100
20
-49.999999999999929
30
0
11
1100
21
-52.999999999999936
31
0
0
LINE
5
347
100
AcDbEntity
8
0
100
AcDbLine
10
1025
20
-52.999999999999936
30
0
11
1000
21
-52.999999999999936
31
0
0
LINE
5
348
100
AcDbEntity
8
0
100
AcDbLine
10
1050
20
-49.999999999999929
30
0
11
1050
21
-52.999999999999936
31
0
0
LINE
5
349
100
AcDbEntity
8
0
100
AcDbLine
10
1073.5
20
-60.44998311996455
30
0
11
1073.5
21
-64.42998328208904
31
0
0
LINE
5
350
100
AcDbEntity
8
0
100
AcDbLine
10
1072.3500001311302
20
-58.249983119964561
30
0
11
1073.5
21
-58.249983119964561
31
0
0
LINE
5
351
100
AcDbEntity
8
0
100
AcDbLine
10
1050
20
-52.999999999999936
30
0
11
1073.5
21
-52.999999999999936
31
0
0
LINE
5
352
100
AcDbEntity
8
0
100
AcDbLine
10
1073.5
20
-60.44998311996455
30
0
11
1072.3500001311302
21
-60.44998311996455
31
0
0
LINE
5
353
100
AcDbEntity
8
0
100
AcDbLine
10
1076.5
20
-58.249983119964561
30
0
11
1077.6500001311301
21
-58.249983119964561
31
0
0
LINE
5
354
100
AcDbEntity
8
0
100
AcDbLine
10
1077.6500001311301
20
-58.249983119964561
30
0
11
1077.6500001311301
21
-60.44998311996455
31
0
0
LINE
5
355
100
AcDbEntity
8
0
100
AcDbLine
10
1125
20
-52.999999999999972
30
0
11
1125
21
-49.999999999999964
31
0
0
LINE
5
356
100
AcDbEntity
8
0
100
AcDbLine
10
1076.5
20
-64.42998328208904
30
0
11
1076.5
21
-60.44998311996455
31
0
0
LINE
5
357
100
AcDbEntity
8
0
100
AcDbLine
10
1100
20
-49.999999999999929
30
0
11
1125
21
-49.999999999999964
31
0
0
LINE
5
358
100
AcDbEntity
8
0
100
AcDbLine
10
1073.5
20
-64.42998328208904
30
0
11
1076.5
21
-64.42998328208904
31
0
0
LINE
5
359
100
AcDbEntity
8
0
100
AcDbLine
10
1072.3500001311302
20
-60.44998311996455
30
0
11
1072.3500001311302
21
-58.249983119964561
31
0
0
LINE
5
360
100
AcDbEntity
8
0
100
AcDbLine
10
1025
20
-49.999999999999929
30
0
11
1050
21
-49.999999999999929
31
0
0
LINE
5
361
100
AcDbEntity
8
0
100
AcDbLine
10
1073.5
20
-52.999999999999936
30
0
11
1073.5
21
-58.249983119964561
31
0
0
LINE
5
362
100
AcDbEntity
8
0
100
AcDbLine
10
1025
20
-49.999999999999929
30
0
11
1025
21
-52.999999999999936
31
0
0
LINE
5
363
100
AcDbEntity
8
0
100
AcDbLine
10
1077.6500001311301
20
-60.44998311996455
30
0
11
1076.5
21
-60.44998311996455
31
0
0
LINE
5
364
100
AcDbEntity
8
0
100
AcDbLine
10
1150
20
-53.000000000000007
30
0
11
1125
21
-52.999999999999972
31
0
0
LINE
5
365
100
AcDbEntity
8
0
100
AcDbLine
10
872.59999115268386
20
-365.00000543892384
30
0
11
872.59999115268386
21
-360.00000000000011
31
0
0
CIRCLE
5
366
100
AcDbEntity
8
0
100
AcDbCircle
10
885.00001318752766
20
-357.50000392645597
30
0
40
2.5
0
LINE
5
367
100
AcDbEntity
8
0
100
AcDbLine
10
300
20
-360
30
0
11
50
21
-360
31
0
0
LINE
5
368
100
AcDbEntity
8
0
100
AcDbLine
10
870
20
-350
30
0
11
870
21
-366.59836065573768
31
0
0
ARC
5
369
100
AcDbEntity
8
0
100
AcDbCircle
10
882.5999911526842
20
-360.00000000000034
30
0
40
10.000000000000355
100
AcDbArc
50
90.000000000001307
51
180
0
LINE
5
370
100
AcDbEntity
8
0
100
AcDbLine
10
882.59999115268397
20
-350
30
0
11
653
21
-350
31
0
0
LWPOLYLINE
5
371
100
AcDbEntity
8
0
100
AcDbPolyline
90
4
70
1
43
0.0
10
1006.0000078529118
20
-400.00000000000011
10
1006.0000078529117
20
-374.99999590218079
10
1008.9999999999998
20
-374.99999590218079
10
1008.9999999999999
20
-400.00000000000011
0
LWPOLYLINE
5
372
100
AcDbEntity
8
0
100
AcDbPolyline
90
4
70
1
43
0.0
10
1050
20
-359
10
1050
20
-356
10
1100
20
-356
10
1100
20
-359
0
LINE
5
373
100
AcDbEntity
8
0
100
AcDbLine
10
1232.599991152684
20
-350
30
0
11
1003
21
-350
31
0
0
LWPOLYLINE
5
374
100
AcDbEntity
8
0
100
AcDbPolyline
90
4
70
1
43
0.0
10
1150
20
-356.00000785291195
10
1200.0000081956387
20
-356.00000785291195
10
1200.0000081956387
20
-359
10
1150
20
-359
0
LINE
5
375
100
AcDbEntity
8
0
100
AcDbLine
10
1220
20
-350
30
0
11
1220
21
-366.59836065573768
31
0
0
LINE
5
376
100
AcDbEntity
8
0
100
AcDbLine
10
1222.5999911526837
20
-365.00000543892384
30
0
11
1222.5999911526837
21
-360.00000000000011
31
0
0
CIRCLE
5
377
100
AcDbEntity
8
0
100
AcDbCircle
10
1125
20
-357.50000196322793
30
0
40
1.4999999999999858
0
LINE
5
378
100
AcDbEntity
8
0
100
AcDbLine
10
1003
20
-500
30
0
11
1222.5999911526837
21
-365.00000543892384
31
0
0
CIRCLE
5
379
100
AcDbEntity
8
0
100
AcDbCircle
10
1235.0000131875277
20
-357.50000392645597
30
0
40
2.5
0
LINE
5
380
100
AcDbEntity
8
0
100
AcDbLine
10
1003
20
-600
30
0
11
1003
21
-350
31
0
0
LINE
5
381
100
AcDbEntity
8
0
100
AcDbLine
10
1232.599991152684
20
-350
30
0
11
1247
21
-350
31
0
0
LINE
5
382
100
AcDbEntity
8
0
100
AcDbLine
10
1247
20
-350
30
0
11
1247
21
-555
31
0
0
ARC
5
383
100
AcDbEntity
8
0
100
AcDbCircle
10
1232.5999911526842
20
-360.00000000000034
30
0
40
10.000000000000355
100
AcDbArc
50
90.000000000001307
51
180
0
LWPOLYLINE
5
384
100
AcDbEntity
8
0
100
AcDbPolyline
90
4
70
1
43
0.0
10
1006
20
-475.00000000000011
10
1006
20
-450.00000000000011
10
1008.9999999999999
20
-450.00000000000011
10
1008.9999999999999
20
-475.00000000000011
0
LWPOLYLINE
5
385
100
AcDbEntity
8
0
100
AcDbPolyline
90
4
70
1
43
0.0
10
1050
20
-527
10
1100
20
-527
10
1100
20
-530
10
1050
20
-530
0
LWPOLYLINE
5
386
100
AcDbEntity
8
0
100
AcDbPolyline
90
4
70
1
43
0.0
10
1200.0000081956387
20
-578
10
1150
20
-578
10
1150
20
-575.00000785291195
10
1200.0000081956387
20
-575.00000785291195
0
CIRCLE
5
387
100
AcDbEntity
8
0
100
AcDbCircle
10
1125
20
-576.50000196322799
30
0
40
1.4999999999999858
0
CIRCLE
5
388
100
AcDbEntity
8
0
100
AcDbCircle
10
1125
20
-528.50000196322799
30
0
40
1.4999999999999858
0
LWPOLYLINE
5
389
100
AcDbEntity
8
0
100
AcDbPolyline
90
4
70
1
43
0.0
10
1200.0000081956387
20
-527.00000785291195
10
1200.0000081956387
20
-530
10
1150
20
-530
10
1150
20
-527.00000785291195
0
LINE
5
390
100
AcDbEntity
8
0
100
AcDbLine
10
1247
20
-571
30
0
11
1247
21
-600
31
0
0
LWPOLYLINE
5
391
100
AcDbEntity
8
0
100
AcDbPolyline
90
4
70
1
43
0.0
10
1100
20
-578
10
1050
20
-578
10
1050
20
-575
10
1100
20
-575
0
CIRCLE
5
392
100
AcDbEntity
8
0
100
AcDbCircle
10
1007.5000019632279
20
-425.00000000000011
30
0
40
1.499999999999986
0
LINE
5
393
100
AcDbEntity
8
0
100
AcDbLine
10
1247
20
-600
30
0
11
1003
21
-600
31
0
0
CIRCLE
5
394
100
AcDbEntity
8
0
100
AcDbCircle
10
814.5
20
-456.25
30
0
40
1.4999999999999711
0
CIRCLE
5
395
100
AcDbEntity
8
0
100
AcDbCircle
10
814.5
20
-443.75
30
0
40
1.4999999999999711
0
CIRCLE
5
396
100
AcDbEntity
8
0
100
AcDbCircle
10
835.5
20
-456.25
30
0
40
1.4999999999999711
0
CIRCLE
5
397
100
AcDbEntity
8
0
100
AcDbCircle
10
835.5
20
-443.75
30
0
40
1.4999999999999711
0
LWPOLYLINE
5
398
100
AcDbEntity
8
0
100
AcDbPolyline
90
4
70
1
43
0.0
10
288.5
20
-135
10
291.5
20
-135
10
291.5
20
-115
10
288.5
20
-115
0
LINE
5
399
100
AcDbEntity
8
0
100
AcDbLine
10
1247
20
-555
30
0
11
1247
21
-571
31
0
0
LINE
5
400
100
AcDbEntity
8
0
100
AcDbLine
10
895
20
-53.000000000000007
30
0
11
895
21
-297
31
0
0
LINE
5
401
100
AcDbEntity
8
0
100
AcDbLine
10
897
20
-553
30
0
11
812
21
-553
31
0
0
LINE
5
402
100
AcDbEntity
8
0
100
AcDbLine
10
812
20
-553
30
0
11
812
21
-555
31
0
0
ENDSEC
0
SECTION
2
OBJECTS
0
DICTIONARY
5
C
100
AcDbDictionary
3
ACAD_GROUP
350
D
3
ACAD_MLINESTYLE
350
17
0
DICTIONARY
5
D
100
AcDbDictionary
0
DICTIONARY
5
1A
330
C
100
AcDbDictionary
0
DICTIONARY
5
17
100
AcDbDictionary
0
ENDSEC
0
EOF
