999
dxflib 2.0.4.8
  0
SECTION
  2
HEADER
  9
$ACADVER
  1
AC1015
  9
$HANDSEED
  5
FFFF
  9
$CLAYER
  8
Layer_1
  9
$CHAMFERA
 40
10.0
  9
$GRIDUNIT
 10
10.0
 20
10.0
  9
$EXTMIN
 10
0.0
 20
0.0
 30
0.0
  9
$CHAMFERB
 40
10.0
  9
$DIMASZ
 40
2.5
  9
$DIMGAP
 40
0.625
  9
$LIMMIN
 10
0.0
 20
0.0
  9
$TEXTSIZE
 40
20.0
  9
$EXTMAX
 10
405.0
 20
237.0
 30
0.0
  9
$DIMEXO
 40
0.625
  9
$INSUNITS
 70
4
  9
$ANGDIR
 70
0
  9
$LIMMAX
 10
420.0
 20
297.0
  9
$DIMTXT
 40
2.5
  9
$DIMSTYLE
  2
Standard
  9
$LTSCALE
 40
10.0
  9
$PLIMMAX
 10
210.0
 20
297.0
  9
$PLIMMIN
 10
0.0
 20
0.0
  9
$DIMEXE
 40
1.25
  9
$SNAPUNIT
 10
0.5
 20
0.5
 30
0.0
  9
$PLINEGEN
 70
0
  0
ENDSEC
  0
SECTION
  2
TABLES
  0
TABLE
  2
VPORT
  5
8
100
AcDbSymbolTable
 70
1
  0
VPORT
  5
30
100
AcDbSymbolTableRecord
100
AcDbViewportTableRecord
  2
*Active
 70
0
 10
0.0
 20
0.0
 11
1.0
 21
1.0
 12
286.3055555555554861
 22
148.5
 13
0.0
 23
0.0
 14
10.0
 24
10.0
 15
10.0
 25
10.0
 16
0.0
 26
0.0
 36
1.0
 17
0.0
 27
0.0
 37
0.0
 40
297.0
 41
1.92798353909465
 42
50.0
 43
0.0
 44
0.0
 50
0.0
 51
0.0
 71
0
 72
100
 73
1
 74
3
 75
1
 76
1
 77
0
 78
0
281
0
 65
1
110
0.0
120
0.0
130
0.0
111
1.0
121
0.0
131
0.0
112
0.0
122
1.0
132
0.0
 79
0
146
0.0
  0
ENDTAB
  0
TABLE
  2
LTYPE
  5
5
100
AcDbSymbolTable
 70
21
  0
LTYPE
  5
14
100
AcDbSymbolTableRecord
100
AcDbLinetypeTableRecord
  2
ByBlock
 70
0
  3

 72
65
 73
0
 40
0.0
  0
LTYPE
  5
15
100
AcDbSymbolTableRecord
100
AcDbLinetypeTableRecord
  2
ByLayer
 70
0
  3

 72
65
 73
0
 40
0.0
  0
LTYPE
  5
16
100
AcDbSymbolTableRecord
100
AcDbLinetypeTableRecord
  2
CONTINUOUS
 70
0
  3
Solid line
 72
65
 73
0
 40
0.0
  0
LTYPE
  5
31
100
AcDbSymbolTableRecord
100
AcDbLinetypeTableRecord
  2
DOT
 70
0
  3
Dot . . . . . . . . . . . . . . . . . . . . . .
 72
65
 73
2
 40
6.3499999999999996
 49
0.0
 74
0
 49
-6.3499999999999996
 74
0
  0
LTYPE
  5
32
100
AcDbSymbolTableRecord
100
AcDbLinetypeTableRecord
  2
DOT2
 70
0
  3
Dot (.5x) .....................................
 72
65
 73
2
 40
3.1749999999999998
 49
0.0
 74
0
 49
-3.1749999999999998
 74
0
  0
LTYPE
  5
33
100
AcDbSymbolTableRecord
100
AcDbLinetypeTableRecord
  2
DOTX2
 70
0
  3
Dot (2x) .  .  .  .  .  .  .  .  .  .  .  .  .
 72
65
 73
2
 40
12.6999999999999993
 49
0.0
 74
0
 49
-12.6999999999999993
 74
0
  0
LTYPE
  5
34
100
AcDbSymbolTableRecord
100
AcDbLinetypeTableRecord
  2
DASHED
 70
0
  3
Dashed __ __ __ __ __ __ __ __ __ __ __ __ __ _
 72
65
 73
2
 40
19.0500000000000007
 49
12.6999999999999993
 74
0
 49
-6.3499999999999996
 74
0
  0
LTYPE
  5
35
100
AcDbSymbolTableRecord
100
AcDbLinetypeTableRecord
  2
DASHED2
 70
0
  3
Dashed (.5x) _ _ _ _ _ _ _ _ _ _ _ _ _ _ _ _ _
 72
65
 73
2
 40
9.5250000000000004
 49
6.3499999999999996
 74
0
 49
-3.1749999999999998
 74
0
  0
LTYPE
  5
36
100
AcDbSymbolTableRecord
100
AcDbLinetypeTableRecord
  2
DASHEDX2
 70
0
  3
Dashed (2x) ____  ____  ____  ____  ____  ___
 72
65
 73
2
 40
38.1000000000000014
 49
25.3999999999999986
 74
0
 49
-12.6999999999999993
 74
0
  0
LTYPE
  5
37
100
AcDbSymbolTableRecord
100
AcDbLinetypeTableRecord
  2
DASHDOT
 70
0
  3
Dash dot __ . __ . __ . __ . __ . __ . __ . __
 72
65
 73
4
 40
25.3999999999999986
 49
12.6999999999999993
 74
0
 49
-6.3499999999999996
 74
0
 49
0.0
 74
0
 49
-6.3499999999999996
 74
0
  0
LTYPE
  5
38
100
AcDbSymbolTableRecord
100
AcDbLinetypeTableRecord
  2
DASHDOT2
 70
0
  3
Dash dot (.5x) _._._._._._._._._._._._._._._.
 72
65
 73
4
 40
12.6999999999999993
 49
6.3499999999999996
 74
0
 49
-3.1749999999999998
 74
0
 49
0.0
 74
0
 49
-3.1749999999999998
 74
0
  0
LTYPE
  5
39
100
AcDbSymbolTableRecord
100
AcDbLinetypeTableRecord
  2
DASHDOTX2
 70
0
  3
Dash dot (2x) ____  .  ____  .  ____  .  ___
 72
65
 73
4
 40
50.7999999999999972
 49
25.3999999999999986
 74
0
 49
-12.6999999999999993
 74
0
 49
0.0
 74
0
 49
-12.6999999999999993
 74
0
  0
LTYPE
  5
3A
100
AcDbSymbolTableRecord
100
AcDbLinetypeTableRecord
  2
DIVIDE
 70
0
  3
Divide ____ . . ____ . . ____ . . ____ . . ____
 72
65
 73
6
 40
31.75
 49
12.6999999999999993
 74
0
 49
-6.3499999999999996
 74
0
 49
0.0
 74
0
 49
-6.3499999999999996
 74
0
 49
0.0
 74
0
 49
-6.3499999999999996
 74
0
  0
LTYPE
  5
3B
100
AcDbSymbolTableRecord
100
AcDbLinetypeTableRecord
  2
DIVIDE2
 70
0
  3
Divide (.5x) __..__..__..__..__..__..__..__.._
 72
65
 73
6
 40
15.875
 49
6.3499999999999996
 74
0
 49
-3.1749999999999998
 74
0
 49
0.0
 74
0
 49
-3.1749999999999998
 74
0
 49
0.0
 74
0
 49
-3.1749999999999998
 74
0
  0
LTYPE
  5
3C
100
AcDbSymbolTableRecord
100
AcDbLinetypeTableRecord
  2
DIVIDEX2
 70
0
  3
Divide (2x) ________  .  .  ________  .  .  _
 72
65
 73
6
 40
63.5
 49
25.3999999999999986
 74
0
 49
-12.6999999999999993
 74
0
 49
0.0
 74
0
 49
-12.6999999999999993
 74
0
 49
0.0
 74
0
 49
-12.6999999999999993
 74
0
  0
LTYPE
  5
3D
100
AcDbSymbolTableRecord
100
AcDbLinetypeTableRecord
  2
CENTER
 70
0
  3
Center ____ _ ____ _ ____ _ ____ _ ____ _ ____
 72
65
 73
4
 40
50.7999999999999972
 49
31.75
 74
0
 49
-6.3499999999999996
 74
0
 49
6.3499999999999996
 74
0
 49
-6.3499999999999996
 74
0
  0
LTYPE
  5
3E
100
AcDbSymbolTableRecord
100
AcDbLinetypeTableRecord
  2
CENTER2
 70
0
  3
Center (.5x) ___ _ ___ _ ___ _ ___ _ ___ _ ___
 72
65
 73
4
 40
28.5749999999999993
 49
19.0500000000000007
 74
0
 49
-3.1749999999999998
 74
0
 49
3.1749999999999998
 74
0
 49
-3.1749999999999998
 74
0
  0
LTYPE
  5
3F
100
AcDbSymbolTableRecord
100
AcDbLinetypeTableRecord
  2
CENTERX2
 70
0
  3
Center (2x) ________  __  ________  __  _____
 72
65
 73
4
 40
101.5999999999999943
 49
63.5
 74
0
 49
-12.6999999999999993
 74
0
 49
12.6999999999999993
 74
0
 49
-12.6999999999999993
 74
0
  0
LTYPE
  5
40
100
AcDbSymbolTableRecord
100
AcDbLinetypeTableRecord
  2
BORDER
 70
0
  3
Border __ __ . __ __ . __ __ . __ __ . __ __ .
 72
65
 73
6
 40
44.4500000000000028
 49
12.6999999999999993
 74
0
 49
-6.3499999999999996
 74
0
 49
12.6999999999999993
 74
0
 49
-6.3499999999999996
 74
0
 49
0.0
 74
0
 49
-6.3499999999999996
 74
0
  0
LTYPE
  5
41
100
AcDbSymbolTableRecord
100
AcDbLinetypeTableRecord
  2
BORDER2
 70
0
  3
Border (.5x) __.__.__.__.__.__.__.__.__.__.__.
 72
65
 73
6
 40
22.2250000000000014
 49
6.3499999999999996
 74
0
 49
-3.1749999999999998
 74
0
 49
6.3499999999999996
 74
0
 49
-3.1749999999999998
 74
0
 49
0.0
 74
0
 49
-3.1749999999999998
 74
0
  0
LTYPE
  5
42
100
AcDbSymbolTableRecord
100
AcDbLinetypeTableRecord
  2
BORDERX2
 70
0
  3
Border (2x) ____  ____  .  ____  ____  .  ___
 72
65
 73
6
 40
88.9000000000000057
 49
25.3999999999999986
 74
0
 49
-12.6999999999999993
 74
0
 49
25.3999999999999986
 74
0
 49
-12.6999999999999993
 74
0
 49
0.0
 74
0
 49
-12.6999999999999993
 74
0
  0
ENDTAB
  0
TABLE
  2
LAYER
  5
2
100
AcDbSymbolTable
 70
4
  0
LAYER
  5
10
100
AcDbSymbolTableRecord
100
AcDbLayerTableRecord
  2
0
 70
0
 62
7
  6
CONTINUOUS
390
F
  0
LAYER
  5
43
100
AcDbSymbolTableRecord
100
AcDbLayerTableRecord
  2
Layer_1
 70
0
 62
7
  6
CONTINUOUS
390
F
  0
LAYER
  5
44
100
AcDbSymbolTableRecord
100
AcDbLayerTableRecord
  2
Layer_2
 70
0
 62
7
  6
CONTINUOUS
390
F
  0
LAYER
  5
45
100
AcDbSymbolTableRecord
100
AcDbLayerTableRecord
  2
Layer_3
 70
0
 62
7
  6
CONTINUOUS
390
F
  0
ENDTAB
  0
TABLE
  2
STYLE
  5
3
100
AcDbSymbolTable
 70
1
  0
STYLE
  5
11
100
AcDbSymbolTableRecord
100
AcDbTextStyleTableRecord
  2
Standard
 70
0
 40
0.0
 41
0.75
 50
0.0
 71
0
 42
2.5
  3
txt
  4

  0
ENDTAB
  0
TABLE
  2
VIEW
  5
6
100
AcDbSymbolTable
 70
0
  0
ENDTAB
  0
TABLE
  2
UCS
  5
7
100
AcDbSymbolTable
 70
0
  0
ENDTAB
  0
TABLE
  2
APPID
  5
9
100
AcDbSymbolTable
 70
1
  0
APPID
  5
12
100
AcDbSymbolTableRecord
100
AcDbRegAppTableRecord
  2
ACAD
 70
0
  0
ENDTAB
  0
TABLE
  2
DIMSTYLE
  5
A
100
AcDbSymbolTable
 70
1
100
AcDbDimStyleTable
 71
0
  0
DIMSTYLE
105
27
100
AcDbSymbolTableRecord
100
AcDbDimStyleTableRecord
  2
Standard
 41
2.5
 42
0.625
 43
3.75
 44
1.25
 70
0
 73
0
 74
0
 77
1
 78
8
140
2.5
141
2.5
143
0.03937007874016
147
0.625
171
3
172
1
271
2
272
2
274
3
278
44
283
0
284
8
340
11
  0
ENDTAB
  0
TABLE
  2
BLOCK_RECORD
  5
1
100
AcDbSymbolTable
 70
1
  0
BLOCK_RECORD
  5
1F
100
AcDbSymbolTableRecord
100
AcDbBlockTableRecord
  2
*Model_Space
340
22
  0
BLOCK_RECORD
  5
1B
100
AcDbSymbolTableRecord
100
AcDbBlockTableRecord
  2
*Paper_Space
340
1E
  0
BLOCK_RECORD
  5
23
100
AcDbSymbolTableRecord
100
AcDbBlockTableRecord
  2
*Paper_Space0
340
26
  0
ENDTAB
  0
ENDSEC
  0
SECTION
  2
BLOCKS
  0
BLOCK
  5
20
100
AcDbEntity
  8
0
100
AcDbBlockBegin
  2
*Model_Space
 70
0
 10
0.0
 20
0.0
 30
0.0
  3
*Model_Space
  1

  0
ENDBLK
  5
21
100
AcDbEntity
  8
0
100
AcDbBlockEnd
  0
BLOCK
  5
1C
100
AcDbEntity
 67
1
  8
0
100
AcDbBlockBegin
  2
*Paper_Space
 70
0
 10
0.0
 20
0.0
 30
0.0
  3
*Paper_Space
  1

  0
ENDBLK
  5
1D
100
AcDbEntity
 67
1
  8
0
100
AcDbBlockEnd
  0
BLOCK
  5
24
100
AcDbEntity
  8
0
100
AcDbBlockBegin
  2
*Paper_Space0
 70
0
 10
0.0
 20
0.0
 30
0.0
  3
*Paper_Space0
  1

  0
ENDBLK
  5
25
100
AcDbEntity
  8
0
100
AcDbBlockEnd
  0
ENDSEC
  0
SECTION
  2
ENTITIES
  0
CIRCLE
  5
46
100
AcDbEntity
100
AcDbCircle
  8
Layer_1
 62
1
370
-1
  6
CONTINUOUS
 10
255.0
 20
197.0
 30
0.0
 40
39.9999999999999858
  0
CIRCLE
  5
47
100
AcDbEntity
100
AcDbCircle
  8
Layer_1
 62
1
370
-1
  6
CONTINUOUS
 10
255.0
 20
232.0
 30
0.0
 40
1.5
  0
CIRCLE
  5
48
100
AcDbEntity
100
AcDbCircle
  8
Layer_1
 62
1
370
-1
  6
CONTINUOUS
 10
224.6891108680684397
 20
214.500000000907221
 30
0.0
 40
1.5000000000000202
  0
CIRCLE
  5
49
100
AcDbEntity
100
AcDbCircle
  8
Layer_1
 62
1
370
-1
  6
CONTINUOUS
 10
224.6891108664970602
 20
179.5000000018144704
 30
0.0
 40
1.5000000000000091
  0
CIRCLE
  5
4A
100
AcDbEntity
100
AcDbCircle
  8
Layer_1
 62
1
370
-1
  6
CONTINUOUS
 10
254.9999999968572411
 20
162.0
 30
0.0
 40
1.5
  0
CIRCLE
  5
4B
100
AcDbEntity
100
AcDbCircle
  8
Layer_1
 62
1
370
-1
  6
CONTINUOUS
 10
285.3108891303601808
 20
179.4999999963710593
 30
0.0
 40
1.5000000000000064
  0
CIRCLE
  5
4C
100
AcDbEntity
100
AcDbCircle
  8
Layer_1
 62
1
370
-1
  6
CONTINUOUS
 10
285.3108891350743193
 20
214.4999999954638099
 30
0.0
 40
1.4999999999999982
  0
CIRCLE
  5
4D
100
AcDbEntity
100
AcDbCircle
  8
Layer_1
 62
1
370
-1
  6
CONTINUOUS
 10
255.0
 20
197.0
 30
0.0
 40
2.9999999999999893
  0
CIRCLE
  5
4E
100
AcDbEntity
100
AcDbCircle
  8
Layer_1
 62
1
370
-1
  6
CONTINUOUS
 10
255.0
 20
209.0
 30
0.0
 40
1.5000000000000187
  0
CIRCLE
  5
4F
100
AcDbEntity
100
AcDbCircle
  8
Layer_1
 62
1
370
-1
  6
CONTINUOUS
 10
244.6076951542275424
 20
191.0000000006220944
 30
0.0
 40
1.5000000000000291
  0
CIRCLE
  5
50
100
AcDbEntity
100
AcDbCircle
  8
Layer_1
 62
1
370
-1
  6
CONTINUOUS
 10
265.3923048446949338
 20
190.9999999987557828
 30
0.0
 40
1.5000000000000491
  0
CIRCLE
  5
51
100
AcDbEntity
100
AcDbCircle
  8
Layer_1
 62
1
370
-1
  6
CONTINUOUS
 10
255.0
 20
220.0
 30
0.0
 40
7.9999999999999876
  0
CIRCLE
  5
52
100
AcDbEntity
100
AcDbCircle
  8
Layer_1
 62
1
370
-1
  6
CONTINUOUS
 10
235.0814157122695178
 20
185.500000001192376
 30
0.0
 40
7.9999999999999662
  0
CIRCLE
  5
53
100
AcDbEntity
100
AcDbCircle
  8
Layer_1
 62
1
370
-1
  6
CONTINUOUS
 10
274.9185842856652471
 20
185.499999997615248
 30
0.0
 40
7.9999999999999671
  0
LINE
  5
54
100
AcDbEntity
100
AcDbLine
  8
Layer_1
 62
1
370
-1
  6
CONTINUOUS
 10
252.0
 20
175.0
 30
0.0
 11
251.9999999986530952
 21
165.0
 31
0.0
  0
LINE
  5
55
100
AcDbEntity
100
AcDbLine
  8
Layer_1
 62
1
370
-1
  6
CONTINUOUS
 10
252.0
 20
165.0
 30
0.0
 11
248.0
 21
165.0
 31
0.0
  0
LINE
  5
56
100
AcDbEntity
100
AcDbLine
  8
Layer_1
 62
1
370
-1
  6
CONTINUOUS
 10
248.0
 20
165.0
 30
0.0
 11
248.0
 21
175.0
 31
0.0
  0
LINE
  5
57
100
AcDbEntity
100
AcDbLine
  8
Layer_1
 62
1
370
-1
  6
CONTINUOUS
 10
248.0
 20
175.0
 30
0.0
 11
252.0
 21
175.0
 31
0.0
  0
LINE
  5
58
100
AcDbEntity
100
AcDbLine
  8
Layer_1
 62
1
370
-1
  6
CONTINUOUS
 10
258.0
 20
175.0
 30
0.0
 11
258.0
 21
165.0
 31
0.0
  0
LINE
  5
59
100
AcDbEntity
100
AcDbLine
  8
Layer_1
 62
1
370
-1
  6
CONTINUOUS
 10
258.0
 20
165.0
 30
0.0
 11
262.0
 21
165.0
 31
0.0
  0
LINE
  5
5A
100
AcDbEntity
100
AcDbLine
  8
Layer_1
 62
1
370
-1
  6
CONTINUOUS
 10
262.0
 20
165.0
 30
0.0
 11
262.0
 21
175.0
 31
0.0
  0
LINE
  5
5B
100
AcDbEntity
100
AcDbLine
  8
Layer_1
 62
1
370
-1
  6
CONTINUOUS
 10
262.0
 20
175.0
 30
0.0
 11
258.0
 21
175.0
 31
0.0
  0
LINE
  5
5C
100
AcDbEntity
100
AcDbLine
  8
Layer_1
 62
1
370
-1
  6
CONTINUOUS
 10
275.5525588837605824
 20
205.401923787416365
 30
0.0
 11
284.2128129225777116
 21
210.4019237857314693
 31
0.0
  0
LINE
  5
5D
100
AcDbEntity
100
AcDbLine
  8
Layer_1
 62
1
370
-1
  6
CONTINUOUS
 10
284.2128129219042876
 20
210.4019237868979531
 30
0.0
 11
286.2128129216969228
 21
206.9378221716404482
 31
0.0
  0
LINE
  5
5E
100
AcDbEntity
100
AcDbLine
  8
Layer_1
 62
1
370
-1
  6
CONTINUOUS
 10
286.2128129216969228
 20
206.9378221716404482
 30
0.0
 11
277.5525588835532176
 21
201.9378221721588886
 31
0.0
  0
LINE
  5
5F
100
AcDbEntity
100
AcDbLine
  8
Layer_1
 62
1
370
-1
  6
CONTINUOUS
 10
277.5525588835532176
 20
201.9378221721588886
 30
0.0
 11
275.5525588837605824
 21
205.401923787416365
 31
0.0
  0
LINE
  5
60
100
AcDbEntity
100
AcDbLine
  8
Layer_1
 62
1
370
-1
  6
CONTINUOUS
 10
272.5525588840716296
 20
210.5980762103025938
 30
0.0
 11
281.2128129222153348
 21
215.5980762097841534
 31
0.0
  0
LINE
  5
61
100
AcDbEntity
100
AcDbLine
  8
Layer_1
 62
1
370
-1
  6
CONTINUOUS
 10
281.2128129222153348
 20
215.5980762097841534
 30
0.0
 11
279.2128129224226996
 21
219.0621778250416583
 31
0.0
  0
LINE
  5
62
100
AcDbEntity
100
AcDbLine
  8
Layer_1
 62
1
370
-1
  6
CONTINUOUS
 10
279.2128129224226996
 20
219.0621778250416583
 30
0.0
 11
270.5525588842789944
 21
214.0621778255600702
 31
0.0
  0
LINE
  5
63
100
AcDbEntity
100
AcDbLine
  8
Layer_1
 62
1
370
-1
  6
CONTINUOUS
 10
270.5525588842789944
 20
214.0621778255600702
 30
0.0
 11
272.5525588840716296
 21
210.5980762103025938
 31
0.0
  0
LINE
  5
64
100
AcDbEntity
100
AcDbLine
  8
Layer_1
 62
1
370
-1
  6
CONTINUOUS
 10
237.4474411183703637
 20
210.5980762134547888
 30
0.0
 11
228.7871870817980948
 21
215.5980762156580681
 31
0.0
  0
LINE
  5
65
100
AcDbEntity
100
AcDbLine
  8
Layer_1
 62
1
370
-1
  6
CONTINUOUS
 10
228.787187081124614
 20
215.5980762144916412
 30
0.0
 11
230.7871870815393436
 21
219.062177829389924
 31
0.0
  0
LINE
  5
66
100
AcDbEntity
100
AcDbLine
  8
Layer_1
 62
1
370
-1
  6
CONTINUOUS
 10
230.7871870815393436
 20
219.062177829389924
 30
0.0
 11
239.4474411187850933
 21
214.0621778283530716
 31
0.0
  0
LINE
  5
67
100
AcDbEntity
100
AcDbLine
  8
Layer_1
 62
1
370
-1
  6
CONTINUOUS
 10
239.4474411187850933
 20
214.0621778283530716
 30
0.0
 11
237.4474411183703637
 21
210.5980762134547888
 31
0.0
  0
LINE
  5
68
100
AcDbEntity
100
AcDbLine
  8
Layer_1
 62
1
370
-1
  6
CONTINUOUS
 10
234.4474411177482693
 20
205.4019237911073219
 30
0.0
 11
225.7871870805025196
 21
210.4019237921441743
 31
0.0
  0
LINE
  5
69
100
AcDbEntity
100
AcDbLine
  8
Layer_1
 62
1
370
-1
  6
CONTINUOUS
 10
225.7871870805025196
 20
210.4019237921441743
 30
0.0
 11
223.78718708008779
 21
206.937822177245863
 31
0.0
  0
LINE
  5
6A
100
AcDbEntity
100
AcDbLine
  8
Layer_1
 62
1
370
-1
  6
CONTINUOUS
 10
223.78718708008779
 20
206.937822177245863
 30
0.0
 11
232.4474411173335398
 21
201.9378221762090106
 31
0.0
  0
LINE
  5
6B
100
AcDbEntity
100
AcDbLine
  8
Layer_1
 62
1
370
-1
  6
CONTINUOUS
 10
232.4474411173335398
 20
201.9378221762090106
 30
0.0
 11
234.4474411177482693
 21
205.4019237911073219
 31
0.0
  0
CIRCLE
  5
6C
100
AcDbEntity
100
AcDbCircle
  8
Layer_1
 62
1
370
-1
  6
CONTINUOUS
 10
156.0
 20
196.0
 30
0.0
 40
39.9999999999999858
  0
CIRCLE
  5
6D
100
AcDbEntity
100
AcDbCircle
  8
Layer_1
 62
1
370
-1
  6
CONTINUOUS
 10
156.0
 20
231.0
 30
0.0
 40
1.5
  0
CIRCLE
  5
6E
100
AcDbEntity
100
AcDbCircle
  8
Layer_1
 62
1
370
-1
  6
CONTINUOUS
 10
125.6891108680684397
 20
213.500000000907221
 30
0.0
 40
1.5000000000000202
  0
CIRCLE
  5
6F
100
AcDbEntity
100
AcDbCircle
  8
Layer_1
 62
1
370
-1
  6
CONTINUOUS
 10
125.6891108664970602
 20
178.5000000018144704
 30
0.0
 40
1.5000000000000091
  0
CIRCLE
  5
70
100
AcDbEntity
100
AcDbCircle
  8
Layer_1
 62
1
370
-1
  6
CONTINUOUS
 10
155.9999999968572411
 20
161.0
 30
0.0
 40
1.5
  0
CIRCLE
  5
71
100
AcDbEntity
100
AcDbCircle
  8
Layer_1
 62
1
370
-1
  6
CONTINUOUS
 10
186.3108891303601808
 20
178.4999999963710593
 30
0.0
 40
1.5000000000000064
  0
CIRCLE
  5
72
100
AcDbEntity
100
AcDbCircle
  8
Layer_1
 62
1
370
-1
  6
CONTINUOUS
 10
186.3108891350743193
 20
213.4999999954638099
 30
0.0
 40
1.4999999999999982
  0
CIRCLE
  5
73
100
AcDbEntity
100
AcDbCircle
  8
Layer_1
 62
1
370
-1
  6
CONTINUOUS
 10
156.0
 20
196.0
 30
0.0
 40
2.9999999999999893
  0
CIRCLE
  5
74
100
AcDbEntity
100
AcDbCircle
  8
Layer_1
 62
1
370
-1
  6
CONTINUOUS
 10
156.0
 20
208.0
 30
0.0
 40
1.5000000000000187
  0
CIRCLE
  5
75
100
AcDbEntity
100
AcDbCircle
  8
Layer_1
 62
1
370
-1
  6
CONTINUOUS
 10
145.6076951542275424
 20
190.0000000006220944
 30
0.0
 40
1.5000000000000291
  0
CIRCLE
  5
76
100
AcDbEntity
100
AcDbCircle
  8
Layer_1
 62
1
370
-1
  6
CONTINUOUS
 10
166.3923048446949338
 20
189.9999999987557828
 30
0.0
 40
1.5000000000000491
  0
CIRCLE
  5
77
100
AcDbEntity
100
AcDbCircle
  8
Layer_1
 62
1
370
-1
  6
CONTINUOUS
 10
156.0
 20
219.0
 30
0.0
 40
7.9999999999999876
  0
CIRCLE
  5
78
100
AcDbEntity
100
AcDbCircle
  8
Layer_1
 62
1
370
-1
  6
CONTINUOUS
 10
136.0814157122695178
 20
184.500000001192376
 30
0.0
 40
7.9999999999999662
  0
CIRCLE
  5
79
100
AcDbEntity
100
AcDbCircle
  8
Layer_1
 62
1
370
-1
  6
CONTINUOUS
 10
175.9185842856652471
 20
184.499999997615248
 30
0.0
 40
7.9999999999999671
  0
LINE
  5
7A
100
AcDbEntity
100
AcDbLine
  8
Layer_1
 62
1
370
-1
  6
CONTINUOUS
 10
176.0
 20
199.0
 30
0.0
 11
184.0
 21
199.0
 31
0.0
  0
LINE
  5
7B
100
AcDbEntity
100
AcDbLine
  8
Layer_1
 62
1
370
-1
  6
CONTINUOUS
 10
184.0
 20
199.0
 30
0.0
 11
184.0
 21
205.0
 31
0.0
  0
LINE
  5
7C
100
AcDbEntity
100
AcDbLine
  8
Layer_1
 62
1
370
-1
  6
CONTINUOUS
 10
176.0
 20
205.0
 30
0.0
 11
184.0
 21
205.0
 31
0.0
  0
LINE
  5
7D
100
AcDbEntity
100
AcDbLine
  8
Layer_1
 62
1
370
-1
  6
CONTINUOUS
 10
176.0
 20
205.0
 30
0.0
 11
176.0
 21
199.0
 31
0.0
  0
LINE
  5
7E
100
AcDbEntity
100
AcDbLine
  8
Layer_1
 62
1
370
-1
  6
CONTINUOUS
 10
176.0
 20
216.0
 30
0.0
 11
184.0
 21
216.0
 31
0.0
  0
LINE
  5
7F
100
AcDbEntity
100
AcDbLine
  8
Layer_1
 62
1
370
-1
  6
CONTINUOUS
 10
184.0
 20
216.0
 30
0.0
 11
184.0
 21
222.0
 31
0.0
  0
LINE
  5
80
100
AcDbEntity
100
AcDbLine
  8
Layer_1
 62
1
370
-1
  6
CONTINUOUS
 10
184.0
 20
222.0
 30
0.0
 11
176.0
 21
222.0
 31
0.0
  0
LINE
  5
81
100
AcDbEntity
100
AcDbLine
  8
Layer_1
 62
1
370
-1
  6
CONTINUOUS
 10
176.0
 20
222.0
 30
0.0
 11
176.0
 21
216.0
 31
0.0
  0
LINE
  5
82
100
AcDbEntity
100
AcDbLine
  8
Layer_1
 62
1
370
-1
  6
CONTINUOUS
 10
128.0
 20
199.0
 30
0.0
 11
136.0
 21
199.0
 31
0.0
  0
LINE
  5
83
100
AcDbEntity
100
AcDbLine
  8
Layer_1
 62
1
370
-1
  6
CONTINUOUS
 10
136.0
 20
199.0
 30
0.0
 11
136.0
 21
205.0
 31
0.0
  0
LINE
  5
84
100
AcDbEntity
100
AcDbLine
  8
Layer_1
 62
1
370
-1
  6
CONTINUOUS
 10
128.0
 20
205.0
 30
0.0
 11
136.0
 21
205.0
 31
0.0
  0
LINE
  5
85
100
AcDbEntity
100
AcDbLine
  8
Layer_1
 62
1
370
-1
  6
CONTINUOUS
 10
128.0
 20
205.0
 30
0.0
 11
128.0
 21
199.0
 31
0.0
  0
LINE
  5
86
100
AcDbEntity
100
AcDbLine
  8
Layer_1
 62
1
370
-1
  6
CONTINUOUS
 10
128.0
 20
216.0
 30
0.0
 11
136.0
 21
216.0
 31
0.0
  0
LINE
  5
87
100
AcDbEntity
100
AcDbLine
  8
Layer_1
 62
1
370
-1
  6
CONTINUOUS
 10
136.0
 20
216.0
 30
0.0
 11
136.0
 21
222.0
 31
0.0
  0
LINE
  5
88
100
AcDbEntity
100
AcDbLine
  8
Layer_1
 62
1
370
-1
  6
CONTINUOUS
 10
136.0
 20
222.0
 30
0.0
 11
128.0
 21
222.0
 31
0.0
  0
LINE
  5
89
100
AcDbEntity
100
AcDbLine
  8
Layer_1
 62
1
370
-1
  6
CONTINUOUS
 10
128.0
 20
222.0
 30
0.0
 11
128.0
 21
216.0
 31
0.0
  0
POINT
  5
8A
100
AcDbEntity
100
AcDbPoint
  8
0
 62
1
370
-1
  6
CONTINUOUS
 10
352.0
 20
166.0
 30
0.0
  0
LINE
  5
8B
100
AcDbEntity
100
AcDbLine
  8
0
 62
1
370
-1
  6
CONTINUOUS
 10
365.0
 20
150.0
 30
0.0
 11
355.0
 21
150.0
 31
0.0
  0
ARC
  5
8C
100
AcDbEntity
  8
0
 62
1
370
-1
  6
CONTINUOUS
100
AcDbCircle
 10
360.0
 20
162.0
 30
0.0
 40
5.0
100
AcDbArc
 50
0.0
 51
180.0
  0
LINE
  5
8D
100
AcDbEntity
100
AcDbLine
  8
0
 62
1
370
-1
  6
CONTINUOUS
 10
365.0
 20
162.0
 30
0.0
 11
365.0
 21
150.0
 31
0.0
  0
LINE
  5
8E
100
AcDbEntity
100
AcDbLine
  8
0
 62
1
370
-1
  6
CONTINUOUS
 10
355.0
 20
150.0
 30
0.0
 11
355.0
 21
162.0
 31
0.0
  0
CIRCLE
  5
8F
100
AcDbEntity
100
AcDbCircle
  8
0
 62
1
370
-1
  6
CONTINUOUS
 10
360.0
 20
162.0
 30
0.0
 40
1.5
  0
POINT
  5
90
100
AcDbEntity
100
AcDbPoint
  8
0
 62
1
370
-1
  6
CONTINUOUS
 10
332.0
 20
166.0
 30
0.0
  0
LINE
  5
91
100
AcDbEntity
100
AcDbLine
  8
0
 62
1
370
-1
  6
CONTINUOUS
 10
345.0
 20
150.0
 30
0.0
 11
335.0
 21
150.0
 31
0.0
  0
ARC
  5
92
100
AcDbEntity
  8
0
 62
1
370
-1
  6
CONTINUOUS
100
AcDbCircle
 10
340.0
 20
162.0
 30
0.0
 40
5.0
100
AcDbArc
 50
0.0
 51
180.0
  0
LINE
  5
93
100
AcDbEntity
100
AcDbLine
  8
0
 62
1
370
-1
  6
CONTINUOUS
 10
345.0
 20
162.0
 30
0.0
 11
345.0
 21
150.0
 31
0.0
  0
LINE
  5
94
100
AcDbEntity
100
AcDbLine
  8
0
 62
1
370
-1
  6
CONTINUOUS
 10
335.0
 20
150.0
 30
0.0
 11
335.0
 21
162.0
 31
0.0
  0
CIRCLE
  5
95
100
AcDbEntity
100
AcDbCircle
  8
0
 62
1
370
-1
  6
CONTINUOUS
 10
340.0
 20
162.0
 30
0.0
 40
1.5
  0
POINT
  5
96
100
AcDbEntity
100
AcDbPoint
  8
0
 62
1
370
-1
  6
CONTINUOUS
 10
312.0
 20
166.0
 30
0.0
  0
LINE
  5
97
100
AcDbEntity
100
AcDbLine
  8
0
 62
1
370
-1
  6
CONTINUOUS
 10
325.0
 20
150.0
 30
0.0
 11
315.0
 21
150.0
 31
0.0
  0
ARC
  5
98
100
AcDbEntity
  8
0
 62
1
370
-1
  6
CONTINUOUS
100
AcDbCircle
 10
320.0
 20
162.0
 30
0.0
 40
5.0
100
AcDbArc
 50
0.0
 51
180.0
  0
LINE
  5
99
100
AcDbEntity
100
AcDbLine
  8
0
 62
1
370
-1
  6
CONTINUOUS
 10
325.0
 20
162.0
 30
0.0
 11
325.0
 21
150.0
 31
0.0
  0
LINE
  5
9A
100
AcDbEntity
100
AcDbLine
  8
0
 62
1
370
-1
  6
CONTINUOUS
 10
315.0
 20
150.0
 30
0.0
 11
315.0
 21
162.0
 31
0.0
  0
CIRCLE
  5
9B
100
AcDbEntity
100
AcDbCircle
  8
0
 62
1
370
-1
  6
CONTINUOUS
 10
320.0
 20
162.0
 30
0.0
 40
1.5
  0
POINT
  5
9C
100
AcDbEntity
100
AcDbPoint
  8
0
 62
1
370
-1
  6
CONTINUOUS
 10
292.0
 20
166.0
 30
0.0
  0
LINE
  5
9D
100
AcDbEntity
100
AcDbLine
  8
0
 62
1
370
-1
  6
CONTINUOUS
 10
305.0
 20
150.0
 30
0.0
 11
295.0
 21
150.0
 31
0.0
  0
ARC
  5
9E
100
AcDbEntity
  8
0
 62
1
370
-1
  6
CONTINUOUS
100
AcDbCircle
 10
300.0
 20
162.0
 30
0.0
 40
5.0
100
AcDbArc
 50
0.0
 51
180.0
  0
LINE
  5
9F
100
AcDbEntity
100
AcDbLine
  8
0
 62
1
370
-1
  6
CONTINUOUS
 10
305.0
 20
162.0
 30
0.0
 11
305.0
 21
150.0
 31
0.0
  0
LINE
  5
A0
100
AcDbEntity
100
AcDbLine
  8
0
 62
1
370
-1
  6
CONTINUOUS
 10
295.0
 20
150.0
 30
0.0
 11
295.0
 21
162.0
 31
0.0
  0
CIRCLE
  5
A1
100
AcDbEntity
100
AcDbCircle
  8
0
 62
1
370
-1
  6
CONTINUOUS
 10
300.0
 20
162.0
 30
0.0
 40
1.5
  0
POINT
  5
A2
100
AcDbEntity
100
AcDbPoint
  8
0
 62
1
370
-1
  6
CONTINUOUS
 10
372.0
 20
166.0
 30
0.0
  0
LINE
  5
A3
100
AcDbEntity
100
AcDbLine
  8
0
 62
1
370
-1
  6
CONTINUOUS
 10
385.0
 20
150.0
 30
0.0
 11
375.0
 21
150.0
 31
0.0
  0
ARC
  5
A4
100
AcDbEntity
  8
0
 62
1
370
-1
  6
CONTINUOUS
100
AcDbCircle
 10
380.0
 20
162.0
 30
0.0
 40
5.0
100
AcDbArc
 50
0.0
 51
180.0
  0
LINE
  5
A5
100
AcDbEntity
100
AcDbLine
  8
0
 62
1
370
-1
  6
CONTINUOUS
 10
385.0
 20
162.0
 30
0.0
 11
385.0
 21
150.0
 31
0.0
  0
LINE
  5
A6
100
AcDbEntity
100
AcDbLine
  8
0
 62
1
370
-1
  6
CONTINUOUS
 10
375.0
 20
150.0
 30
0.0
 11
375.0
 21
162.0
 31
0.0
  0
CIRCLE
  5
A7
100
AcDbEntity
100
AcDbCircle
  8
0
 62
1
370
-1
  6
CONTINUOUS
 10
380.0
 20
162.0
 30
0.0
 40
1.5
  0
POINT
  5
A8
100
AcDbEntity
100
AcDbPoint
  8
0
 62
1
370
-1
  6
CONTINUOUS
 10
392.0
 20
166.0
 30
0.0
  0
LINE
  5
A9
100
AcDbEntity
100
AcDbLine
  8
0
 62
1
370
-1
  6
CONTINUOUS
 10
405.0
 20
150.0
 30
0.0
 11
395.0
 21
150.0
 31
0.0
  0
ARC
  5
AA
100
AcDbEntity
  8
0
 62
1
370
-1
  6
CONTINUOUS
100
AcDbCircle
 10
400.0
 20
162.0
 30
0.0
 40
5.0
100
AcDbArc
 50
0.0
 51
180.0
  0
LINE
  5
AB
100
AcDbEntity
100
AcDbLine
  8
0
 62
1
370
-1
  6
CONTINUOUS
 10
405.0
 20
162.0
 30
0.0
 11
405.0
 21
150.0
 31
0.0
  0
LINE
  5
AC
100
AcDbEntity
100
AcDbLine
  8
0
 62
1
370
-1
  6
CONTINUOUS
 10
395.0
 20
150.0
 30
0.0
 11
395.0
 21
162.0
 31
0.0
  0
CIRCLE
  5
AD
100
AcDbEntity
100
AcDbCircle
  8
0
 62
1
370
-1
  6
CONTINUOUS
 10
400.0
 20
162.0
 30
0.0
 40
1.5
  0
POINT
  5
AE
100
AcDbEntity
100
AcDbPoint
  8
0
 62
1
370
-1
  6
CONTINUOUS
 10
165.0
 20
105.0
 30
0.0
  0
LINE
  5
AF
100
AcDbEntity
100
AcDbLine
  8
0
 62
1
370
-1
  6
CONTINUOUS
 10
165.0
 20
130.0
 30
0.0
 11
109.0
 21
130.0
 31
0.0
  0
CIRCLE
  5
B0
100
AcDbEntity
100
AcDbCircle
  8
0
 62
1
370
-1
  6
CONTINUOUS
 10
113.0
 20
121.0
 30
0.0
 40
2.0
  0
CIRCLE
  5
B1
100
AcDbEntity
100
AcDbCircle
  8
0
 62
1
370
-1
  6
CONTINUOUS
 10
113.0
 20
111.0
 30
0.0
 40
2.0
  0
CIRCLE
  5
B2
100
AcDbEntity
100
AcDbCircle
  8
0
 62
1
370
-1
  6
CONTINUOUS
 10
161.0
 20
121.0
 30
0.0
 40
2.0
  0
CIRCLE
  5
B3
100
AcDbEntity
100
AcDbCircle
  8
0
 62
1
370
-1
  6
CONTINUOUS
 10
161.0
 20
111.0
 30
0.0
 40
2.0
  0
LINE
  5
B4
100
AcDbEntity
100
AcDbLine
  8
0
 62
1
370
-1
  6
CONTINUOUS
 10
109.0
 20
93.0
 30
0.0
 11
117.0
 21
93.0
 31
0.0
  0
LINE
  5
B5
100
AcDbEntity
100
AcDbLine
  8
0
 62
1
370
-1
  6
CONTINUOUS
 10
109.0
 20
130.0
 30
0.0
 11
109.0
 21
93.0
 31
0.0
  0
LINE
  5
B6
100
AcDbEntity
100
AcDbLine
  8
0
 62
1
370
-1
  6
CONTINUOUS
 10
157.0
 20
93.0
 30
0.0
 11
165.0
 21
93.0
 31
0.0
  0
LINE
  5
B7
100
AcDbEntity
100
AcDbLine
  8
0
 62
1
370
-1
  6
CONTINUOUS
 10
165.0
 20
93.0
 30
0.0
 11
165.0
 21
130.0
 31
0.0
  0
CIRCLE
  5
B8
100
AcDbEntity
100
AcDbCircle
  8
0
 62
1
370
-1
  6
CONTINUOUS
 10
322.8855186721999644
 20
205.5035892116000014
 30
0.0
 40
1.5
  0
LINE
  5
B9
100
AcDbEntity
100
AcDbLine
  8
0
 62
1
370
-1
  6
CONTINUOUS
 10
302.8855186721999644
 20
205.5035892116000014
 30
0.0
 11
302.8855186721999644
 21
175.5035892116000014
 31
0.0
  0
ARC
  5
BA
100
AcDbEntity
  8
0
 62
1
370
-1
  6
CONTINUOUS
100
AcDbCircle
 10
322.8855186721999644
 20
205.5035892116000014
 30
0.0
 40
20.0000000000000568
100
AcDbArc
 50
0.0
 51
180.0
  0
LINE
  5
BB
100
AcDbEntity
100
AcDbLine
  8
0
 62
1
370
-1
  6
CONTINUOUS
 10
342.8855186722000212
 20
175.5035892116000014
 30
0.0
 11
342.8855186722000212
 21
205.5035892116000014
 31
0.0
  0
LINE
  5
BC
100
AcDbEntity
100
AcDbLine
  8
0
 62
1
370
-1
  6
CONTINUOUS
 10
302.8855186721999644
 20
175.5035892116000014
 30
0.0
 11
342.8855186722000212
 21
175.5035892116000014
 31
0.0
  0
LINE
  5
BD
100
AcDbEntity
100
AcDbLine
  8
0
 62
1
370
-1
  6
CONTINUOUS
 10
54.0144886255000074
 20
53.1532464237000113
 30
0.0
 11
56.8429157502000066
 21
55.9816735484000105
 31
0.0
  0
LINE
  5
BE
100
AcDbEntity
100
AcDbLine
  8
0
 62
1
370
-1
  6
CONTINUOUS
 10
56.8429157502000066
 20
55.9816735484000105
 30
0.0
 11
28.5586445028000071
 21
84.2659447958999976
 31
0.0
  0
LINE
  5
BF
100
AcDbEntity
100
AcDbLine
  8
0
 62
1
370
-1
  6
CONTINUOUS
 10
28.5586445028000071
 20
84.2659447958999976
 30
0.0
 11
25.7302173780000203
 21
81.4375176711000108
 31
0.0
  0
LINE
  5
C0
100
AcDbEntity
100
AcDbLine
  8
0
 62
1
370
-1
  6
CONTINUOUS
 10
25.7302173780000203
 20
81.4375176711000108
 30
0.0
 11
54.0144886255000074
 21
53.1532464237000113
 31
0.0
  0
LINE
  5
C1
100
AcDbEntity
100
AcDbLine
  8
0
 62
1
370
-1
  6
CONTINUOUS
 10
91.4911480284000049
 20
90.6299058265000212
 30
0.0
 11
94.3195751531000042
 21
93.4583329513000081
 31
0.0
  0
LINE
  5
C2
100
AcDbEntity
100
AcDbLine
  8
0
 62
1
370
-1
  6
CONTINUOUS
 10
94.3195751531000042
 20
93.4583329513000081
 30
0.0
 11
66.0353039056000171
 21
121.7426041987999952
 31
0.0
  0
LINE
  5
C3
100
AcDbEntity
100
AcDbLine
  8
0
 62
1
370
-1
  6
CONTINUOUS
 10
66.0353039056000171
 20
121.7426041987999952
 30
0.0
 11
63.2068767809000178
 21
118.9141770740000084
 31
0.0
  0
LINE
  5
C4
100
AcDbEntity
100
AcDbLine
  8
0
 62
1
370
-1
  6
CONTINUOUS
 10
63.2068767809000178
 20
118.9141770740000084
 30
0.0
 11
91.4911480284000049
 21
90.6299058265000212
 31
0.0
  0
CIRCLE
  5
C5
100
AcDbEntity
100
AcDbCircle
  8
Layer_1
 62
1
370
-1
  6
CONTINUOUS
 10
60.0
 20
87.5
 30
0.0
 40
39.9999999999999858
  0
CIRCLE
  5
C6
100
AcDbEntity
100
AcDbCircle
  8
Layer_1
 62
1
370
-1
  6
CONTINUOUS
 10
60.0
 20
122.5
 30
0.0
 40
1.5
  0
CIRCLE
  5
C7
100
AcDbEntity
100
AcDbCircle
  8
Layer_1
 62
1
370
-1
  6
CONTINUOUS
 10
29.6891108680684397
 20
105.000000000907221
 30
0.0
 40
1.5000000000000202
  0
CIRCLE
  5
C8
100
AcDbEntity
100
AcDbCircle
  8
Layer_1
 62
1
370
-1
  6
CONTINUOUS
 10
29.6891108664970602
 20
70.0000000018144419
 30
0.0
 40
1.5000000000000338
  0
CIRCLE
  5
C9
100
AcDbEntity
100
AcDbCircle
  8
Layer_1
 62
1
370
-1
  6
CONTINUOUS
 10
59.9999999968572411
 20
52.5
 30
0.0
 40
1.5
  0
CIRCLE
  5
CA
100
AcDbEntity
100
AcDbCircle
  8
Layer_1
 62
1
370
-1
  6
CONTINUOUS
 10
90.3108891303601808
 20
69.9999999963710593
 30
0.0
 40
1.5000000000000064
  0
CIRCLE
  5
CB
100
AcDbEntity
100
AcDbCircle
  8
Layer_1
 62
1
370
-1
  6
CONTINUOUS
 10
90.3108891350743193
 20
104.9999999954637815
 30
0.0
 40
1.4999999999999982
  0
CIRCLE
  5
CC
100
AcDbEntity
100
AcDbCircle
  8
Layer_1
 62
1
370
-1
  6
CONTINUOUS
 10
60.0
 20
87.5
 30
0.0
 40
2.9999999999999893
  0
CIRCLE
  5
CD
100
AcDbEntity
100
AcDbCircle
  8
Layer_1
 62
1
370
-1
  6
CONTINUOUS
 10
60.0
 20
99.5
 30
0.0
 40
1.5000000000000187
  0
CIRCLE
  5
CE
100
AcDbEntity
100
AcDbCircle
  8
Layer_1
 62
1
370
-1
  6
CONTINUOUS
 10
49.6076951542275424
 20
81.5000000006220944
 30
0.0
 40
1.5000000000000291
  0
CIRCLE
  5
CF
100
AcDbEntity
100
AcDbCircle
  8
Layer_1
 62
1
370
-1
  6
CONTINUOUS
 10
70.3923048446949338
 20
81.4999999987558112
 30
0.0
 40
1.5000000000000491
  0
CIRCLE
  5
D0
100
AcDbEntity
100
AcDbCircle
  8
0
 62
1
370
-1
  6
CONTINUOUS
 10
369.8855186721999644
 20
206.0035892116000014
 30
0.0
 40
1.5
  0
LINE
  5
D1
100
AcDbEntity
100
AcDbLine
  8
0
 62
1
370
-1
  6
CONTINUOUS
 10
349.8855186721999644
 20
206.0035892116000014
 30
0.0
 11
349.8855186721999644
 21
176.0035892116000014
 31
0.0
  0
ARC
  5
D2
100
AcDbEntity
  8
0
 62
1
370
-1
  6
CONTINUOUS
100
AcDbCircle
 10
369.8855186721999644
 20
206.0035892116000014
 30
0.0
 40
20.0000000000000568
100
AcDbArc
 50
0.0
 51
180.0
  0
LINE
  5
D3
100
AcDbEntity
100
AcDbLine
  8
0
 62
1
370
-1
  6
CONTINUOUS
 10
389.8855186722000212
 20
176.0035892116000014
 30
0.0
 11
389.8855186722000212
 21
206.0035892116000014
 31
0.0
  0
LINE
  5
D4
100
AcDbEntity
100
AcDbLine
  8
0
 62
1
370
-1
  6
CONTINUOUS
 10
349.8855186721999644
 20
176.0035892116000014
 30
0.0
 11
389.8855186722000212
 21
176.0035892116000014
 31
0.0
  0
LWPOLYLINE
  5
D5
  8
Layer_1
 62
7
370
-1
  6
CONTINUOUS
100
AcDbEntity
100
AcDbPolyline
 90
12
 70
1
 10
11.7786137616081987
 20
195.1175887581907773
 10
11.7786137616081987
 20
196.8269739934548284
 10
8.6812661558306559
 20
196.8269739934548284
 10
8.6812661558306559
 20
197.6305311553310844
 10
11.9393251939834499
 20
202.2570723903762087
 10
12.6552215745641661
 20
202.2570723903762087
 10
12.6552215745641661
 20
197.6305311553310844
 10
13.6194901688156733
 20
197.6305311553310844
 10
13.6194901688156733
 20
196.8269739934548284
 10
12.6552215745641661
 20
196.8269739934548284
 10
12.6552215745641661
 20
195.1175887581907773
 10
11.7786137616081987
 20
195.1175887581907773
  0
LWPOLYLINE
  5
D6
  8
Layer_1
 62
7
370
-1
  6
CONTINUOUS
100
AcDbEntity
100
AcDbPolyline
 90
4
 70
1
 10
11.7786137616081987
 20
197.6305311553310844
 10
11.7786137616081987
 20
200.8496298462414416
 10
9.5432638385706241
 20
197.6305311553310844
 10
11.7786137616081987
 20
197.6305311553310844
  0
LWPOLYLINE
  5
D7
  8
Layer_1
 62
7
370
-1
  6
CONTINUOUS
100
AcDbEntity
100
AcDbPolyline
 90
104
 70
1
 10
14.759080325658374
 20
195.1175887581907773
 10
14.759080325658374
 20
200.2895748546307004
 10
15.5431573139133548
 20
200.2895748546307004
 10
15.5431573139133548
 20
199.5639383872393751
 10
15.6749528635695903
 20
199.7445865598051284
 10
15.8268373422727251
 20
199.9066676918881456
 10
15.9988107500227592
 20
200.050181783488398
 10
16.1908730868196926
 20
200.1751288346058857
 10
16.3999805755352135
 20
200.2763344241224956
 10
16.62308943904101
 20
200.348624130920058
 10
16.8601996773370821
 20
200.391997954998601
 10
17.1113112904234299
 20
200.4064558963581248
 10
17.3857077985413895
 20
200.3915413884293457
 10
17.6342322010686416
 20
200.3467978646430652
 10
17.8568844980051864
 20
200.2722253249992264
 10
18.0536646893510238
 20
200.1678237694979146
 10
18.2239640196804835
 20
200.0366369752673847
 10
18.3671737335678955
 20
199.8817087194359488
 10
18.4832938310132597
 20
199.7030390020036066
 10
18.5723243120165762
 20
199.5006278229703867
 10
18.731513855827675
 20
199.7129312776706342
 10
18.9022697527263865
 20
199.8969276050775079
 10
19.0845920027127107
 20
200.0526168051910361
 10
19.2784806057866405
 20
200.1799988780111903
 10
19.4839355619481864
 20
200.2790738235379706
 10
19.700956871197338
 20
200.349841641771377
 10
19.9295445335341022
 20
200.3923023327114379
 10
20.169698548958479
 20
200.4064558963581248
 10
20.3565103702090724
 20
200.3997976338899321
 10
20.5322124049412977
 20
200.3798228464853253
 10
20.6968046531551551
 20
200.3465315341443329
 10
20.8502871148506514
 20
200.299923696866955
 10
20.9926597900277834
 20
200.2399993346531915
 10
21.1239226786865473
 20
200.1667584475030139
 10
21.2440757808269467
 20
200.0802010354164224
 10
21.3531190964489781
 20
199.9803270983934453
 10
21.4501394924141522
 20
199.8666039754366182
 10
21.5342238355839655
 20
199.7384990055484764
 10
21.605372125958425
 20
199.5960121887290484
 10
21.6635843635375309
 20
199.4391435249783058
 10
21.7088605483212795
 20
199.2678930142962486
 10
21.7412006803096673
 20
199.0822606566828767
 10
21.760604759502705
 20
198.8822464521382187
 10
21.7670727859003819
 20
198.6678504006622461
 10
21.7670727859003819
 20
195.1175887581907773
 10
20.8953350163498044
 20
195.1175887581907773
 10
20.8953350163498044
 20
198.3756477963436282
 10
20.8900084063752445
 20
198.6202152886040437
 10
20.8740285764515647
 20
198.8279530776118236
 10
20.8473955265787652
 20
198.9988611633669393
 10
20.8101092567568458
 20
199.1329395458694194
 10
20.7588216121446578
 20
199.2429720890581848
 10
20.6901844379010527
 20
199.3417426568721282
 10
20.6041977340260303
 20
199.4292512493113065
 10
20.5008615005195907
 20
199.5054978663756913
 10
20.3839804587921343
 20
199.5672865420805522
 10
20.2573593302540615
 20
199.6114213104411874
 10
20.1209981149053725
 20
199.6379021714575686
 10
19.9748968127460671
 20
199.6467291251296956
 10
19.8414271856692714
 20
199.6410600902281942
 10
19.7137407351362839
 20
199.6240529855237185
 10
19.5918374611471009
 20
199.5957078110162684
 10
19.475717363701726
 20
199.556024566705787
 10
19.3653804428001592
 20
199.5050032525923598
 10
19.2608266984424006
 20
199.4426438686759013
 10
19.1620561306284465
 20
199.3689464149564685
 10
19.0690687393583005
 20
199.2839108914340329
 10
18.9846039240474482
 20
199.1863958816854847
 10
18.9114010841113753
 20
199.0752599692877425
 10
18.8494602195500853
 20
198.9505031542407494
 10
18.7987813303635747
 20
198.8121254365445338
 10
18.7593644165518434
 20
198.6601268161991243
 10
18.7312094781148915
 20
198.4945072932044638
 10
18.7143165150527224
 20
198.315266867560581
 10
18.7086855273653327
 20
198.1224055392674472
 10
18.7086855273653327
 20
195.1175887581907773
 10
17.8320777144093654
 20
195.1175887581907773
 10
17.8320777144093654
 20
198.4779187078551104
 10
17.8186850950447635
 20
198.7518586494038288
 10
17.7785072369509507
 20
198.9892732654127485
 10
17.7115441401279341
 20
199.1901625558817841
 10
17.6680181271929726
 20
199.2769102040388987
 10
17.6177958045757066
 20
199.3545265208110493
 10
17.5599640391376468
 20
199.423011506198236
 10
17.4936096977402897
 20
199.4823651602004588
 10
17.4187327803836389
 20
199.5325874828177177
 10
17.3353332870676908
 20
199.5736784740500411
 10
17.243411217792449
 20
199.6056381338974006
 10
17.142966572557917
 20
199.6284664623597678
 10
16.9165095542109611
 20
199.6467291251296956
 10
16.7349482485067256
 20
199.6345540166164199
 10
16.5603876301976243
 20
199.5980286910765926
 10
16.3928276992836572
 20
199.5371531485102139
 10
16.2322684557648245
 20
199.4519273889172553
 10
16.08601496474909
 20
199.3432645454362273
 10
15.9613722913444249
 20
199.2120777512056975
 10
15.858340435550824
 20
199.0583670062255806
 10
15.7769193973682889
 20
198.8821323104959049
 10
15.715130721663412
 20
198.6739379549188698
 10
15.6709959533027856
 20
198.4243482303967028
 10
15.6445150922864098
 20
198.1333631369294039
 10
15.6356881386142845
 20
197.8009826745169448
 10
15.6356881386142845
 20
195.1175887581907773
 10
14.759080325658374
 20
195.1175887581907773
  0
LWPOLYLINE
  5
D8
  8
Layer_1
 62
7
370
-1
  6
CONTINUOUS
100
AcDbEntity
100
AcDbPolyline
 90
104
 70
1
 10
23.0673743751183338
 20
195.1175887581907773
 10
23.0673743751183338
 20
200.2895748546307004
 10
23.8514513633733714
 20
200.2895748546307004
 10
23.8514513633733714
 20
199.5639383872393751
 10
23.983246913029582
 20
199.7445865598051284
 10
24.1351313917327062
 20
199.9066676918881456
 10
24.3071047994827367
 20
200.050181783488398
 10
24.4991671362796808
 20
200.1751288346058857
 10
24.7082746249952123
 20
200.2763344241224956
 10
24.9313834885010053
 20
200.348624130920058
 10
25.1684937267970668
 20
200.391997954998601
 10
25.4196053398833897
 20
200.4064558963581248
 10
25.6940018480013492
 20
200.3915413884293457
 10
25.9425262505286014
 20
200.3467978646430652
 10
26.1651785474651462
 20
200.2722253249992264
 10
26.3619587388109835
 20
200.1678237694979146
 10
26.5322580691404468
 20
200.0366369752673847
 10
26.6754677830278695
 20
199.8817087194359488
 10
26.7915878804732515
 20
199.7030390020036066
 10
26.8806183614765928
 20
199.5006278229703867
 10
27.039807905287681
 20
199.7129312776706342
 10
27.2105638021863818
 20
199.8969276050775079
 10
27.3928860521726989
 20
200.0526168051910361
 10
27.5867746552466286
 20
200.1799988780111903
 10
27.7922296114081746
 20
200.2790738235379706
 10
28.0092509206573332
 20
200.349841641771377
 10
28.2378385829941081
 20
200.3923023327114379
 10
28.4779925984184956
 20
200.4064558963581248
 10
28.6648044196690854
 20
200.3997976338899321
 10
28.8405064544013108
 20
200.3798228464853253
 10
29.0050987026151716
 20
200.3465315341443329
 10
29.1585811643106609
 20
200.299923696866955
 10
29.3009538394877893
 20
200.2399993346531915
 10
29.4322167281465461
 20
200.1667584475030139
 10
29.5523698302869384
 20
200.0802010354164224
 10
29.6614131459089663
 20
199.9803270983934453
 10
29.7584335418741333
 20
199.8666039754366182
 10
29.842517885043943
 20
199.7384990055484764
 10
29.913666175418399
 20
199.5960121887290484
 10
29.9718784129974978
 20
199.4391435249783058
 10
30.0171545977812428
 20
199.2678930142962486
 10
30.0494947297696307
 20
199.0822606566828767
 10
30.0688988089626648
 20
198.8822464521382187
 10
30.0753668353603416
 20
198.6678504006622461
 10
30.0753668353603416
 20
195.1175887581907773
 10
29.2036290658097641
 20
195.1175887581907773
 10
29.2036290658097641
 20
198.3756477963436282
 10
29.1983024558352042
 20
198.6202152886040437
 10
29.1823226259115245
 20
198.8279530776118236
 10
29.1556895760387249
 20
198.9988611633669393
 10
29.1184033062168055
 20
199.1329395458694194
 10
29.0671156616046176
 20
199.2429720890581848
 10
28.9984784873610195
 20
199.3417426568721282
 10
28.9124917834860042
 20
199.4292512493113065
 10
28.8091555499795788
 20
199.5054978663756913
 10
28.6922745082521331
 20
199.5672865420805522
 10
28.565653379714071
 20
199.6114213104411874
 10
28.4292921643653855
 20
199.6379021714575686
 10
28.2831908622060837
 20
199.6467291251296956
 10
28.149721235129288
 20
199.6410600902281942
 10
28.0220347845962969
 20
199.6240529855237185
 10
27.9001315106071104
 20
199.5957078110162684
 10
27.7840114131617355
 20
199.556024566705787
 10
27.6736744922601616
 20
199.5050032525923598
 10
27.5691207479023994
 20
199.4426438686759013
 10
27.4703501800884418
 20
199.3689464149564685
 10
27.3773627888182887
 20
199.2839108914340329
 10
27.2928979735074293
 20
199.1863958816854847
 10
27.2196951335713528
 20
199.0752599692877425
 10
27.1577542690100557
 20
198.9505031542407494
 10
27.1070753798235415
 20
198.8121254365445338
 10
27.0676584660118067
 20
198.6601268161991243
 10
27.0395035275748548
 20
198.4945072932044638
 10
27.0226105645126822
 20
198.315266867560581
 10
27.0169795768252925
 20
198.1224055392674472
 10
27.0169795768252925
 20
195.1175887581907773
 10
26.140371763869382
 20
195.1175887581907773
 10
26.140371763869382
 20
198.4779187078551104
 10
26.1269791445047801
 20
198.7518586494038288
 10
26.0868012864109673
 20
198.9892732654127485
 10
26.0198381895879507
 20
199.1901625558817841
 10
25.9763121766529892
 20
199.2769102040388987
 10
25.9260898540357232
 20
199.3545265208110493
 10
25.8682580885976634
 20
199.423011506198236
 10
25.8019037472003063
 20
199.4823651602004588
 10
25.7270268298436555
 20
199.5325874828177177
 10
25.6436273365277074
 20
199.5736784740500411
 10
25.5517052672524656
 20
199.6056381338974006
 10
25.4512606220179336
 20
199.6284664623597678
 10
25.2248036036709777
 20
199.6467291251296956
 10
25.0432422979667422
 20
199.6345540166164199
 10
24.8686816796576338
 20
199.5980286910765926
 10
24.7011217487436596
 20
199.5371531485102139
 10
24.5405625052248126
 20
199.4519273889172553
 10
24.3943090142090675
 20
199.3432645454362273
 10
24.2696663408043918
 20
199.2120777512056975
 10
24.1666344850107855
 20
199.0583670062255806
 10
24.0852134468282486
 20
198.8821323104959049
 10
24.0234247711233735
 20
198.6739379549188698
 10
23.9792900027627454
 20
198.4243482303967028
 10
23.9528091417463713
 20
198.1333631369294039
 10
23.9439821880742443
 20
197.8009826745169448
 10
23.9439821880742443
 20
195.1175887581907773
 10
23.0673743751183338
 20
195.1175887581907773
  0
LWPOLYLINE
  5
D9
  8
Layer_1
 62
7
370
-1
  6
CONTINUOUS
100
AcDbEntity
100
AcDbPolyline
 90
104
 70
1
 10
34.1467231222001146
 20
195.1175887581907773
 10
34.1467231222001146
 20
200.2895748546307004
 10
34.9308001104550954
 20
200.2895748546307004
 10
34.9308001104550954
 20
199.5639383872393751
 10
35.0625956601113273
 20
199.7445865598051284
 10
35.2144801388144657
 20
199.9066676918881456
 10
35.3864535465644963
 20
200.050181783488398
 10
35.5785158833614332
 20
200.1751288346058857
 10
35.7876233720769505
 20
200.2763344241224956
 10
36.0107322355827364
 20
200.348624130920058
 10
36.2478424738787908
 20
200.391997954998601
 10
36.4989540869651137
 20
200.4064558963581248
 10
36.7733505950831017
 20
200.3915413884293457
 10
37.021874997610368
 20
200.3467978646430652
 10
37.244527294546927
 20
200.2722253249992264
 10
37.4413074858927644
 20
200.1678237694979146
 10
37.6116068162222206
 20
200.0366369752673847
 10
37.7548165301096361
 20
199.8817087194359488
 10
37.8709366275549968
 20
199.7030390020036066
 10
37.9599671085583168
 20
199.5006278229703867
 10
38.119156652369405
 20
199.7129312776706342
 10
38.2899125492681094
 20
199.8969276050775079
 10
38.4722347992544229
 20
200.0526168051910361
 10
38.6661234023283527
 20
200.1799988780111903
 10
38.8715783584898986
 20
200.2790738235379706
 10
39.0885996677390608
 20
200.349841641771377
 10
39.3171873300758321
 20
200.3923023327114379
 10
39.5573413455002196
 20
200.4064558963581248
 10
39.744153166750813
 20
200.3997976338899321
 10
39.9198552014830383
 20
200.3798228464853253
 10
40.0844474496968957
 20
200.3465315341443329
 10
40.2379299113923921
 20
200.299923696866955
 10
40.3803025865695204
 20
200.2399993346531915
 10
40.5115654752282808
 20
200.1667584475030139
 10
40.6317185773686802
 20
200.0802010354164224
 10
40.7407618929907187
 20
199.9803270983934453
 10
40.8377822889558928
 20
199.8666039754366182
 10
40.9218666321257132
 20
199.7384990055484764
 10
40.9930149225001657
 20
199.5960121887290484
 10
41.0512271600792715
 20
199.4391435249783058
 10
41.0965033448630166
 20
199.2678930142962486
 10
41.128843476851408
 20
199.0822606566828767
 10
41.1482475560444456
 20
198.8822464521382187
 10
41.1547155824421225
 20
198.6678504006622461
 10
41.1547155824421225
 20
195.1175887581907773
 10
40.282977812891545
 20
195.1175887581907773
 10
40.282977812891545
 20
198.3756477963436282
 10
40.2776512029169851
 20
198.6202152886040437
 10
40.2616713729933053
 20
198.8279530776118236
 10
40.2350383231205058
 20
198.9988611633669393
 10
40.1977520532985864
 20
199.1329395458694194
 10
40.1464644086863984
 20
199.2429720890581848
 10
40.0778272344427933
 20
199.3417426568721282
 10
39.9918405305677709
 20
199.4292512493113065
 10
39.8885042970613313
 20
199.5054978663756913
 10
39.7716232553338784
 20
199.5672865420805522
 10
39.6450021267958022
 20
199.6114213104411874
 10
39.5086409114471167
 20
199.6379021714575686
 10
39.3625396092878077
 20
199.6467291251296956
 10
39.2290699822110156
 20
199.6410600902281942
 10
39.1013835316780245
 20
199.6240529855237185
 10
38.9794802576888486
 20
199.5957078110162684
 10
38.8633601602434666
 20
199.556024566705787
 10
38.7530232393418999
 20
199.5050032525923598
 10
38.6484694949841412
 20
199.4426438686759013
 10
38.5496989271701835
 20
199.3689464149564685
 10
38.4567115359000411
 20
199.2839108914340329
 10
38.3722467205891888
 20
199.1863958816854847
 10
38.2990438806531159
 20
199.0752599692877425
 10
38.2371030160918295
 20
198.9505031542407494
 10
38.1864241269053153
 20
198.8121254365445338
 10
38.1470072130935804
 20
198.6601268161991243
 10
38.1188522746566321
 20
198.4945072932044638
 10
38.101959311594463
 20
198.315266867560581
 10
38.0963283239070734
 20
198.1224055392674472
 10
38.0963283239070734
 20
195.1175887581907773
 10
37.219720510951106
 20
195.1175887581907773
 10
37.219720510951106
 20
198.4779187078551104
 10
37.2063278915865041
 20
198.7518586494038288
 10
37.1661500334926913
 20
198.9892732654127485
 10
37.0991869366696676
 20
199.1901625558817841
 10
37.0556609237347061
 20
199.2769102040388987
 10
37.0054386011174472
 20
199.3545265208110493
 10
36.9476068356793874
 20
199.423011506198236
 10
36.8812524942820232
 20
199.4823651602004588
 10
36.806375576925376
 20
199.5325874828177177
 10
36.7229760836094314
 20
199.5736784740500411
 10
36.6310540143341967
 20
199.6056381338974006
 10
36.5306093690996576
 20
199.6284664623597678
 10
36.3041523507527018
 20
199.6467291251296956
 10
36.1225910450484662
 20
199.6345540166164199
 10
35.9480304267393649
 20
199.5980286910765926
 10
35.7804704958253978
 20
199.5371531485102139
 10
35.6199112523065651
 20
199.4519273889172553
 10
35.4736577612908306
 20
199.3432645454362273
 10
35.3490150878861584
 20
199.2120777512056975
 10
35.2459832320925486
 20
199.0583670062255806
 10
35.164562193910001
 20
198.8821323104959049
 10
35.1027735182051117
 20
198.6739379549188698
 10
35.0586387498444765
 20
198.4243482303967028
 10
35.0321578888280953
 20
198.1333631369294039
 10
35.0233309351559683
 20
197.8009826745169448
 10
35.0233309351559683
 20
195.1175887581907773
 10
34.1467231222001146
 20
195.1175887581907773
  0
LWPOLYLINE
  5
DA
  8
Layer_1
 62
7
370
-1
  6
CONTINUOUS
100
AcDbEntity
100
AcDbPolyline
 90
108
 70
1
 10
45.8299572515403497
 20
195.7555644442864491
 10
45.5887379141210687
 20
195.563806485202349
 10
45.3520842423942696
 20
195.4024862974014241
 10
45.1199962363599383
 20
195.2716038808837027
 10
44.8924738960180889
 20
195.1711592356491849
 10
44.6631252893992396
 20
195.0965866960053745
 10
44.4255584845339229
 20
195.0433205962597754
 10
44.1797734814221386
 20
195.0113609364124159
 10
43.9257702800638867
 20
195.000707716463296
 10
43.7188695297663941
 20
195.0072137900750704
 10
43.5242960768385956
 20
195.0267320109104219
 10
43.3420499212804842
 20
195.0592623789693221
 10
43.1721310630920669
 20
195.1048048942517994
 10
43.0145395022733439
 20
195.1633595567578254
 10
42.869275238824315
 20
195.234926366487457
 10
42.7363382727449732
 20
195.3195053234406373
 10
42.6157286040353256
 20
195.4170964276173663
 10
42.5084354602620778
 20
195.5248080907457506
 10
42.4154480689919211
 20
195.6397487245538969
 10
42.3367664302248699
 20
195.761918329041805
 10
42.272390543960924
 20
195.8913169042095035
 10
42.2223204102000764
 20
196.027944450056907
 10
42.18655602894232
 20
196.1718009665841009
 10
42.1650974001876762
 20
196.3228864537910567
 10
42.1579445239361235
 20
196.4812009116777745
 10
42.1687499327416546
 20
196.6670235053616693
 10
42.2011661591582552
 20
196.8446279007990825
 10
42.2551932031859252
 20
197.0140140979900139
 10
42.3308310648246504
 20
197.1751820969345204
 10
42.4239706449512113
 20
197.3244793650785596
 10
42.5305028444423883
 20
197.4582533698682028
 10
42.6504276632981671
 20
197.5765041113033931
 10
42.7837451015185479
 20
197.6792315893841874
 10
42.9281723262572967
 20
197.7684142592439684
 10
43.0814265046681726
 20
197.8460305760160907
 10
43.2435076367511755
 20
197.9120805397006109
 10
43.4144157225063054
 20
197.9665641502975291
 10
43.7382736089594459
 20
198.0335272471205315
 10
44.1936226673559531
 20
198.0980553222408957
 10
44.6894539615591384
 20
198.1644096636382528
 10
45.1152783818109953
 20
198.236851559292262
 10
45.4710959281115095
 20
198.3153810092028948
 10
45.7569066004606952
 20
198.3999980133701797
 10
45.7617766438660283
 20
198.6288900534197523
 10
45.7462533805115967
 20
198.8769578893777634
 10
45.6996835904483021
 20
199.0854566226676354
 10
45.6647562479008258
 20
199.1748675758120157
 10
45.6220672736761443
 20
199.2543862532893399
 10
45.5716166677742436
 20
199.3240126550996365
 10
45.5134044301951235
 20
199.3837467812429054
 10
45.4242978547635943
 20
199.453373183053202
 10
45.3249946259521863
 20
199.5137160646221446
 10
45.2154947437609138
 20
199.5647754259496764
 10
45.0957982081897626
 20
199.6065512670358544
 10
44.9659050192387468
 20
199.6390435878806784
 10
44.8258151769078523
 20
199.6622523884840916
 10
44.5150455321064555
 20
199.6808194289668563
 10
44.2260388937725537
 20
199.6672746207458431
 10
43.9775144912452944
 20
199.626640196082775
 10
43.7694723245246848
 20
199.5589161549776804
 10
43.6806320795918737
 20
199.514895528259359
 10
43.6019123936107178
 20
199.464102497430531
 10
43.5306499615939444
 20
199.4047107962142036
 10
43.4641814785542806
 20
199.334894158333384
 10
43.3456263594062463
 20
199.1639860725782682
 10
43.246247036166622
 20
198.9513782401651838
 10
43.1660435088354006
 20
198.6970706610941306
 10
42.3089158695007654
 20
198.813951702821555
 10
42.3767920994622713
 20
199.0758687247134446
 10
42.4635397476193575
 20
199.3113048855889247
 10
42.5691588139720238
 20
199.5202601854480235
 10
42.6936492985202847
 20
199.7027346242907697
 10
42.842490000095097
 20
199.8622285458147019
 10
43.0211597175274321
 20
200.0022422937173587
 10
43.229658450817297
 20
200.1227758679988256
 10
43.4679861999646846
 20
200.2238292686589887
 10
43.7312729215642904
 20
200.3037284182773305
 10
44.0146485722108025
 20
200.3607992394333337
 10
44.3181131519042211
 20
200.3950417321269128
 10
44.641666660644546
 20
200.4064558963581248
 10
44.9573063488512332
 20
200.3967158095475156
 10
45.2418995103490715
 20
200.3674955491156311
 10
45.495446145138061
 20
200.3187951150625565
 10
45.7179462532182015
 20
200.2506145073882067
 10
45.9112261008664788
 20
200.1676715806415245
 10
46.0771119543598786
 20
200.0746841893713963
 10
46.2156038136984009
 20
199.9716523335777936
 10
46.3267016788820456
 20
199.8585760132607163
 10
46.4167974818802875
 20
199.7327158290046896
 10
46.4922831546626014
 20
199.5913323813942952
 10
46.5531586972289873
 20
199.4344256704294196
 10
46.599424109579445
 20
199.2619956961101479
 10
46.6185999054878693
 20
199.127460747038441
 10
46.6322969025653151
 20
198.9478778964676167
 10
46.6432545002272718
 20
198.4535684908285589
 10
46.6432545002272718
 20
197.2847580735540305
 10
46.6572558750175332
 20
196.2870079308910078
 10
46.6747575935053618
 20
195.95660592361196
 10
46.6992599993883175
 20
195.7385192923678972
 10
46.7341112475075562
 20
195.5782644265619012
 10
46.7826594927042478
 20
195.4213577155970256
 10
46.8449047349783783
 20
195.2677991594733271
 10
46.9208469743299474
 20
195.1175887581907773
 10
46.0052788141315432
 20
195.1175887581907773
 10
45.9431857607138312
 20
195.2597331500832638
 10
45.893267815809395
 20
195.4134438950633808
 10
45.8555249794182345
 20
195.5787209931310997
 10
45.8299572515403497
 20
195.7555644442864491
  0
LWPOLYLINE
  5
DB
  8
Layer_1
 62
7
370
-1
  6
CONTINUOUS
100
AcDbEntity
100
AcDbPolyline
 90
38
 70
1
 10
45.7569066004606952
 20
197.7133218932213481
 10
45.4884454577429551
 20
197.6195735576691277
 10
45.1603262833101553
 20
197.5331302872248784
 10
44.7725490771622958
 20
197.4539920818885719
 10
44.3251138392993767
 20
197.3821589416602365
 10
43.8636772266462032
 20
197.2993682037699443
 10
43.6923125743218321
 20
197.2543203022708269
 10
43.5605170246656144
 20
197.206837379069043
 10
43.4548979583129338
 20
197.1525059573285432
 10
43.3620627558991956
 20
197.0869125602132783
 10
43.2820114174243997
 20
197.0100571877232198
 10
43.214743942888532
 20
196.9219398398583678
 10
43.1614778431429329
 20
196.8256042937470625
 10
43.1234306290389426
 20
196.7240943265176156
 10
43.1006023005765471
 20
196.6174099381700557
 10
43.0929928577557462
 20
196.5055511287043259
 10
43.1095814431050854
 20
196.3375346312211036
 10
43.1593471991531104
 20
196.1841282639538235
 10
43.2422901258998138
 20
196.0453320269024573
 10
43.3584102233452029
 20
195.9211459200670333
 10
43.4286073333670686
 20
195.8663579317573067
 10
43.5064899806379373
 20
195.8188750085555228
 10
43.685311886926705
 20
195.7458243574758399
 10
43.8948759422114918
 20
195.7019939668280699
 10
44.1351821464922978
 20
195.6873838366121277
 10
44.3814237161732876
 20
195.7012330225459777
 10
44.6136639110640232
 20
195.742780580347528
 10
44.8319027311644902
 20
195.8120265100167785
 10
45.0361401764747029
 20
195.9089708115537576
 10
45.2202886927380092
 20
196.0299609524044513
 10
45.3782607256977855
 20
196.1713444000148741
 10
45.5100562753540174
 20
196.3331211543850259
 10
45.6156753417067193
 20
196.5152912155149352
 10
45.6774640174115802
 20
196.6814814467211647
 10
45.7215987857722013
 20
196.8829794926159025
 10
45.7480796467885682
 20
197.11978535319912
 10
45.7569066004606952
 20
197.3918990284708457
 10
45.7569066004606952
 20
197.7133218932213481
  0
LWPOLYLINE
  5
DC
  8
Layer_1
 62
7
370
-1
  6
CONTINUOUS
100
AcDbEntity
100
AcDbPolyline
 90
37
 70
1
 10
49.9159236685960082
 20
195.901665746445758
 10
50.0425447971340418
 20
195.1273288450013865
 10
49.6919016719516833
 20
195.0688883241376459
 10
49.3802188940118185
 20
195.049408150516399
 10
49.1549793865162101
 20
195.0588438596141714
 10
48.9565251177498126
 20
195.0871509869075453
 10
48.784856087712626
 20
195.1343295323965208
 10
48.6399722964046362
 20
195.200379496081041
 10
48.5182212112718787
 20
195.2818005342635672
 10
48.4159502997603468
 20
195.3750923032465607
 10
48.3331595618700547
 20
195.4802548030299931
 10
48.2698489976010023
 20
195.5972880336138644
 10
48.2229748298248708
 20
195.7541947445787116
 10
48.1894932814133483
 20
195.9789776855050718
 10
48.1694043523664348
 20
196.271636856392945
 10
48.1627080426841303
 20
196.6321722572423596
 10
48.1627080426841303
 20
199.6077687778872018
 10
47.5198623131831255
 20
199.6077687778872018
 10
47.5198623131831255
 20
200.2895748546307004
 10
48.1627080426841303
 20
200.2895748546307004
 10
48.1627080426841303
 20
201.570396270227377
 10
49.0344458122347646
 20
202.0963609580009575
 10
49.0344458122347646
 20
200.2895748546307004
 10
49.9159236685960082
 20
200.2895748546307004
 10
49.9159236685960082
 20
199.6077687778872018
 10
49.0344458122347646
 20
199.6077687778872018
 10
49.0344458122347646
 20
196.5834718231892566
 10
49.0460121653223737
 20
196.2754415778033774
 10
49.0604701066818905
 20
196.1716487777277109
 10
49.0807112245852011
 20
196.1013375260635314
 10
49.1415867671515727
 20
196.0051541688086445
 10
49.2316825701498146
 20
195.9308860068776426
 10
49.2896665244443
 20
195.9031876350099424
 10
49.3589124541135646
 20
195.8834030836758586
 10
49.5311902395764605
 20
195.8675754426085973
 10
49.7004242479110019
 20
195.8760980185678875
 10
49.9159236685960082
 20
195.901665746445758
  0
LWPOLYLINE
  5
DD
  8
Layer_1
 62
7
370
-1
  6
CONTINUOUS
100
AcDbEntity
100
AcDbPolyline
 90
92
 70
1
 10
54.3135728635915029
 20
196.7831436028070016
 10
55.2194009369793548
 20
196.6711326044848533
 10
55.1601233774053199
 20
196.478233228977615
 10
55.0894316536000943
 20
196.2964436399887802
 10
55.007325765563678
 20
196.1257638375182921
 10
54.9138057132960569
 20
195.9661938215661507
 10
54.8088714967972521
 20
195.8177335921323845
 10
54.6925231160672425
 20
195.680383149216965
 10
54.5647605711060422
 20
195.5541424928199206
 10
54.4255838619136512
 20
195.4390116229412513
 10
54.2756778383439382
 20
195.3362841448604854
 10
54.115727350250765
 20
195.2472536638571512
 10
53.9457323976341456
 20
195.1719201799312486
 10
53.765692980494066
 20
195.1102836930827777
 10
53.5756090988305402
 20
195.0623442033117385
 10
53.3754807526435542
 20
195.0281017106181594
 10
53.165307941933122
 20
195.0075562150020119
 10
52.9450906666992296
 20
195.000707716463296
 10
52.6687537506619563
 20
195.0116272669111481
 10
52.4071030592688203
 20
195.044385918254676
 10
52.1601385925198286
 20
195.098983670493908
 10
51.9278603504149743
 20
195.1754205236288158
 10
51.7102683329542572
 20
195.2736964776594277
 10
51.5073625401376773
 20
195.3938115325857154
 10
51.3191429719652419
 20
195.5357656884077073
 10
51.1456096284369437
 20
195.699558945125375
 10
50.9898062866811017
 20
195.8830606587489171
 10
50.854776723826042
 20
196.0841401852885042
 10
50.7405209398717574
 20
196.3027975247441361
 10
50.647038934818255
 20
196.5390326771158129
 10
50.5743307086655278
 20
196.7928456424035346
 10
50.5223962614135829
 20
197.0642364206072727
 10
50.491235593062413
 20
197.3532050117270558
 10
50.4808487036120255
 20
197.6597514157629121
 10
50.4913497347047269
 20
197.9769129925337836
 10
50.5228528279828311
 20
198.2758119065347273
 10
50.575357983446338
 20
198.5564481577657716
 10
50.6488652010952407
 20
198.8188217462268881
 10
50.7433744809295462
 20
199.0629326719180767
 10
50.8588858229492615
 20
199.2887809348393375
 10
50.9953992271543726
 20
199.4963665349906989
 10
51.1529146935448864
 20
199.6856894723721609
 10
51.3271709341411579
 20
199.8546191029938655
 10
51.5139066609635421
 20
200.0010247828660113
 10
51.7131218740120318
 20
200.1249065119885699
 10
51.9248165732866269
 20
200.2262642903616268
 10
52.1489907587873347
 20
200.3050981179850965
 10
52.3856444305141551
 20
200.3614079948590074
 10
52.6347775884670881
 20
200.3951939209833313
 10
52.8963902326461266
 20
200.4064558963581248
 10
53.1497846785786976
 20
200.3954222042679589
 10
53.3913083937108155
 20
200.3623211279974896
 10
53.6209613780424945
 20
200.3071526675467169
 10
53.8387436315737347
 20
200.2299168229156123
 10
54.0446551543045288
 20
200.1306135941042044
 10
54.2386959462348699
 20
200.009242981112493
 10
54.4208660073647792
 20
199.8658049839404498
 10
54.5911653376942354
 20
199.7002996025881032
 10
54.7452565548153984
 20
199.5147813866170736
 10
54.8788022763203998
 20
199.3113048855889247
 10
54.9918025022092536
 20
199.0898700995037132
 10
55.0842572324819457
 20
198.8504770283614107
 10
55.1561664671384904
 20
198.5931256721620173
 10
55.2075302061788733
 20
198.3178160309055329
 10
55.2383484496031087
 20
198.024548104591986
 10
55.2486211974111825
 20
197.7133218932213481
 10
55.2437511540058495
 20
197.4795598097664424
 10
51.3866767769998205
 20
197.4795598097664424
 10
51.4048633453415249
 20
197.2727351538971448
 10
51.4350728333400937
 20
197.0783899842539881
 10
51.4773052409955199
 20
196.8965243008369157
 10
51.5315605683078104
 20
196.7271381036459559
 10
51.5978388152769583
 20
196.5702313926811087
 10
51.6761399819029705
 20
196.4258041679423457
 10
51.7664640681858401
 20
196.2938564294296953
 10
51.8688110741255741
 20
196.1743881771431859
 10
51.9805176947348855
 20
196.0682364497930621
 10
52.0989206250265013
 20
195.9762382860895968
 10
52.2240198650004146
 20
195.8983936860328186
 10
52.3558154146566324
 20
195.8347026496227556
 10
52.4943072739951475
 20
195.7851651768593797
 10
52.6394954430159672
 20
195.7497812677426623
 10
52.7913799217190842
 20
195.7285509222726319
 10
52.9499607101045058
 20
195.7214741404492884
 10
53.182200904995284
 20
195.7373017815165497
 10
53.3967871925418009
 20
195.7847847047183336
 10
53.5937195727440638
 20
195.8639229100546402
 10
53.7729980456020655
 20
195.9747163975254409
 10
53.9346226111158131
 20
196.1202089442590761
 10
54.0785932692852995
 20
196.303444327383886
 10
54.2049100201105318
 20
196.5244225468998707
 10
54.3135728635915029
 20
196.7831436028070016
  0
LWPOLYLINE
  5
DE
  8
Layer_1
 62
7
370
-1
  6
CONTINUOUS
100
AcDbEntity
100
AcDbPolyline
 90
32
 70
1
 10
51.4353772110529235
 20
198.2003262337524347
 10
54.323312950402169
 20
198.2003262337524347
 10
54.2807000706056826
 20
198.5062258351484843
 10
54.2113019520799924
 20
198.7713388230251041
 10
54.1665584282936976
 20
198.8886003368936031
 10
54.1151185948250983
 20
198.995665197382209
 10
54.0569824516742017
 20
199.0925334044909789
 10
53.9921499988410005
 20
199.1792049582198842
 10
53.8835632497882173
 20
199.2979122662243299
 10
53.7672148690582219
 20
199.4007919331615142
 10
53.6431048566510142
 20
199.4878439590314372
 10
53.5112332125665944
 20
199.5590683438340989
 10
53.3715999368049623
 20
199.6144650875694992
 10
53.224205029366118
 20
199.6540341902376667
 10
53.0690484902500614
 20
199.6777756518385445
 10
52.9061303194567927
 20
199.6856894723721894
 10
52.758164703806365
 20
199.679373634830938
 10
52.6162105479843731
 20
199.6604261222071273
 10
52.480267851990817
 20
199.6288469345008423
 10
52.3503366158256824
 20
199.5846360717119978
 10
52.2264168394889907
 20
199.5277935338406223
 10
52.1085085229807206
 20
199.4583193208867442
 10
51.9966116663008862
 20
199.376213432850335
 10
51.8907262694494875
 20
199.2814758697313948
 10
51.7935917318420067
 20
199.176161181091544
 10
51.7079474528939258
 20
199.062323916492403
 10
51.6337934326052448
 20
198.9399640759339718
 10
51.5711296709759779
 20
198.8090816594162504
 10
51.5199561680061038
 20
198.6696766669392389
 10
51.4802729236956438
 20
198.5217490985029372
 10
51.4520799380445837
 20
198.3652989541073453
 10
51.4353772110529235
 20
198.2003262337524347
  0
LWPOLYLINE
  5
DF
  8
Layer_1
 62
7
370
-1
  6
CONTINUOUS
100
AcDbEntity
100
AcDbPolyline
 90
35
 70
1
 10
56.3102906597688957
 20
195.1175887581907773
 10
56.3102906597688957
 20
200.2895748546307004
 10
57.0992376914292663
 20
200.2895748546307004
 10
57.0992376914292663
 20
199.5054978663756629
 10
57.2473174487219794
 20
199.7572182348876879
 10
57.3896140294708843
 20
199.9620644356235744
 10
57.5261274336759811
 20
200.1200364685833222
 10
57.6568576613372841
 20
200.2311343337669598
 10
57.7878922667114239
 20
200.3078375174005998
 10
57.9253188040550313
 20
200.3626255057103265
 10
58.0691372733681206
 20
200.3954982986961681
 10
58.2193476746506917
 20
200.4064558963581248
 10
58.441847782730818
 20
200.3888019890138708
 10
58.6661741570879371
 20
200.3358402669811085
 10
58.892326797722049
 20
200.2475707302598664
 10
59.1203057046331537
 20
200.1239933788501162
 10
58.8183630135039266
 20
199.3106961301632509
 10
58.6576515811286754
 20
199.3937912457663515
 10
58.49694014875341
 20
199.4531448997686027
 10
58.3362287163781446
 20
199.4887570921699478
 10
58.1755172840028649
 20
199.5006278229703867
 10
58.035503536100201
 20
199.4898224141648484
 10
57.9027948533054939
 20
199.457406187748262
 10
57.7773912356187438
 20
199.4033791437205991
 10
57.6592926830399506
 20
199.3277412820818597
 10
57.5530648612616034
 20
199.2329276245347103
 10
57.463273435976177
 20
199.1213731927817889
 10
57.3899184071836856
 20
198.9930779868231241
 10
57.3329997748841151
 20
198.8480420066587158
 10
57.2690804551894175
 20
198.6088011243728317
 10
57.2234237982646334
 20
198.358602644424991
 10
57.196029804109763
 20
198.097446566815222
 10
57.1868984727248062
 20
197.8253328915434963
 10
57.1868984727248062
 20
195.1175887581907773
 10
56.3102906597688957
 20
195.1175887581907773
  0
LWPOLYLINE
  5
E0
  8
Layer_1
 62
7
370
-1
  6
CONTINUOUS
100
AcDbEntity
100
AcDbPolyline
 90
5
 70
1
 10
59.6462703924066773
 20
201.2489734054768746
 10
59.6462703924066773
 20
202.2570723903762087
 10
60.5228782053626446
 20
202.2570723903762087
 10
60.5228782053626446
 20
201.2489734054768746
 10
59.6462703924066773
 20
201.2489734054768746
  0
LWPOLYLINE
  5
E1
  8
Layer_1
 62
7
370
-1
  6
CONTINUOUS
100
AcDbEntity
100
AcDbPolyline
 90
5
 70
1
 10
59.6462703924066773
 20
195.1175887581907773
 10
59.6462703924066773
 20
200.2895748546307004
 10
60.5228782053626446
 20
200.2895748546307004
 10
60.5228782053626446
 20
195.1175887581907773
 10
59.6462703924066773
 20
195.1175887581907773
  0
LWPOLYLINE
  5
E2
  8
Layer_1
 62
7
370
-1
  6
CONTINUOUS
100
AcDbEntity
100
AcDbPolyline
 90
108
 70
1
 10
65.2322101782980326
 20
195.7555644442864491
 10
64.9909908408787516
 20
195.563806485202349
 10
64.7543371691519383
 20
195.4024862974014241
 10
64.5222491631176069
 20
195.2716038808837027
 10
64.2947268227757434
 20
195.1711592356491849
 10
64.065378216156887
 20
195.0965866960053745
 10
63.8278114112915702
 20
195.0433205962597754
 10
63.5820264081798001
 20
195.0113609364124159
 10
63.3280232068215696
 20
195.000707716463296
 10
63.1211224565240769
 20
195.0072137900750704
 10
62.9265490035962713
 20
195.0267320109104219
 10
62.7443028480381599
 20
195.0592623789693221
 10
62.5743839898497427
 20
195.1048048942517994
 10
62.4167924290310197
 20
195.1633595567578254
 10
62.2715281655819837
 20
195.234926366487457
 10
62.1385911995026348
 20
195.3195053234406373
 10
62.01798153079298
 20
195.4170964276173663
 10
61.910688387019718
 20
195.5248080907457506
 10
61.8177009957495613
 20
195.6397487245538969
 10
61.7390193569825101
 20
195.761918329041805
 10
61.6746434707185571
 20
195.8913169042095035
 10
61.6245733369577025
 20
196.027944450056907
 10
61.5888089556999532
 20
196.1718009665841009
 10
61.5673503269453022
 20
196.3228864537910567
 10
61.5601974506937495
 20
196.4812009116777745
 10
61.5710028594992878
 20
196.6670235053616693
 10
61.6034190859158883
 20
196.8446279007990825
 10
61.6574461299435654
 20
197.0140140979900139
 10
61.7330839915823049
 20
197.1751820969345204
 10
61.8262235717088799
 20
197.3244793650785596
 10
61.932755771200064
 20
197.4582533698682028
 10
62.0526805900558429
 20
197.5765041113033931
 10
62.1859980282762308
 20
197.6792315893841874
 10
62.3304252530149796
 20
197.7684142592439684
 10
62.4836794314258412
 20
197.8460305760160907
 10
62.6457605635088299
 20
197.9120805397006109
 10
62.8166686492639315
 20
197.9665641502975291
 10
63.1405265357171146
 20
198.0335272471205315
 10
63.595875594113636
 20
198.0980553222408957
 10
64.0917068883168213
 20
198.1644096636382528
 10
64.5175313085686639
 20
198.236851559292262
 10
64.8733488548691639
 20
198.3153810092028948
 10
65.1591595272183213
 20
198.3999980133701797
 10
65.1640295706237112
 20
198.6288900534197523
 10
65.1485063072692867
 20
198.8769578893777634
 10
65.101936517205985
 20
199.0854566226676354
 10
65.0670091746585229
 20
199.1748675758120157
 10
65.0243202004338343
 20
199.2543862532893399
 10
64.9738695945319193
 20
199.3240126550996365
 10
64.9156573569528064
 20
199.3837467812429054
 10
64.8265507815212629
 20
199.453373183053202
 10
64.7272475527098692
 20
199.5137160646221446
 10
64.6177476705185825
 20
199.5647754259496764
 10
64.4980511349474455
 20
199.6065512670358544
 10
64.3681579459964297
 20
199.6390435878806784
 10
64.2280681036655352
 20
199.6622523884840916
 10
63.9172984588641384
 20
199.6808194289668563
 10
63.6282918205302366
 20
199.6672746207458431
 10
63.3797674180029773
 20
199.626640196082775
 10
63.1717252512823677
 20
199.5589161549776804
 10
63.0828850063495565
 20
199.514895528259359
 10
63.0041653203684007
 20
199.464102497430531
 10
62.9329028883516273
 20
199.4047107962142036
 10
62.8664344053119635
 20
199.334894158333384
 10
62.7478792861639292
 20
199.1639860725782682
 10
62.6484999629243049
 20
198.9513782401651838
 10
62.5682964355930835
 20
198.6970706610941306
 10
61.7111687962584483
 20
198.813951702821555
 10
61.7790450262199542
 20
199.0758687247134446
 10
61.8657926743770403
 20
199.3113048855889247
 10
61.9714117407297067
 20
199.5202601854480235
 10
62.0959022252779675
 20
199.7027346242907697
 10
62.2447429268527799
 20
199.8622285458147019
 10
62.4234126442851149
 20
200.0022422937173587
 10
62.6319113775749798
 20
200.1227758679988256
 10
62.8702391267223675
 20
200.2238292686589887
 10
63.1335258483219732
 20
200.3037284182773305
 10
63.4169014989684854
 20
200.3607992394333337
 10
63.7203660786619039
 20
200.3950417321269128
 10
64.0439195874022289
 20
200.4064558963581248
 10
64.3595592756089161
 20
200.3967158095475156
 10
64.6441524371067544
 20
200.3674955491156311
 10
64.8976990718957438
 20
200.3187951150625565
 10
65.1201991799758844
 20
200.2506145073882067
 10
65.3134790276241688
 20
200.1676715806415245
 10
65.4793648811175615
 20
200.0746841893713963
 10
65.6178567404560908
 20
199.9716523335777936
 10
65.7289546056397285
 20
199.8585760132607163
 10
65.8190504086379633
 20
199.7327158290046896
 10
65.8945360814202843
 20
199.5913323813942952
 10
65.955411623986663
 20
199.4344256704294196
 10
66.0016770363371279
 20
199.2619956961101479
 10
66.0208528322455379
 20
199.127460747038441
 10
66.0345498293229554
 20
198.9478778964676167
 10
66.0455074269848978
 20
198.4535684908285589
 10
66.0455074269848978
 20
197.2847580735540305
 10
66.0595088017751664
 20
196.2870079308910078
 10
66.077010520263002
 20
195.95660592361196
 10
66.101512926145972
 20
195.7385192923678972
 10
66.1363641742652248
 20
195.5782644265619012
 10
66.1849124194619236
 20
195.4213577155970256
 10
66.247157661736054
 20
195.2677991594733271
 10
66.3230999010876303
 20
195.1175887581907773
 10
65.4075317408892261
 20
195.1175887581907773
 10
65.3454386874715141
 20
195.2597331500832638
 10
65.2955207425670778
 20
195.4134438950633808
 10
65.2577779061759173
 20
195.5787209931310997
 10
65.2322101782980326
 20
195.7555644442864491
  0
LWPOLYLINE
  5
E3
  8
Layer_1
 62
7
370
-1
  6
CONTINUOUS
100
AcDbEntity
100
AcDbPolyline
 90
38
 70
1
 10
65.1591595272183213
 20
197.7133218932213481
 10
64.8906983845005811
 20
197.6195735576691277
 10
64.5625792100677813
 20
197.5331302872248784
 10
64.1748020039199218
 20
197.4539920818885719
 10
63.7273667660570027
 20
197.3821589416602365
 10
63.2659301534038363
 20
197.2993682037699443
 10
63.0945655010794724
 20
197.2543203022708269
 10
62.9627699514232688
 20
197.206837379069043
 10
62.8571508850706024
 20
197.1525059573285432
 10
62.7643156826568713
 20
197.0869125602132783
 10
62.6842643441820755
 20
197.0100571877232198
 10
62.6169968696462149
 20
196.9219398398583678
 10
62.5637307699006158
 20
196.8256042937470625
 10
62.5256835557966255
 20
196.7240943265176156
 10
62.5028552273342299
 20
196.6174099381700557
 10
62.495245784513429
 20
196.5055511287043259
 10
62.5118343698627683
 20
196.3375346312211036
 10
62.5616001259107861
 20
196.1841282639538235
 10
62.6445430526574825
 20
196.0453320269024573
 10
62.7606631501028573
 20
195.9211459200670333
 10
62.8308602601247159
 20
195.8663579317573067
 10
62.9087429073955846
 20
195.8188750085555228
 10
63.0875648136843381
 20
195.7458243574758399
 10
63.2971288689691178
 20
195.7019939668280699
 10
63.5374350732499238
 20
195.6873838366121277
 10
63.7836766429309421
 20
195.7012330225459777
 10
64.0159168378216918
 20
195.742780580347528
 10
64.2341556579221731
 20
195.8120265100167785
 10
64.4383931032323858
 20
195.9089708115537576
 10
64.6225416194957063
 20
196.0299609524044513
 10
64.7805136524554683
 20
196.1713444000148741
 10
64.9123092021117003
 20
196.3331211543850259
 10
65.0179282684644022
 20
196.5152912155149352
 10
65.0797169441692347
 20
196.6814814467211647
 10
65.1238517125298415
 20
196.8829794926159025
 10
65.1503325735461942
 20
197.11978535319912
 10
65.1591595272183213
 20
197.3918990284708457
 10
65.1591595272183213
 20
197.7133218932213481
  0
LWPOLYLINE
  5
E4
  8
Layer_1
 62
7
370
-1
  6
CONTINUOUS
100
AcDbEntity
100
AcDbPolyline
 90
5
 70
1
 10
67.3847693634453435
 20
195.1175887581907773
 10
67.3847693634453435
 20
202.2570723903762087
 10
68.261377176401254
 20
202.2570723903762087
 10
68.261377176401254
 20
195.1175887581907773
 10
67.3847693634453435
 20
195.1175887581907773
  0
LWPOLYLINE
  5
E5
  8
Layer_1
 62
7
370
-1
  6
CONTINUOUS
100
AcDbEntity
100
AcDbPolyline
 90
5
 70
1
 10
72.0502709457329615
 20
197.260407856527479
 10
72.0502709457329615
 20
198.1418857128886657
 10
74.7434049488697383
 20
198.1418857128886657
 10
74.7434049488697383
 20
197.260407856527479
 10
72.0502709457329615
 20
197.260407856527479
  0
LWPOLYLINE
  5
E6
  8
Layer_1
 62
7
370
-1
  6
CONTINUOUS
100
AcDbEntity
100
AcDbPolyline
 90
5
 70
1
 10
75.3716405481548009
 20
197.260407856527479
 10
75.3716405481548009
 20
198.1418857128886657
 10
78.0647745512916345
 20
198.1418857128886657
 10
78.0647745512916345
 20
197.260407856527479
 10
75.3716405481548009
 20
197.260407856527479
  0
LWPOLYLINE
  5
E7
  8
Layer_1
 62
7
370
-1
  6
CONTINUOUS
100
AcDbEntity
100
AcDbPolyline
 90
5
 70
1
 10
78.693010150576697
 20
197.260407856527479
 10
78.693010150576697
 20
198.1418857128886657
 10
81.3861441537135306
 20
198.1418857128886657
 10
81.3861441537135306
 20
197.260407856527479
 10
78.693010150576697
 20
197.260407856527479
  0
LWPOLYLINE
  5
E8
  8
Layer_1
 62
7
370
-1
  6
CONTINUOUS
100
AcDbEntity
100
AcDbPolyline
 90
8
 70
1
 10
86.9720839396048291
 20
198.2392865809949285
 10
82.2432717930481658
 20
196.2182185677909843
 10
82.2432717930481658
 20
197.0899563373415617
 10
85.9883351717320465
 20
198.6435001836356946
 10
82.2432717930481658
 20
200.1824338997138852
 10
82.2432717930481658
 20
201.0541716692644627
 10
86.9720839396048291
 20
199.05745387308707
 10
86.9720839396048291
 20
198.2392865809949285
  0
LWPOLYLINE
  5
E9
  8
Layer_1
 62
7
370
-1
  6
CONTINUOUS
100
AcDbEntity
100
AcDbPolyline
 90
8
 70
1
 10
305.5114958231939681
 20
84.9023847878823403
 10
305.5114958231939681
 20
85.7205520799745386
 10
310.2403079697505746
 20
87.717269876151903
 10
310.2403079697505746
 20
86.8455321066012971
 10
306.4903745476613608
 20
85.3065983905231349
 10
310.2403079697505746
 20
83.7530545442290304
 10
310.2403079697505746
 20
82.8813167746784245
 10
305.5114958231939681
 20
84.9023847878823403
  0
LWPOLYLINE
  5
EA
  8
Layer_1
 62
7
370
-1
  6
CONTINUOUS
100
AcDbEntity
100
AcDbPolyline
 90
5
 70
1
 10
311.1071756958958758
 20
83.923506063414905
 10
311.1071756958958758
 20
84.8049839197761344
 10
313.8003096990327094
 20
84.8049839197761344
 10
313.8003096990327094
 20
83.923506063414905
 10
311.1071756958958758
 20
83.923506063414905
  0
LWPOLYLINE
  5
EB
  8
Layer_1
 62
7
370
-1
  6
CONTINUOUS
100
AcDbEntity
100
AcDbPolyline
 90
5
 70
1
 10
314.428545298317772
 20
83.923506063414905
 10
314.428545298317772
 20
84.8049839197761344
 10
317.1216793014545487
 20
84.8049839197761344
 10
317.1216793014545487
 20
83.923506063414905
 10
314.428545298317772
 20
83.923506063414905
  0
LWPOLYLINE
  5
EC
  8
Layer_1
 62
7
370
-1
  6
CONTINUOUS
100
AcDbEntity
100
AcDbPolyline
 90
5
 70
1
 10
317.7499149007396682
 20
83.923506063414905
 10
317.7499149007396682
 20
84.8049839197761344
 10
320.4430489038764449
 20
84.8049839197761344
 10
320.4430489038764449
 20
83.923506063414905
 10
317.7499149007396682
 20
83.923506063414905
  0
LWPOLYLINE
  5
ED
  8
Layer_1
 62
7
370
-1
  6
CONTINUOUS
100
AcDbEntity
100
AcDbPolyline
 90
5
 70
1
 10
321.0712845031615075
 20
83.923506063414905
 10
321.0712845031615075
 20
84.8049839197761344
 10
323.7644185062982842
 20
84.8049839197761344
 10
323.7644185062982842
 20
83.923506063414905
 10
321.0712845031615075
 20
83.923506063414905
  0
LWPOLYLINE
  5
EE
  8
Layer_1
 62
7
370
-1
  6
CONTINUOUS
100
AcDbEntity
100
AcDbPolyline
 90
120
 70
1
 10
331.8097302118715106
 20
87.1718250147571183
 10
330.9379924423209332
 20
87.1036444070827685
 10
330.8734643672005404
 20
87.3441028002199857
 10
330.7967611835669004
 20
87.5492533786686806
 10
330.707882891420013
 20
87.7190961424288957
 10
330.6068294907597647
 20
87.8536310915006027
 10
330.5153639880537639
 20
87.9415201560808129
 10
330.4187240642296501
 20
88.0176906787170026
 10
330.3169097192873664
 20
88.0821426594091577
 10
330.2099209532269697
 20
88.1348760981572923
 10
330.097757766048403
 20
88.1758909949613923
 10
329.9804201577517233
 20
88.2051873498214718
 10
329.8579081283368168
 20
88.2227651627375167
 10
329.7302216778038542
 20
88.2286244337095269
 10
329.5272017433450173
 20
88.2140143034935988
 10
329.3369656728250447
 20
88.1701839128458005
 10
329.1595134662439932
 20
88.097133261766146
 10
328.9948451236019764
 20
87.9948623502546212
 10
328.8940961006546218
 20
87.9150392950644459
 10
328.798825876538217
 20
87.8265414750585762
 10
328.624721824798371
 20
87.6235215405996826
 10
328.4725329683823816
 20
87.3858025468779545
 10
328.3422593072903055
 20
87.1133844938933919
 10
328.2861777137010222
 20
86.9608151653363848
 10
328.2372489963632916
 20
86.7928747622813859
 10
328.1954731552771136
 20
86.6095632847283667
 10
328.1608501904424884
 20
86.4108807326773274
 10
328.113062889527896
 20
85.9674024050812164
 10
328.0938870936194576
 20
85.4624397794930672
 10
328.2609904579641693
 20
85.6879836647015054
 10
328.445747729653192
 20
85.8824810232011089
 10
328.6481589086864687
 20
86.0459318549918635
 10
328.8682239950638859
 20
86.1783361600737408
 10
329.0998554345289904
 20
86.2806070715852513
 10
329.3369656728250447
 20
86.35365772266492
 10
329.5795547099520491
 20
86.3974881133127184
 10
329.8276225459100601
 20
86.4120982435286464
 10
330.0427034472398873
 20
86.4020157317910957
 10
330.2496422447514988
 20
86.3717681965784152
 10
330.4484389384448377
 20
86.3213556378906333
 10
330.639093528319961
 20
86.2507780557277357
 10
330.8216060143768118
 20
86.1600354500897367
 10
330.9959763966153901
 20
86.0491278209765937
 10
331.1622046750356958
 20
85.9180551683883493
 10
331.3202908496377859
 20
85.7668174923249893
 10
331.4646800271624443
 20
85.5995999863379637
 10
331.589817314350455
 20
85.4205878439786943
 10
331.695702711201875
 20
85.229781065247181
 10
331.7823362177166473
 20
85.027179650143438
 10
331.8497178338948288
 20
84.8127835986674512
 10
331.8978475597363627
 20
84.5865929108192347
 10
331.9267253952413057
 20
84.3486075865987743
 10
331.9363513404096011
 20
84.0988276260060843
 10
331.9182408664960917
 20
83.7687299964398733
 10
331.8639094447556204
 20
83.4505030976741011
 10
331.7733570751881302
 20
83.1441469297087821
 10
331.6465837577936213
 20
82.8496614925439019
 10
331.5707556600843873
 20
82.709609697427112
 10
331.4881551582645898
 20
82.5780043838414031
 10
331.3987822523342857
 20
82.4548455517868035
 10
331.3026369422935318
 20
82.3401332012632707
 10
331.1997192281422713
 20
82.2338673322708331
 10
331.0900291098804473
 20
82.1360479448094765
 10
330.9735665875081168
 20
82.0466750388792008
 10
330.8503316610253364
 20
81.9657486144800203
 10
330.7215798884974447
 20
81.8938393798234756
 10
330.5885668279898937
 20
81.8315180431211502
 10
330.4512924795027402
 20
81.7787846043730156
 10
330.3097568430358706
 20
81.7356390635791001
 10
330.1639599185893417
 20
81.7020814207393755
 10
330.0139017061632103
 20
81.6781116758538701
 10
329.7010014173720265
 20
81.6589358799454459
 10
329.4333773133645309
 20
81.6715295078138581
 10
329.1783848844395948
 20
81.7093103914191374
 10
328.9360241305971613
 20
81.7722785307612412
 10
328.7062950518372872
 20
81.8604339258401694
 10
328.4891976481599158
 20
81.9737765766559505
 10
328.2847319195651039
 20
82.1123064832085845
 10
328.0928978660527946
 20
82.2760236454980571
 10
327.9136954876229879
 20
82.4649280635243542
 10
327.7516143555400276
 20
82.682748364269699
 10
327.6111440410680871
 20
82.9332131747162578
 10
327.492284544207223
 20
83.2163224948640448
 10
327.3950358649574355
 20
83.53207632471306
 10
327.3193980033186676
 20
83.8804746642632892
 10
327.2653709592909763
 20
84.2615175135147467
 10
327.2329547328744184
 20
84.6752048724674324
 10
327.2221493240688801
 20
85.1215367411213322
 10
327.2340961492975566
 20
85.6213249455913399
 10
327.2699366249835293
 20
86.0858053353728394
 10
327.3296707511267414
 20
86.5149779104658307
 10
327.4132985277273065
 20
86.9088426708703423
 10
327.5208199547851677
 20
87.2673996165863315
 10
327.652235032300382
 20
87.5906487476138267
 10
327.8075437602728925
 20
87.8785900639528137
 10
327.9867461387026424
 20
88.1312235656033067
 10
328.1607740960142792
 20
88.3229815246874068
 10
328.3492599946854398
 20
88.4891717558936364
 10
328.5522038347161242
 20
88.6297942592219812
 10
328.7696056161063325
 20
88.7448490346724554
 10
329.0014653388560646
 20
88.834336082245045
 10
329.2477830029653205
 20
88.8982554019397355
 10
329.5085586084340434
 20
88.9366069937565555
 10
329.7837921552622902
 20
88.949390857695505
 10
329.9896656307789726
 20
88.9420096981593247
 10
330.1860273027696735
 20
88.919866219550812
 10
330.3728771712343928
 20
88.8829604218699387
 10
330.5502152361730737
 20
88.8312923051167189
 10
330.718041497585773
 20
88.7648618692911384
 10
330.8763559554724907
 20
88.6836691143932399
 10
331.02515860983317
 20
88.5877140404229664
 10
331.1644494606678677
 20
88.4769966473803606
 10
331.292250052843201
 20
88.353267107114192
 10
331.4065819312256735
 20
88.2182755914732297
 10
331.507445095815342
 20
88.0720221004574881
 10
331.5948395466122065
 20
87.9145066340669814
 10
331.668765283616267
 20
87.7457291923016953
 10
331.7292223068275234
 20
87.5656897751616157
 10
331.776210616245919
 20
87.3743883826467567
 10
331.8097302118715106
 20
87.1718250147571183
  0
LWPOLYLINE
  5
EF
  8
Layer_1
 62
7
370
-1
  6
CONTINUOUS
100
AcDbEntity
100
AcDbPolyline
 90
61
 70
1
 10
328.2302483089681573
 20
84.0939575826007797
 10
328.2422712286249862
 20
83.8699355859564832
 10
328.2783399875955865
 20
83.6507836327175056
 10
328.3384545858798447
 20
83.4365017228838326
 10
328.4226150234779311
 20
83.2270898564554784
 10
328.5283862786870941
 20
83.0324403090994707
 10
328.6533333298045818
 20
82.8624453564828514
 10
328.7974561768304511
 20
82.7171049986056062
 10
328.9607548197648157
 20
82.5964192354677493
 10
329.1357720046431723
 20
82.5016055779205999
 10
329.3150504775011314
 20
82.4338815368155053
 10
329.4985902383388066
 20
82.3932471121524372
 10
329.6863912871560842
 20
82.379702303931424
 10
329.8227525025047839
 20
82.3867029913265583
 10
329.9542436744481506
 20
82.4077050535119611
 10
330.0808648029861843
 20
82.4427084904876324
 10
330.2026158881189986
 20
82.4917133022535722
 10
330.319496929846423
 20
82.5547194888097806
 10
330.4315079281685712
 20
82.6317270501562575
 10
330.5386488830853864
 20
82.722735986293003
 10
330.6409197945969254
 20
82.8277462972200027
 10
330.7345159412927842
 20
82.9447795278038598
 10
330.8156326017624451
 20
83.0718572229111913
 10
330.8842697760060219
 20
83.208979382541969
 10
330.9404274640235144
 20
83.356146006696207
 10
330.9841056658149228
 20
83.5133570953738911
 10
331.0153043813801901
 20
83.6806126485750355
 10
331.0340236107193732
 20
83.8579126662996259
 10
331.0402633538324153
 20
84.0452571485476767
 10
331.0340997051475824
 20
84.2254107073300702
 10
331.0156087590930269
 20
84.3957480848736168
 10
330.9847905156688057
 20
84.5562692811783592
 10
330.9416449748748619
 20
84.7069742962442547
 10
330.8861721367112523
 20
84.8478631300713175
 10
330.8183720011779201
 20
84.9789357826595619
 10
330.7382445682749221
 20
85.1001922540089879
 10
330.6457898380022584
 20
85.211632544119567
 10
330.5439754930600316
 20
85.3115064811425441
 10
330.4357692161482873
 20
85.3980638932291072
 10
330.3211710072670826
 20
85.4713047803792847
 10
330.2001808664163605
 20
85.5312291425930766
 10
330.0727987935961778
 20
85.5778369798704688
 10
329.9390247888065915
 20
85.6111282922114469
 10
329.7988588520474877
 20
85.6311030796160537
 10
329.6523009833189235
 20
85.6377613420842465
 10
329.5065801533006606
 20
85.6311030796160537
 10
329.3664903109697661
 20
85.6111282922114469
 10
329.23203145632624
 20
85.5778369798704688
 10
329.1032035893701391
 20
85.5312291425930766
 10
328.9800067101014065
 20
85.4713047803792847
 10
328.8624408185200991
 20
85.3980638932291072
 10
328.7505059146261601
 20
85.3115064811425441
 10
328.6442019984195895
 20
85.211632544119567
 10
328.5471816024544296
 20
85.1009531982910516
 10
328.4630972592846092
 20
84.981979559787888
 10
328.3919489689101283
 20
84.8547116286100476
 10
328.3337367313309869
 20
84.7191494047575304
 10
328.2884605465472418
 20
84.5752928882303507
 10
328.2561204145588363
 20
84.4231420790284943
 10
328.236716335365827
 20
84.2626969771519612
 10
328.2302483089681573
 20
84.0939575826007797
  0
LWPOLYLINE
  5
F0
  8
Layer_1
 62
7
370
-1
  6
CONTINUOUS
100
AcDbEntity
100
AcDbPolyline
 90
104
 70
1
 10
333.0515912802257503
 20
81.7806869650782176
 10
333.0515912802257503
 20
86.9526730615181265
 10
333.8356682684807311
 20
86.9526730615181265
 10
333.8356682684807311
 20
86.2270365941268437
 10
333.9674638181369914
 20
86.4076847666925687
 10
334.119348296840144
 20
86.5697658987755716
 10
334.2913217045901888
 20
86.713279990375824
 10
334.4833840413871258
 20
86.8382270414933259
 10
334.6924915301026431
 20
86.9394326310099359
 10
334.9156003936084289
 20
87.0117223378075266
 10
335.1527106319044833
 20
87.0550961618860697
 10
335.4038222449908062
 20
87.0695541032455935
 10
335.6782187531088084
 20
87.0546395953168286
 10
335.9267431556360179
 20
87.0098960715305338
 10
336.1493954525725485
 20
86.9353235318867092
 10
336.3461756439184001
 20
86.830921976385369
 10
336.5164749742478421
 20
86.699735182154825
 10
336.6596846881352576
 20
86.5448069263233748
 10
336.7758047855806467
 20
86.3661372088910326
 10
336.8648352665840093
 20
86.1637260298578127
 10
337.0240248103950762
 20
86.3760294845580745
 10
337.1947807072938303
 20
86.5600258119649624
 10
337.3771029572801012
 20
86.7157150120784905
 10
337.5709915603540594
 20
86.8430970848986448
 10
337.7764465165155343
 20
86.9421720304254393
 10
337.9934678257646965
 20
87.0129398486588599
 10
338.2220554881014323
 20
87.0554005395989066
 10
338.4622095035258553
 20
87.0695541032455935
 10
338.6490213247764132
 20
87.0628958407774007
 10
338.8247233595086527
 20
87.0429210533727939
 10
338.989315607722574
 20
87.0096297410318158
 10
339.1427980694180633
 20
86.9630219037544236
 10
339.2851707445952343
 20
86.9030975415406317
 10
339.4164336332539733
 20
86.8298566543904542
 10
339.5365867353943941
 20
86.7432992423038911
 10
339.6456300510163828
 20
86.643425305280914
 10
339.7426504469815427
 20
86.5297021823240868
 10
339.8267347901513631
 20
86.4015972124359592
 10
339.897883080525844
 20
86.2591103956165171
 10
339.9560953181049854
 20
86.1022417318657602
 10
340.0013715028887304
 20
85.9309912211836888
 10
340.033711634877136
 20
85.7453588635703312
 10
340.0531157140701453
 20
85.545344659025659
 10
340.059583740467815
 20
85.3309486075496864
 10
340.059583740467815
 20
81.7806869650782176
 10
339.1878459709171239
 20
81.7806869650782176
 10
339.1878459709171239
 20
85.03874600323104
 10
339.1825193609425924
 20
85.283313495491484
 10
339.1665395310188842
 20
85.4910512844992638
 10
339.139906481146113
 20
85.6619593702543938
 10
339.1026202113242221
 20
85.7960377527568596
 10
339.0513325667120625
 20
85.9060702959455966
 10
338.9826953924684858
 20
86.0048408637595543
 10
338.896708688593435
 20
86.0923494561987326
 10
338.7933724550870238
 20
86.1685960732631173
 10
338.6764914133595994
 20
86.2303847489679924
 10
338.5498702848215089
 20
86.2745195173286277
 10
338.4135090694727523
 20
86.3010003783450088
 10
338.2674077673134434
 20
86.3098273320171216
 10
338.1339381402366371
 20
86.3041582971156345
 10
338.0062516897036176
 20
86.2871511924111303
 10
337.8843484157144417
 20
86.2588060179036518
 10
337.7682283182691094
 20
86.2191227735931989
 10
337.657891397367564
 20
86.1681014594797432
 10
337.5533376530098053
 20
86.1057420755633132
 10
337.4545670851958334
 20
86.0320446218438803
 10
337.3615796939256484
 20
85.9470090983214732
 10
337.2771148786147819
 20
85.8494940885729534
 10
337.203912038678709
 20
85.7383581761751969
 10
337.1419711741174297
 20
85.6136013611282181
 10
337.091292284930887
 20
85.4752236434320025
 10
337.051875371119138
 20
85.3232250230865645
 10
337.0237204326822393
 20
85.1576055000919041
 10
337.0068274696200206
 20
84.9783650744480212
 10
337.0011964819326522
 20
84.7855037461548875
 10
337.0011964819326522
 20
81.7806869650782176
 10
336.1245886689767985
 20
81.7806869650782176
 10
336.1245886689767985
 20
85.1410169147425648
 10
336.1111960496122038
 20
85.4149568562912975
 10
336.0710181915183625
 20
85.6523714723001888
 10
336.0040550946953317
 20
85.8532607627692528
 10
335.9605290817603986
 20
85.9400084109263531
 10
335.9103067591431113
 20
86.0176247276984896
 10
335.852474993705016
 20
86.0861097130856621
 10
335.7861206523076589
 20
86.1454633670878849
 10
335.7112437349510401
 20
86.195685689705158
 10
335.6278442416351027
 20
86.236776680937453
 10
335.5359221723598466
 20
86.2687363407848125
 10
335.4354775271253288
 20
86.291564669247208
 10
335.2090205087783943
 20
86.3098273320171216
 10
335.0274592030741587
 20
86.2976522235038317
 10
334.8528985847650574
 20
86.2611268979640045
 10
334.6853386538510904
 20
86.2002513553976257
 10
334.5247794103322576
 20
86.1150255958046955
 10
334.3785259193164734
 20
86.0063627523237102
 10
334.2538832459118225
 20
85.875175958093152
 10
334.1508513901182482
 20
85.7214652131130208
 10
334.0694303519356936
 20
85.5452305173833452
 10
334.0076416762308327
 20
85.3370361618063242
 10
333.963506907870169
 20
85.087446437284143
 10
333.9370260468538163
 20
84.7964613438168442
 10
333.9281990931816608
 20
84.4640808814043851
 10
333.9281990931816608
 20
81.7806869650782176
 10
333.0515912802257503
 20
81.7806869650782176
  0
LWPOLYLINE
  5
F1
  8
Layer_1
 62
7
370
-1
  6
CONTINUOUS
100
AcDbEntity
100
AcDbPolyline
 90
104
 70
1
 10
341.3598853296857669
 20
81.7806869650782176
 10
341.3598853296857669
 20
86.9526730615181265
 10
342.1439623179406908
 20
86.9526730615181265
 10
342.1439623179406908
 20
86.2270365941268437
 10
342.2757578675968944
 20
86.4076847666925687
 10
342.4276423462999901
 20
86.5697658987755716
 10
342.5996157540500917
 20
86.713279990375824
 10
342.7916780908470287
 20
86.8382270414933259
 10
343.0007855795626028
 20
86.9394326310099359
 10
343.2238944430683887
 20
87.0117223378075266
 10
343.4610046813644431
 20
87.0550961618860697
 10
343.712116294450766
 20
87.0695541032455935
 10
343.9865128025687682
 20
87.0546395953168286
 10
344.2350372050960345
 20
87.0098960715305338
 10
344.4576895020326219
 20
86.9353235318867092
 10
344.6544696933784167
 20
86.830921976385369
 10
344.8247690237078587
 20
86.699735182154825
 10
344.9679787375952742
 20
86.5448069263233748
 10
345.0840988350406633
 20
86.3661372088910326
 10
345.1731293160439691
 20
86.1637260298578127
 10
345.332318859855036
 20
86.3760294845580745
 10
345.5030747567537901
 20
86.5600258119649624
 10
345.685397006740061
 20
86.7157150120784905
 10
345.8792856098140192
 20
86.8430970848986448
 10
346.0847405659756078
 20
86.9421720304254393
 10
346.3017618752247699
 20
87.0129398486588599
 10
346.5303495375615057
 20
87.0554005395989066
 10
346.7705035529859288
 20
87.0695541032455935
 10
346.9573153742364866
 20
87.0628958407774007
 10
347.1330174089686693
 20
87.0429210533727939
 10
347.2976096571825337
 20
87.0096297410318158
 10
347.451092118878023
 20
86.9630219037544236
 10
347.593464794055194
 20
86.9030975415406317
 10
347.7247276827139331
 20
86.8298566543904542
 10
347.8448807848543538
 20
86.7432992423038911
 10
347.9539241004763426
 20
86.643425305280914
 10
348.0509444964415025
 20
86.5297021823240868
 10
348.1350288396113228
 20
86.4015972124359592
 10
348.2061771299858037
 20
86.2591103956165171
 10
348.2643893675649451
 20
86.1022417318657602
 10
348.3096655523486902
 20
85.9309912211836888
 10
348.3420056843370958
 20
85.7453588635703312
 10
348.361409763530105
 20
85.545344659025659
 10
348.3678777899277748
 20
85.3309486075496864
 10
348.3678777899277748
 20
81.7806869650782176
 10
347.4961400203771973
 20
81.7806869650782176
 10
347.4961400203771973
 20
85.03874600323104
 10
347.4908134104026658
 20
85.283313495491484
 10
347.4748335804789576
 20
85.4910512844992638
 10
347.4482005306061865
 20
85.6619593702543938
 10
347.4109142607842386
 20
85.7960377527568596
 10
347.3596266161720223
 20
85.9060702959455966
 10
347.2909894419284456
 20
86.0048408637595543
 10
347.2050027380533948
 20
86.0923494561987326
 10
347.1016665045469836
 20
86.1685960732631173
 10
346.9847854628195591
 20
86.2303847489679924
 10
346.8581643342814687
 20
86.2745195173286277
 10
346.7218031189327121
 20
86.3010003783450088
 10
346.5757018167734032
 20
86.3098273320171216
 10
346.4422321896965968
 20
86.3041582971156345
 10
346.3145457391635773
 20
86.2871511924111303
 10
346.1926424651744014
 20
86.2588060179036518
 10
346.0765223677290692
 20
86.2191227735931989
 10
345.9661854468275237
 20
86.1681014594797432
 10
345.8616317024697651
 20
86.1057420755633132
 10
345.7628611346557932
 20
86.0320446218438803
 10
345.6698737433856081
 20
85.9470090983214732
 10
345.5854089280747417
 20
85.8494940885729534
 10
345.5122060881386687
 20
85.7383581761751969
 10
345.4502652235773894
 20
85.6136013611282181
 10
345.3995863343908468
 20
85.4752236434320025
 10
345.3601694205790977
 20
85.3232250230865645
 10
345.3320144821421991
 20
85.1576055000919041
 10
345.3151215190799803
 20
84.9783650744480212
 10
345.309490531392612
 20
84.7855037461548875
 10
345.309490531392612
 20
81.7806869650782176
 10
344.4328827184367583
 20
81.7806869650782176
 10
344.4328827184367583
 20
85.1410169147425648
 10
344.4194900990721635
 20
85.4149568562912975
 10
344.3793122409783223
 20
85.6523714723001888
 10
344.3123491441552915
 20
85.8532607627692528
 10
344.2688231312203584
 20
85.9400084109263531
 10
344.2186008086030711
 20
86.0176247276984896
 10
344.1607690431649758
 20
86.0861097130856621
 10
344.0944147017676187
 20
86.1454633670878849
 10
344.0195377844109998
 20
86.195685689705158
 10
343.9361382910950624
 20
86.236776680937453
 10
343.8442162218198064
 20
86.2687363407848125
 10
343.7437715765852886
 20
86.291564669247208
 10
343.517314558238354
 20
86.3098273320171216
 10
343.3357532525341185
 20
86.2976522235038317
 10
343.1611926342250172
 20
86.2611268979640045
 10
342.9936327033110501
 20
86.2002513553976257
 10
342.8330734597922174
 20
86.1150255958046955
 10
342.68681996877649
 20
86.0063627523237102
 10
342.5621772953718391
 20
85.875175958093152
 10
342.459145439578208
 20
85.7214652131130208
 10
342.3777244013956533
 20
85.5452305173833452
 10
342.3159357256907924
 20
85.3370361618063242
 10
342.2718009573301288
 20
85.087446437284143
 10
342.245320096313776
 20
84.7964613438168442
 10
342.2364931426416206
 20
84.4640808814043851
 10
342.2364931426416206
 20
81.7806869650782176
 10
341.3598853296857669
 20
81.7806869650782176
  0
LWPOLYLINE
  5
F2
  8
Layer_1
 62
7
370
-1
  6
CONTINUOUS
100
AcDbEntity
100
AcDbPolyline
 90
104
 70
1
 10
352.4392340767674341
 20
81.7806869650782176
 10
352.4392340767674341
 20
86.9526730615181265
 10
353.2233110650224717
 20
86.9526730615181265
 10
353.2233110650224717
 20
86.2270365941268437
 10
353.3551066146786752
 20
86.4076847666925687
 10
353.506991093381771
 20
86.5697658987755716
 10
353.6789645011318726
 20
86.713279990375824
 10
353.8710268379288095
 20
86.8382270414933259
 10
354.0801343266443837
 20
86.9394326310099359
 10
354.3032431901501695
 20
87.0117223378075266
 10
354.5403534284462239
 20
87.0550961618860697
 10
354.7914650415325468
 20
87.0695541032455935
 10
355.065861549650549
 20
87.0546395953168286
 10
355.3143859521777586
 20
87.0098960715305338
 10
355.5370382491142891
 20
86.9353235318867092
 10
355.7338184404601407
 20
86.830921976385369
 10
355.9041177707895827
 20
86.699735182154825
 10
356.0473274846769982
 20
86.5448069263233748
 10
356.1634475821223873
 20
86.3661372088910326
 10
356.2524780631257499
 20
86.1637260298578127
 10
356.4116676069368168
 20
86.3760294845580745
 10
356.582423503835571
 20
86.5600258119649624
 10
356.7647457538218418
 20
86.7157150120784905
 10
356.9586343568958
 20
86.8430970848986448
 10
357.1640893130572749
 20
86.9421720304254393
 10
357.3811106223064371
 20
87.0129398486588599
 10
357.6096982846431729
 20
87.0554005395989066
 10
357.8498523000675959
 20
87.0695541032455935
 10
358.0366641213181538
 20
87.0628958407774007
 10
358.2123661560503933
 20
87.0429210533727939
 10
358.3769584042643146
 20
87.0096297410318158
 10
358.5304408659598039
 20
86.9630219037544236
 10
358.6728135411369749
 20
86.9030975415406317
 10
358.8040764297957139
 20
86.8298566543904542
 10
358.9242295319361347
 20
86.7432992423038911
 10
359.0332728475581234
 20
86.643425305280914
 10
359.1302932435232833
 20
86.5297021823240868
 10
359.2143775866931037
 20
86.4015972124359592
 10
359.2855258770675846
 20
86.2591103956165171
 10
359.343738114646726
 20
86.1022417318657602
 10
359.3890142994304711
 20
85.9309912211836888
 10
359.4213544314188766
 20
85.7453588635703312
 10
359.4407585106118859
 20
85.545344659025659
 10
359.4472265370095556
 20
85.3309486075496864
 10
359.4472265370095556
 20
81.7806869650782176
 10
358.5754887674588645
 20
81.7806869650782176
 10
358.5754887674588645
 20
85.03874600323104
 10
358.570162157484333
 20
85.283313495491484
 10
358.5541823275606248
 20
85.4910512844992638
 10
358.5275492776878536
 20
85.6619593702543938
 10
358.4902630078659627
 20
85.7960377527568596
 10
358.4389753632538032
 20
85.9060702959455966
 10
358.3703381890102264
 20
86.0048408637595543
 10
358.2843514851351756
 20
86.0923494561987326
 10
358.1810152516287644
 20
86.1685960732631173
 10
358.06413420990134
 20
86.2303847489679924
 10
357.9375130813632495
 20
86.2745195173286277
 10
357.801151866014493
 20
86.3010003783450088
 10
357.655050563855184
 20
86.3098273320171216
 10
357.5215809367783777
 20
86.3041582971156345
 10
357.3938944862453582
 20
86.2871511924111303
 10
357.2719912122561823
 20
86.2588060179036518
 10
357.15587111481085
 20
86.2191227735931989
 10
357.0455341939093046
 20
86.1681014594797432
 10
356.9409804495515459
 20
86.1057420755633132
 10
356.8422098817375741
 20
86.0320446218438803
 10
356.749222490467389
 20
85.9470090983214732
 10
356.6647576751565225
 20
85.8494940885729534
 10
356.5915548352204496
 20
85.7383581761751969
 10
356.5296139706591703
 20
85.6136013611282181
 10
356.4789350814726276
 20
85.4752236434320025
 10
356.4395181676608786
 20
85.3232250230865645
 10
356.4113632292239799
 20
85.1576055000919041
 10
356.3944702661617612
 20
84.9783650744480212
 10
356.3888392784743928
 20
84.7855037461548875
 10
356.3888392784743928
 20
81.7806869650782176
 10
355.5122314655185392
 20
81.7806869650782176
 10
355.5122314655185392
 20
85.1410169147425648
 10
355.4988388461539444
 20
85.4149568562912975
 10
355.4586609880601031
 20
85.6523714723001888
 10
355.3916978912370723
 20
85.8532607627692528
 10
355.3481718783021392
 20
85.9400084109263531
 10
355.2979495556848519
 20
86.0176247276984896
 10
355.2401177902467566
 20
86.0861097130856621
 10
355.1737634488493995
 20
86.1454633670878849
 10
355.0988865314927807
 20
86.195685689705158
 10
355.0154870381768433
 20
86.236776680937453
 10
354.9235649689015872
 20
86.2687363407848125
 10
354.8231203236670694
 20
86.291564669247208
 10
354.5966633053201349
 20
86.3098273320171216
 10
354.4151019996158993
 20
86.2976522235038317
 10
354.240541381306798
 20
86.2611268979640045
 10
354.072981450392831
 20
86.2002513553976257
 10
353.9124222068739982
 20
86.1150255958046955
 10
353.7661687158582708
 20
86.0063627523237102
 10
353.64152604245362
 20
85.875175958093152
 10
353.5384941866599888
 20
85.7214652131130208
 10
353.4570731484774342
 20
85.5452305173833452
 10
353.3952844727725733
 20
85.3370361618063242
 10
353.3511497044119096
 20
85.087446437284143
 10
353.3246688433955569
 20
84.7964613438168442
 10
353.3158418897234014
 20
84.4640808814043851
 10
353.3158418897234014
 20
81.7806869650782176
 10
352.4392340767674341
 20
81.7806869650782176
  0
LWPOLYLINE
  5
F3
  8
Layer_1
 62
7
370
-1
  6
CONTINUOUS
100
AcDbEntity
100
AcDbPolyline
 90
108
 70
1
 10
364.1224682061077829
 20
82.4186626511739036
 10
363.8812488686884308
 20
82.2269046920898035
 10
363.6445951969616317
 20
82.0655845042888785
 10
363.4125071909272719
 20
81.9347020877711429
 10
363.1849848505854084
 20
81.8342574425366251
 10
362.9556362439665804
 20
81.7596849028928148
 10
362.7180694391012707
 20
81.7064188031472156
 10
362.4722844359895362
 20
81.6744591432998561
 10
362.218281234631263
 20
81.6638059233507505
 10
362.0113804843337562
 20
81.6703119969625391
 10
361.8168070314059719
 20
81.6898302177978906
 10
361.6345608758478534
 20
81.7223605858567907
 10
361.4646420176594575
 20
81.7679031011392681
 10
361.3070504568407273
 20
81.8264577636452941
 10
361.1617861933916629
 20
81.8980245733748973
 10
361.0288492273123211
 20
81.9826035303280776
 10
360.9082395586027019
 20
82.0801946345048066
 10
360.8009464148294683
 20
82.1879062976332051
 10
360.7079590235592832
 20
82.3028469314413655
 10
360.6292773847922035
 20
82.4250165359292737
 10
360.5649014985282861
 20
82.5544151110969437
 10
360.514831364767474
 20
82.6910426569443757
 10
360.4790669835097106
 20
82.8348991734715554
 10
360.4576083547550525
 20
82.985984660678497
 10
360.4504554785034998
 20
83.1442991185652005
 10
360.461260887309038
 20
83.3301217122490812
 10
360.4936771137256528
 20
83.5077261076865085
 10
360.5477041577533441
 20
83.6771123048774683
 10
360.6233420193920551
 20
83.8382803038219606
 10
360.7164815995186018
 20
83.987577571966014
 10
360.8230137990098001
 20
84.121351576755643
 10
360.9429386178655932
 20
84.2396023181908475
 10
361.0762560560859242
 20
84.3423297962716276
 10
361.2206832808246304
 20
84.4315124661313803
 10
361.373937459235492
 20
84.5091287829035025
 10
361.5360185913184523
 20
84.5751787465880227
 10
361.7069266770736249
 20
84.6296623571849409
 10
362.0307845635268222
 20
84.6966254540079717
 10
362.4861336219233863
 20
84.761153529128336
 10
362.9819649161265716
 20
84.8275078705256931
 10
363.4077893363784142
 20
84.899949766179688
 10
363.7636068826789142
 20
84.9784792160903208
 10
364.0494175550280715
 20
85.0630962202575915
 10
364.0542875984333477
 20
85.2919882603071926
 10
364.0387643350788949
 20
85.5400560962652037
 10
363.99219454501565
 20
85.7485548295550757
 10
363.9572672024681879
 20
85.837965782699456
 10
363.9145782282434993
 20
85.9174844601767802
 10
363.8641276223416412
 20
85.987110861987091
 10
363.8059153847625566
 20
86.0468449881303457
 10
363.7168088093310416
 20
86.1164713899406564
 10
363.6175055805196052
 20
86.1768142715095848
 10
363.5080056983283612
 20
86.2278736328371309
 10
363.3883091627571957
 20
86.2696494739233088
 10
363.2584159738061658
 20
86.3021417947681186
 10
363.1183261314752713
 20
86.3253505953715461
 10
362.8075564866738887
 20
86.3439176358542966
 10
362.5185498483399442
 20
86.3303728276332834
 10
362.2700254458126778
 20
86.2897384029702152
 10
362.0619832790920896
 20
86.2220143618651207
 10
361.97314303415925
 20
86.1779937351467993
 10
361.8944233481781225
 20
86.1272007043179713
 10
361.8231609161613846
 20
86.0678090031016438
 10
361.7566924331217137
 20
85.9979923652208242
 10
361.6381373139736866
 20
85.8270842794657085
 10
361.538757990734041
 20
85.6144764470526241
 10
361.4585544634028338
 20
85.3601688679815425
 10
360.6014268240680849
 20
85.4770499097089953
 10
360.6693030540296263
 20
85.7389669316008707
 10
360.7560507021867693
 20
85.9744030924763649
 10
360.861669768539457
 20
86.183358392335478
 10
360.9861602530876894
 20
86.36583283117821
 10
361.1350009546624733
 20
86.5253267527021421
 10
361.3136706720948155
 20
86.6653405006048132
 10
361.5221694053847159
 20
86.7858740748862516
 10
361.7604971545320609
 20
86.8869274755464431
 10
362.0237838761316311
 20
86.9668266251648134
 10
362.3071595267781504
 20
87.0238974463208024
 10
362.6106241064716187
 20
87.0581399390143957
 10
362.9341776152119792
 20
87.0695541032455935
 10
363.2498173034186379
 20
87.0598140164349701
 10
363.5344104649165047
 20
87.0305937560030998
 10
363.7879570997054088
 20
86.9818933219499968
 10
364.0104572077855778
 20
86.9137127142756469
 10
364.2037370554338622
 20
86.8307697875289648
 10
364.3696229089272265
 20
86.7377823962588081
 10
364.5081147682657274
 20
86.6347505404652054
 10
364.6192126334494219
 20
86.5216742201481424
 10
364.7093084364477136
 20
86.395814035892144
 10
364.7847941092300061
 20
86.2544305882817213
 10
364.8456696517963564
 20
86.0975238773168599
 10
364.8919350641467645
 20
85.9250939029975882
 10
364.9111108600551461
 20
85.7905589539258813
 10
364.9248078571326346
 20
85.6109761033550427
 10
364.9357654547945913
 20
85.1166666977160133
 10
364.9357654547945913
 20
83.9478562804414565
 10
364.9497668295848598
 20
82.9501061377784197
 10
364.9672685480726955
 20
82.619704130499386
 10
364.9917709539556654
 20
82.401617499255309
 10
365.0266222020749183
 20
82.2413626334493131
 10
365.0751704472716028
 20
82.0844559224844659
 10
365.137415689545719
 20
81.9308973663607674
 10
365.2133579288972669
 20
81.7806869650782176
 10
364.2977897686989763
 20
81.7806869650782176
 10
364.2356967152812786
 20
81.9228313569707183
 10
364.1857787703768281
 20
82.0765421019508352
 10
364.148035933985625
 20
82.2418192000185684
 10
364.1224682061077829
 20
82.4186626511739036
  0
LWPOLYLINE
  5
F4
  8
Layer_1
 62
7
370
-1
  6
CONTINUOUS
100
AcDbEntity
100
AcDbPolyline
 90
38
 70
1
 10
364.0494175550280715
 20
84.3764201001087883
 10
363.7809564123102746
 20
84.282671764556568
 10
363.4528372378774748
 20
84.1962284941123045
 10
363.0650600317296721
 20
84.1170902887760121
 10
362.617624793866753
 20
84.0452571485476767
 10
362.1561881812135653
 20
83.9624664106573846
 10
361.9848235288891374
 20
83.9174185091582672
 10
361.8530279792329338
 20
83.8699355859564832
 10
361.7474089128802461
 20
83.8156041642159835
 10
361.6545737104665363
 20
83.7500107671007044
 10
361.5745223719917476
 20
83.6731553946106459
 10
361.5072548974558799
 20
83.5850380467458081
 10
361.4539887977102808
 20
83.4887025006345169
 10
361.4159415836062976
 20
83.3871925334050701
 10
361.3931132551439305
 20
83.2805081450574818
 10
361.3855038123231225
 20
83.168649335591752
 10
361.4020923976724475
 20
83.0006328381085439
 10
361.4518581537204795
 20
82.8472264708412496
 10
361.5348010804672185
 20
82.7084302337898976
 10
361.6509211779125508
 20
82.5842441269544736
 10
361.7211182879344165
 20
82.5294561386447327
 10
361.7990009352052994
 20
82.4819732154429488
 10
361.9778228414940031
 20
82.4089225643632801
 10
362.1873868967787757
 20
82.3650921737154817
 10
362.4276931010596172
 20
82.3504820434995537
 10
362.6739346707406639
 20
82.364331229433418
 10
362.9061748656314421
 20
82.4058787872349683
 10
363.1244136857319518
 20
82.4751247169042188
 10
363.3286511310421361
 20
82.5720690184411978
 10
363.5127996473054282
 20
82.6930591592918773
 10
363.6707716802651476
 20
82.8344426069023143
 10
363.8025672299214079
 20
82.9962193612724661
 10
363.9081862962740388
 20
83.1783894224023754
 10
363.9699749719788997
 20
83.344579653608605
 10
364.0141097403395634
 20
83.5460776995033285
 10
364.0405906013559161
 20
83.7828835600865602
 10
364.0494175550280715
 20
84.0549972353582859
 10
364.0494175550280715
 20
84.3764201001087883
  0
LWPOLYLINE
  5
F5
  8
Layer_1
 62
7
370
-1
  6
CONTINUOUS
100
AcDbEntity
100
AcDbPolyline
 90
37
 70
1
 10
368.2084346231633845
 20
82.5647639533332267
 10
368.3350557517014749
 20
81.7904270518888268
 10
367.984412626519088
 20
81.7319865310251146
 10
367.6727298485792517
 20
81.7125063574038677
 10
367.4474903410836077
 20
81.7219420665016543
 10
367.2490360723172103
 20
81.7502491937950282
 10
367.0773670422800024
 20
81.7974277392839753
 10
366.932483250971984
 20
81.8634777029684955
 10
366.8107321658392266
 20
81.9448987411510359
 10
366.7084612543276876
 20
82.038190510134001
 10
366.6256705164374239
 20
82.1433530099174334
 10
366.5623599521683786
 20
82.2603862405013047
 10
366.51548578439224
 20
82.4172929514661661
 10
366.482004235980753
 20
82.6420758923925405
 10
366.4619153069338608
 20
82.9347350632804279
 10
366.4552189972515635
 20
83.2952704641298283
 10
366.4552189972515635
 20
86.2708669847746421
 10
365.8123732677505586
 20
86.2708669847746421
 10
365.8123732677505586
 20
86.9526730615181265
 10
366.4552189972515635
 20
86.9526730615181265
 10
366.4552189972515635
 20
88.2334944771148315
 10
367.3269567668021409
 20
88.7594591648883835
 10
367.3269567668021409
 20
86.9526730615181265
 10
368.2084346231633845
 20
86.9526730615181265
 10
368.2084346231633845
 20
86.2708669847746421
 10
367.3269567668021409
 20
86.2708669847746421
 10
367.3269567668021409
 20
83.2465700300767253
 10
367.3385231198897714
 20
82.9385397846908177
 10
367.3529810612492952
 20
82.834746984615137
 10
367.3732221791526058
 20
82.7644357329509717
 10
367.434097721719013
 20
82.6682523756960848
 10
367.5241935247172478
 20
82.5939842137650828
 10
367.5821774790117047
 20
82.5662858418973826
 10
367.651423408681012
 20
82.5465012905632989
 10
367.8237011941438368
 20
82.5306736494960518
 10
367.9929352024784066
 20
82.5391962254553562
 10
368.2084346231633845
 20
82.5647639533332267
  0
LWPOLYLINE
  5
F6
  8
Layer_1
 62
7
370
-1
  6
CONTINUOUS
100
AcDbEntity
100
AcDbPolyline
 90
92
 70
1
 10
372.6060838181589361
 20
83.446241809694456
 10
373.5119118915466743
 20
83.3342308113723078
 10
373.4526343319727175
 20
83.1413314358650837
 10
373.3819426081674919
 20
82.9595418468762205
 10
373.2998367201311112
 20
82.7888620444057324
 10
373.2063166678634616
 20
82.629292028453591
 10
373.1013824513646568
 20
82.4808317990198248
 10
372.9850340706346401
 20
82.3434813561044194
 10
372.8572715256734682
 20
82.2172406997073892
 10
372.7180948164810843
 20
82.10210982982872
 10
372.5681887929114282
 20
81.9993823517479399
 10
372.4082383048182123
 20
81.9103518707446057
 10
372.2382433522015504
 20
81.8350183868187031
 10
372.0582039350614991
 20
81.7733818999702464
 10
371.8681200533980018
 20
81.7254424101992072
 10
371.6679917072110015
 20
81.691199917505628
 10
371.4578188965005552
 20
81.6706544218894805
 10
371.2376016212666627
 20
81.6638059233507505
 10
370.9612647052293823
 20
81.6747254737985884
 10
370.6996140138362534
 20
81.7074841251421304
 10
370.4526495470872192
 20
81.7620818773813482
 10
370.2203713049823364
 20
81.8385187305162702
 10
370.0027792875216051
 20
81.936794684546868
 10
369.7998734947050252
 20
82.0569097394731699
 10
369.6116539265325969
 20
82.1988638952951476
 10
369.43812058300432
 20
82.3626571520128294
 10
369.2823172412485064
 20
82.5461588656363574
 10
369.1472876783934112
 20
82.7472383921759445
 10
369.033031894439091
 20
82.9658957316315764
 10
368.9395498893856029
 20
83.2021308840032532
 10
368.8668416632328899
 20
83.4559438492909749
 10
368.8149072159809521
 20
83.7273346274947414
 10
368.7837465476297893
 20
84.0163032186145387
 10
368.7733596581794018
 20
84.3228496226503808
 10
368.7838606892721032
 20
84.6400111994212239
 10
368.8153637825502074
 20
84.9389101134221818
 10
368.8678689380137143
 20
85.2195463646532119
 10
368.9413761556626241
 20
85.4819199531143283
 10
369.0358854354969367
 20
85.726030878805517
 10
369.151396777516652
 20
85.9518791417268062
 10
369.2879101817217702
 20
86.1594647418781676
 10
369.4454256481122911
 20
86.3487876792596154
 10
369.6196818887085556
 20
86.5177173098813341
 10
369.806417615530961
 20
86.6641229897534799
 10
370.0056328285794507
 20
86.788004718876067
 10
370.2173275278540814
 20
86.8893624972490954
 10
370.4415017133547963
 20
86.9681963248725651
 10
370.6781553850815953
 20
87.0245062017464761
 10
370.9272885430344786
 20
87.0582921278708142
 10
371.1889011872135598
 20
87.0695541032455935
 10
371.4422956331461592
 20
87.0585204111554276
 10
371.6838193482782344
 20
87.0254193348849583
 10
371.9134723326098992
 20
86.9702508744341856
 10
372.1312545861411536
 20
86.893015029803081
 10
372.3371661088719407
 20
86.7937118009916588
 10
372.5312069008022604
 20
86.6723411879999333
 10
372.7133769619321697
 20
86.5289031908278901
 10
372.8836762922616117
 20
86.3633978094755435
 10
373.0377675093827747
 20
86.1778795935044855
 10
373.1713132308877903
 20
85.9744030924763507
 10
373.2843134567766015
 20
85.752968306391125
 10
373.376768187049322
 20
85.5135752352488225
 10
373.4486774217058951
 20
85.2562238790494291
 10
373.5000411607462638
 20
84.9809142377929732
 10
373.530859404170485
 20
84.6876463114794262
 10
373.5411321519785588
 20
84.3764201001087883
 10
373.5362621085732826
 20
84.1426580166538827
 10
369.6791877315672536
 20
84.1426580166538827
 10
369.6973742999089154
 20
83.9358333607845992
 10
369.7275837879075198
 20
83.7414881911414284
 10
369.769816195562953
 20
83.559622507724356
 10
369.8240715228752151
 20
83.3902363105333961
 10
369.8903497698444198
 20
83.2333295995685347
 10
369.9686509364703966
 20
83.0889023748297859
 10
370.0589750227533159
 20
82.9569546363171497
 10
370.1613220286930073
 20
82.8374863840306261
 10
370.2730286493023186
 20
82.7313346566805023
 10
370.3914315795939274
 20
82.6393364929770513
 10
370.5165308195678335
 20
82.5614918929202872
 10
370.6483263692240371
 20
82.4978008565101959
 10
370.786818228562538
 20
82.4482633837468057
 10
370.9320063975833932
 20
82.4128794746301025
 10
371.0838908762865458
 20
82.3916491291600721
 10
371.2424716646719389
 20
82.3845723473367286
 10
371.4747118595627171
 20
82.4003999884039899
 10
371.6892981471091844
 20
82.4478829116057739
 10
371.8862305273113975
 20
82.5270211169420662
 10
372.0655090001694134
 20
82.6378146044128812
 10
372.2271335656831752
 20
82.7833071511465448
 10
372.3711042238526261
 20
82.9665425342713547
 10
372.4974209746778797
 20
83.1875207537873251
 10
372.6060838181589361
 20
83.446241809694456
  0
LWPOLYLINE
  5
F7
  8
Layer_1
 62
7
370
-1
  6
CONTINUOUS
100
AcDbEntity
100
AcDbPolyline
 90
32
 70
1
 10
369.7278881656203566
 20
84.8634244406398608
 10
372.6158239049696022
 20
84.8634244406398608
 10
372.5732110251731228
 20
85.1693240420359388
 10
372.5038129066474539
 20
85.4344370299125444
 10
372.4590693828611734
 20
85.5516985437810433
 10
372.4076295493925386
 20
85.6587634042696635
 10
372.3494934062416064
 20
85.7556316113784192
 10
372.2846609534084337
 20
85.8423031651073103
 10
372.1760742043556434
 20
85.9610104731117559
 10
372.0597258236256266
 20
86.0638901400489402
 10
371.9356158112184403
 20
86.1509421659188632
 10
371.8037441671340275
 20
86.2221665507215391
 10
371.6641108913723883
 20
86.2775632944569537
 10
371.5167159839334658
 20
86.317132397125107
 10
371.3615594448173738
 20
86.3408738587259847
 10
371.1986412740241121
 20
86.3487876792596154
 10
371.0506756583737342
 20
86.3424718417183499
 10
370.9087215025517708
 20
86.3235243290945675
 10
370.7727788065582217
 20
86.2919451413882541
 10
370.6428475703930872
 20
86.2477342785994097
 10
370.518927794056367
 20
86.1908917407280626
 10
370.4010194775481182
 20
86.1214175277741703
 10
370.2891226208682838
 20
86.0393116397377611
 10
370.1832372240168638
 20
85.9445740766188351
 10
370.0861026864093901
 20
85.8392593879789985
 10
370.0004584074612808
 20
85.7254221233798575
 10
369.9263043871725927
 20
85.6030622828214121
 10
369.8636406255433258
 20
85.4721798663036907
 10
369.8124671225734801
 20
85.3327748738266791
 10
369.7727838782629988
 20
85.1848473053903774
 10
369.7445908926119955
 20
85.0283971609947571
 10
369.7278881656203566
 20
84.8634244406398608
  0
LWPOLYLINE
  5
F8
  8
Layer_1
 62
7
370
-1
  6
CONTINUOUS
100
AcDbEntity
100
AcDbPolyline
 90
35
 70
1
 10
374.602801614336272
 20
81.7806869650782176
 10
374.602801614336272
 20
86.9526730615181265
 10
375.3917486459965858
 20
86.9526730615181265
 10
375.3917486459965858
 20
86.1685960732631173
 10
375.5398284032893343
 20
86.420316441775114
 10
375.6821249840382961
 20
86.6251626425109862
 10
375.8186383882434143
 20
86.7831346754707482
 10
375.9493686159046888
 20
86.8942325406544001
 10
376.0804032212788002
 20
86.9709357242880401
 10
376.2178297586224289
 20
87.0257237125977952
 10
376.3616482279355182
 20
87.0585965055836368
 10
376.511858629218068
 20
87.0695541032455935
 10
376.7343587372981801
 20
87.0519001959013394
 10
376.9586851116553134
 20
86.9989384738685914
 10
377.1848377522894111
 20
86.9106689371473351
 10
377.41281665920053
 20
86.7870915857375707
 10
377.1108739680712461
 20
85.9737943370506912
 10
376.9501625356959948
 20
86.0568894526538202
 10
376.7894511033207436
 20
86.116243106656043
 10
376.6287396709454924
 20
86.1518552990573596
 10
376.4680282385702412
 20
86.1637260298578127
 10
376.3280144906675559
 20
86.1529206210522887
 10
376.1953058078728418
 20
86.1205043946356739
 10
376.0699021901860988
 20
86.066477350608011
 10
375.9518036376073269
 20
85.9908394889692715
 10
375.8455758158289655
 20
85.8960258314221363
 10
375.7557843905435675
 20
85.7844713996692292
 10
375.682429361751133
 20
85.6561761937105928
 10
375.6255107294515483
 20
85.5111402135461702
 10
375.5615914097568293
 20
85.2718993312603004
 10
375.515934752832095
 20
85.0217008513124597
 10
375.4885407586772317
 20
84.7605447737026623
 10
375.4794094272922393
 20
84.4884310984309366
 10
375.4794094272922393
 20
81.7806869650782176
 10
374.602801614336272
 20
81.7806869650782176
  0
LWPOLYLINE
  5
F9
  8
Layer_1
 62
7
370
-1
  6
CONTINUOUS
100
AcDbEntity
100
AcDbPolyline
 90
5
 70
1
 10
377.9387813469741104
 20
87.9120716123643291
 10
377.9387813469741104
 20
88.9201705972636347
 10
378.8153891599299641
 20
88.9201705972636347
 10
378.8153891599299641
 20
87.9120716123643291
 10
377.9387813469741104
 20
87.9120716123643291
  0
LWPOLYLINE
  5
FA
  8
Layer_1
 62
7
370
-1
  6
CONTINUOUS
100
AcDbEntity
100
AcDbPolyline
 90
5
 70
1
 10
377.9387813469741104
 20
81.7806869650782176
 10
377.9387813469741104
 20
86.9526730615181265
 10
378.8153891599299641
 20
86.9526730615181265
 10
378.8153891599299641
 20
81.7806869650782176
 10
377.9387813469741104
 20
81.7806869650782176
  0
LWPOLYLINE
  5
FB
  8
Layer_1
 62
7
370
-1
  6
CONTINUOUS
100
AcDbEntity
100
AcDbPolyline
 90
108
 70
1
 10
383.5247211328654657
 20
82.4186626511739036
 10
383.2835017954461136
 20
82.2269046920898035
 10
383.0468481237193146
 20
82.0655845042888785
 10
382.8147601176849548
 20
81.9347020877711429
 10
382.5872377773430912
 20
81.8342574425366251
 10
382.3578891707242633
 20
81.7596849028928148
 10
382.1203223658589536
 20
81.7064188031472156
 10
381.874537362747219
 20
81.6744591432998561
 10
381.6205341613889459
 20
81.6638059233507505
 10
381.413633411091439
 20
81.6703119969625391
 10
381.2190599581636548
 20
81.6898302177978906
 10
381.0368138026055362
 20
81.7223605858567907
 10
380.8668949444171403
 20
81.7679031011392681
 10
380.7093033835984102
 20
81.8264577636452941
 10
380.5640391201493458
 20
81.8980245733748973
 10
380.431102154070004
 20
81.9826035303280776
 10
380.3104924853603848
 20
82.0801946345048066
 10
380.2031993415871511
 20
82.1879062976332051
 10
380.1102119503169661
 20
82.3028469314413655
 10
380.0315303115498864
 20
82.4250165359292737
 10
379.967154425285969
 20
82.5544151110969437
 10
379.9170842915251569
 20
82.6910426569443757
 10
379.8813199102673934
 20
82.8348991734715554
 10
379.8598612815127353
 20
82.985984660678497
 10
379.8527084052611826
 20
83.1442991185652005
 10
379.8635138140667209
 20
83.3301217122490812
 10
379.8959300404833357
 20
83.5077261076865085
 10
379.9499570845109702
 20
83.6771123048774683
 10
380.0255949461496812
 20
83.8382803038219606
 10
380.1187345262762278
 20
83.987577571966014
 10
380.2252667257673693
 20
84.121351576755643
 10
380.3451915446231624
 20
84.2396023181908475
 10
380.4785089828435503
 20
84.3423297962716276
 10
380.6229362075823133
 20
84.4315124661313803
 10
380.7761903859931749
 20
84.5091287829035025
 10
380.9382715180761352
 20
84.5751787465880227
 10
381.1091796038313078
 20
84.6296623571849409
 10
381.4330374902844483
 20
84.6966254540079717
 10
381.8883865486809555
 20
84.761153529128336
 10
382.3842178428841407
 20
84.8275078705256931
 10
382.8100422631359834
 20
84.899949766179688
 10
383.1658598094365402
 20
84.9784792160903208
 10
383.4516704817857544
 20
85.0630962202575915
 10
383.4565405251910306
 20
85.2919882603071926
 10
383.4410172618365777
 20
85.5400560962652037
 10
383.3944474717733328
 20
85.7485548295550757
 10
383.3595201292258707
 20
85.837965782699456
 10
383.3168311550011822
 20
85.9174844601767802
 10
383.2663805490993241
 20
85.987110861987091
 10
383.2081683115202395
 20
86.0468449881303457
 10
383.1190617360887245
 20
86.1164713899406564
 10
383.0197585072772881
 20
86.1768142715095848
 10
382.910258625086044
 20
86.2278736328371309
 10
382.7905620895148218
 20
86.2696494739233088
 10
382.6606689005637918
 20
86.3021417947681186
 10
382.5205790582328973
 20
86.3253505953715461
 10
382.2098094134314579
 20
86.3439176358542966
 10
381.9208027750975702
 20
86.3303728276332834
 10
381.6722783725703039
 20
86.2897384029702152
 10
381.4642362058497156
 20
86.2220143618651207
 10
381.3753959609169328
 20
86.1779937351467993
 10
381.2966762749357486
 20
86.1272007043179713
 10
381.2254138429189538
 20
86.0678090031016438
 10
381.1589453598793398
 20
85.9979923652208242
 10
381.0403902407313126
 20
85.8270842794657085
 10
380.9410109174917238
 20
85.6144764470526241
 10
380.8608073901605167
 20
85.3601688679815425
 10
380.0036797508257678
 20
85.4770499097089953
 10
380.0715559807873092
 20
85.7389669316008707
 10
380.1583036289444522
 20
85.9744030924763649
 10
380.2639226952971399
 20
86.183358392335478
 10
380.3884131798453723
 20
86.36583283117821
 10
380.5372538814201562
 20
86.5253267527021421
 10
380.7159235988524983
 20
86.6653405006048132
 10
380.9244223321423988
 20
86.7858740748862516
 10
381.1627500812897438
 20
86.8869274755464431
 10
381.426036802889314
 20
86.9668266251648134
 10
381.7094124535358333
 20
87.0238974463208024
 10
382.0128770332292447
 20
87.0581399390143957
 10
382.3364305419695484
 20
87.0695541032455935
 10
382.652070230176264
 20
87.0598140164349701
 10
382.9366633916741307
 20
87.0305937560030998
 10
383.1902100264630917
 20
86.9818933219499968
 10
383.4127101345432607
 20
86.9137127142756469
 10
383.6059899821915451
 20
86.8307697875289648
 10
383.7718758356849094
 20
86.7377823962588081
 10
383.9103676950234103
 20
86.6347505404652054
 10
384.0214655602071048
 20
86.5216742201481424
 10
384.1115613632053964
 20
86.395814035892144
 10
384.187047035987689
 20
86.2544305882817213
 10
384.2479225785540393
 20
86.0975238773168599
 10
384.2941879909044474
 20
85.9250939029975882
 10
384.3133637868128289
 20
85.7905589539258813
 10
384.3270607838903175
 20
85.6109761033550427
 10
384.3380183815522741
 20
85.1166666977160133
 10
384.3380183815522741
 20
83.9478562804414565
 10
384.3520197563425427
 20
82.9501061377784197
 10
384.3695214748303783
 20
82.619704130499386
 10
384.3940238807133483
 20
82.401617499255309
 10
384.4288751288326011
 20
82.2413626334493131
 10
384.4774233740292857
 20
82.0844559224844659
 10
384.5396686163034019
 20
81.9308973663607674
 10
384.6156108556549498
 20
81.7806869650782176
 10
383.7000426954565455
 20
81.7806869650782176
 10
383.6379496420388477
 20
81.9228313569707183
 10
383.5880316971344541
 20
82.0765421019508352
 10
383.5502888607433079
 20
82.2418192000185684
 10
383.5247211328654657
 20
82.4186626511739036
  0
LWPOLYLINE
  5
FC
  8
Layer_1
 62
7
370
-1
  6
CONTINUOUS
100
AcDbEntity
100
AcDbPolyline
 90
38
 70
1
 10
383.4516704817857544
 20
84.3764201001087883
 10
383.1832093390679574
 20
84.282671764556568
 10
382.8550901646351576
 20
84.1962284941123045
 10
382.467312958487355
 20
84.1170902887760121
 10
382.0198777206244358
 20
84.0452571485476767
 10
381.5584411079712481
 20
83.9624664106573846
 10
381.3870764556468202
 20
83.9174185091582672
 10
381.2552809059906167
 20
83.8699355859564832
 10
381.149661839637929
 20
83.8156041642159835
 10
381.0568266372242192
 20
83.7500107671007044
 10
380.9767752987494305
 20
83.6731553946106459
 10
380.9095078242135628
 20
83.5850380467458081
 10
380.8562417244679636
 20
83.4887025006345169
 10
380.8181945103639805
 20
83.3871925334050701
 10
380.7953661819016133
 20
83.2805081450574818
 10
380.7877567390808053
 20
83.168649335591752
 10
380.8043453244301304
 20
83.0006328381085439
 10
380.8541110804781624
 20
82.8472264708412496
 10
380.9370540072249014
 20
82.7084302337898976
 10
381.0531741046702336
 20
82.5842441269544736
 10
381.1233712146920993
 20
82.5294561386447327
 10
381.2012538619629822
 20
82.4819732154429488
 10
381.380075768251686
 20
82.4089225643632801
 10
381.5896398235364586
 20
82.3650921737154817
 10
381.8299460278173001
 20
82.3504820434995537
 10
382.07618759749829
 20
82.364331229433418
 10
382.3084277923890113
 20
82.4058787872349683
 10
382.526666612489521
 20
82.4751247169042188
 10
382.7309040577997621
 20
82.5720690184411978
 10
382.915052574063111
 20
82.6930591592918773
 10
383.0730246070228304
 20
82.8344426069023143
 10
383.2048201566790908
 20
82.9962193612724661
 10
383.3104392230317217
 20
83.1783894224023754
 10
383.3722278987365826
 20
83.344579653608605
 10
383.4163626670972462
 20
83.5460776995033285
 10
383.4428435281135989
 20
83.7828835600865602
 10
383.4516704817857544
 20
84.0549972353582859
 10
383.4516704817857544
 20
84.3764201001087883
  0
LWPOLYLINE
  5
FD
  8
Layer_1
 62
7
370
-1
  6
CONTINUOUS
100
AcDbEntity
100
AcDbPolyline
 90
5
 70
1
 10
385.677280318012663
 20
81.7806869650782176
 10
385.677280318012663
 20
88.9201705972636347
 10
386.5538881309686303
 20
88.9201705972636347
 10
386.5538881309686303
 20
81.7806869650782176
 10
385.677280318012663
 20
81.7806869650782176
  0
LINE
  5
FE
100
AcDbEntity
100
AcDbLine
  8
Layer_3
 62
1
370
-1
  6
ByLayer
 10
116.5
 20
125.0
 30
0.0
 11
157.5
 21
125.0
 31
0.0
  0
LINE
  5
FF
100
AcDbEntity
100
AcDbLine
  8
Layer_3
 62
1
370
-1
  6
ByLayer
 10
116.5
 20
99.0
 30
0.0
 11
116.5
 21
125.0
 31
0.0
  0
LINE
  5
100
100
AcDbEntity
100
AcDbLine
  8
Layer_3
 62
1
370
-1
  6
ByLayer
 10
117.0
 20
93.0
 30
0.0
 11
117.0
 21
99.0
 31
0.0
  0
LINE
  5
101
100
AcDbEntity
100
AcDbLine
  8
Layer_3
 62
1
370
-1
  6
ByLayer
 10
117.0
 20
99.0
 30
0.0
 11
116.5
 21
99.0
 31
0.0
  0
LINE
  5
102
100
AcDbEntity
100
AcDbLine
  8
Layer_3
 62
1
370
-1
  6
ByLayer
 10
157.0
 20
93.0
 30
0.0
 11
157.0
 21
99.0
 31
0.0
  0
LINE
  5
103
100
AcDbEntity
100
AcDbLine
  8
Layer_3
 62
1
370
-1
  6
ByLayer
 10
157.5
 20
125.0
 30
0.0
 11
157.5
 21
99.0
 31
0.0
  0
LINE
  5
104
100
AcDbEntity
100
AcDbLine
  8
Layer_3
 62
1
370
-1
  6
ByLayer
 10
157.0
 20
99.0
 30
0.0
 11
157.5
 21
99.0
 31
0.0
  0
POINT
  5
105
100
AcDbEntity
100
AcDbPoint
  8
0
 62
1
370
-1
  6
CONTINUOUS
 10
166.0
 20
62.0
 30
0.0
  0
LINE
  5
106
100
AcDbEntity
100
AcDbLine
  8
0
 62
1
370
-1
  6
CONTINUOUS
 10
166.0
 20
87.0
 30
0.0
 11
110.0
 21
87.0
 31
0.0
  0
CIRCLE
  5
107
100
AcDbEntity
100
AcDbCircle
  8
0
 62
1
370
-1
  6
CONTINUOUS
 10
114.0
 20
78.0
 30
0.0
 40
2.0
  0
CIRCLE
  5
108
100
AcDbEntity
100
AcDbCircle
  8
0
 62
1
370
-1
  6
CONTINUOUS
 10
114.0
 20
68.0
 30
0.0
 40
2.0
  0
CIRCLE
  5
109
100
AcDbEntity
100
AcDbCircle
  8
0
 62
1
370
-1
  6
CONTINUOUS
 10
162.0
 20
78.0
 30
0.0
 40
2.0
  0
CIRCLE
  5
10A
100
AcDbEntity
100
AcDbCircle
  8
0
 62
1
370
-1
  6
CONTINUOUS
 10
162.0
 20
68.0
 30
0.0
 40
2.0
  0
LINE
  5
10B
100
AcDbEntity
100
AcDbLine
  8
0
 62
1
370
-1
  6
CONTINUOUS
 10
110.0
 20
50.0
 30
0.0
 11
118.0
 21
50.0
 31
0.0
  0
LINE
  5
10C
100
AcDbEntity
100
AcDbLine
  8
0
 62
1
370
-1
  6
CONTINUOUS
 10
110.0
 20
87.0
 30
0.0
 11
110.0
 21
50.0
 31
0.0
  0
LINE
  5
10D
100
AcDbEntity
100
AcDbLine
  8
0
 62
1
370
-1
  6
CONTINUOUS
 10
158.0
 20
50.0
 30
0.0
 11
166.0
 21
50.0
 31
0.0
  0
LINE
  5
10E
100
AcDbEntity
100
AcDbLine
  8
0
 62
1
370
-1
  6
CONTINUOUS
 10
166.0
 20
50.0
 30
0.0
 11
166.0
 21
87.0
 31
0.0
  0
LINE
  5
10F
100
AcDbEntity
100
AcDbLine
  8
Layer_3
 62
1
370
-1
  6
ByLayer
 10
117.5
 20
82.0
 30
0.0
 11
158.5
 21
82.0
 31
0.0
  0
LINE
  5
110
100
AcDbEntity
100
AcDbLine
  8
Layer_3
 62
1
370
-1
  6
ByLayer
 10
117.5
 20
56.0
 30
0.0
 11
117.5
 21
82.0
 31
0.0
  0
LINE
  5
111
100
AcDbEntity
100
AcDbLine
  8
Layer_3
 62
1
370
-1
  6
ByLayer
 10
118.0
 20
50.0
 30
0.0
 11
118.0
 21
56.0
 31
0.0
  0
LINE
  5
112
100
AcDbEntity
100
AcDbLine
  8
Layer_3
 62
1
370
-1
  6
ByLayer
 10
118.0
 20
56.0
 30
0.0
 11
117.5
 21
56.0
 31
0.0
  0
LINE
  5
113
100
AcDbEntity
100
AcDbLine
  8
Layer_3
 62
1
370
-1
  6
ByLayer
 10
158.0
 20
50.0
 30
0.0
 11
158.0
 21
56.0
 31
0.0
  0
LINE
  5
114
100
AcDbEntity
100
AcDbLine
  8
Layer_3
 62
1
370
-1
  6
ByLayer
 10
158.5
 20
82.0
 30
0.0
 11
158.5
 21
56.0
 31
0.0
  0
LINE
  5
115
100
AcDbEntity
100
AcDbLine
  8
Layer_3
 62
1
370
-1
  6
ByLayer
 10
158.0
 20
56.0
 30
0.0
 11
158.5
 21
56.0
 31
0.0
  0
ARC
  5
116
100
AcDbEntity
  8
0
 62
1
370
-1
  6
CONTINUOUS
100
AcDbCircle
 10
294.573983402500005
 20
69.6705809128499993
 30
0.0
 40
1.0
100
AcDbArc
 50
90.0
 51
180.0
  0
CIRCLE
  5
117
100
AcDbEntity
100
AcDbCircle
  8
0
 62
1
370
-1
  6
CONTINUOUS
 10
274.573983402500005
 20
127.6705809128499993
 30
0.0
 40
5.0
  0
CIRCLE
  5
118
100
AcDbEntity
100
AcDbCircle
  8
0
 62
1
370
-1
  6
CONTINUOUS
 10
279.573983402500005
 20
110.6705809128499993
 30
0.0
 40
8.0622577482985491
  0
CIRCLE
  5
119
100
AcDbEntity
100
AcDbCircle
  8
0
 62
1
370
-1
  6
CONTINUOUS
 10
279.573983402500005
 20
87.6705809128499993
 30
0.0
 40
10.0000000000000284
  0
CIRCLE
  5
11A
100
AcDbEntity
100
AcDbCircle
  8
0
 62
1
370
-1
  6
CONTINUOUS
 10
288.573983402500005
 20
62.6705809128499993
 30
0.0
 40
1.5
  0
CIRCLE
  5
11B
100
AcDbEntity
100
AcDbCircle
  8
0
 62
1
370
-1
  6
CONTINUOUS
 10
268.573983402500005
 20
74.6705809128499993
 30
0.0
 40
1.5
  0
CIRCLE
  5
11C
100
AcDbEntity
100
AcDbCircle
  8
0
 62
1
370
-1
  6
CONTINUOUS
 10
296.073983402500005
 20
74.6705809128499993
 30
0.0
 40
1.5
  0
LINE
  5
11D
100
AcDbEntity
100
AcDbLine
  8
0
 62
1
370
-1
  6
CONTINUOUS
 10
293.573983402500005
 20
69.6705809128499993
 30
0.0
 11
293.573983402500005
 21
62.6705809128499993
 31
0.0
  0
ARC
  5
11E
100
AcDbEntity
  8
0
 62
1
370
-1
  6
CONTINUOUS
100
AcDbCircle
 10
288.573983402500005
 20
62.6705809128499993
 30
0.0
 40
5.0
100
AcDbArc
 50
270.0
 51
0.0
  0
LINE
  5
11F
100
AcDbEntity
100
AcDbLine
  8
0
 62
1
370
-1
  6
CONTINUOUS
 10
288.573983402500005
 20
57.6705809128499993
 30
0.0
 11
275.573983402500005
 21
57.6705809128499993
 31
0.0
  0
LINE
  5
120
100
AcDbEntity
100
AcDbLine
  8
0
 62
1
370
-1
  6
CONTINUOUS
 10
275.573983402500005
 20
57.6705809128499993
 30
0.0
 11
275.573983402500005
 21
59.6705809128499993
 31
0.0
  0
LINE
  5
121
100
AcDbEntity
100
AcDbLine
  8
0
 62
1
370
-1
  6
CONTINUOUS
 10
275.573983402500005
 20
59.6705809128499993
 30
0.0
 11
271.573983402500005
 21
59.6705809128499993
 31
0.0
  0
LINE
  5
122
100
AcDbEntity
100
AcDbLine
  8
0
 62
1
370
-1
  6
CONTINUOUS
 10
271.573983402500005
 20
59.6705809128499993
 30
0.0
 11
271.573983402500005
 21
57.6705809128499993
 31
0.0
  0
LINE
  5
123
100
AcDbEntity
100
AcDbLine
  8
0
 62
1
370
-1
  6
CONTINUOUS
 10
271.573983402500005
 20
57.6705809128499993
 30
0.0
 11
263.573983402500005
 21
57.6705809128499993
 31
0.0
  0
LINE
  5
124
100
AcDbEntity
100
AcDbLine
  8
0
 62
1
370
-1
  6
CONTINUOUS
 10
263.573983402500005
 20
89.6705809128499993
 30
0.0
 11
263.573983402500005
 21
57.6705809128499993
 31
0.0
  0
LINE
  5
125
100
AcDbEntity
100
AcDbLine
  8
0
 62
1
370
-1
  6
CONTINUOUS
 10
270.573983402500005
 20
99.6705809128499993
 30
0.0
 11
263.573983402500005
 21
89.6705809128499993
 31
0.0
  0
LINE
  5
126
100
AcDbEntity
100
AcDbLine
  8
0
 62
1
370
-1
  6
CONTINUOUS
 10
263.573983402500005
 20
109.6705809128499993
 30
0.0
 11
270.573983402500005
 21
99.6705809128499993
 31
0.0
  0
LINE
  5
127
100
AcDbEntity
100
AcDbLine
  8
0
 62
1
370
-1
  6
CONTINUOUS
 10
263.573983402500005
 20
114.6705809128499993
 30
0.0
 11
263.573983402500005
 21
109.6705809128499993
 31
0.0
  0
LINE
  5
128
100
AcDbEntity
100
AcDbLine
  8
0
 62
1
370
-1
  6
CONTINUOUS
 10
266.573983402500005
 20
118.6705809128499993
 30
0.0
 11
263.573983402500005
 21
114.6705809128499993
 31
0.0
  0
LINE
  5
129
100
AcDbEntity
100
AcDbLine
  8
0
 62
1
370
-1
  6
CONTINUOUS
 10
263.573983402500005
 20
122.6705809128499993
 30
0.0
 11
266.573983402500005
 21
118.6705809128499993
 31
0.0
  0
LINE
  5
12A
100
AcDbEntity
100
AcDbLine
  8
0
 62
1
370
-1
  6
CONTINUOUS
 10
263.573983402500005
 20
127.6705809128499993
 30
0.0
 11
263.573983402500005
 21
122.6705809128499993
 31
0.0
  0
LINE
  5
12B
100
AcDbEntity
100
AcDbLine
  8
0
 62
1
370
-1
  6
CONTINUOUS
 10
265.573983402500005
 20
129.1705809128499993
 30
0.0
 11
263.573983402500005
 21
127.6705809128499993
 31
0.0
  0
LINE
  5
12C
100
AcDbEntity
100
AcDbLine
  8
0
 62
1
370
-1
  6
CONTINUOUS
 10
263.573983402500005
 20
130.6705809128499993
 30
0.0
 11
265.573983402500005
 21
129.1705809128499993
 31
0.0
  0
LINE
  5
12D
100
AcDbEntity
100
AcDbLine
  8
0
 62
1
370
-1
  6
CONTINUOUS
 10
263.573983402500005
 20
137.6705809128499993
 30
0.0
 11
263.573983402500005
 21
130.6705809128499993
 31
0.0
  0
LINE
  5
12E
100
AcDbEntity
100
AcDbLine
  8
0
 62
1
370
-1
  6
CONTINUOUS
 10
263.573983402500005
 20
137.6705809128499993
 30
0.0
 11
278.573983402500005
 21
137.6705809128499993
 31
0.0
  0
LINE
  5
12F
100
AcDbEntity
100
AcDbLine
  8
0
 62
1
370
-1
  6
CONTINUOUS
 10
278.573983402500005
 20
137.6705809128499993
 30
0.0
 11
293.573983402500005
 21
117.6705809128499993
 31
0.0
  0
LINE
  5
130
100
AcDbEntity
100
AcDbLine
  8
0
 62
1
370
-1
  6
CONTINUOUS
 10
293.573983402500005
 20
117.6705809128499993
 30
0.0
 11
293.573983402500005
 21
79.6705809128499993
 31
0.0
  0
ARC
  5
131
100
AcDbEntity
  8
0
 62
1
370
-1
  6
CONTINUOUS
100
AcDbCircle
 10
294.573983402500005
 20
79.6705809128499993
 30
0.0
 40
1.0
100
AcDbArc
 50
180.0
 51
270.0
  0
LINE
  5
132
100
AcDbEntity
100
AcDbLine
  8
0
 62
1
370
-1
  6
CONTINUOUS
 10
294.573983402500005
 20
78.6705809128499993
 30
0.0
 11
298.573983402500005
 21
78.6705809128499993
 31
0.0
  0
ARC
  5
133
100
AcDbEntity
  8
0
 62
1
370
-1
  6
CONTINUOUS
100
AcDbCircle
 10
298.573983402500005
 20
77.6705809128499993
 30
0.0
 40
1.0
100
AcDbArc
 50
0.0
 51
90.0
  0
LINE
  5
134
100
AcDbEntity
100
AcDbLine
  8
0
 62
1
370
-1
  6
CONTINUOUS
 10
299.573983402500005
 20
77.6705809128499993
 30
0.0
 11
299.573983402500005
 21
71.6705809128499993
 31
0.0
  0
ARC
  5
135
100
AcDbEntity
  8
0
 62
1
370
-1
  6
CONTINUOUS
100
AcDbCircle
 10
298.573983402500005
 20
71.6705809128499993
 30
0.0
 40
1.0
100
AcDbArc
 50
270.0
 51
0.0
  0
LINE
  5
136
100
AcDbEntity
100
AcDbLine
  8
0
 62
1
370
-1
  6
CONTINUOUS
 10
298.573983402500005
 20
70.6705809128499993
 30
0.0
 11
294.573983402500005
 21
70.6705809128499993
 31
0.0
  0
ARC
  5
137
100
AcDbEntity
  8
0
 62
1
370
-1
  6
CONTINUOUS
100
AcDbCircle
 10
255.573983402500005
 20
70.6705809128499993
 30
0.0
 40
1.0
100
AcDbArc
 50
90.0
 51
180.0
  0
CIRCLE
  5
138
100
AcDbEntity
100
AcDbCircle
  8
0
 62
1
370
-1
  6
CONTINUOUS
 10
235.573983402500005
 20
128.6705809128499993
 30
0.0
 40
5.0
  0
CIRCLE
  5
139
100
AcDbEntity
100
AcDbCircle
  8
0
 62
1
370
-1
  6
CONTINUOUS
 10
240.573983402500005
 20
111.6705809128499993
 30
0.0
 40
8.0622577482985491
  0
CIRCLE
  5
13A
100
AcDbEntity
100
AcDbCircle
  8
0
 62
1
370
-1
  6
CONTINUOUS
 10
240.573983402500005
 20
88.6705809128499993
 30
0.0
 40
10.0000000000000284
  0
CIRCLE
  5
13B
100
AcDbEntity
100
AcDbCircle
  8
0
 62
1
370
-1
  6
CONTINUOUS
 10
249.573983402500005
 20
63.6705809128499993
 30
0.0
 40
1.5
  0
CIRCLE
  5
13C
100
AcDbEntity
100
AcDbCircle
  8
0
 62
1
370
-1
  6
CONTINUOUS
 10
229.573983402500005
 20
75.6705809128499993
 30
0.0
 40
1.5
  0
CIRCLE
  5
13D
100
AcDbEntity
100
AcDbCircle
  8
0
 62
1
370
-1
  6
CONTINUOUS
 10
257.073983402500005
 20
75.6705809128499993
 30
0.0
 40
1.5
  0
LINE
  5
13E
100
AcDbEntity
100
AcDbLine
  8
0
 62
1
370
-1
  6
CONTINUOUS
 10
254.573983402500005
 20
70.6705809128499993
 30
0.0
 11
254.573983402500005
 21
63.6705809128499993
 31
0.0
  0
ARC
  5
13F
100
AcDbEntity
  8
0
 62
1
370
-1
  6
CONTINUOUS
100
AcDbCircle
 10
249.573983402500005
 20
63.6705809128499993
 30
0.0
 40
5.0
100
AcDbArc
 50
270.0
 51
0.0
  0
LINE
  5
140
100
AcDbEntity
100
AcDbLine
  8
0
 62
1
370
-1
  6
CONTINUOUS
 10
249.573983402500005
 20
58.6705809128499993
 30
0.0
 11
236.573983402500005
 21
58.6705809128499993
 31
0.0
  0
LINE
  5
141
100
AcDbEntity
100
AcDbLine
  8
0
 62
1
370
-1
  6
CONTINUOUS
 10
236.573983402500005
 20
58.6705809128499993
 30
0.0
 11
236.573983402500005
 21
60.6705809128499993
 31
0.0
  0
LINE
  5
142
100
AcDbEntity
100
AcDbLine
  8
0
 62
1
370
-1
  6
CONTINUOUS
 10
236.573983402500005
 20
60.6705809128499993
 30
0.0
 11
232.573983402500005
 21
60.6705809128499993
 31
0.0
  0
LINE
  5
143
100
AcDbEntity
100
AcDbLine
  8
0
 62
1
370
-1
  6
CONTINUOUS
 10
232.573983402500005
 20
60.6705809128499993
 30
0.0
 11
232.573983402500005
 21
58.6705809128499993
 31
0.0
  0
LINE
  5
144
100
AcDbEntity
100
AcDbLine
  8
0
 62
1
370
-1
  6
CONTINUOUS
 10
232.573983402500005
 20
58.6705809128499993
 30
0.0
 11
224.573983402500005
 21
58.6705809128499993
 31
0.0
  0
LINE
  5
145
100
AcDbEntity
100
AcDbLine
  8
0
 62
1
370
-1
  6
CONTINUOUS
 10
224.573983402500005
 20
90.6705809128499993
 30
0.0
 11
224.573983402500005
 21
58.6705809128499993
 31
0.0
  0
LINE
  5
146
100
AcDbEntity
100
AcDbLine
  8
0
 62
1
370
-1
  6
CONTINUOUS
 10
231.573983402500005
 20
100.6705809128499993
 30
0.0
 11
224.573983402500005
 21
90.6705809128499993
 31
0.0
  0
LINE
  5
147
100
AcDbEntity
100
AcDbLine
  8
0
 62
1
370
-1
  6
CONTINUOUS
 10
224.573983402500005
 20
110.6705809128499993
 30
0.0
 11
231.573983402500005
 21
100.6705809128499993
 31
0.0
  0
LINE
  5
148
100
AcDbEntity
100
AcDbLine
  8
0
 62
1
370
-1
  6
CONTINUOUS
 10
224.573983402500005
 20
115.6705809128499993
 30
0.0
 11
224.573983402500005
 21
110.6705809128499993
 31
0.0
  0
LINE
  5
149
100
AcDbEntity
100
AcDbLine
  8
0
 62
1
370
-1
  6
CONTINUOUS
 10
227.573983402500005
 20
119.6705809128499993
 30
0.0
 11
224.573983402500005
 21
115.6705809128499993
 31
0.0
  0
LINE
  5
14A
100
AcDbEntity
100
AcDbLine
  8
0
 62
1
370
-1
  6
CONTINUOUS
 10
224.573983402500005
 20
123.6705809128499993
 30
0.0
 11
227.573983402500005
 21
119.6705809128499993
 31
0.0
  0
LINE
  5
14B
100
AcDbEntity
100
AcDbLine
  8
0
 62
1
370
-1
  6
CONTINUOUS
 10
224.573983402500005
 20
128.6705809128499993
 30
0.0
 11
224.573983402500005
 21
123.6705809128499993
 31
0.0
  0
LINE
  5
14C
100
AcDbEntity
100
AcDbLine
  8
0
 62
1
370
-1
  6
CONTINUOUS
 10
226.573983402500005
 20
130.1705809128499993
 30
0.0
 11
224.573983402500005
 21
128.6705809128499993
 31
0.0
  0
LINE
  5
14D
100
AcDbEntity
100
AcDbLine
  8
0
 62
1
370
-1
  6
CONTINUOUS
 10
224.573983402500005
 20
131.6705809128499993
 30
0.0
 11
226.573983402500005
 21
130.1705809128499993
 31
0.0
  0
LINE
  5
14E
100
AcDbEntity
100
AcDbLine
  8
0
 62
1
370
-1
  6
CONTINUOUS
 10
224.573983402500005
 20
138.6705809128499993
 30
0.0
 11
224.573983402500005
 21
131.6705809128499993
 31
0.0
  0
LINE
  5
14F
100
AcDbEntity
100
AcDbLine
  8
0
 62
1
370
-1
  6
CONTINUOUS
 10
224.573983402500005
 20
138.6705809128499993
 30
0.0
 11
239.573983402500005
 21
138.6705809128499993
 31
0.0
  0
LINE
  5
150
100
AcDbEntity
100
AcDbLine
  8
0
 62
1
370
-1
  6
CONTINUOUS
 10
239.573983402500005
 20
138.6705809128499993
 30
0.0
 11
254.573983402500005
 21
118.6705809128499993
 31
0.0
  0
LINE
  5
151
100
AcDbEntity
100
AcDbLine
  8
0
 62
1
370
-1
  6
CONTINUOUS
 10
254.573983402500005
 20
118.6705809128499993
 30
0.0
 11
254.573983402500005
 21
80.6705809128499993
 31
0.0
  0
ARC
  5
152
100
AcDbEntity
  8
0
 62
1
370
-1
  6
CONTINUOUS
100
AcDbCircle
 10
255.573983402500005
 20
80.6705809128499993
 30
0.0
 40
1.0
100
AcDbArc
 50
180.0
 51
270.0
  0
LINE
  5
153
100
AcDbEntity
100
AcDbLine
  8
0
 62
1
370
-1
  6
CONTINUOUS
 10
255.573983402500005
 20
79.6705809128499993
 30
0.0
 11
259.573983402500005
 21
79.6705809128499993
 31
0.0
  0
ARC
  5
154
100
AcDbEntity
  8
0
 62
1
370
-1
  6
CONTINUOUS
100
AcDbCircle
 10
259.573983402500005
 20
78.6705809128499993
 30
0.0
 40
1.0
100
AcDbArc
 50
0.0
 51
90.0
  0
LINE
  5
155
100
AcDbEntity
100
AcDbLine
  8
0
 62
1
370
-1
  6
CONTINUOUS
 10
260.573983402500005
 20
78.6705809128499993
 30
0.0
 11
260.573983402500005
 21
72.6705809128499993
 31
0.0
  0
ARC
  5
156
100
AcDbEntity
  8
0
 62
1
370
-1
  6
CONTINUOUS
100
AcDbCircle
 10
259.573983402500005
 20
72.6705809128499993
 30
0.0
 40
1.0
100
AcDbArc
 50
270.0
 51
0.0
  0
LINE
  5
157
100
AcDbEntity
100
AcDbLine
  8
0
 62
1
370
-1
  6
CONTINUOUS
 10
259.573983402500005
 20
71.6705809128499993
 30
0.0
 11
255.573983402500005
 21
71.6705809128499993
 31
0.0
  0
ARC
  5
158
100
AcDbEntity
  8
0
 62
1
370
-1
  6
CONTINUOUS
100
AcDbCircle
 10
218.573983402500005
 20
69.6705809128499993
 30
0.0
 40
1.0
100
AcDbArc
 50
90.0
 51
180.0
  0
CIRCLE
  5
159
100
AcDbEntity
100
AcDbCircle
  8
0
 62
1
370
-1
  6
CONTINUOUS
 10
198.573983402500005
 20
127.6705809128499993
 30
0.0
 40
5.0
  0
CIRCLE
  5
15A
100
AcDbEntity
100
AcDbCircle
  8
0
 62
1
370
-1
  6
CONTINUOUS
 10
203.573983402500005
 20
110.6705809128499993
 30
0.0
 40
8.0622577482985491
  0
CIRCLE
  5
15B
100
AcDbEntity
100
AcDbCircle
  8
0
 62
1
370
-1
  6
CONTINUOUS
 10
203.573983402500005
 20
87.6705809128499993
 30
0.0
 40
10.0000000000000284
  0
CIRCLE
  5
15C
100
AcDbEntity
100
AcDbCircle
  8
0
 62
1
370
-1
  6
CONTINUOUS
 10
212.573983402500005
 20
62.6705809128499993
 30
0.0
 40
1.5
  0
CIRCLE
  5
15D
100
AcDbEntity
100
AcDbCircle
  8
0
 62
1
370
-1
  6
CONTINUOUS
 10
192.573983402500005
 20
74.6705809128499993
 30
0.0
 40
1.5
  0
CIRCLE
  5
15E
100
AcDbEntity
100
AcDbCircle
  8
0
 62
1
370
-1
  6
CONTINUOUS
 10
220.073983402500005
 20
74.6705809128499993
 30
0.0
 40
1.5
  0
LINE
  5
15F
100
AcDbEntity
100
AcDbLine
  8
0
 62
1
370
-1
  6
CONTINUOUS
 10
217.573983402500005
 20
69.6705809128499993
 30
0.0
 11
217.573983402500005
 21
62.6705809128499993
 31
0.0
  0
ARC
  5
160
100
AcDbEntity
  8
0
 62
1
370
-1
  6
CONTINUOUS
100
AcDbCircle
 10
212.573983402500005
 20
62.6705809128499993
 30
0.0
 40
5.0
100
AcDbArc
 50
270.0
 51
0.0
  0
LINE
  5
161
100
AcDbEntity
100
AcDbLine
  8
0
 62
1
370
-1
  6
CONTINUOUS
 10
212.573983402500005
 20
57.6705809128499993
 30
0.0
 11
199.573983402500005
 21
57.6705809128499993
 31
0.0
  0
LINE
  5
162
100
AcDbEntity
100
AcDbLine
  8
0
 62
1
370
-1
  6
CONTINUOUS
 10
199.573983402500005
 20
57.6705809128499993
 30
0.0
 11
199.573983402500005
 21
59.6705809128499993
 31
0.0
  0
LINE
  5
163
100
AcDbEntity
100
AcDbLine
  8
0
 62
1
370
-1
  6
CONTINUOUS
 10
199.573983402500005
 20
59.6705809128499993
 30
0.0
 11
195.573983402500005
 21
59.6705809128499993
 31
0.0
  0
LINE
  5
164
100
AcDbEntity
100
AcDbLine
  8
0
 62
1
370
-1
  6
CONTINUOUS
 10
195.573983402500005
 20
59.6705809128499993
 30
0.0
 11
195.573983402500005
 21
57.6705809128499993
 31
0.0
  0
LINE
  5
165
100
AcDbEntity
100
AcDbLine
  8
0
 62
1
370
-1
  6
CONTINUOUS
 10
195.573983402500005
 20
57.6705809128499993
 30
0.0
 11
187.573983402500005
 21
57.6705809128499993
 31
0.0
  0
LINE
  5
166
100
AcDbEntity
100
AcDbLine
  8
0
 62
1
370
-1
  6
CONTINUOUS
 10
187.573983402500005
 20
89.6705809128499993
 30
0.0
 11
187.573983402500005
 21
57.6705809128499993
 31
0.0
  0
LINE
  5
167
100
AcDbEntity
100
AcDbLine
  8
0
 62
1
370
-1
  6
CONTINUOUS
 10
194.573983402500005
 20
99.6705809128499993
 30
0.0
 11
187.573983402500005
 21
89.6705809128499993
 31
0.0
  0
LINE
  5
168
100
AcDbEntity
100
AcDbLine
  8
0
 62
1
370
-1
  6
CONTINUOUS
 10
187.573983402500005
 20
109.6705809128499993
 30
0.0
 11
194.573983402500005
 21
99.6705809128499993
 31
0.0
  0
LINE
  5
169
100
AcDbEntity
100
AcDbLine
  8
0
 62
1
370
-1
  6
CONTINUOUS
 10
187.573983402500005
 20
114.6705809128499993
 30
0.0
 11
187.573983402500005
 21
109.6705809128499993
 31
0.0
  0
LINE
  5
16A
100
AcDbEntity
100
AcDbLine
  8
0
 62
1
370
-1
  6
CONTINUOUS
 10
190.573983402500005
 20
118.6705809128499993
 30
0.0
 11
187.573983402500005
 21
114.6705809128499993
 31
0.0
  0
LINE
  5
16B
100
AcDbEntity
100
AcDbLine
  8
0
 62
1
370
-1
  6
CONTINUOUS
 10
187.573983402500005
 20
122.6705809128499993
 30
0.0
 11
190.573983402500005
 21
118.6705809128499993
 31
0.0
  0
LINE
  5
16C
100
AcDbEntity
100
AcDbLine
  8
0
 62
1
370
-1
  6
CONTINUOUS
 10
187.573983402500005
 20
127.6705809128499993
 30
0.0
 11
187.573983402500005
 21
122.6705809128499993
 31
0.0
  0
LINE
  5
16D
100
AcDbEntity
100
AcDbLine
  8
0
 62
1
370
-1
  6
CONTINUOUS
 10
189.573983402500005
 20
129.1705809128499993
 30
0.0
 11
187.573983402500005
 21
127.6705809128499993
 31
0.0
  0
LINE
  5
16E
100
AcDbEntity
100
AcDbLine
  8
0
 62
1
370
-1
  6
CONTINUOUS
 10
187.573983402500005
 20
130.6705809128499993
 30
0.0
 11
189.573983402500005
 21
129.1705809128499993
 31
0.0
  0
LINE
  5
16F
100
AcDbEntity
100
AcDbLine
  8
0
 62
1
370
-1
  6
CONTINUOUS
 10
187.573983402500005
 20
137.6705809128499993
 30
0.0
 11
187.573983402500005
 21
130.6705809128499993
 31
0.0
  0
LINE
  5
170
100
AcDbEntity
100
AcDbLine
  8
0
 62
1
370
-1
  6
CONTINUOUS
 10
187.573983402500005
 20
137.6705809128499993
 30
0.0
 11
202.573983402500005
 21
137.6705809128499993
 31
0.0
  0
LINE
  5
171
100
AcDbEntity
100
AcDbLine
  8
0
 62
1
370
-1
  6
CONTINUOUS
 10
202.573983402500005
 20
137.6705809128499993
 30
0.0
 11
217.573983402500005
 21
117.6705809128499993
 31
0.0
  0
LINE
  5
172
100
AcDbEntity
100
AcDbLine
  8
0
 62
1
370
-1
  6
CONTINUOUS
 10
217.573983402500005
 20
117.6705809128499993
 30
0.0
 11
217.573983402500005
 21
79.6705809128499993
 31
0.0
  0
ARC
  5
173
100
AcDbEntity
  8
0
 62
1
370
-1
  6
CONTINUOUS
100
AcDbCircle
 10
218.573983402500005
 20
79.6705809128499993
 30
0.0
 40
1.0
100
AcDbArc
 50
180.0
 51
270.0
  0
LINE
  5
174
100
AcDbEntity
100
AcDbLine
  8
0
 62
1
370
-1
  6
CONTINUOUS
 10
218.573983402500005
 20
78.6705809128499993
 30
0.0
 11
222.573983402500005
 21
78.6705809128499993
 31
0.0
  0
ARC
  5
175
100
AcDbEntity
  8
0
 62
1
370
-1
  6
CONTINUOUS
100
AcDbCircle
 10
222.573983402500005
 20
77.6705809128499993
 30
0.0
 40
1.0
100
AcDbArc
 50
0.0
 51
90.0
  0
LINE
  5
176
100
AcDbEntity
100
AcDbLine
  8
0
 62
1
370
-1
  6
CONTINUOUS
 10
223.573983402500005
 20
77.6705809128499993
 30
0.0
 11
223.573983402500005
 21
71.6705809128499993
 31
0.0
  0
ARC
  5
177
100
AcDbEntity
  8
0
 62
1
370
-1
  6
CONTINUOUS
100
AcDbCircle
 10
222.573983402500005
 20
71.6705809128499993
 30
0.0
 40
1.0
100
AcDbArc
 50
270.0
 51
0.0
  0
LINE
  5
178
100
AcDbEntity
100
AcDbLine
  8
0
 62
1
370
-1
  6
CONTINUOUS
 10
222.573983402500005
 20
70.6705809128499993
 30
0.0
 11
218.573983402500005
 21
70.6705809128499993
 31
0.0
  0
ENDSEC
  0
SECTION
  2
OBJECTS
  0
DICTIONARY
  5
C
100
AcDbDictionary
280
0
281
1
  3
ACAD_GROUP
350
D
  3
ACAD_LAYOUT
350
1A
  3
ACAD_MLINESTYLE
350
17
  3
ACAD_PLOTSETTINGS
350
19
  3
ACAD_PLOTSTYLENAME
350
E
  3
AcDbVariableDictionary
350
179
  0
DICTIONARY
  5
D
100
AcDbDictionary
280
0
281
1
  0
ACDBDICTIONARYWDFLT
  5
E
100
AcDbDictionary
281
1
  3
Normal
350
F
100
AcDbDictionaryWithDefault
340
F
  0
ACDBPLACEHOLDER
  5
F
  0
DICTIONARY
  5
17
100
AcDbDictionary
280
0
281
1
  3
Standard
350
18
  0
MLINESTYLE
  5
18
100
AcDbMlineStyle
  2
STANDARD
 70
0
  3

 62
256
 51
90.0
 52
90.0
 71
2
 49
0.5
 62
256
  6
BYLAYER
 49
-0.5
 62
256
  6
BYLAYER
  0
DICTIONARY
  5
19
100
AcDbDictionary
280
0
281
1
  0
DICTIONARY
  5
1A
100
AcDbDictionary
281
1
  3
Layout1
350
1E
  3
Layout2
350
26
  3
Model
350
22
  0
LAYOUT
  5
1E
100
AcDbPlotSettings
  1

  2
C:\Program Files\AutoCAD 2002\plotters\DWF ePlot (optimized for plotting).pc3
  4

  6

 40
0.0
 41
0.0
 42
0.0
 43
0.0
 44
0.0
 45
0.0
 46
0.0
 47
0.0
 48
0.0
 49
0.0
140
0.0
141
0.0
142
1.0
143
1.0
 70
688
 72
0
 73
0
 74
5
  7

 75
16
147
1.0
148
0.0
149
0.0
100
AcDbLayout
  1
Layout1
 70
1
 71
1
 10
0.0
 20
0.0
 11
420.0
 21
297.0
 12
0.0
 22
0.0
 32
0.0
 14
100000000000000000000.0
 24
100000000000000000000.0
 34
100000000000000000000.0
 15
-100000000000000000000.0
 25
-100000000000000000000.0
 35
-100000000000000000000.0
146
0.0
 13
0.0
 23
0.0
 33
0.0
 16
1.0
 26
0.0
 36
0.0
 17
0.0
 27
1.0
 37
0.0
 76
0
330
1B
  0
LAYOUT
  5
22
100
AcDbPlotSettings
  1

  2
C:\Program Files\AutoCAD 2002\plotters\DWF ePlot (optimized for plotting).pc3
  4

  6

 40
0.0
 41
0.0
 42
0.0
 43
0.0
 44
0.0
 45
0.0
 46
0.0
 47
0.0
 48
0.0
 49
0.0
140
0.0
141
0.0
142
1.0
143
1.0
 70
1712
 72
0
 73
0
 74
0
  7

 75
0
147
1.0
148
0.0
149
0.0
100
AcDbLayout
  1
Model
 70
1
 71
0
 10
0.0
 20
0.0
 11
12.0
 21
9.0
 12
0.0
 22
0.0
 32
0.0
 14
0.0
 24
0.0
 34
0.0
 15
0.0
 25
0.0
 35
0.0
146
0.0
 13
0.0
 23
0.0
 33
0.0
 16
1.0
 26
0.0
 36
0.0
 17
0.0
 27
1.0
 37
0.0
 76
0
330
1F
  0
LAYOUT
  5
26
100
AcDbPlotSettings
  1

  2
C:\Program Files\AutoCAD 2002\plotters\DWF ePlot (optimized for plotting).pc3
  4

  6

 40
0.0
 41
0.0
 42
0.0
 43
0.0
 44
0.0
 45
0.0
 46
0.0
 47
0.0
 48
0.0
 49
0.0
140
0.0
141
0.0
142
1.0
143
1.0
 70
688
 72
0
 73
0
 74
5
  7

 75
16
147
1.0
148
0.0
149
0.0
100
AcDbLayout
  1
Layout2
 70
1
 71
2
 10
0.0
 20
0.0
 11
12.0
 21
9.0
 12
0.0
 22
0.0
 32
0.0
 14
0.0
 24
0.0
 34
0.0
 15
0.0
 25
0.0
 35
0.0
146
0.0
 13
0.0
 23
0.0
 33
0.0
 16
1.0
 26
0.0
 36
0.0
 17
0.0
 27
1.0
 37
0.0
 76
0
330
23
  0
DICTIONARY
  5
179
100
AcDbDictionary
281
1
  3
DIMASSOC
350
17B
  3
HIDETEXT
350
17A
  0
DICTIONARYVAR
  5
17A
100
DictionaryVariables
280
0
  1
2
  0
DICTIONARYVAR
  5
17B
100
DictionaryVariables
280
0
  1
1
  0
ENDSEC
  0
EOF
