0
SECTION
2
HEADER
9
$INSUNITS
70
4
9
$ACADVER
1
AC1014
9
$HANDSEED
5
FFFF
0
ENDSEC
0
SECTION
2
TABLES
0
TABLE
2
VPORT
5
8
100
AcDbSymbolTable
0
ENDTAB
0
TABLE
2
LTYPE
5
5
100
AcDbSymbolTable
0
LTYPE
5
14
100
AcDbSymbolTableRecord
100
AcDbLinetypeTableRecord
2
BYBLOCK
70
0
0
LTYPE
5
15
100
AcDbSymbolTableRecord
100
AcDbLinetypeTableRecord
2
BYLAYER
70
0
0
ENDTAB
0
TABLE
2
LAYER
5
2
100
AcDbSymbolTable
70
2
0
LAYER
5
50
100
AcDbSymbolTableRecord
100
AcDbLayerTableRecord
2
0
70
0
6
CONTINUOUS
0
ENDTAB
0
TABLE
2
STYLE
5
3
100
AcDbSymbolTable
70
1
0
STYLE
5
11
100
AcDbSymbolTableRecord
100
AcDbTextStyleTableRecord
2
STANDARD
70
0
0
ENDTAB
0
TABLE
2
VIEW
5
6
100
AcDbSymbolTable
70
0
0
ENDTAB
0
TABLE
2
UCS
5
7
100
AcDbSymbolTable
70
0
0
ENDTAB
0
TABLE
2
APPID
5
9
100
AcDbSymbolTable
70
2
0
APPID
5
12
100
AcDbSymbolTableRecord
100
AcDbRegAppTableRecord
2
ACAD
70
0
0
ENDTAB
0
TABLE
2
DIMSTYLE
5
A
100
AcDbSymbolTable
70
1
0
ENDTAB
0
TABLE
2
BLOCK_RECORD
5
1
100
AcDbSymbolTable
70
1
0
BLOCK_RECORD
5
1F
100
AcDbSymbolTableRecord
100
AcDbBlockTableRecord
2
*MODEL_SPACE
0
BLOCK_RECORD
5
1B
100
AcDbSymbolTableRecord
100
AcDbBlockTableRecord
2
*PAPER_SPACE
0
ENDTAB
0
ENDSEC
0
SECTION
2
BLOCKS
0
BLOCK
5
20
100
AcDbEntity
100
AcDbBlockBegin
2
*MODEL_SPACE
0
ENDBLK
5
21
100
AcDbEntity
100
AcDbBlockEnd
0
BLOCK
5
1C
100
AcDbEntity
100
AcDbBlockBegin
2
*PAPER_SPACE
0
ENDBLK
5
1D
100
AcDbEntity
100
AcDbBlockEnd
0
ENDSEC
0
SECTION
2
ENTITIES
0
CIRCLE
5
100
100
AcDbEntity
8
0
100
AcDbCircle
10
88.347202654656854
20
156.0500667926826
30
0
40
1.1499999999999999
0
CIRCLE
5
101
100
AcDbEntity
8
0
100
AcDbCircle
10
81.276134842791407
20
124.97899898081705
30
0
40
1.1499999999999999
0
CIRCLE
5
102
100
AcDbEntity
8
0
100
AcDbCircle
10
100.34720265465691
20
144.05006679268257
30
0
40
1.1499999999999999
0
CIRCLE
5
103
100
AcDbEntity
8
0
100
AcDbCircle
10
69.276134842791436
20
136.97899898081704
30
0
40
1.1499999999999999
0
LWPOLYLINE
5
104
100
AcDbEntity
8
0
100
AcDbPolyline
90
4
70
1
43
0.0
10
85.51877552991057
20
146.87849391742876
42
-0.99999999999999989
10
91.175629779402968
20
141.22163966793642
10
84.104561967537535
20
134.15057185607088
42
-0.99999999999999989
10
78.447707718045123
20
139.80742610556322
0
LWPOLYLINE
5
105
100
AcDbEntity
8
0
100
AcDbPolyline
90
12
70
1
43
0.0
10
-10.941624513226705
20
43.347026062426785
42
-0.33820160067987703
10
-10.039217552696911
20
43.467893949013749
42
7.4660605559642459
10
-12.234970189013005
20
45.663646585330035
42
-0.33820160067987581
10
-12.35583807559995
20
44.761239624799998
10
-12.721359978224871
20
44.395717722175121
42
-0.48863692329100644
10
-13.895691175155967
20
44.541648836970083
42
-0.34351094528726228
10
-12.698356376901856
20
54.176794903872633
42
0.99999999999999989
10
-13.228686462791659
20
54.707124989762335
42
0.99999999999999989
10
-0.99573914826418763
20
42.474177675235353
42
0.99999999999999989
10
-1.5260692341540294
20
43.004507761125232
42
-0.34351094528729725
10
-11.161215301056371
20
41.807172962871391
42
-0.48863692329083463
10
-11.307146415851834
20
42.981504159801993
0
LWPOLYLINE
5
106
100
AcDbEntity
8
0
100
AcDbPolyline
90
4
70
1
43
0.0
10
65.71978565668735
20
117.18000910759372
10
72.790853468552797
20
124.25107691945919
10
68.548212781433477
20
128.49371760657849
10
61.47714496956803
20
121.42264979471295
0
LWPOLYLINE
5
107
100
AcDbEntity
8
0
100
AcDbPolyline
90
4
70
1
43
0.0
10
11.97967028650992
20
71.925175111654468
10
4.9086024746444732
20
64.854107299788936
10
9.1512431617638015
20
60.61146661266968
10
16.222310973629241
20
67.682534424535163
0
LWPOLYLINE
5
108
100
AcDbEntity
8
0
100
AcDbPolyline
90
4
70
1
43
0.0
10
37.435514409225583
20
88.895737860131703
10
44.506582221091016
20
95.966805671997179
10
40.263941533971689
20
100.20944635911647
10
33.192873722106256
20
93.138378547250923
0
LWPOLYLINE
5
109
100
AcDbEntity
8
0
100
AcDbPolyline
90
4
70
1
43
0.0
10
26.121805910240809
20
86.067310735385462
10
19.050738098375362
20
78.996242923519929
10
23.293378785494696
20
74.753602236400695
10
30.364446597360143
20
81.824670048266171
0
LWPOLYLINE
5
110
100
AcDbEntity
8
0
100
AcDbPolyline
90
4
70
1
43
0.0
10
51.577650032956477
20
103.03787348386273
10
58.648717844821917
20
110.1089412957282
10
54.406077157702583
20
114.35158198284748
10
47.33500934583715
20
107.28051417098195
0
CIRCLE
5
111
100
AcDbEntity
8
0
100
AcDbCircle
10
54.602220919371341
20
127.27564780587434
30
0
40
2.5000000000000027
0
LWPOLYLINE
5
112
100
AcDbEntity
8
0
100
AcDbPolyline
90
14
70
1
43
0.0
10
47.604120805938912
20
124.67357643090148
42
-0.29335099289080424
10
46.378140165918573
20
119.05156705241973
10
-15.597494179765681
20
57.075932706737234
42
0.99999999999999989
10
1.373068568711453
20
40.105369958260084
10
82.31158400415346
20
121.04388539370264
42
-0.13959913241687225
10
84.704372143262475
20
122.3760133610317
42
0.139599132416873
10
91.882736560589606
20
126.37239726301893
10
98.953804372455039
20
133.44346507488441
42
0.99999999999999989
10
77.740600936858499
20
154.65666851048076
10
70.669533124993052
20
147.58560069861522
42
0.13959913241685665
10
66.673149223006135
20
140.40723628128896
42
-0.13959913241686148
10
65.341021255677163
20
138.01444814218019
10
62.677064763643173
20
135.35049165014618
42
-0.29789445661937652
10
57.320884226470781
20
134.22928357867073
42
0.6478604410184976
0
ENDSEC
0
SECTION
2
OBJECTS
0
DICTIONARY
5
C
100
AcDbDictionary
3
ACAD_GROUP
350
D
3
ACAD_MLINESTYLE
350
17
0
DICTIONARY
5
D
100
AcDbDictionary
0
DICTIONARY
5
1A
330
C
100
AcDbDictionary
0
DICTIONARY
5
17
100
AcDbDictionary
0
ENDSEC
0
EOF
