  0
SECTION
  2
HEADER
  9
$ACADVER
  1
AC1009
  9
$DWGCODEPAGE
  3
ansi_1252
  9
$INSBASE
 10
0.0
 20
0.0
 30
0.0
  9
$EXTMIN
 10
1.0671525
 20
117.290555
 30
0.0
  9
$EXTMAX
 10
90.93284750000001
 20
172.0
 30
0.0
  9
$LIMMIN
 10
0.0
 20
0.0
  9
$LIMMAX
 10
12.0
 20
9.0
  9
$ORTHOMODE
 70
     0
  9
$REGENMODE
 70
     1
  9
$FILLMODE
 70
     1
  9
$QTEXTMODE
 70
     0
  9
$MIRRTEXT
 70
     1
  9
$DRAGMODE
 70
     2
  9
$LTSCALE
 40
1.0
  9
$OSMODE
 70
    37
  9
$ATTMODE
 70
     1
  9
$TEXTSIZE
 40
0.2
  9
$TRACEWID
 40
0.05
  9
$TEXTSTYLE
  7
STANDARD
  9
$CLAYER
  8
0
  9
$CELTYPE
  6
BYLAYER
  9
$CECOLOR
 62
   256
  9
$DIMSCALE
 40
1.0
  9
$DIMASZ
 40
0.18
  9
$DIMEXO
 40
0.0625
  9
$DIMDLI
 40
0.38
  9
$DIMRND
 40
0.0
  9
$DIMDLE
 40
0.0
  9
$DIMEXE
 40
0.18
  9
$DIMTP
 40
0.0
  9
$DIMTM
 40
0.0
  9
$DIMTXT
 40
0.18
  9
$DIMCEN
 40
0.09
  9
$DIMTSZ
 40
0.0
  9
$DIMTOL
 70
     0
  9
$DIMLIM
 70
     0
  9
$DIMTIH
 70
     1
  9
$DIMTOH
 70
     1
  9
$DIMSE1
 70
     0
  9
$DIMSE2
 70
     0
  9
$DIMTAD
 70
     0
  9
$DIMZIN
 70
     0
  9
$DIMBLK
  1

  9
$DIMASO
 70
     1
  9
$DIMSHO
 70
     1
  9
$DIMPOST
  1

  9
$DIMAPOST
  1

  9
$DIMALT
 70
     0
  9
$DIMALTD
 70
     2
  9
$DIMALTF
 40
25.4
  9
$DIMLFAC
 40
1.0
  9
$DIMTOFL
 70
     0
  9
$DIMTVP
 40
0.0
  9
$DIMTIX
 70
     0
  9
$DIMSOXD
 70
     0
  9
$DIMSAH
 70
     0
  9
$DIMBLK1
  1

  9
$DIMBLK2
  1

  9
$DIMSTYLE
  2
STANDARD
  9
$DIMCLRD
 70
     0
  9
$DIMCLRE
 70
     0
  9
$DIMCLRT
 70
     0
  9
$DIMTFAC
 40
1.0
  9
$DIMGAP
 40
0.09
  9
$LUNITS
 70
     2
  9
$LUPREC
 70
     4
  9
$SKETCHINC
 40
0.1
  9
$FILLETRAD
 40
0.5
  9
$AUNITS
 70
     0
  9
$AUPREC
 70
     0
  9
$MENU
  1
.
  9
$ELEVATION
 40
0.0
  9
$PELEVATION
 40
0.0
  9
$THICKNESS
 40
0.0
  9
$LIMCHECK
 70
     0
  9
$CHAMFERA
 40
0.5
  9
$CHAMFERB
 40
0.5
  9
$SKPOLY
 70
     0
  9
$TDCREATE
 40
2454910.5
  9
$TDUPDATE
 40
2459720.361102847
  9
$TDINDWG
 40
0.0000000116
  9
$TDUSRTIMER
 40
0.0000000116
  9
$USRTIMER
 70
     1
  9
$ANGBASE
 50
0.0
  9
$ANGDIR
 70
     0
  9
$PDMODE
 70
     0
  9
$PDSIZE
 40
0.0
  9
$PLINEWID
 40
0.0
  9
$COORDS
 70
     1
  9
$SPLFRAME
 70
     0
  9
$SPLINETYPE
 70
     6
  9
$SPLINESEGS
 70
     8
  9
$ATTDIA
 70
     0
  9
$ATTREQ
 70
     1
  9
$HANDLING
 70
     1
  9
$HANDSEED
  5
CF
  9
$SURFTAB1
 70
     6
  9
$SURFTAB2
 70
     6
  9
$SURFTYPE
 70
     6
  9
$SURFU
 70
     6
  9
$SURFV
 70
     6
  9
$UCSNAME
  2

  9
$UCSORG
 10
0.0
 20
0.0
 30
0.0
  9
$UCSXDIR
 10
1.0
 20
0.0
 30
0.0
  9
$UCSYDIR
 10
0.0
 20
1.0
 30
0.0
  9
$PUCSNAME
  2

  9
$PUCSORG
 10
0.0
 20
0.0
 30
0.0
  9
$PUCSXDIR
 10
1.0
 20
0.0
 30
0.0
  9
$PUCSYDIR
 10
0.0
 20
1.0
 30
0.0
  9
$USERI1
 70
     0
  9
$USERI2
 70
     0
  9
$USERI3
 70
     0
  9
$USERI4
 70
     0
  9
$USERI5
 70
     0
  9
$USERR1
 40
0.0
  9
$USERR2
 40
0.0
  9
$USERR3
 40
0.0
  9
$USERR4
 40
0.0
  9
$USERR5
 40
0.0
  9
$WORLDVIEW
 70
     1
  9
$SHADEDGE
 70
     3
  9
$SHADEDIF
 70
    70
  9
$TILEMODE
 70
     1
  9
$MAXACTVP
 70
    64
  9
$PLIMCHECK
 70
     0
  9
$PEXTMIN
 10
1.000000000000000E+20
 20
1.000000000000000E+20
 30
1.000000000000000E+20
  9
$PEXTMAX
 10
-1.000000000000000E+20
 20
-1.000000000000000E+20
 30
-1.000000000000000E+20
  9
$PLIMMIN
 10
0.0
 20
0.0
  9
$PLIMMAX
 10
12.0
 20
9.0
  9
$UNITMODE
 70
     0
  9
$VISRETAIN
 70
     1
  9
$PLINEGEN
 70
     0
  9
$PSLTSCALE
 70
     1
  0
ENDSEC
  0
SECTION
  2
TABLES
  0
TABLE
  2
VPORT
 70
     1
  0
VPORT
  2
*ACTIVE
 70
     0
 10
0.0
 20
0.0
 11
1.0
 21
1.0
 12
10.42990654205607
 22
4.5
 13
0.0
 23
0.0
 14
0.5
 24
0.5
 15
0.5
 25
0.5
 16
0.0
 26
0.0
 36
1.0
 17
0.0
 27
0.0
 37
0.0
 40
9.0
 41
1.972972972850329
 42
50.0
 43
0.0
 44
0.0
 50
0.0
 51
0.0
 71
     0
 72
   100
 73
     1
 74
     3
 75
     0
 76
     0
 77
     0
 78
     0
  0
ENDTAB
  0
TABLE
  2
LTYPE
 70
     2
  0
LTYPE
  2
CONTINUOUS
 70
     0
  3
Solid line
 72
    65
 73
     0
 40
0.0
  0
LTYPE
  2
CONTINUOUS2
 70
     0
  3
Solid Line
 72
    65
 73
     0
 40
0.0
  0
ENDTAB
  0
TABLE
  2
LAYER
 70
     2
  0
LAYER
  2
0
 70
     0
 62
     7
  6
CONTINUOUS
  0
LAYER
  2
LAYER_1
 70
     0
 62
    18
  6
CONTINUOUS
  0
ENDTAB
  0
TABLE
  2
STYLE
 70
     1
  0
STYLE
  2
STANDARD
 70
     0
 40
0.0
 41
1.0
 50
0.0
 71
     0
 42
0.2
  3
txt
  4

  0
ENDTAB
  0
TABLE
  2
VIEW
 70
     0
  0
ENDTAB
  0
TABLE
  2
UCS
 70
     0
  0
ENDTAB
  0
TABLE
  2
APPID
 70
     1
  0
APPID
  2
ACAD
 70
     0
  0
ENDTAB
  0
TABLE
  2
DIMSTYLE
 70
     1
  0
DIMSTYLE
  2
STANDARD
 70
     0
  3

  4

  5

  6

  7

 40
1.0
 41
0.18
 42
0.0625
 43
0.38
 44
0.18
 45
0.0
 46
0.0
 47
0.0
 48
0.0
140
0.18
141
0.09
142
0.0
143
25.4
144
1.0
145
0.0
146
1.0
147
0.09
 71
     0
 72
     0
 73
     1
 74
     1
 75
     0
 76
     0
 77
     0
 78
     0
170
     0
171
     2
172
     0
173
     0
174
     0
175
     0
176
     0
177
     0
178
     0
  0
ENDTAB
  0
ENDSEC
  0
SECTION
  2
BLOCKS
  0
BLOCK
  8
0
  2
$MODEL_SPACE
 70
     0
 10
0.0
 20
0.0
 30
0.0
  3
$MODEL_SPACE
  1

  0
ENDBLK
  5
21
  8
0
  0
BLOCK
 67
     1
  8
0
  2
$PAPER_SPACE
 70
     0
 10
0.0
 20
0.0
 30
0.0
  3
$PAPER_SPACE
  1

  0
ENDBLK
  5
1D
 67
     1
  8
0
  0
ENDSEC
  0
SECTION
  2
ENTITIES
  0
POLYLINE
  5
3D
  8
LAYER_1
 66
     1
 10
0.0
 20
0.0
 30
0.0
 70
     1
  0
VERTEX
  5
56
  8
LAYER_1
 10
29.6003137298292
 20
139.2736096927466
 30
0.0
 42
-0.2371052926495214
  0
VERTEX
  5
57
  8
LAYER_1
 10
34.320442
 20
141.645277
 30
0.0
  0
VERTEX
  5
58
  8
LAYER_1
 10
61.30384778864669
 20
141.645277
 30
0.0
 42
0.7673269879789578
  0
VERTEX
  5
59
  8
LAYER_1
 10
72.5
 20
144.645277
 30
0.0
 42
0.7673269879789578
  0
VERTEX
  5
5A
  8
LAYER_1
 10
61.30384778864669
 20
147.645277
 30
0.0
  0
VERTEX
  5
5B
  8
LAYER_1
 10
34.320442
 20
147.645277
 30
0.0
 42
-0.2371052926495166
  0
VERTEX
  5
5C
  8
LAYER_1
 10
29.6003137298292
 20
150.0169443072534
 30
0.0
 42
0.7222529237944421
  0
VERTEX
  5
5D
  8
LAYER_1
 10
13.379151
 20
144.645277
 30
0.0
 42
0.7222529237944421
  0
SEQEND
  5
5E
  8
LAYER_1
  0
POLYLINE
  5
3E
  8
LAYER_1
 66
     1
 10
0.0
 20
0.0
 30
0.0
 70
     1
  0
VERTEX
  5
5F
  8
LAYER_1
 10
1.0671525
 20
121.812627
 30
0.0
 42
0.4142135623730949
  0
VERTEX
  5
60
  8
LAYER_1
 10
5.589224999999999
 20
117.290555
 30
0.0
  0
VERTEX
  5
61
  8
LAYER_1
 10
86.410775
 20
117.290555
 30
0.0
 42
0.4142135623730946
  0
VERTEX
  5
62
  8
LAYER_1
 10
90.93284750000001
 20
121.812627
 30
0.0
  0
VERTEX
  5
63
  8
LAYER_1
 10
90.93284750000001
 20
167.477928
 30
0.0
 42
0.4142135623730956
  0
VERTEX
  5
64
  8
LAYER_1
 10
86.410775
 20
172.0
 30
0.0
  0
VERTEX
  5
65
  8
LAYER_1
 10
5.589225
 20
172.0
 30
0.0
 42
0.4142135623730955
  0
VERTEX
  5
66
  8
LAYER_1
 10
1.0671525
 20
167.477928
 30
0.0
  0
SEQEND
  5
67
  8
LAYER_1
  0
POLYLINE
  5
3F
  8
LAYER_1
 66
     1
 10
0.0
 20
0.0
 30
0.0
  0
VERTEX
  5
68
  8
LAYER_1
 10
81.5
 20
131.5
 30
0.0
  0
VERTEX
  5
69
  8
LAYER_1
 10
81.472054
 20
131.714349
 30
0.0
  0
SEQEND
  5
6A
  8
LAYER_1
  0
POLYLINE
  5
40
  8
LAYER_1
 66
     1
 10
0.0
 20
0.0
 30
0.0
  0
VERTEX
  5
6B
  8
LAYER_1
 10
73.0
 20
154.645277
 30
0.0
  0
VERTEX
  5
6C
  8
LAYER_1
 10
73.0
 20
157.645277
 30
0.0
  0
VERTEX
  5
6D
  8
LAYER_1
 10
73.0
 20
172.0
 30
0.0
  0
SEQEND
  5
6E
  8
LAYER_1
  0
POLYLINE
  5
41
  8
LAYER_1
 66
     1
 10
0.0
 20
0.0
 30
0.0
  0
VERTEX
  5
6F
  8
LAYER_1
 10
68.0
 20
172.0
 30
0.0
  0
VERTEX
  5
70
  8
LAYER_1
 10
68.0
 20
157.645277
 30
0.0
  0
VERTEX
  5
71
  8
LAYER_1
 10
68.0
 20
154.645277
 30
0.0
  0
SEQEND
  5
72
  8
LAYER_1
  0
POLYLINE
  5
42
  8
LAYER_1
 66
     1
 10
0.0
 20
0.0
 30
0.0
  0
VERTEX
  5
73
  8
LAYER_1
 10
62.5
 20
157.0
 30
0.0
  0
VERTEX
  5
74
  8
LAYER_1
 10
62.386999
 20
157.123783
 30
0.0
  0
SEQEND
  5
75
  8
LAYER_1
  0
POLYLINE
  5
43
  8
LAYER_1
 66
     1
 10
0.0
 20
0.0
 30
0.0
  0
VERTEX
  5
76
  8
LAYER_1
 10
59.5
 20
172.0
 30
0.0
  0
VERTEX
  5
77
  8
LAYER_1
 10
59.5
 20
159.571055
 30
0.0
  0
VERTEX
  5
78
  8
LAYER_1
 10
59.5
 20
154.645277
 30
0.0
  0
VERTEX
  5
79
  8
LAYER_1
 10
59.5
 20
154.5
 30
0.0
  0
VERTEX
  5
7A
  8
LAYER_1
 10
64.0
 20
150.099633
 30
0.0
  0
SEQEND
  5
7B
  8
LAYER_1
  0
POLYLINE
  5
44
  8
LAYER_1
 66
     1
 10
0.0
 20
0.0
 30
0.0
  0
VERTEX
  5
7C
  8
LAYER_1
 10
64.0
 20
139.190921
 30
0.0
  0
VERTEX
  5
7D
  8
LAYER_1
 10
59.5
 20
134.645277
 30
0.0
  0
SEQEND
  5
7E
  8
LAYER_1
  0
POLYLINE
  5
45
  8
LAYER_1
 66
     1
 10
0.0
 20
0.0
 30
0.0
  0
VERTEX
  5
7F
  8
LAYER_1
 10
54.5
 20
172.0
 30
0.0
  0
VERTEX
  5
80
  8
LAYER_1
 10
54.5
 20
159.571055
 30
0.0
  0
VERTEX
  5
81
  8
LAYER_1
 10
54.5
 20
154.645277
 30
0.0
  0
SEQEND
  5
82
  8
LAYER_1
  0
POLYLINE
  5
46
  8
LAYER_1
 66
     1
 10
0.0
 20
0.0
 30
0.0
  0
VERTEX
  5
83
  8
LAYER_1
 10
62.0
 20
134.645277
 30
0.0
  0
VERTEX
  5
84
  8
LAYER_1
 10
77.99999998120774
 20
134.6452769812997
 30
0.0
 42
0.1319498032649545
  0
VERTEX
  5
85
  8
LAYER_1
 10
77.99999998120774
 20
154.6452770187003
 30
0.0
  0
VERTEX
  5
86
  8
LAYER_1
 10
62.0
 20
154.645277
 30
0.0
  0
SEQEND
  5
87
  8
LAYER_1
  0
POLYLINE
  5
47
  8
LAYER_1
 66
     1
 10
0.0
 20
0.0
 30
0.0
  0
VERTEX
  5
88
  8
LAYER_1
 10
40.5
 20
134.645277
 30
0.0
  0
VERTEX
  5
89
  8
LAYER_1
 10
42.93631995897569
 20
132.1734256604206
 30
0.0
 42
0.2007944464568857
  0
VERTEX
  5
8A
  8
LAYER_1
 10
48.977865
 20
129.645277
 30
0.0
  0
VERTEX
  5
8B
  8
LAYER_1
 10
56.039927
 20
129.645277
 30
0.0
 42
0.1955801771527715
  0
VERTEX
  5
8C
  8
LAYER_1
 10
67.76120389619808
 20
134.4125309497184
 30
0.0
  0
VERTEX
  5
8D
  8
LAYER_1
 10
68.0
 20
134.645277
 30
0.0
  0
SEQEND
  5
8E
  8
LAYER_1
  0
POLYLINE
  5
48
  8
LAYER_1
 66
     1
 10
0.0
 20
0.0
 30
0.0
  0
VERTEX
  5
8F
  8
LAYER_1
 10
34.22187
 20
134.645277
 30
0.0
  0
VERTEX
  5
90
  8
LAYER_1
 10
21.81994482587918
 20
130.7442862177372
 30
0.0
 42
-0.5116191286574331
  0
VERTEX
  5
91
  8
LAYER_1
 10
2.581058022915386
 20
145.0999169687662
 30
0.0
 42
-0.5116191286574324
  0
VERTEX
  5
92
  8
LAYER_1
 10
22.27086311769313
 20
158.8305561677775
 30
0.0
  0
VERTEX
  5
93
  8
LAYER_1
 10
34.22187
 20
154.645277
 30
0.0
  0
VERTEX
  5
94
  8
LAYER_1
 10
80.00000008623313
 20
154.6452770221641
 30
0.0
 42
-0.1164948822369747
  0
VERTEX
  5
95
  8
LAYER_1
 10
80.00000008623313
 20
134.6452769778359
 30
0.0
  0
VERTEX
  5
96
  8
LAYER_1
 10
34.22187
 20
134.645277
 30
0.0
  0
VERTEX
  5
97
  8
LAYER_1
 10
40.7444999647162
 20
127.9746463479747
 30
0.0
 42
0.2018293336025811
  0
VERTEX
  5
98
  8
LAYER_1
 10
48.656498
 20
124.6452775
 30
0.0
  0
VERTEX
  5
99
  8
LAYER_1
 10
56.669961
 20
124.6452775
 30
0.0
 42
0.1985749407278196
  0
VERTEX
  5
9A
  8
LAYER_1
 10
65.72938498318442
 20
128.390925277618
 30
0.0
  0
VERTEX
  5
9B
  8
LAYER_1
 10
72.0
 20
134.645277
 30
0.0
  0
SEQEND
  5
9C
  8
LAYER_1
  0
POLYLINE
  5
49
  8
0
 66
     1
 10
0.0
 20
0.0
 30
0.0
 70
     1
  0
VERTEX
  5
9D
  8
0
 10
61.199539
 20
132.945277
 30
0.0
 42
0.4142135623730951
  0
VERTEX
  5
9E
  8
0
 10
60.399539
 20
132.145277
 30
0.0
 42
0.4142135623730951
  0
VERTEX
  5
9F
  8
0
 10
61.199539
 20
131.345277
 30
0.0
 42
0.4142135623730951
  0
VERTEX
  5
A0
  8
0
 10
61.999539
 20
132.145277
 30
0.0
 42
0.4142135623730951
  0
SEQEND
  5
A1
  8
0
  0
POLYLINE
  5
4A
  8
0
 66
     1
 10
0.0
 20
0.0
 30
0.0
 70
     1
  0
VERTEX
  5
A2
  8
0
 10
64.0
 20
158.122639
 30
0.0
 42
0.4142135623730951
  0
VERTEX
  5
A3
  8
0
 10
63.2
 20
157.322639
 30
0.0
 42
0.4142135623730951
  0
VERTEX
  5
A4
  8
0
 10
64.0
 20
156.522639
 30
0.0
 42
0.4142135623730951
  0
VERTEX
  5
A5
  8
0
 10
64.8
 20
157.322639
 30
0.0
 42
0.4142135623730951
  0
SEQEND
  5
A6
  8
0
  0
POLYLINE
  5
4B
  8
0
 66
     1
 10
0.0
 20
0.0
 30
0.0
 70
     1
  0
VERTEX
  5
A7
  8
0
 10
86.932848
 20
168.8
 30
0.0
 42
0.4142135623730951
  0
VERTEX
  5
A8
  8
0
 10
86.13284800000001
 20
168.0
 30
0.0
 42
0.4142135623730951
  0
VERTEX
  5
A9
  8
0
 10
86.932848
 20
167.2
 30
0.0
 42
0.4142135623730951
  0
VERTEX
  5
AA
  8
0
 10
87.732848
 20
168.0
 30
0.0
 42
0.4142135623730951
  0
SEQEND
  5
AB
  8
0
  0
POLYLINE
  5
4C
  8
0
 66
     1
 10
0.0
 20
0.0
 30
0.0
 70
     1
  0
VERTEX
  5
AC
  8
0
 10
22.379151
 20
151.145277
 30
0.0
 42
0.4142135623730951
  0
VERTEX
  5
AD
  8
0
 10
15.879151
 20
144.645277
 30
0.0
 42
0.4142135623730951
  0
VERTEX
  5
AE
  8
0
 10
22.379151
 20
138.145277
 30
0.0
 42
0.4142135623730951
  0
VERTEX
  5
AF
  8
0
 10
28.879151
 20
144.645277
 30
0.0
 42
0.4142135623730951
  0
SEQEND
  5
B0
  8
0
  0
POLYLINE
  5
4D
  8
0
 66
     1
 10
0.0
 20
0.0
 30
0.0
 70
     1
  0
VERTEX
  5
B1
  8
0
 10
17.379151
 20
145.262337
 30
0.0
 42
0.4142135623730951
  0
VERTEX
  5
B2
  8
0
 10
16.979151
 20
144.862337
 30
0.0
 42
0.4142135623730951
  0
VERTEX
  5
B3
  8
0
 10
17.379151
 20
144.462337
 30
0.0
 42
0.4142135623730951
  0
VERTEX
  5
B4
  8
0
 10
17.779151
 20
144.862337
 30
0.0
 42
0.4142135623730951
  0
SEQEND
  5
B5
  8
0
  0
POLYLINE
  5
4E
  8
0
 66
     1
 10
0.0
 20
0.0
 30
0.0
 70
     1
  0
VERTEX
  5
B6
  8
0
 10
5.067152
 20
168.8
 30
0.0
 42
0.4142135623730951
  0
VERTEX
  5
B7
  8
0
 10
4.267152
 20
168.0
 30
0.0
 42
0.4142135623730951
  0
VERTEX
  5
B8
  8
0
 10
5.067152
 20
167.2
 30
0.0
 42
0.4142135623730951
  0
VERTEX
  5
B9
  8
0
 10
5.867152
 20
168.0
 30
0.0
 42
0.4142135623730951
  0
SEQEND
  5
BA
  8
0
  0
POLYLINE
  5
4F
  8
0
 66
     1
 10
0.0
 20
0.0
 30
0.0
 70
     1
  0
VERTEX
  5
BB
  8
0
 10
86.932848
 20
122.090555
 30
0.0
 42
0.4142135623730951
  0
VERTEX
  5
BC
  8
0
 10
86.13284800000001
 20
121.290555
 30
0.0
 42
0.4142135623730951
  0
VERTEX
  5
BD
  8
0
 10
86.932848
 20
120.490555
 30
0.0
 42
0.4142135623730951
  0
VERTEX
  5
BE
  8
0
 10
87.732848
 20
121.290555
 30
0.0
 42
0.4142135623730951
  0
SEQEND
  5
BF
  8
0
  0
POLYLINE
  5
50
  8
0
 66
     1
 10
0.0
 20
0.0
 30
0.0
 70
     1
  0
VERTEX
  5
C0
  8
0
 10
64.0
 20
170.122639
 30
0.0
 42
0.4142135623730951
  0
VERTEX
  5
C1
  8
0
 10
63.2
 20
169.322639
 30
0.0
 42
0.4142135623730951
  0
VERTEX
  5
C2
  8
0
 10
64.0
 20
168.522639
 30
0.0
 42
0.4142135623730951
  0
VERTEX
  5
C3
  8
0
 10
64.8
 20
169.322639
 30
0.0
 42
0.4142135623730951
  0
SEQEND
  5
C4
  8
0
  0
POLYLINE
  5
51
  8
0
 66
     1
 10
0.0
 20
0.0
 30
0.0
 70
     1
  0
VERTEX
  5
C5
  8
0
 10
47.199539
 20
132.945277
 30
0.0
 42
0.4142135623730951
  0
VERTEX
  5
C6
  8
0
 10
46.399539
 20
132.145277
 30
0.0
 42
0.4142135623730951
  0
VERTEX
  5
C7
  8
0
 10
47.199539
 20
131.345277
 30
0.0
 42
0.4142135623730951
  0
VERTEX
  5
C8
  8
0
 10
47.999539
 20
132.145277
 30
0.0
 42
0.4142135623730951
  0
SEQEND
  5
C9
  8
0
  0
POLYLINE
  5
52
  8
0
 66
     1
 10
0.0
 20
0.0
 30
0.0
 70
     1
  0
VERTEX
  5
CA
  8
0
 10
5.067152
 20
122.090555
 30
0.0
 42
0.4142135623730951
  0
VERTEX
  5
CB
  8
0
 10
4.267152
 20
121.290555
 30
0.0
 42
0.4142135623730951
  0
VERTEX
  5
CC
  8
0
 10
5.067152
 20
120.490555
 30
0.0
 42
0.4142135623730951
  0
VERTEX
  5
CD
  8
0
 10
5.867152
 20
121.290555
 30
0.0
 42
0.4142135623730951
  0
SEQEND
  5
CE
  8
0
  0
ENDSEC
  0
EOF
