  0
SECTION
  2
HEADER
  9
$ACADVER
  1
AC1009
  0
ENDSEC
  0
SECTION
  2
ENTITIES
  0
POLYLINE
  5
90
  8
Layer_0
  62
0
  66
1
  10
0
  20
0
  30
0
  0
VERTEX
  5
90
  8
Layer_0
  10
177.298
  20
185.95264
  0
VERTEX
  5
91
  8
Layer_0
  10
176.62055
  20
186.10804
  0
VERTEX
  5
92
  8
Layer_0
  10
175.95341
  20
186.30356
  0
VERTEX
  5
93
  8
Layer_0
  10
175.29778
  20
186.53827
  0
VERTEX
  5
94
  8
Layer_0
  10
174.65489
  20
186.81123
  0
VERTEX
  5
95
  8
Layer_0
  10
174.02595
  20
187.12154
  0
VERTEX
  5
96
  8
Layer_0
  10
173.4122
  20
187.46825
  0
VERTEX
  5
97
  8
Layer_0
  10
172.81483
  20
187.85044
  0
VERTEX
  5
98
  8
Layer_0
  10
172.23508
  20
188.26719
  0
VERTEX
  5
99
  8
Layer_0
  10
171.67417
  20
188.71756
  0
VERTEX
  5
9a
  8
Layer_0
  10
171.1333
  20
189.20064
  0
VERTEX
  5
9b
  8
Layer_0
  10
170.61371
  20
189.71549
  0
VERTEX
  5
9c
  8
Layer_0
  10
170.1166
  20
190.26119
  0
VERTEX
  5
9d
  8
Layer_0
  10
169.64321
  20
190.83681
  0
VERTEX
  5
9e
  8
Layer_0
  10
169.19474
  20
191.44142
  0
VERTEX
  5
9f
  8
Layer_0
  10
168.77242
  20
192.07411
  0
VERTEX
  5
a0
  8
Layer_0
  10
168.37746
  20
192.73393
  0
VERTEX
  5
a1
  8
Layer_0
  10
168.07804
  20
193.28963
  0
VERTEX
  5
a2
  8
Layer_0
  10
167.79849
  20
193.8625
  0
VERTEX
  5
a3
  8
Layer_0
  10
167.53879
  20
194.45139
  0
VERTEX
  5
a4
  8
Layer_0
  10
167.29894
  20
195.05516
  0
VERTEX
  5
a5
  8
Layer_0
  10
166.87873
  20
196.30265
  0
VERTEX
  5
a6
  8
Layer_0
  10
166.53775
  20
197.59573
  0
VERTEX
  5
a7
  8
Layer_0
  10
166.27591
  20
198.92512
  0
VERTEX
  5
a8
  8
Layer_0
  10
166.09311
  20
200.28159
  0
VERTEX
  5
a9
  8
Layer_0
  10
165.98925
  20
201.65586
  0
VERTEX
  5
aa
  8
Layer_0
  10
165.96425
  20
203.03868
  0
VERTEX
  5
ab
  8
Layer_0
  10
166.018
  20
204.4208
  0
VERTEX
  5
ac
  8
Layer_0
  10
166.15041
  20
205.79296
  0
VERTEX
  5
ad
  8
Layer_0
  10
166.36138
  20
207.14589
  0
VERTEX
  5
ae
  8
Layer_0
  10
166.65081
  20
208.47035
  0
VERTEX
  5
af
  8
Layer_0
  10
167.01862
  20
209.75707
  0
VERTEX
  5
b0
  8
Layer_0
  10
167.46469
  20
210.9968
  0
VERTEX
  5
b1
  8
Layer_0
  10
167.71705
  20
211.59615
  0
VERTEX
  5
b2
  8
Layer_0
  10
167.98894
  20
212.18028
  0
VERTEX
  5
b3
  8
Layer_0
  10
168.28035
  20
212.74803
  0
VERTEX
  5
b4
  8
Layer_0
  10
168.59127
  20
213.29825
  0
VERTEX
  5
b5
  8
Layer_0
  10
168.93856
  20
213.83608
  0
VERTEX
  5
b6
  8
Layer_0
  10
169.36098
  20
214.41189
  0
VERTEX
  5
b7
  8
Layer_0
  10
169.83938
  20
215.00462
  0
VERTEX
  5
b8
  8
Layer_0
  10
170.3546
  20
215.59324
  0
VERTEX
  5
b9
  8
Layer_0
  10
170.8875
  20
216.15667
  0
VERTEX
  5
ba
  8
Layer_0
  10
171.41891
  20
216.67387
  0
VERTEX
  5
bb
  8
Layer_0
  10
171.92969
  20
217.12379
  0
VERTEX
  5
bc
  8
Layer_0
  10
172.40067
  20
217.48537
  0
VERTEX
  5
bd
  8
Layer_0
  10
173.20162
  20
218.01129
  0
VERTEX
  5
be
  8
Layer_0
  10
173.99038
  20
218.45959
  0
VERTEX
  5
bf
  8
Layer_0
  10
174.77893
  20
218.83427
  0
VERTEX
  5
c0
  8
Layer_0
  10
175.57925
  20
219.13934
  0
VERTEX
  5
c1
  8
Layer_0
  10
176.40333
  20
219.37884
  0
VERTEX
  5
c2
  8
Layer_0
  10
177.26315
  20
219.55677
  0
VERTEX
  5
c3
  8
Layer_0
  10
178.17069
  20
219.67715
  0
VERTEX
  5
c4
  8
Layer_0
  10
179.13793
  20
219.744
  0
VERTEX
  5
c5
  8
Layer_0
  10
180.20215
  20
219.76324
  0
VERTEX
  5
c6
  8
Layer_0
  10
181.18708
  20
219.72726
  0
VERTEX
  5
c7
  8
Layer_0
  10
182.10611
  20
219.63309
  0
VERTEX
  5
c8
  8
Layer_0
  10
182.97264
  20
219.47777
  0
VERTEX
  5
c9
  8
Layer_0
  10
183.80006
  20
219.25834
  0
VERTEX
  5
ca
  8
Layer_0
  10
184.60176
  20
218.97184
  0
VERTEX
  5
cb
  8
Layer_0
  10
185.39113
  20
218.61529
  0
VERTEX
  5
cc
  8
Layer_0
  10
186.18157
  20
218.18575
  0
VERTEX
  5
cd
  8
Layer_0
  10
186.55386
  20
217.94284
  0
VERTEX
  5
ce
  8
Layer_0
  10
186.96946
  20
217.63059
  0
VERTEX
  5
cf
  8
Layer_0
  10
187.40753
  20
217.2683
  0
VERTEX
  5
d0
  8
Layer_0
  10
187.84723
  20
216.87529
  0
VERTEX
  5
d1
  8
Layer_0
  10
188.26773
  20
216.47089
  0
VERTEX
  5
d2
  8
Layer_0
  10
188.6482
  20
216.07438
  0
VERTEX
  5
d3
  8
Layer_0
  10
188.9678
  20
215.7051
  0
VERTEX
  5
d4
  8
Layer_0
  10
189.2057
  20
215.38236
  0
VERTEX
  5
d5
  8
Layer_0
  10
189.33934
  20
215.18844
  0
VERTEX
  5
d6
  8
Layer_0
  10
189.46382
  20
215.0295
  0
VERTEX
  5
d7
  8
Layer_0
  10
189.56522
  20
214.92193
  0
VERTEX
  5
d8
  8
Layer_0
  10
189.62963
  20
214.88217
  0
VERTEX
  5
d9
  8
Layer_0
  10
189.64974
  20
214.92773
  0
VERTEX
  5
da
  8
Layer_0
  10
189.66849
  20
215.05867
  0
VERTEX
  5
db
  8
Layer_0
  10
189.68549
  20
215.26581
  0
VERTEX
  5
dc
  8
Layer_0
  10
189.70031
  20
215.53995
  0
VERTEX
  5
dd
  8
Layer_0
  10
189.71256
  20
215.8719
  0
VERTEX
  5
de
  8
Layer_0
  10
189.72181
  20
216.25248
  0
VERTEX
  5
df
  8
Layer_0
  10
189.72767
  20
216.67249
  0
VERTEX
  5
e0
  8
Layer_0
  10
189.72971
  20
217.12274
  0
VERTEX
  5
e1
  8
Layer_0
  10
189.72971
  20
219.36427
  0
VERTEX
  5
e2
  8
Layer_0
  10
194.53345
  20
219.36427
  0
VERTEX
  5
e3
  8
Layer_0
  10
199.33716
  20
219.36427
  0
VERTEX
  5
e4
  8
Layer_0
  10
199.33716
  20
202.76294
  0
VERTEX
  5
e5
  8
Layer_0
  10
199.33716
  20
186.16161
  0
VERTEX
  5
e6
  8
Layer_0
  10
194.53665
  20
186.16161
  0
VERTEX
  5
e7
  8
Layer_0
  10
189.73616
  20
186.16161
  0
VERTEX
  5
e8
  8
Layer_0
  10
189.69958
  20
188.48328
  0
VERTEX
  5
e9
  8
Layer_0
  10
189.66299
  20
190.80493
  0
VERTEX
  5
ea
  8
Layer_0
  10
188.88855
  20
189.86392
  0
VERTEX
  5
eb
  8
Layer_0
  10
188.31133
  20
189.21126
  0
VERTEX
  5
ec
  8
Layer_0
  10
187.69553
  20
188.60782
  0
VERTEX
  5
ed
  8
Layer_0
  10
187.04473
  20
188.05601
  0
VERTEX
  5
ee
  8
Layer_0
  10
186.36253
  20
187.55827
  0
VERTEX
  5
ef
  8
Layer_0
  10
185.6525
  20
187.117
  0
VERTEX
  5
f0
  8
Layer_0
  10
184.91824
  20
186.73463
  0
VERTEX
  5
f1
  8
Layer_0
  10
184.16333
  20
186.41358
  0
VERTEX
  5
f2
  8
Layer_0
  10
183.39137
  20
186.15626
  0
VERTEX
  5
f3
  8
Layer_0
  10
183.11076
  20
186.08464
  0
VERTEX
  5
f4
  8
Layer_0
  10
182.79336
  20
186.02009
  0
VERTEX
  5
f5
  8
Layer_0
  10
182.4442
  20
185.96277
  0
VERTEX
  5
f6
  8
Layer_0
  10
182.06829
  20
185.91286
  0
VERTEX
  5
f7
  8
Layer_0
  10
181.2563
  20
185.83593
  0
VERTEX
  5
f8
  8
Layer_0
  10
180.39756
  20
185.79063
  0
VERTEX
  5
f9
  8
Layer_0
  10
179.5322
  20
185.77831
  0
VERTEX
  5
fa
  8
Layer_0
  10
178.70039
  20
185.80031
  0
VERTEX
  5
fb
  8
Layer_0
  10
178.30961
  20
185.8246
  0
VERTEX
  5
fc
  8
Layer_0
  10
177.94227
  20
185.85797
  0
VERTEX
  5
fd
  8
Layer_0
  10
177.60339
  20
185.90059
  0
VERTEX
  5
fe
  8
Layer_0
  10
177.298
  20
185.95264
  0
SEQEND
  0
POLYLINE
  5
100
  8
Layer_0
  62
0
  66
1
  10
0
  20
0
  30
0
  0
VERTEX
  5
100
  8
Layer_0
  10
184.15216
  20
194.72217
  0
VERTEX
  5
101
  8
Layer_0
  10
184.64444
  20
194.85185
  0
VERTEX
  5
102
  8
Layer_0
  10
185.12234
  20
195.02129
  0
VERTEX
  5
103
  8
Layer_0
  10
185.58438
  20
195.22886
  0
VERTEX
  5
104
  8
Layer_0
  10
186.02908
  20
195.47291
  0
VERTEX
  5
105
  8
Layer_0
  10
186.45497
  20
195.7518
  0
VERTEX
  5
106
  8
Layer_0
  10
186.86057
  20
196.06388
  0
VERTEX
  5
107
  8
Layer_0
  10
187.2444
  20
196.4075
  0
VERTEX
  5
108
  8
Layer_0
  10
187.60499
  20
196.78103
  0
VERTEX
  5
109
  8
Layer_0
  10
187.94086
  20
197.18282
  0
VERTEX
  5
10a
  8
Layer_0
  10
188.25054
  20
197.61122
  0
VERTEX
  5
10b
  8
Layer_0
  10
188.53254
  20
198.0646
  0
VERTEX
  5
10c
  8
Layer_0
  10
188.78539
  20
198.54131
  0
VERTEX
  5
10d
  8
Layer_0
  10
189.00761
  20
199.0397
  0
VERTEX
  5
10e
  8
Layer_0
  10
189.19774
  20
199.55813
  0
VERTEX
  5
10f
  8
Layer_0
  10
189.35428
  20
200.09495
  0
VERTEX
  5
110
  8
Layer_0
  10
189.47576
  20
200.64853
  0
VERTEX
  5
111
  8
Layer_0
  10
189.54304
  20
201.13428
  0
VERTEX
  5
112
  8
Layer_0
  10
189.58672
  20
201.71037
  0
VERTEX
  5
113
  8
Layer_0
  10
189.6074
  20
202.34552
  0
VERTEX
  5
114
  8
Layer_0
  10
189.60568
  20
203.00844
  0
VERTEX
  5
115
  8
Layer_0
  10
189.58215
  20
203.66786
  0
VERTEX
  5
116
  8
Layer_0
  10
189.53742
  20
204.29248
  0
VERTEX
  5
117
  8
Layer_0
  10
189.47208
  20
204.85104
  0
VERTEX
  5
118
  8
Layer_0
  10
189.38672
  20
205.31224
  0
VERTEX
  5
119
  8
Layer_0
  10
189.25243
  20
205.81143
  0
VERTEX
  5
11a
  8
Layer_0
  10
189.09013
  20
206.29462
  0
VERTEX
  5
11b
  8
Layer_0
  10
188.90086
  20
206.76066
  0
VERTEX
  5
11c
  8
Layer_0
  10
188.68564
  20
207.20843
  0
VERTEX
  5
11d
  8
Layer_0
  10
188.4455
  20
207.63679
  0
VERTEX
  5
11e
  8
Layer_0
  10
188.18146
  20
208.04461
  0
VERTEX
  5
11f
  8
Layer_0
  10
187.89457
  20
208.43076
  0
VERTEX
  5
120
  8
Layer_0
  10
187.58584
  20
208.7941
  0
VERTEX
  5
121
  8
Layer_0
  10
187.25631
  20
209.13351
  0
VERTEX
  5
122
  8
Layer_0
  10
186.907
  20
209.44785
  0
VERTEX
  5
123
  8
Layer_0
  10
186.53894
  20
209.73599
  0
VERTEX
  5
124
  8
Layer_0
  10
186.15316
  20
209.99679
  0
VERTEX
  5
125
  8
Layer_0
  10
185.75069
  20
210.22913
  0
VERTEX
  5
126
  8
Layer_0
  10
185.33255
  20
210.43187
  0
VERTEX
  5
127
  8
Layer_0
  10
184.89978
  20
210.60388
  0
VERTEX
  5
128
  8
Layer_0
  10
184.45341
  20
210.74402
  0
VERTEX
  5
129
  8
Layer_0
  10
183.74082
  20
210.89809
  0
VERTEX
  5
12a
  8
Layer_0
  10
183.0336
  20
210.97174
  0
VERTEX
  5
12b
  8
Layer_0
  10
182.33595
  20
210.96777
  0
VERTEX
  5
12c
  8
Layer_0
  10
181.65208
  20
210.889
  0
VERTEX
  5
12d
  8
Layer_0
  10
180.98621
  20
210.73824
  0
VERTEX
  5
12e
  8
Layer_0
  10
180.34253
  20
210.5183
  0
VERTEX
  5
12f
  8
Layer_0
  10
179.72526
  20
210.23199
  0
VERTEX
  5
130
  8
Layer_0
  10
179.1386
  20
209.88212
  0
VERTEX
  5
131
  8
Layer_0
  10
178.58676
  20
209.4715
  0
VERTEX
  5
132
  8
Layer_0
  10
178.07395
  20
209.00294
  0
VERTEX
  5
133
  8
Layer_0
  10
177.60437
  20
208.47926
  0
VERTEX
  5
134
  8
Layer_0
  10
177.18224
  20
207.90326
  0
VERTEX
  5
135
  8
Layer_0
  10
176.81177
  20
207.27775
  0
VERTEX
  5
136
  8
Layer_0
  10
176.49715
  20
206.60555
  0
VERTEX
  5
137
  8
Layer_0
  10
176.2426
  20
205.88946
  0
VERTEX
  5
138
  8
Layer_0
  10
176.05232
  20
205.1323
  0
VERTEX
  5
139
  8
Layer_0
  10
175.97015
  20
204.62924
  0
VERTEX
  5
13a
  8
Layer_0
  10
175.91149
  20
204.06458
  0
VERTEX
  5
13b
  8
Layer_0
  10
175.87633
  20
203.45865
  0
VERTEX
  5
13c
  8
Layer_0
  10
175.86468
  20
202.83178
  0
VERTEX
  5
13d
  8
Layer_0
  10
175.87653
  20
202.20428
  0
VERTEX
  5
13e
  8
Layer_0
  10
175.91187
  20
201.59651
  0
VERTEX
  5
13f
  8
Layer_0
  10
175.9707
  20
201.02877
  0
VERTEX
  5
140
  8
Layer_0
  10
176.05302
  20
200.52141
  0
VERTEX
  5
141
  8
Layer_0
  10
176.23679
  20
199.77904
  0
VERTEX
  5
142
  8
Layer_0
  10
176.48144
  20
199.07453
  0
VERTEX
  5
143
  8
Layer_0
  10
176.78313
  20
198.4106
  0
VERTEX
  5
144
  8
Layer_0
  10
177.13803
  20
197.79001
  0
VERTEX
  5
145
  8
Layer_0
  10
177.54231
  20
197.21551
  0
VERTEX
  5
146
  8
Layer_0
  10
177.99213
  20
196.68982
  0
VERTEX
  5
147
  8
Layer_0
  10
178.48367
  20
196.21571
  0
VERTEX
  5
148
  8
Layer_0
  10
179.01308
  20
195.79591
  0
VERTEX
  5
149
  8
Layer_0
  10
179.57655
  20
195.43317
  0
VERTEX
  5
14a
  8
Layer_0
  10
180.17023
  20
195.13024
  0
VERTEX
  5
14b
  8
Layer_0
  10
180.79028
  20
194.88985
  0
VERTEX
  5
14c
  8
Layer_0
  10
181.43289
  20
194.71475
  0
VERTEX
  5
14d
  8
Layer_0
  10
182.09422
  20
194.60769
  0
VERTEX
  5
14e
  8
Layer_0
  10
182.77042
  20
194.57141
  0
VERTEX
  5
14f
  8
Layer_0
  10
183.45768
  20
194.60865
  0
VERTEX
  5
150
  8
Layer_0
  10
184.15216
  20
194.72217
  0
SEQEND
  0
POLYLINE
  5
152
  8
Layer_0
  62
0
  66
1
  10
0
  20
0
  30
0
  0
VERTEX
  5
152
  8
Layer_0
  10
215.8632
  20
185.95229
  0
VERTEX
  5
153
  8
Layer_0
  10
214.84068
  20
186.19863
  0
VERTEX
  5
154
  8
Layer_0
  10
213.85504
  20
186.52445
  0
VERTEX
  5
155
  8
Layer_0
  10
212.90794
  20
186.92789
  0
VERTEX
  5
156
  8
Layer_0
  10
212.00101
  20
187.40709
  0
VERTEX
  5
157
  8
Layer_0
  10
211.1359
  20
187.96021
  0
VERTEX
  5
158
  8
Layer_0
  10
210.31424
  20
188.58538
  0
VERTEX
  5
159
  8
Layer_0
  10
209.53768
  20
189.28076
  0
VERTEX
  5
15a
  8
Layer_0
  10
208.80785
  20
190.0445
  0
VERTEX
  5
15b
  8
Layer_0
  10
208.12641
  20
190.87473
  0
VERTEX
  5
15c
  8
Layer_0
  10
207.49498
  20
191.76961
  0
VERTEX
  5
15d
  8
Layer_0
  10
206.91521
  20
192.72728
  0
VERTEX
  5
15e
  8
Layer_0
  10
206.38875
  20
193.74589
  0
VERTEX
  5
15f
  8
Layer_0
  10
205.91722
  20
194.82359
  0
VERTEX
  5
160
  8
Layer_0
  10
205.50228
  20
195.95852
  0
VERTEX
  5
161
  8
Layer_0
  10
205.14557
  20
197.14882
  0
VERTEX
  5
162
  8
Layer_0
  10
204.84872
  20
198.39266
  0
VERTEX
  5
163
  8
Layer_0
  10
204.78751
  20
198.74773
  0
VERTEX
  5
164
  8
Layer_0
  10
204.73447
  20
199.18279
  0
VERTEX
  5
165
  8
Layer_0
  10
204.68958
  20
199.68641
  0
VERTEX
  5
166
  8
Layer_0
  10
204.65286
  20
200.24717
  0
VERTEX
  5
167
  8
Layer_0
  10
204.60389
  20
201.49437
  0
VERTEX
  5
168
  8
Layer_0
  10
204.58757
  20
202.83299
  0
VERTEX
  5
169
  8
Layer_0
  10
204.60389
  20
204.1716
  0
VERTEX
  5
16a
  8
Layer_0
  10
204.65286
  20
205.41881
  0
VERTEX
  5
16b
  8
Layer_0
  10
204.68958
  20
205.97956
  0
VERTEX
  5
16c
  8
Layer_0
  10
204.73447
  20
206.48318
  0
VERTEX
  5
16d
  8
Layer_0
  10
204.78751
  20
206.91825
  0
VERTEX
  5
16e
  8
Layer_0
  10
204.84872
  20
207.27332
  0
VERTEX
  5
16f
  8
Layer_0
  10
205.03217
  20
208.07814
  0
VERTEX
  5
170
  8
Layer_0
  10
205.24016
  20
208.86074
  0
VERTEX
  5
171
  8
Layer_0
  10
205.47244
  20
209.62069
  0
VERTEX
  5
172
  8
Layer_0
  10
205.72878
  20
210.3576
  0
VERTEX
  5
173
  8
Layer_0
  10
206.00894
  20
211.07104
  0
VERTEX
  5
174
  8
Layer_0
  10
206.31269
  20
211.76062
  0
VERTEX
  5
175
  8
Layer_0
  10
206.63979
  20
212.42591
  0
VERTEX
  5
176
  8
Layer_0
  10
206.98999
  20
213.06651
  0
VERTEX
  5
177
  8
Layer_0
  10
207.36307
  20
213.68201
  0
VERTEX
  5
178
  8
Layer_0
  10
207.75879
  20
214.27199
  0
VERTEX
  5
179
  8
Layer_0
  10
208.17692
  20
214.83604
  0
VERTEX
  5
17a
  8
Layer_0
  10
208.6172
  20
215.37375
  0
VERTEX
  5
17b
  8
Layer_0
  10
209.07942
  20
215.88472
  0
VERTEX
  5
17c
  8
Layer_0
  10
209.56333
  20
216.36852
  0
VERTEX
  5
17d
  8
Layer_0
  10
210.06869
  20
216.82476
  0
VERTEX
  5
17e
  8
Layer_0
  10
210.59527
  20
217.25301
  0
VERTEX
  5
17f
  8
Layer_0
  10
211.00823
  20
217.54769
  0
VERTEX
  5
180
  8
Layer_0
  10
211.49052
  20
217.85151
  0
VERTEX
  5
181
  8
Layer_0
  10
212.02505
  20
218.15594
  0
VERTEX
  5
182
  8
Layer_0
  10
212.59471
  20
218.45246
  0
VERTEX
  5
183
  8
Layer_0
  10
213.18239
  20
218.73255
  0
VERTEX
  5
184
  8
Layer_0
  10
213.77099
  20
218.98768
  0
VERTEX
  5
185
  8
Layer_0
  10
214.34341
  20
219.20935
  0
VERTEX
  5
186
  8
Layer_0
  10
214.88255
  20
219.38902
  0
VERTEX
  5
187
  8
Layer_0
  10
215.52325
  20
219.55831
  0
VERTEX
  5
188
  8
Layer_0
  10
216.17897
  20
219.65599
  0
VERTEX
  5
189
  8
Layer_0
  10
216.57625
  20
219.68393
  0
VERTEX
  5
18a
  8
Layer_0
  10
217.05383
  20
219.70111
  0
VERTEX
  5
18b
  8
Layer_0
  10
217.3307
  20
219.70641
  0
VERTEX
  5
18c
  8
Layer_0
  10
217.63721
  20
219.70991
  0
VERTEX
  5
18d
  8
Layer_0
  10
217.97655
  20
219.71191
  0
VERTEX
  5
18e
  8
Layer_0
  10
218.35191
  20
219.71271
  0
VERTEX
  5
18f
  8
Layer_0
  10
218.72755
  20
219.71248
  0
VERTEX
  5
190
  8
Layer_0
  10
219.06709
  20
219.71099
  0
VERTEX
  5
191
  8
Layer_0
  10
219.37372
  20
219.70796
  0
VERTEX
  5
192
  8
Layer_0
  10
219.65063
  20
219.70309
  0
VERTEX
  5
193
  8
Layer_0
  10
220.12814
  20
219.68665
  0
VERTEX
  5
194
  8
Layer_0
  10
220.52522
  20
219.65933
  0
VERTEX
  5
195
  8
Layer_0
  10
221.18049
  20
219.56261
  0
VERTEX
  5
196
  8
Layer_0
  10
221.82127
  20
219.39412
  0
VERTEX
  5
197
  8
Layer_0
  10
222.67467
  20
219.10006
  0
VERTEX
  5
198
  8
Layer_0
  10
223.51707
  20
218.73651
  0
VERTEX
  5
199
  8
Layer_0
  10
224.33565
  20
218.31193
  0
VERTEX
  5
19a
  8
Layer_0
  10
225.11759
  20
217.83478
  0
VERTEX
  5
19b
  8
Layer_0
  10
225.85005
  20
217.3135
  0
VERTEX
  5
19c
  8
Layer_0
  10
226.52022
  20
216.75656
  0
VERTEX
  5
19d
  8
Layer_0
  10
227.11527
  20
216.17241
  0
VERTEX
  5
19e
  8
Layer_0
  10
227.62238
  20
215.5695
  0
VERTEX
  5
19f
  8
Layer_0
  10
228.15721
  20
214.8591
  0
VERTEX
  5
1a0
  8
Layer_0
  10
228.19173
  20
222.54039
  0
VERTEX
  5
1a1
  8
Layer_0
  10
228.22623
  20
230.22168
  0
VERTEX
  5
1a2
  8
Layer_0
  10
233.02995
  20
230.22168
  0
VERTEX
  5
1a3
  8
Layer_0
  10
237.83368
  20
230.22168
  0
VERTEX
  5
1a4
  8
Layer_0
  10
237.86745
  20
208.19165
  0
VERTEX
  5
1a5
  8
Layer_0
  10
237.90123
  20
186.16161
  0
VERTEX
  5
1a6
  8
Layer_0
  10
233.03036
  20
186.16161
  0
VERTEX
  5
1a7
  8
Layer_0
  10
228.15952
  20
186.16161
  0
VERTEX
  5
1a8
  8
Layer_0
  10
228.15251
  20
188.50821
  0
VERTEX
  5
1a9
  8
Layer_0
  10
228.15117
  20
188.9051
  0
VERTEX
  5
1aa
  8
Layer_0
  10
228.14946
  20
189.25376
  0
VERTEX
  5
1ab
  8
Layer_0
  10
228.14708
  20
189.55677
  0
VERTEX
  5
1ac
  8
Layer_0
  10
228.14373
  20
189.81669
  0
VERTEX
  5
1ad
  8
Layer_0
  10
228.13912
  20
190.0361
  0
VERTEX
  5
1ae
  8
Layer_0
  10
228.13294
  20
190.21756
  0
VERTEX
  5
1af
  8
Layer_0
  10
228.1249
  20
190.36366
  0
VERTEX
  5
1b0
  8
Layer_0
  10
228.11468
  20
190.47695
  0
VERTEX
  5
1b1
  8
Layer_0
  10
228.102
  20
190.56002
  0
VERTEX
  5
1b2
  8
Layer_0
  10
228.08656
  20
190.61543
  0
VERTEX
  5
1b3
  8
Layer_0
  10
228.06805
  20
190.64576
  0
VERTEX
  5
1b4
  8
Layer_0
  10
228.04617
  20
190.65357
  0
VERTEX
  5
1b5
  8
Layer_0
  10
227.99111
  20
190.61193
  0
VERTEX
  5
1b6
  8
Layer_0
  10
227.919
  20
190.51109
  0
VERTEX
  5
1b7
  8
Layer_0
  10
227.37311
  20
189.76344
  0
VERTEX
  5
1b8
  8
Layer_0
  10
226.75439
  20
189.06269
  0
VERTEX
  5
1b9
  8
Layer_0
  10
226.07037
  20
188.41432
  0
VERTEX
  5
1ba
  8
Layer_0
  10
225.32861
  20
187.82385
  0
VERTEX
  5
1bb
  8
Layer_0
  10
224.53665
  20
187.29677
  0
VERTEX
  5
1bc
  8
Layer_0
  10
223.70206
  20
186.83858
  0
VERTEX
  5
1bd
  8
Layer_0
  10
222.83238
  20
186.4548
  0
VERTEX
  5
1be
  8
Layer_0
  10
221.93516
  20
186.15091
  0
VERTEX
  5
1bf
  8
Layer_0
  10
221.65809
  20
186.08031
  0
VERTEX
  5
1c0
  8
Layer_0
  10
221.34354
  20
186.01668
  0
VERTEX
  5
1c1
  8
Layer_0
  10
220.99661
  20
185.96021
  0
VERTEX
  5
1c2
  8
Layer_0
  10
220.62241
  20
185.91104
  0
VERTEX
  5
1c3
  8
Layer_0
  10
219.81262
  20
185.83532
  0
VERTEX
  5
1c4
  8
Layer_0
  10
218.95501
  20
185.79086
  0
VERTEX
  5
1c5
  8
Layer_0
  10
218.09042
  20
185.77898
  0
VERTEX
  5
1c6
  8
Layer_0
  10
217.25969
  20
185.80104
  0
VERTEX
  5
1c7
  8
Layer_0
  10
216.86979
  20
185.82521
  0
VERTEX
  5
1c8
  8
Layer_0
  10
216.50367
  20
185.85836
  0
VERTEX
  5
1c9
  8
Layer_0
  10
216.16644
  20
185.90067
  0
VERTEX
  5
1ca
  8
Layer_0
  10
215.8632
  20
185.95229
  0
SEQEND
  0
POLYLINE
  5
1cc
  8
Layer_0
  62
0
  66
1
  10
0
  20
0
  30
0
  0
VERTEX
  5
1cc
  8
Layer_0
  10
222.57032
  20
194.70727
  0
VERTEX
  5
1cd
  8
Layer_0
  10
222.9296
  20
194.79074
  0
VERTEX
  5
1ce
  8
Layer_0
  10
223.28708
  20
194.90031
  0
VERTEX
  5
1cf
  8
Layer_0
  10
223.64129
  20
195.03479
  0
VERTEX
  5
1d0
  8
Layer_0
  10
223.99076
  20
195.19299
  0
VERTEX
  5
1d1
  8
Layer_0
  10
224.66959
  20
195.57582
  0
VERTEX
  5
1d2
  8
Layer_0
  10
225.31182
  20
196.03931
  0
VERTEX
  5
1d3
  8
Layer_0
  10
225.90568
  20
196.57396
  0
VERTEX
  5
1d4
  8
Layer_0
  10
226.43941
  20
197.17027
  0
VERTEX
  5
1d5
  8
Layer_0
  10
226.90127
  20
197.81875
  0
VERTEX
  5
1d6
  8
Layer_0
  10
227.27949
  20
198.50991
  0
VERTEX
  5
1d7
  8
Layer_0
  10
227.48362
  20
198.98641
  0
VERTEX
  5
1d8
  8
Layer_0
  10
227.66094
  20
199.48553
  0
VERTEX
  5
1d9
  8
Layer_0
  10
227.81143
  20
200.00406
  0
VERTEX
  5
1da
  8
Layer_0
  10
227.93508
  20
200.53874
  0
VERTEX
  5
1db
  8
Layer_0
  10
228.03187
  20
201.08634
  0
VERTEX
  5
1dc
  8
Layer_0
  10
228.10179
  20
201.64361
  0
VERTEX
  5
1dd
  8
Layer_0
  10
228.14482
  20
202.20732
  0
VERTEX
  5
1de
  8
Layer_0
  10
228.16095
  20
202.77423
  0
VERTEX
  5
1df
  8
Layer_0
  10
228.15016
  20
203.3411
  0
VERTEX
  5
1e0
  8
Layer_0
  10
228.11243
  20
203.90468
  0
VERTEX
  5
1e1
  8
Layer_0
  10
228.04776
  20
204.46175
  0
VERTEX
  5
1e2
  8
Layer_0
  10
227.95612
  20
205.00905
  0
VERTEX
  5
1e3
  8
Layer_0
  10
227.8375
  20
205.54335
  0
VERTEX
  5
1e4
  8
Layer_0
  10
227.69188
  20
206.06142
  0
VERTEX
  5
1e5
  8
Layer_0
  10
227.51926
  20
206.56
  0
VERTEX
  5
1e6
  8
Layer_0
  10
227.3196
  20
207.03586
  0
VERTEX
  5
1e7
  8
Layer_0
  10
227.09543
  20
207.45797
  0
VERTEX
  5
1e8
  8
Layer_0
  10
226.80611
  20
207.90117
  0
VERTEX
  5
1e9
  8
Layer_0
  10
226.46555
  20
208.35023
  0
VERTEX
  5
1ea
  8
Layer_0
  10
226.08762
  20
208.78991
  0
VERTEX
  5
1eb
  8
Layer_0
  10
225.68622
  20
209.20498
  0
VERTEX
  5
1ec
  8
Layer_0
  10
225.27522
  20
209.58022
  0
VERTEX
  5
1ed
  8
Layer_0
  10
224.86853
  20
209.90038
  0
VERTEX
  5
1ee
  8
Layer_0
  10
224.48002
  20
210.15025
  0
VERTEX
  5
1ef
  8
Layer_0
  10
223.98691
  20
210.39867
  0
VERTEX
  5
1f0
  8
Layer_0
  10
223.47956
  20
210.60164
  0
VERTEX
  5
1f1
  8
Layer_0
  10
222.96081
  20
210.7596
  0
VERTEX
  5
1f2
  8
Layer_0
  10
222.43351
  20
210.87298
  0
VERTEX
  5
1f3
  8
Layer_0
  10
221.90053
  20
210.94222
  0
VERTEX
  5
1f4
  8
Layer_0
  10
221.36473
  20
210.96777
  0
VERTEX
  5
1f5
  8
Layer_0
  10
220.82894
  20
210.95006
  0
VERTEX
  5
1f6
  8
Layer_0
  10
220.29604
  20
210.88954
  0
VERTEX
  5
1f7
  8
Layer_0
  10
219.76887
  20
210.78665
  0
VERTEX
  5
1f8
  8
Layer_0
  10
219.25029
  20
210.64182
  0
VERTEX
  5
1f9
  8
Layer_0
  10
218.74316
  20
210.4555
  0
VERTEX
  5
1fa
  8
Layer_0
  10
218.25033
  20
210.22813
  0
VERTEX
  5
1fb
  8
Layer_0
  10
217.77466
  20
209.96014
  0
VERTEX
  5
1fc
  8
Layer_0
  10
217.319
  20
209.65197
  0
VERTEX
  5
1fd
  8
Layer_0
  10
216.8862
  20
209.30408
  0
VERTEX
  5
1fe
  8
Layer_0
  10
216.47913
  20
208.91689
  0
VERTEX
  5
1ff
  8
Layer_0
  10
215.96453
  20
208.33049
  0
VERTEX
  5
200
  8
Layer_0
  10
215.52916
  20
207.71349
  0
VERTEX
  5
201
  8
Layer_0
  10
215.16975
  20
207.05632
  0
VERTEX
  5
202
  8
Layer_0
  10
214.88302
  20
206.34941
  0
VERTEX
  5
203
  8
Layer_0
  10
214.66572
  20
205.58319
  0
VERTEX
  5
204
  8
Layer_0
  10
214.51455
  20
204.74809
  0
VERTEX
  5
205
  8
Layer_0
  10
214.46275
  20
204.30172
  0
VERTEX
  5
206
  8
Layer_0
  10
214.42625
  20
203.83455
  0
VERTEX
  5
207
  8
Layer_0
  10
214.40466
  20
203.34537
  0
VERTEX
  5
208
  8
Layer_0
  10
214.39755
  20
202.83299
  0
VERTEX
  5
209
  8
Layer_0
  10
214.40467
  20
202.3127
  0
VERTEX
  5
20a
  8
Layer_0
  10
214.4264
  20
201.81718
  0
VERTEX
  5
20b
  8
Layer_0
  10
214.46323
  20
201.34495
  0
VERTEX
  5
20c
  8
Layer_0
  10
214.51568
  20
200.89453
  0
VERTEX
  5
20d
  8
Layer_0
  10
214.6695
  20
200.05326
  0
VERTEX
  5
20e
  8
Layer_0
  10
214.89197
  20
199.28158
  0
VERTEX
  5
20f
  8
Layer_0
  10
215.18719
  20
198.56771
  0
VERTEX
  5
210
  8
Layer_0
  10
215.55927
  20
197.89988
  0
VERTEX
  5
211
  8
Layer_0
  10
216.01231
  20
197.26629
  0
VERTEX
  5
212
  8
Layer_0
  10
216.55042
  20
196.65518
  0
VERTEX
  5
213
  8
Layer_0
  10
216.86656
  20
196.3445
  0
VERTEX
  5
214
  8
Layer_0
  10
217.19205
  20
196.05858
  0
VERTEX
  5
215
  8
Layer_0
  10
217.5266
  20
195.79751
  0
VERTEX
  5
216
  8
Layer_0
  10
217.86993
  20
195.56139
  0
VERTEX
  5
217
  8
Layer_0
  10
218.22175
  20
195.3503
  0
VERTEX
  5
218
  8
Layer_0
  10
218.58178
  20
195.16434
  0
VERTEX
  5
219
  8
Layer_0
  10
218.94973
  20
195.0036
  0
VERTEX
  5
21a
  8
Layer_0
  10
219.32531
  20
194.86818
  0
VERTEX
  5
21b
  8
Layer_0
  10
219.70824
  20
194.75817
  0
VERTEX
  5
21c
  8
Layer_0
  10
220.09822
  20
194.67365
  0
VERTEX
  5
21d
  8
Layer_0
  10
220.49498
  20
194.61473
  0
VERTEX
  5
21e
  8
Layer_0
  10
220.89822
  20
194.5815
  0
VERTEX
  5
21f
  8
Layer_0
  10
221.30766
  20
194.57404
  0
VERTEX
  5
220
  8
Layer_0
  10
221.72302
  20
194.59246
  0
VERTEX
  5
221
  8
Layer_0
  10
222.144
  20
194.63683
  0
VERTEX
  5
222
  8
Layer_0
  10
222.57032
  20
194.70727
  0
SEQEND
  0
POLYLINE
  5
224
  8
Layer_0
  62
0
  66
1
  10
0
  20
0
  30
0
  0
VERTEX
  5
224
  8
Layer_0
  10
255.84765
  20
185.9445
  0
VERTEX
  5
225
  8
Layer_0
  10
255.17786
  20
186.08966
  0
VERTEX
  5
226
  8
Layer_0
  10
254.53415
  20
186.24919
  0
VERTEX
  5
227
  8
Layer_0
  10
253.91506
  20
186.42389
  0
VERTEX
  5
228
  8
Layer_0
  10
253.31912
  20
186.61453
  0
VERTEX
  5
229
  8
Layer_0
  10
252.74488
  20
186.8219
  0
VERTEX
  5
22a
  8
Layer_0
  10
252.19087
  20
187.04676
  0
VERTEX
  5
22b
  8
Layer_0
  10
251.65562
  20
187.28992
  0
VERTEX
  5
22c
  8
Layer_0
  10
251.13767
  20
187.55214
  0
VERTEX
  5
22d
  8
Layer_0
  10
250.63556
  20
187.83421
  0
VERTEX
  5
22e
  8
Layer_0
  10
250.14781
  20
188.13691
  0
VERTEX
  5
22f
  8
Layer_0
  10
249.67298
  20
188.46101
  0
VERTEX
  5
230
  8
Layer_0
  10
249.20958
  20
188.80732
  0
VERTEX
  5
231
  8
Layer_0
  10
248.75616
  20
189.17659
  0
VERTEX
  5
232
  8
Layer_0
  10
248.31126
  20
189.56962
  0
VERTEX
  5
233
  8
Layer_0
  10
247.8734
  20
189.98719
  0
VERTEX
  5
234
  8
Layer_0
  10
247.44113
  20
190.43007
  42
0.091657304
  0
VERTEX
  5
235
  8
Layer_0
  10
244.36092
  20
195.23694
  0
VERTEX
  5
236
  8
Layer_0
  10
244.0761
  20
195.98981
  0
VERTEX
  5
237
  8
Layer_0
  10
243.82465
  20
196.78114
  0
VERTEX
  5
238
  8
Layer_0
  10
243.60673
  20
197.60599
  0
VERTEX
  5
239
  8
Layer_0
  10
243.42248
  20
198.45945
  0
VERTEX
  5
23a
  8
Layer_0
  10
243.27209
  20
199.33656
  0
VERTEX
  5
23b
  8
Layer_0
  10
243.15572
  20
200.23242
  0
VERTEX
  5
23c
  8
Layer_0
  10
243.07352
  20
201.14209
  0
VERTEX
  5
23d
  8
Layer_0
  10
243.02566
  20
202.06064
  0
VERTEX
  5
23e
  8
Layer_0
  10
243.0123
  20
202.98314
  0
VERTEX
  5
23f
  8
Layer_0
  10
243.03362
  20
203.90466
  0
VERTEX
  5
240
  8
Layer_0
  10
243.08977
  20
204.82028
  0
VERTEX
  5
241
  8
Layer_0
  10
243.18092
  20
205.72507
  0
VERTEX
  5
242
  8
Layer_0
  10
243.30723
  20
206.61409
  0
VERTEX
  5
243
  8
Layer_0
  10
243.46886
  20
207.48242
  0
VERTEX
  5
244
  8
Layer_0
  10
243.66598
  20
208.32513
  0
VERTEX
  5
245
  8
Layer_0
  10
243.89875
  20
209.13729
  0
VERTEX
  5
246
  8
Layer_0
  10
244.22371
  20
210.05001
  0
VERTEX
  5
247
  8
Layer_0
  10
244.62405
  20
210.97749
  0
VERTEX
  5
248
  8
Layer_0
  10
245.08787
  20
211.90025
  0
VERTEX
  5
249
  8
Layer_0
  10
245.60327
  20
212.79881
  0
VERTEX
  5
24a
  8
Layer_0
  10
246.15836
  20
213.65369
  0
VERTEX
  5
24b
  8
Layer_0
  10
246.74124
  20
214.44538
  0
VERTEX
  5
24c
  8
Layer_0
  10
247.03939
  20
214.81145
  0
VERTEX
  5
24d
  8
Layer_0
  10
247.34002
  20
215.15442
  0
VERTEX
  5
24e
  8
Layer_0
  10
247.64165
  20
215.47186
  0
VERTEX
  5
24f
  8
Layer_0
  10
247.94279
  20
215.76132
  0
VERTEX
  5
250
  8
Layer_0
  10
248.52948
  20
216.27811
  0
VERTEX
  5
251
  8
Layer_0
  10
249.10433
  20
216.74288
  0
VERTEX
  5
252
  8
Layer_0
  10
249.67699
  20
217.16157
  0
VERTEX
  5
253
  8
Layer_0
  10
250.25712
  20
217.5401
  0
VERTEX
  5
254
  8
Layer_0
  10
250.85436
  20
217.8844
  0
VERTEX
  5
255
  8
Layer_0
  10
251.47837
  20
218.20039
  0
VERTEX
  5
256
  8
Layer_0
  10
252.13881
  20
218.49401
  0
VERTEX
  5
257
  8
Layer_0
  10
252.84532
  20
218.77117
  0
VERTEX
  5
258
  8
Layer_0
  10
253.25299
  20
218.91981
  0
VERTEX
  5
259
  8
Layer_0
  10
253.6304
  20
219.05221
  0
VERTEX
  5
25a
  8
Layer_0
  10
253.98358
  20
219.16928
  0
VERTEX
  5
25b
  8
Layer_0
  10
254.31857
  20
219.27192
  0
VERTEX
  5
25c
  8
Layer_0
  10
254.95812
  20
219.43747
  0
VERTEX
  5
25d
  8
Layer_0
  10
255.59736
  20
219.55605
  0
VERTEX
  5
25e
  8
Layer_0
  10
255.93194
  20
219.59997
  0
VERTEX
  5
25f
  8
Layer_0
  10
256.28456
  20
219.63485
  0
VERTEX
  5
260
  8
Layer_0
  10
256.66123
  20
219.66158
  0
VERTEX
  5
261
  8
Layer_0
  10
257.06801
  20
219.68105
  0
VERTEX
  5
262
  8
Layer_0
  10
257.51093
  20
219.69418
  0
VERTEX
  5
263
  8
Layer_0
  10
257.99602
  20
219.70185
  0
VERTEX
  5
264
  8
Layer_0
  10
258.52931
  20
219.70496
  0
VERTEX
  5
265
  8
Layer_0
  10
259.11685
  20
219.70442
  0
VERTEX
  5
266
  8
Layer_0
  10
259.61334
  20
219.70239
  0
VERTEX
  5
267
  8
Layer_0
  10
260.05599
  20
219.69956
  0
VERTEX
  5
268
  8
Layer_0
  10
260.44985
  20
219.69547
  0
VERTEX
  5
269
  8
Layer_0
  10
260.79992
  20
219.68969
  0
VERTEX
  5
26a
  8
Layer_0
  10
261.11125
  20
219.68177
  0
VERTEX
  5
26b
  8
Layer_0
  10
261.38886
  20
219.67129
  0
VERTEX
  5
26c
  8
Layer_0
  10
261.63777
  20
219.65779
  0
VERTEX
  5
26d
  8
Layer_0
  10
261.86302
  20
219.64085
  0
VERTEX
  5
26e
  8
Layer_0
  10
262.62789
  20
219.52976
  0
VERTEX
  5
26f
  8
Layer_0
  10
263.41628
  20
219.32826
  0
VERTEX
  5
270
  8
Layer_0
  10
264.07948
  20
219.12874
  0
VERTEX
  5
271
  8
Layer_0
  10
264.72218
  20
218.91025
  0
VERTEX
  5
272
  8
Layer_0
  10
265.34457
  20
218.67266
  0
VERTEX
  5
273
  8
Layer_0
  10
265.94681
  20
218.41586
  0
VERTEX
  5
274
  8
Layer_0
  10
266.52911
  20
218.13972
  0
VERTEX
  5
275
  8
Layer_0
  10
267.09162
  20
217.84412
  0
VERTEX
  5
276
  8
Layer_0
  10
267.63454
  20
217.52894
  0
VERTEX
  5
277
  8
Layer_0
  10
268.15803
  20
217.19406
  0
VERTEX
  5
278
  8
Layer_0
  10
268.66229
  20
216.83937
  0
VERTEX
  5
279
  8
Layer_0
  10
269.14749
  20
216.46473
  0
VERTEX
  5
27a
  8
Layer_0
  10
269.61382
  20
216.07004
  0
VERTEX
  5
27b
  8
Layer_0
  10
270.06144
  20
215.65517
  0
VERTEX
  5
27c
  8
Layer_0
  10
270.49054
  20
215.21999
  0
VERTEX
  5
27d
  8
Layer_0
  10
270.90131
  20
214.76439
  0
VERTEX
  5
27e
  8
Layer_0
  10
271.29391
  20
214.28825
  0
VERTEX
  5
27f
  8
Layer_0
  10
271.66853
  20
213.79145
  0
VERTEX
  5
280
  8
Layer_0
  10
272.12123
  20
213.11397
  0
VERTEX
  5
281
  8
Layer_0
  10
272.55412
  20
212.36863
  0
VERTEX
  5
282
  8
Layer_0
  10
272.96132
  20
211.56945
  0
VERTEX
  5
283
  8
Layer_0
  10
273.33696
  20
210.73044
  0
VERTEX
  5
284
  8
Layer_0
  10
273.67517
  20
209.86563
  0
VERTEX
  5
285
  8
Layer_0
  10
273.97006
  20
208.98904
  0
VERTEX
  5
286
  8
Layer_0
  10
274.21578
  20
208.11469
  0
VERTEX
  5
287
  8
Layer_0
  10
274.40643
  20
207.2566
  0
VERTEX
  5
288
  8
Layer_0
  10
274.45101
  20
206.99495
  0
VERTEX
  5
289
  8
Layer_0
  10
274.49297
  20
206.69401
  0
VERTEX
  5
28a
  8
Layer_0
  10
274.53208
  20
206.35922
  0
VERTEX
  5
28b
  8
Layer_0
  10
274.5681
  20
205.99601
  0
VERTEX
  5
28c
  8
Layer_0
  10
274.62986
  20
205.20605
  0
VERTEX
  5
28d
  8
Layer_0
  10
274.6763
  20
204.36755
  0
VERTEX
  5
28e
  8
Layer_0
  10
274.70546
  20
203.52396
  0
VERTEX
  5
28f
  8
Layer_0
  10
274.7154
  20
202.71872
  0
VERTEX
  5
290
  8
Layer_0
  10
274.71255
  20
202.34405
  0
VERTEX
  5
291
  8
Layer_0
  10
274.70417
  20
201.99525
  0
VERTEX
  5
292
  8
Layer_0
  10
274.69
  20
201.67776
  0
VERTEX
  5
293
  8
Layer_0
  10
274.6698
  20
201.39701
  0
VERTEX
  5
294
  8
Layer_0
  10
274.57275
  20
200.31126
  0
VERTEX
  5
295
  8
Layer_0
  10
263.59579
  20
200.31126
  0
VERTEX
  5
296
  8
Layer_0
  10
252.61885
  20
200.31126
  0
VERTEX
  5
297
  8
Layer_0
  10
252.73418
  20
199.5392
  0
VERTEX
  5
298
  8
Layer_0
  10
252.84673
  20
198.90844
  0
VERTEX
  5
299
  8
Layer_0
  10
252.98959
  20
198.32698
  0
VERTEX
  5
29a
  8
Layer_0
  10
253.16491
  20
197.79037
  0
VERTEX
  5
29b
  8
Layer_0
  10
253.3748
  20
197.2941
  0
VERTEX
  5
29c
  8
Layer_0
  10
253.62142
  20
196.83371
  0
VERTEX
  5
29d
  8
Layer_0
  10
253.90689
  20
196.40472
  0
VERTEX
  5
29e
  8
Layer_0
  10
254.23336
  20
196.00264
  0
VERTEX
  5
29f
  8
Layer_0
  10
254.60297
  20
195.623
  0
VERTEX
  5
2a0
  8
Layer_0
  10
255.09391
  20
195.20061
  0
VERTEX
  5
2a1
  8
Layer_0
  10
255.60208
  20
194.8456
  0
VERTEX
  5
2a2
  8
Layer_0
  10
256.13141
  20
194.55666
  0
VERTEX
  5
2a3
  8
Layer_0
  10
256.6858
  20
194.33245
  0
VERTEX
  5
2a4
  8
Layer_0
  10
257.26917
  20
194.17165
  0
VERTEX
  5
2a5
  8
Layer_0
  10
257.88542
  20
194.07294
  0
VERTEX
  5
2a6
  8
Layer_0
  10
258.53848
  20
194.03499
  0
VERTEX
  5
2a7
  8
Layer_0
  10
259.23224
  20
194.05648
  0
VERTEX
  5
2a8
  8
Layer_0
  10
259.90219
  20
194.13912
  0
VERTEX
  5
2a9
  8
Layer_0
  10
260.53081
  20
194.28828
  0
VERTEX
  5
2aa
  8
Layer_0
  10
261.11606
  20
194.50275
  0
VERTEX
  5
2ab
  8
Layer_0
  10
261.65589
  20
194.7813
  0
VERTEX
  5
2ac
  8
Layer_0
  10
262.14826
  20
195.12269
  0
VERTEX
  5
2ad
  8
Layer_0
  10
262.59112
  20
195.52569
  0
VERTEX
  5
2ae
  8
Layer_0
  10
262.98242
  20
195.98909
  0
VERTEX
  5
2af
  8
Layer_0
  10
263.32011
  20
196.51164
  0
VERTEX
  5
2b0
  8
Layer_0
  10
263.72043
  20
197.2236
  0
VERTEX
  5
2b1
  8
Layer_0
  10
268.8244
  20
197.22638
  0
VERTEX
  5
2b2
  8
Layer_0
  10
269.60758
  20
197.22645
  0
VERTEX
  5
2b3
  8
Layer_0
  10
270.30832
  20
197.22563
  0
VERTEX
  5
2b4
  8
Layer_0
  10
270.93104
  20
197.22375
  0
VERTEX
  5
2b5
  8
Layer_0
  10
271.48011
  20
197.22064
  0
VERTEX
  5
2b6
  8
Layer_0
  10
271.95995
  20
197.21611
  0
VERTEX
  5
2b7
  8
Layer_0
  10
272.37497
  20
197.21
  0
VERTEX
  5
2b8
  8
Layer_0
  10
272.72956
  20
197.20213
  0
VERTEX
  5
2b9
  8
Layer_0
  10
273.02813
  20
197.19232
  0
VERTEX
  5
2ba
  8
Layer_0
  10
273.27508
  20
197.1804
  0
VERTEX
  5
2bb
  8
Layer_0
  10
273.47481
  20
197.16619
  0
VERTEX
  5
2bc
  8
Layer_0
  10
273.63174
  20
197.14951
  0
VERTEX
  5
2bd
  8
Layer_0
  10
273.75026
  20
197.1302
  0
VERTEX
  5
2be
  8
Layer_0
  10
273.83478
  20
197.10808
  0
VERTEX
  5
2bf
  8
Layer_0
  10
273.88969
  20
197.08296
  0
VERTEX
  5
2c0
  8
Layer_0
  10
273.91941
  20
197.05468
  0
VERTEX
  5
2c1
  8
Layer_0
  10
273.92834
  20
197.02306
  0
VERTEX
  5
2c2
  8
Layer_0
  10
273.91944
  20
196.93333
  0
VERTEX
  5
2c3
  8
Layer_0
  10
273.8938
  20
196.8077
  0
VERTEX
  5
2c4
  8
Layer_0
  10
273.85302
  20
196.65044
  0
VERTEX
  5
2c5
  8
Layer_0
  10
273.7987
  20
196.4658
  0
VERTEX
  5
2c6
  8
Layer_0
  10
273.65584
  20
196.03153
  0
VERTEX
  5
2c7
  8
Layer_0
  10
273.47802
  20
195.53905
  0
VERTEX
  5
2c8
  8
Layer_0
  10
273.27802
  20
195.02253
  0
VERTEX
  5
2c9
  8
Layer_0
  10
273.06865
  20
194.51614
  0
VERTEX
  5
2ca
  8
Layer_0
  10
272.86269
  20
194.05404
  0
VERTEX
  5
2cb
  8
Layer_0
  10
272.67294
  20
193.67041
  0
VERTEX
  5
2cc
  8
Layer_0
  10
272.28167
  20
192.97603
  0
VERTEX
  5
2cd
  8
Layer_0
  10
271.86382
  20
192.31212
  0
VERTEX
  5
2ce
  8
Layer_0
  10
271.41941
  20
191.67871
  0
VERTEX
  5
2cf
  8
Layer_0
  10
270.94847
  20
191.07581
  0
VERTEX
  5
2d0
  8
Layer_0
  10
270.451
  20
190.50343
  0
VERTEX
  5
2d1
  8
Layer_0
  10
269.92703
  20
189.96158
  0
VERTEX
  5
2d2
  8
Layer_0
  10
269.37658
  20
189.45028
  0
VERTEX
  5
2d3
  8
Layer_0
  10
268.79966
  20
188.96954
  0
VERTEX
  5
2d4
  8
Layer_0
  10
268.1963
  20
188.51939
  0
VERTEX
  5
2d5
  8
Layer_0
  10
267.56651
  20
188.09983
  0
VERTEX
  5
2d6
  8
Layer_0
  10
266.91031
  20
187.71088
  0
VERTEX
  5
2d7
  8
Layer_0
  10
266.22771
  20
187.35255
  0
VERTEX
  5
2d8
  8
Layer_0
  10
265.51875
  20
187.02485
  0
VERTEX
  5
2d9
  8
Layer_0
  10
264.78343
  20
186.72781
  0
VERTEX
  5
2da
  8
Layer_0
  10
264.02177
  20
186.46144
  0
VERTEX
  5
2db
  8
Layer_0
  10
263.2338
  20
186.22575
  0
VERTEX
  5
2dc
  8
Layer_0
  10
262.42146
  20
186.02302
  0
VERTEX
  5
2dd
  8
Layer_0
  10
261.65848
  20
185.90203
  0
VERTEX
  5
2de
  8
Layer_0
  10
261.22023
  20
185.86401
  0
VERTEX
  5
2df
  8
Layer_0
  10
260.70397
  20
185.83662
  0
VERTEX
  5
2e0
  8
Layer_0
  10
260.40719
  20
185.82589
  0
VERTEX
  5
2e1
  8
Layer_0
  10
260.07961
  20
185.81659
  0
VERTEX
  5
2e2
  8
Layer_0
  10
259.71747
  20
185.80832
  0
VERTEX
  5
2e3
  8
Layer_0
  10
259.31701
  20
185.80065
  0
VERTEX
  5
2e4
  8
Layer_0
  10
258.69413
  20
185.79261
  0
VERTEX
  5
2e5
  8
Layer_0
  10
258.13028
  20
185.7918
  0
VERTEX
  5
2e6
  8
Layer_0
  10
257.62299
  20
185.79831
  0
VERTEX
  5
2e7
  8
Layer_0
  10
257.16976
  20
185.81227
  0
VERTEX
  5
2e8
  8
Layer_0
  10
256.7681
  20
185.83376
  0
VERTEX
  5
2e9
  8
Layer_0
  10
256.41553
  20
185.86289
  0
VERTEX
  5
2ea
  8
Layer_0
  10
256.10954
  20
185.89977
  0
VERTEX
  5
2eb
  8
Layer_0
  10
255.84765
  20
185.9445
  0
SEQEND
  0
POLYLINE
  5
2ed
  8
Layer_0
  62
0
  66
1
  10
0
  20
0
  30
0
  0
VERTEX
  5
2ed
  8
Layer_0
  10
264.7837
  20
206.78787
  0
VERTEX
  5
2ee
  8
Layer_0
  10
264.64429
  20
207.53177
  0
VERTEX
  5
2ef
  8
Layer_0
  10
264.42821
  20
208.21978
  0
VERTEX
  5
2f0
  8
Layer_0
  10
264.13528
  20
208.85213
  0
VERTEX
  5
2f1
  8
Layer_0
  10
263.76533
  20
209.42904
  0
VERTEX
  5
2f2
  8
Layer_0
  10
263.31819
  20
209.95074
  0
VERTEX
  5
2f3
  8
Layer_0
  10
262.79371
  20
210.41746
  0
VERTEX
  5
2f4
  8
Layer_0
  10
262.19171
  20
210.82941
  0
VERTEX
  5
2f5
  8
Layer_0
  10
261.51202
  20
211.18682
  0
VERTEX
  5
2f6
  8
Layer_0
  10
261.23746
  20
211.30906
  0
VERTEX
  5
2f7
  8
Layer_0
  10
260.99609
  20
211.40333
  0
VERTEX
  5
2f8
  8
Layer_0
  10
260.76422
  20
211.47326
  0
VERTEX
  5
2f9
  8
Layer_0
  10
260.51809
  20
211.52251
  0
VERTEX
  5
2fa
  8
Layer_0
  10
260.23401
  20
211.55471
  0
VERTEX
  5
2fb
  8
Layer_0
  10
259.88823
  20
211.57352
  0
VERTEX
  5
2fc
  8
Layer_0
  10
259.68479
  20
211.57904
  0
VERTEX
  5
2fd
  8
Layer_0
  10
259.45703
  20
211.58258
  0
VERTEX
  5
2fe
  8
Layer_0
  10
259.20199
  20
211.5846
  0
VERTEX
  5
2ff
  8
Layer_0
  10
258.9167
  20
211.58554
  0
VERTEX
  5
300
  8
Layer_0
  10
258.63192
  20
211.58564
  0
VERTEX
  5
301
  8
Layer_0
  10
258.37715
  20
211.58455
  0
VERTEX
  5
302
  8
Layer_0
  10
258.14943
  20
211.58183
  0
VERTEX
  5
303
  8
Layer_0
  10
257.9458
  20
211.57703
  0
VERTEX
  5
304
  8
Layer_0
  10
257.59892
  20
211.55942
  0
VERTEX
  5
305
  8
Layer_0
  10
257.31278
  20
211.52822
  0
VERTEX
  5
306
  8
Layer_0
  10
257.06363
  20
211.47989
  0
VERTEX
  5
307
  8
Layer_0
  10
256.82773
  20
211.41091
  0
VERTEX
  5
308
  8
Layer_0
  10
256.58136
  20
211.31775
  0
VERTEX
  5
309
  8
Layer_0
  10
256.30077
  20
211.19688
  0
VERTEX
  5
30a
  8
Layer_0
  10
255.70778
  20
210.88972
  0
VERTEX
  5
30b
  8
Layer_0
  10
255.15917
  20
210.51656
  0
VERTEX
  5
30c
  8
Layer_0
  10
254.65718
  20
210.08015
  0
VERTEX
  5
30d
  8
Layer_0
  10
254.20404
  20
209.58322
  0
VERTEX
  5
30e
  8
Layer_0
  10
253.802
  20
209.02854
  0
VERTEX
  5
30f
  8
Layer_0
  10
253.45328
  20
208.41886
  0
VERTEX
  5
310
  8
Layer_0
  10
253.16012
  20
207.75691
  0
VERTEX
  5
311
  8
Layer_0
  10
252.92476
  20
207.04545
  0
VERTEX
  5
312
  8
Layer_0
  10
252.84211
  20
206.74095
  0
VERTEX
  5
313
  8
Layer_0
  10
252.77442
  20
206.47436
  0
VERTEX
  5
314
  8
Layer_0
  10
252.72868
  20
206.27442
  0
VERTEX
  5
315
  8
Layer_0
  10
252.71189
  20
206.16985
  0
VERTEX
  5
316
  8
Layer_0
  10
252.74345
  20
206.15817
  0
VERTEX
  5
317
  8
Layer_0
  10
252.83606
  20
206.14682
  0
VERTEX
  5
318
  8
Layer_0
  10
252.9866
  20
206.13585
  0
VERTEX
  5
319
  8
Layer_0
  10
253.19194
  20
206.12533
  0
VERTEX
  5
31a
  8
Layer_0
  10
253.44898
  20
206.11532
  0
VERTEX
  5
31b
  8
Layer_0
  10
253.75459
  20
206.10586
  0
VERTEX
  5
31c
  8
Layer_0
  10
254.10564
  20
206.09703
  0
VERTEX
  5
31d
  8
Layer_0
  10
254.49903
  20
206.08887
  0
VERTEX
  5
31e
  8
Layer_0
  10
254.93163
  20
206.08146
  0
VERTEX
  5
31f
  8
Layer_0
  10
255.40033
  20
206.07484
  0
VERTEX
  5
320
  8
Layer_0
  10
255.902
  20
206.06908
  0
VERTEX
  5
321
  8
Layer_0
  10
256.43352
  20
206.06424
  0
VERTEX
  5
322
  8
Layer_0
  10
257.57366
  20
206.05753
  0
VERTEX
  5
323
  8
Layer_0
  10
258.79579
  20
206.05519
  0
VERTEX
  5
324
  8
Layer_0
  10
264.87967
  20
206.05519
  0
VERTEX
  5
325
  8
Layer_0
  10
264.78369
  20
206.78787
  0
SEQEND
  0
POLYLINE
  5
327
  8
Layer_0
  62
0
  66
1
  10
0
  20
0
  30
0
  0
VERTEX
  5
327
  8
Layer_0
  10
337.44426
  20
185.93458
  0
VERTEX
  5
328
  8
Layer_0
  10
336.88685
  20
186.13816
  0
VERTEX
  5
329
  8
Layer_0
  10
336.35477
  20
186.40007
  0
VERTEX
  5
32a
  8
Layer_0
  10
335.85348
  20
186.71556
  0
VERTEX
  5
32b
  8
Layer_0
  10
335.38845
  20
187.07988
  0
VERTEX
  5
32c
  8
Layer_0
  10
334.96513
  20
187.48828
  0
VERTEX
  5
32d
  8
Layer_0
  10
334.58897
  20
187.93601
  0
VERTEX
  5
32e
  8
Layer_0
  10
334.26545
  20
188.41833
  0
VERTEX
  5
32f
  8
Layer_0
  10
334.00001
  20
188.93049
  0
VERTEX
  5
330
  8
Layer_0
  10
333.80983
  20
189.40301
  0
VERTEX
  5
331
  8
Layer_0
  10
333.70143
  20
189.84592
  0
VERTEX
  5
332
  8
Layer_0
  10
333.67098
  20
190.10018
  0
VERTEX
  5
333
  8
Layer_0
  10
333.65265
  20
190.39975
  0
VERTEX
  5
334
  8
Layer_0
  10
333.64369
  20
190.76218
  0
VERTEX
  5
335
  8
Layer_0
  10
333.64132
  20
191.20505
  0
VERTEX
  5
336
  8
Layer_0
  10
333.64369
  20
191.64792
  0
VERTEX
  5
337
  8
Layer_0
  10
333.65265
  20
192.01036
  0
VERTEX
  5
338
  8
Layer_0
  10
333.67098
  20
192.30992
  0
VERTEX
  5
339
  8
Layer_0
  10
333.70143
  20
192.56419
  0
VERTEX
  5
33a
  8
Layer_0
  10
333.80983
  20
193.00709
  0
VERTEX
  5
33b
  8
Layer_0
  10
334.00001
  20
193.47961
  0
VERTEX
  5
33c
  8
Layer_0
  10
334.20854
  20
193.89507
  0
VERTEX
  5
33d
  8
Layer_0
  10
334.45148
  20
194.28669
  0
VERTEX
  5
33e
  8
Layer_0
  10
334.72671
  20
194.65339
  0
VERTEX
  5
33f
  8
Layer_0
  10
335.03212
  20
194.99409
  0
VERTEX
  5
340
  8
Layer_0
  10
335.36558
  20
195.30774
  0
VERTEX
  5
341
  8
Layer_0
  10
335.72498
  20
195.59324
  0
VERTEX
  5
342
  8
Layer_0
  10
336.10821
  20
195.84953
  0
VERTEX
  5
343
  8
Layer_0
  10
336.51313
  20
196.07554
  0
VERTEX
  5
344
  8
Layer_0
  10
336.93765
  20
196.27018
  0
VERTEX
  5
345
  8
Layer_0
  10
337.37963
  20
196.43239
  0
VERTEX
  5
346
  8
Layer_0
  10
337.83697
  20
196.56109
  0
VERTEX
  5
347
  8
Layer_0
  10
338.30754
  20
196.65521
  0
VERTEX
  5
348
  8
Layer_0
  10
338.78922
  20
196.71368
  0
VERTEX
  5
349
  8
Layer_0
  10
339.2799
  20
196.73541
  0
VERTEX
  5
34a
  8
Layer_0
  10
339.77747
  20
196.71934
  0
VERTEX
  5
34b
  8
Layer_0
  10
340.2798
  20
196.66439
  0
VERTEX
  5
34c
  8
Layer_0
  10
340.85408
  20
196.55007
  0
VERTEX
  5
34d
  8
Layer_0
  10
341.4011
  20
196.38331
  0
VERTEX
  5
34e
  8
Layer_0
  10
341.91859
  20
196.16721
  0
VERTEX
  5
34f
  8
Layer_0
  10
342.4043
  20
195.90486
  0
VERTEX
  5
350
  8
Layer_0
  10
342.85598
  20
195.59937
  0
VERTEX
  5
351
  8
Layer_0
  10
343.27136
  20
195.25383
  0
VERTEX
  5
352
  8
Layer_0
  10
343.64821
  20
194.87132
  0
VERTEX
  5
353
  8
Layer_0
  10
343.98425
  20
194.45496
  0
VERTEX
  5
354
  8
Layer_0
  10
344.27724
  20
194.00782
  0
VERTEX
  5
355
  8
Layer_0
  10
344.52492
  20
193.53301
  0
VERTEX
  5
356
  8
Layer_0
  10
344.72505
  20
193.03362
  0
VERTEX
  5
357
  8
Layer_0
  10
344.87535
  20
192.51275
  0
VERTEX
  5
358
  8
Layer_0
  10
344.97358
  20
191.97349
  0
VERTEX
  5
359
  8
Layer_0
  10
345.01749
  20
191.41894
  0
VERTEX
  5
35a
  8
Layer_0
  10
345.00482
  20
190.85218
  0
VERTEX
  5
35b
  8
Layer_0
  10
344.93331
  20
190.27633
  0
VERTEX
  5
35c
  8
Layer_0
  10
344.83819
  20
189.81454
  0
VERTEX
  5
35d
  8
Layer_0
  10
344.71996
  20
189.38947
  0
VERTEX
  5
35e
  8
Layer_0
  10
344.57541
  20
188.99508
  0
VERTEX
  5
35f
  8
Layer_0
  10
344.40137
  20
188.62531
  0
VERTEX
  5
360
  8
Layer_0
  10
344.19463
  20
188.27413
  0
VERTEX
  5
361
  8
Layer_0
  10
343.95201
  20
187.93549
  0
VERTEX
  5
362
  8
Layer_0
  10
343.67031
  20
187.60335
  0
VERTEX
  5
363
  8
Layer_0
  10
343.34634
  20
187.27166
  0
VERTEX
  5
364
  8
Layer_0
  10
342.92879
  20
186.89393
  0
VERTEX
  5
365
  8
Layer_0
  10
342.52362
  20
186.58284
  0
VERTEX
  5
366
  8
Layer_0
  10
342.11581
  20
186.33261
  0
VERTEX
  5
367
  8
Layer_0
  10
341.69038
  20
186.13745
  0
VERTEX
  5
368
  8
Layer_0
  10
341.23233
  20
185.99158
  0
VERTEX
  5
369
  8
Layer_0
  10
340.72667
  20
185.8892
  0
VERTEX
  5
36a
  8
Layer_0
  10
340.1584
  20
185.82453
  0
VERTEX
  5
36b
  8
Layer_0
  10
339.51254
  20
185.79178
  0
VERTEX
  5
36c
  8
Layer_0
  10
338.85338
  20
185.7874
  0
VERTEX
  5
36d
  8
Layer_0
  10
338.27405
  20
185.81076
  0
VERTEX
  5
36e
  8
Layer_0
  10
338.02131
  20
185.83237
  0
VERTEX
  5
36f
  8
Layer_0
  10
337.7969
  20
185.86034
  0
VERTEX
  5
370
  8
Layer_0
  10
337.60362
  20
185.89447
  0
VERTEX
  5
371
  8
Layer_0
  10
337.44426
  20
185.93458
  0
SEQEND
  0
POLYLINE
  5
373
  8
Layer_0
  62
0
  66
1
  10
0
  20
0
  30
0
  0
VERTEX
  5
373
  8
Layer_0
  10
87.016289
  20
207.07089
  0
VERTEX
  5
374
  8
Layer_0
  10
87.050079
  20
227.98016
  0
VERTEX
  5
375
  8
Layer_0
  10
91.887169
  20
228.01694
  0
VERTEX
  5
376
  8
Layer_0
  10
96.724251
  20
228.0537
  0
VERTEX
  5
377
  8
Layer_0
  10
96.724251
  20
207.10765
  0
VERTEX
  5
378
  8
Layer_0
  10
96.724251
  20
186.16161
  0
VERTEX
  5
379
  8
Layer_0
  10
91.853371
  20
186.16161
  0
VERTEX
  5
37a
  8
Layer_0
  10
86.982491
  20
186.16161
  0
VERTEX
  5
37b
  8
Layer_0
  10
87.016289
  20
207.07089
  0
SEQEND
  0
POLYLINE
  5
37d
  8
Layer_0
  62
0
  66
1
  10
0
  20
0
  30
0
  0
VERTEX
  5
37d
  8
Layer_0
  10
115.83864
  20
207.07089
  0
VERTEX
  5
37e
  8
Layer_0
  10
115.87244
  20
227.98016
  0
VERTEX
  5
37f
  8
Layer_0
  10
121.49261
  20
228.01669
  0
VERTEX
  5
380
  8
Layer_0
  10
122.28049
  20
228.02134
  0
VERTEX
  5
381
  8
Layer_0
  10
122.99765
  20
228.02453
  0
VERTEX
  5
382
  8
Layer_0
  10
123.64699
  20
228.0262
  0
VERTEX
  5
383
  8
Layer_0
  10
124.23143
  20
228.02628
  0
VERTEX
  5
384
  8
Layer_0
  10
124.75391
  20
228.02468
  0
VERTEX
  5
385
  8
Layer_0
  10
125.21733
  20
228.02134
  0
VERTEX
  5
386
  8
Layer_0
  10
125.62462
  20
228.01619
  0
VERTEX
  5
387
  8
Layer_0
  10
125.97869
  20
228.00916
  0
VERTEX
  5
388
  8
Layer_0
  10
126.28248
  20
228.00017
  0
VERTEX
  5
389
  8
Layer_0
  10
126.53889
  20
227.98916
  0
VERTEX
  5
38a
  8
Layer_0
  10
126.75085
  20
227.97605
  0
VERTEX
  5
38b
  8
Layer_0
  10
126.92127
  20
227.96078
  0
VERTEX
  5
38c
  8
Layer_0
  10
127.05309
  20
227.94327
  0
VERTEX
  5
38d
  8
Layer_0
  10
127.14921
  20
227.92344
  0
VERTEX
  5
38e
  8
Layer_0
  10
127.21256
  20
227.90124
  0
VERTEX
  5
38f
  8
Layer_0
  10
127.24605
  20
227.87659
  0
VERTEX
  5
390
  8
Layer_0
  10
127.25999
  20
227.84912
  0
VERTEX
  5
391
  8
Layer_0
  10
127.28782
  20
227.78555
  0
VERTEX
  5
392
  8
Layer_0
  10
127.32919
  20
227.68679
  0
VERTEX
  5
393
  8
Layer_0
  10
127.38373
  20
227.55374
  0
VERTEX
  5
394
  8
Layer_0
  10
127.4511
  20
227.38733
  0
VERTEX
  5
395
  8
Layer_0
  10
127.53093
  20
227.18847
  0
VERTEX
  5
396
  8
Layer_0
  10
127.62288
  20
226.95807
  0
VERTEX
  5
397
  8
Layer_0
  10
127.72657
  20
226.69704
  0
VERTEX
  5
398
  8
Layer_0
  10
127.84166
  20
226.4063
  0
VERTEX
  5
399
  8
Layer_0
  10
127.96779
  20
226.08677
  0
VERTEX
  5
39a
  8
Layer_0
  10
128.1046
  20
225.73935
  0
VERTEX
  5
39b
  8
Layer_0
  10
128.25174
  20
225.36496
  0
VERTEX
  5
39c
  8
Layer_0
  10
128.40884
  20
224.96451
  0
VERTEX
  5
39d
  8
Layer_0
  10
128.57556
  20
224.53892
  0
VERTEX
  5
39e
  8
Layer_0
  10
128.75153
  20
224.0891
  0
VERTEX
  5
39f
  8
Layer_0
  10
128.9364
  20
223.61596
  0
VERTEX
  5
3a0
  8
Layer_0
  10
129.3314
  20
222.6034
  0
VERTEX
  5
3a1
  8
Layer_0
  10
129.75772
  20
221.50853
  0
VERTEX
  5
3a2
  8
Layer_0
  10
130.21249
  20
220.33868
  0
VERTEX
  5
3a3
  8
Layer_0
  10
130.69286
  20
219.10114
  0
VERTEX
  5
3a4
  8
Layer_0
  10
131.19598
  20
217.80323
  0
VERTEX
  5
3a5
  8
Layer_0
  10
131.71899
  20
216.45225
  0
VERTEX
  5
3a6
  8
Layer_0
  10
132.25905
  20
215.05553
  0
VERTEX
  5
3a7
  8
Layer_0
  10
132.81328
  20
213.62035
  0
VERTEX
  5
3a8
  8
Layer_0
  10
133.36742
  20
212.185
  0
VERTEX
  5
3a9
  8
Layer_0
  10
133.90719
  20
210.78777
  0
VERTEX
  5
3aa
  8
Layer_0
  10
134.42974
  20
209.43596
  0
VERTEX
  5
3ab
  8
Layer_0
  10
134.93223
  20
208.13692
  0
VERTEX
  5
3ac
  8
Layer_0
  10
135.41181
  20
206.89797
  0
VERTEX
  5
3ad
  8
Layer_0
  10
135.86563
  20
205.72643
  0
VERTEX
  5
3ae
  8
Layer_0
  10
136.29087
  20
204.62963
  0
VERTEX
  5
3af
  8
Layer_0
  10
136.68466
  20
203.6149
  0
VERTEX
  5
3b0
  8
Layer_0
  10
136.86888
  20
203.1406
  0
VERTEX
  5
3b1
  8
Layer_0
  10
137.04417
  20
202.68956
  0
VERTEX
  5
3b2
  8
Layer_0
  10
137.21017
  20
202.2627
  0
VERTEX
  5
3b3
  8
Layer_0
  10
137.36654
  20
201.86094
  0
VERTEX
  5
3b4
  8
Layer_0
  10
137.51292
  20
201.48519
  0
VERTEX
  5
3b5
  8
Layer_0
  10
137.64894
  20
201.13636
  0
VERTEX
  5
3b6
  8
Layer_0
  10
137.77426
  20
200.81538
  0
VERTEX
  5
3b7
  8
Layer_0
  10
137.88852
  20
200.52316
  0
VERTEX
  5
3b8
  8
Layer_0
  10
137.99137
  20
200.26061
  0
VERTEX
  5
3b9
  8
Layer_0
  10
138.08244
  20
200.02866
  0
VERTEX
  5
3ba
  8
Layer_0
  10
138.16139
  20
199.82821
  0
VERTEX
  5
3bb
  8
Layer_0
  10
138.22785
  20
199.66018
  0
VERTEX
  5
3bc
  8
Layer_0
  10
138.28147
  20
199.52549
  0
VERTEX
  5
3bd
  8
Layer_0
  10
138.3219
  20
199.42505
  0
VERTEX
  5
3be
  8
Layer_0
  10
138.34878
  20
199.35978
  0
VERTEX
  5
3bf
  8
Layer_0
  10
138.36176
  20
199.3306
  0
VERTEX
  5
3c0
  8
Layer_0
  10
138.4244
  20
199.24705
  0
VERTEX
  5
3c1
  8
Layer_0
  10
138.48295
  20
199.24945
  0
VERTEX
  5
3c2
  8
Layer_0
  10
138.51347
  20
199.28512
  0
VERTEX
  5
3c3
  8
Layer_0
  10
138.54632
  20
199.34496
  0
VERTEX
  5
3c4
  8
Layer_0
  10
138.58259
  20
199.42987
  0
VERTEX
  5
3c5
  8
Layer_0
  10
138.62341
  20
199.54074
  0
VERTEX
  5
3c6
  8
Layer_0
  10
138.63797
  20
199.5806
  0
VERTEX
  5
3c7
  8
Layer_0
  10
138.66625
  20
199.65624
  0
VERTEX
  5
3c8
  8
Layer_0
  10
138.70788
  20
199.76671
  0
VERTEX
  5
3c9
  8
Layer_0
  10
138.76251
  20
199.91111
  0
VERTEX
  5
3ca
  8
Layer_0
  10
138.8298
  20
200.08849
  0
VERTEX
  5
3cb
  8
Layer_0
  10
138.90939
  20
200.29795
  0
VERTEX
  5
3cc
  8
Layer_0
  10
139.00093
  20
200.53855
  0
VERTEX
  5
3cd
  8
Layer_0
  10
139.10405
  20
200.80937
  0
VERTEX
  5
3ce
  8
Layer_0
  10
139.21841
  20
201.10949
  0
VERTEX
  5
3cf
  8
Layer_0
  10
139.34366
  20
201.43798
  0
VERTEX
  5
3d0
  8
Layer_0
  10
139.47944
  20
201.79391
  0
VERTEX
  5
3d1
  8
Layer_0
  10
139.6254
  20
202.17636
  0
VERTEX
  5
3d2
  8
Layer_0
  10
139.78119
  20
202.58441
  0
VERTEX
  5
3d3
  8
Layer_0
  10
139.94644
  20
203.01713
  0
VERTEX
  5
3d4
  8
Layer_0
  10
140.12081
  20
203.47359
  0
VERTEX
  5
3d5
  8
Layer_0
  10
140.30395
  20
203.95288
  0
VERTEX
  5
3d6
  8
Layer_0
  10
140.69511
  20
204.97622
  0
VERTEX
  5
3d7
  8
Layer_0
  10
141.11708
  20
206.07975
  0
VERTEX
  5
3d8
  8
Layer_0
  10
141.56705
  20
207.25607
  0
VERTEX
  5
3d9
  8
Layer_0
  10
142.04217
  20
208.49778
  0
VERTEX
  5
3da
  8
Layer_0
  10
142.53964
  20
209.79748
  0
VERTEX
  5
3db
  8
Layer_0
  10
143.05661
  20
211.14779
  0
VERTEX
  5
3dc
  8
Layer_0
  10
143.59027
  20
212.54129
  0
VERTEX
  5
3dd
  8
Layer_0
  10
144.13778
  20
213.97059
  0
VERTEX
  5
3de
  8
Layer_0
  10
149.505
  20
227.98016
  0
VERTEX
  5
3df
  8
Layer_0
  10
155.17282
  20
227.98016
  0
VERTEX
  5
3e0
  8
Layer_0
  10
160.84064
  20
227.98016
  0
VERTEX
  5
3e1
  8
Layer_0
  10
160.87445
  20
207.07089
  0
VERTEX
  5
3e2
  8
Layer_0
  10
160.90823
  20
186.16161
  0
VERTEX
  5
3e3
  8
Layer_0
  10
156.03807
  20
186.16161
  0
VERTEX
  5
3e4
  8
Layer_0
  10
151.16791
  20
186.16161
  0
VERTEX
  5
3e5
  8
Layer_0
  10
151.13383
  20
198.54724
  0
VERTEX
  5
3e6
  8
Layer_0
  10
151.09976
  20
210.93286
  0
VERTEX
  5
3e7
  8
Layer_0
  10
146.69894
  20
198.5452
  0
VERTEX
  5
3e8
  8
Layer_0
  10
142.29816
  20
186.15753
  0
VERTEX
  5
3e9
  8
Layer_0
  10
138.37083
  20
186.1946
  0
VERTEX
  5
3ea
  8
Layer_0
  10
134.44353
  20
186.23166
  0
VERTEX
  5
3eb
  8
Layer_0
  10
130.02843
  20
198.62778
  0
VERTEX
  5
3ec
  8
Layer_0
  10
125.61333
  20
211.0239
  0
VERTEX
  5
3ed
  8
Layer_0
  10
125.57924
  20
198.59276
  0
VERTEX
  5
3ee
  8
Layer_0
  10
125.54517
  20
186.16161
  0
VERTEX
  5
3ef
  8
Layer_0
  10
120.675
  20
186.16161
  0
VERTEX
  5
3f0
  8
Layer_0
  10
115.80484
  20
186.16161
  0
VERTEX
  5
3f1
  8
Layer_0
  10
115.83864
  20
207.07089
  0
SEQEND
  0
POLYLINE
  5
3f3
  8
Layer_0
  62
0
  66
1
  10
0
  20
0
  30
0
  0
VERTEX
  5
3f3
  8
Layer_0
  10
291.94232
  20
207.1059
  0
VERTEX
  5
3f4
  8
Layer_0
  10
291.94232
  20
228.0502
  0
VERTEX
  5
3f5
  8
Layer_0
  10
296.74603
  20
228.0502
  0
VERTEX
  5
3f6
  8
Layer_0
  10
301.54974
  20
228.0502
  0
VERTEX
  5
3f7
  8
Layer_0
  10
301.54974
  20
207.1059
  0
VERTEX
  5
3f8
  8
Layer_0
  10
301.54974
  20
186.16161
  0
VERTEX
  5
3f9
  8
Layer_0
  10
296.74603
  20
186.16161
  0
VERTEX
  5
3fa
  8
Layer_0
  10
291.94232
  20
186.16161
  0
VERTEX
  5
3fb
  8
Layer_0
  10
291.94232
  20
207.1059
  0
SEQEND
  0
POLYLINE
  5
3fd
  8
Layer_0
  62
0
  66
1
  10
0
  20
0
  30
0
  0
VERTEX
  5
3fd
  8
Layer_0
  10
318.96327
  20
186.31791
  0
VERTEX
  5
3fe
  8
Layer_0
  10
318.1186
  20
186.46844
  0
VERTEX
  5
3ff
  8
Layer_0
  10
317.32067
  20
186.6556
  0
VERTEX
  5
400
  8
Layer_0
  10
316.56866
  20
186.8801
  0
VERTEX
  5
401
  8
Layer_0
  10
315.86173
  20
187.14264
  0
VERTEX
  5
402
  8
Layer_0
  10
315.19909
  20
187.44392
  0
VERTEX
  5
403
  8
Layer_0
  10
314.5799
  20
187.78465
  0
VERTEX
  5
404
  8
Layer_0
  10
314.00336
  20
188.16553
  0
VERTEX
  5
405
  8
Layer_0
  10
313.46863
  20
188.58727
  0
VERTEX
  5
406
  8
Layer_0
  10
312.97491
  20
189.05057
  0
VERTEX
  5
407
  8
Layer_0
  10
312.52137
  20
189.55614
  0
VERTEX
  5
408
  8
Layer_0
  10
312.10719
  20
190.10469
  0
VERTEX
  5
409
  8
Layer_0
  10
311.73156
  20
190.6969
  0
VERTEX
  5
40a
  8
Layer_0
  10
311.39365
  20
191.3335
  0
VERTEX
  5
40b
  8
Layer_0
  10
311.09265
  20
192.01519
  0
VERTEX
  5
40c
  8
Layer_0
  10
310.82774
  20
192.74266
  0
VERTEX
  5
40d
  8
Layer_0
  10
310.5981
  20
193.51663
  0
VERTEX
  5
40e
  8
Layer_0
  10
310.50176
  20
193.90285
  0
VERTEX
  5
40f
  8
Layer_0
  10
310.42808
  20
194.30994
  0
VERTEX
  5
410
  8
Layer_0
  10
310.39859
  20
194.5526
  0
VERTEX
  5
411
  8
Layer_0
  10
310.37337
  20
194.83803
  0
VERTEX
  5
412
  8
Layer_0
  10
310.35197
  20
195.17874
  0
VERTEX
  5
413
  8
Layer_0
  10
310.33392
  20
195.58724
  0
VERTEX
  5
414
  8
Layer_0
  10
310.31875
  20
196.07606
  0
VERTEX
  5
415
  8
Layer_0
  10
310.30601
  20
196.65772
  0
VERTEX
  5
416
  8
Layer_0
  10
310.3004
  20
196.98726
  0
VERTEX
  5
417
  8
Layer_0
  10
310.29523
  20
197.34471
  0
VERTEX
  5
418
  8
Layer_0
  10
310.29043
  20
197.73163
  0
VERTEX
  5
419
  8
Layer_0
  10
310.28595
  20
198.14957
  0
VERTEX
  5
41a
  8
Layer_0
  10
310.28172
  20
198.60011
  0
VERTEX
  5
41b
  8
Layer_0
  10
310.2777
  20
199.08481
  0
VERTEX
  5
41c
  8
Layer_0
  10
310.27382
  20
199.60524
  0
VERTEX
  5
41d
  8
Layer_0
  10
310.27002
  20
200.16295
  0
VERTEX
  5
41e
  8
Layer_0
  10
310.26625
  20
200.75951
  0
VERTEX
  5
41f
  8
Layer_0
  10
310.26245
  20
201.39649
  0
VERTEX
  5
420
  8
Layer_0
  10
310.25856
  20
202.07546
  0
VERTEX
  5
421
  8
Layer_0
  10
310.25453
  20
202.79796
  0
VERTEX
  5
422
  8
Layer_0
  10
310.20929
  20
210.95853
  0
VERTEX
  5
423
  8
Layer_0
  10
308.2814
  20
210.95853
  0
VERTEX
  5
424
  8
Layer_0
  10
306.35349
  20
210.95853
  0
VERTEX
  5
425
  8
Layer_0
  10
306.35349
  20
215.15756
  0
VERTEX
  5
426
  8
Layer_0
  10
306.35349
  20
219.35658
  0
VERTEX
  5
427
  8
Layer_0
  10
308.25494
  20
219.39545
  0
VERTEX
  5
428
  8
Layer_0
  10
310.15643
  20
219.43433
  0
VERTEX
  5
429
  8
Layer_0
  10
310.19183
  20
223.46207
  0
VERTEX
  5
42a
  8
Layer_0
  10
310.22723
  20
227.48982
  0
VERTEX
  5
42b
  8
Layer_0
  10
315.02893
  20
227.48982
  0
VERTEX
  5
42c
  8
Layer_0
  10
319.83063
  20
227.48982
  0
VERTEX
  5
42d
  8
Layer_0
  10
319.83063
  20
223.42705
  0
VERTEX
  5
42e
  8
Layer_0
  10
319.83063
  20
219.36427
  0
VERTEX
  5
42f
  8
Layer_0
  10
323.03308
  20
219.36427
  0
VERTEX
  5
430
  8
Layer_0
  10
326.23557
  20
219.36427
  0
VERTEX
  5
431
  8
Layer_0
  10
326.23557
  20
215.16141
  0
VERTEX
  5
432
  8
Layer_0
  10
326.23557
  20
210.95853
  0
VERTEX
  5
433
  8
Layer_0
  10
323.02747
  20
210.95853
  0
VERTEX
  5
434
  8
Layer_0
  10
319.81934
  20
210.95853
  0
VERTEX
  5
435
  8
Layer_0
  10
319.85834
  20
203.70859
  0
VERTEX
  5
436
  8
Layer_0
  10
319.86178
  20
203.07338
  0
VERTEX
  5
437
  8
Layer_0
  10
319.86513
  20
202.47615
  0
VERTEX
  5
438
  8
Layer_0
  10
319.86843
  20
201.91565
  0
VERTEX
  5
439
  8
Layer_0
  10
319.87172
  20
201.3906
  0
VERTEX
  5
43a
  8
Layer_0
  10
319.87507
  20
200.89976
  0
VERTEX
  5
43b
  8
Layer_0
  10
319.87851
  20
200.44185
  0
VERTEX
  5
43c
  8
Layer_0
  10
319.8821
  20
200.01562
  0
VERTEX
  5
43d
  8
Layer_0
  10
319.88588
  20
199.6198
  0
VERTEX
  5
43e
  8
Layer_0
  10
319.88992
  20
199.25315
  0
VERTEX
  5
43f
  8
Layer_0
  10
319.89426
  20
198.91439
  0
VERTEX
  5
440
  8
Layer_0
  10
319.89895
  20
198.60226
  0
VERTEX
  5
441
  8
Layer_0
  10
319.90403
  20
198.31552
  0
VERTEX
  5
442
  8
Layer_0
  10
319.91561
  20
197.81311
  0
VERTEX
  5
443
  8
Layer_0
  10
319.92938
  20
197.39707
  0
VERTEX
  5
444
  8
Layer_0
  10
319.94577
  20
197.05733
  0
VERTEX
  5
445
  8
Layer_0
  10
319.96516
  20
196.7838
  0
VERTEX
  5
446
  8
Layer_0
  10
319.98797
  20
196.56639
  0
VERTEX
  5
447
  8
Layer_0
  10
320.01458
  20
196.39503
  0
VERTEX
  5
448
  8
Layer_0
  10
320.08087
  20
196.15009
  0
VERTEX
  5
449
  8
Layer_0
  10
320.16724
  20
195.9683
  0
VERTEX
  5
44a
  8
Layer_0
  10
320.32008
  20
195.74618
  0
VERTEX
  5
44b
  8
Layer_0
  10
320.52678
  20
195.52664
  0
VERTEX
  5
44c
  8
Layer_0
  10
320.76927
  20
195.32654
  0
VERTEX
  5
44d
  8
Layer_0
  10
321.0295
  20
195.16275
  0
VERTEX
  5
44e
  8
Layer_0
  10
321.22367
  20
195.06573
  0
VERTEX
  5
44f
  8
Layer_0
  10
321.41377
  20
194.99084
  0
VERTEX
  5
450
  8
Layer_0
  10
321.62588
  20
194.93524
  0
VERTEX
  5
451
  8
Layer_0
  10
321.88605
  20
194.89611
  0
VERTEX
  5
452
  8
Layer_0
  10
322.0423
  20
194.88184
  0
VERTEX
  5
453
  8
Layer_0
  10
322.22035
  20
194.87061
  0
VERTEX
  5
454
  8
Layer_0
  10
322.42345
  20
194.86208
  0
VERTEX
  5
455
  8
Layer_0
  10
322.65485
  20
194.8559
  0
VERTEX
  5
456
  8
Layer_0
  10
322.91782
  20
194.85171
  0
VERTEX
  5
457
  8
Layer_0
  10
323.21561
  20
194.84916
  0
VERTEX
  5
458
  8
Layer_0
  10
323.55149
  20
194.84788
  0
VERTEX
  5
459
  8
Layer_0
  10
323.92871
  20
194.84754
  0
VERTEX
  5
45a
  8
Layer_0
  10
326.23557
  20
194.84753
  0
VERTEX
  5
45b
  8
Layer_0
  10
326.23557
  20
190.50458
  0
VERTEX
  5
45c
  8
Layer_0
  10
326.23557
  20
186.16161
  0
VERTEX
  5
45d
  8
Layer_0
  10
322.99973
  20
186.1787
  0
VERTEX
  5
45e
  8
Layer_0
  10
322.33338
  20
186.18462
  0
VERTEX
  5
45f
  8
Layer_0
  10
321.68014
  20
186.19496
  0
VERTEX
  5
460
  8
Layer_0
  10
321.05657
  20
186.20916
  0
VERTEX
  5
461
  8
Layer_0
  10
320.47923
  20
186.22663
  0
VERTEX
  5
462
  8
Layer_0
  10
319.96468
  20
186.24682
  0
VERTEX
  5
463
  8
Layer_0
  10
319.52946
  20
186.26914
  0
VERTEX
  5
464
  8
Layer_0
  10
319.34678
  20
186.28092
  0
VERTEX
  5
465
  8
Layer_0
  10
319.19014
  20
186.29302
  0
VERTEX
  5
466
  8
Layer_0
  10
319.06161
  20
186.30538
  0
VERTEX
  5
467
  8
Layer_0
  10
318.96327
  20
186.31791
  0
SEQEND
  0
POLYLINE
  5
469
  8
Layer_0
  62
0
  66
1
  10
0
  20
0
  30
0
  0
VERTEX
  5
469
  8
Layer_0
  10
335.10606
  20
201.04677
  0
VERTEX
  5
46a
  8
Layer_0
  10
335.10248
  20
201.07378
  0
VERTEX
  5
46b
  8
Layer_0
  10
335.09747
  20
201.1378
  0
VERTEX
  5
46c
  8
Layer_0
  10
335.09108
  20
201.23766
  0
VERTEX
  5
46d
  8
Layer_0
  10
335.08335
  20
201.3722
  0
VERTEX
  5
46e
  8
Layer_0
  10
335.07433
  20
201.54025
  0
VERTEX
  5
46f
  8
Layer_0
  10
335.06407
  20
201.74065
  0
VERTEX
  5
470
  8
Layer_0
  10
335.05262
  20
201.97222
  0
VERTEX
  5
471
  8
Layer_0
  10
335.04002
  20
202.2338
  0
VERTEX
  5
472
  8
Layer_0
  10
335.02633
  20
202.52422
  0
VERTEX
  5
473
  8
Layer_0
  10
335.01158
  20
202.84232
  0
VERTEX
  5
474
  8
Layer_0
  10
334.99583
  20
203.18693
  0
VERTEX
  5
475
  8
Layer_0
  10
334.97913
  20
203.55688
  0
VERTEX
  5
476
  8
Layer_0
  10
334.94304
  20
204.36813
  0
VERTEX
  5
477
  8
Layer_0
  10
334.9037
  20
205.26675
  0
VERTEX
  5
478
  8
Layer_0
  10
334.8615
  20
206.2434
  0
VERTEX
  5
479
  8
Layer_0
  10
334.81681
  20
207.28874
  0
VERTEX
  5
47a
  8
Layer_0
  10
334.77
  20
208.39343
  0
VERTEX
  5
47b
  8
Layer_0
  10
334.72148
  20
209.54815
  0
VERTEX
  5
47c
  8
Layer_0
  10
334.62076
  20
211.97031
  0
VERTEX
  5
47d
  8
Layer_0
  10
334.51772
  20
214.48053
  0
VERTEX
  5
47e
  8
Layer_0
  10
334.41538
  20
217.00413
  0
VERTEX
  5
47f
  8
Layer_0
  10
334.3168
  20
219.46643
  0
VERTEX
  5
480
  8
Layer_0
  10
334.26988
  20
220.65125
  0
VERTEX
  5
481
  8
Layer_0
  10
334.22503
  20
221.79274
  0
VERTEX
  5
482
  8
Layer_0
  10
334.18265
  20
222.88156
  0
VERTEX
  5
483
  8
Layer_0
  10
334.14311
  20
223.90837
  0
VERTEX
  5
484
  8
Layer_0
  10
334.1068
  20
224.86385
  0
VERTEX
  5
485
  8
Layer_0
  10
334.07409
  20
225.73866
  0
VERTEX
  5
486
  8
Layer_0
  10
334.04537
  20
226.52345
  0
VERTEX
  5
487
  8
Layer_0
  10
334.02102
  20
227.2089
  0
VERTEX
  5
488
  8
Layer_0
  10
334.0106
  20
227.51145
  0
VERTEX
  5
489
  8
Layer_0
  10
334.00142
  20
227.78567
  0
VERTEX
  5
48a
  8
Layer_0
  10
333.99352
  20
228.03038
  0
VERTEX
  5
48b
  8
Layer_0
  10
333.98694
  20
228.24442
  0
VERTEX
  5
48c
  8
Layer_0
  10
333.98175
  20
228.42662
  0
VERTEX
  5
48d
  8
Layer_0
  10
333.97798
  20
228.57582
  0
VERTEX
  5
48e
  8
Layer_0
  10
333.97568
  20
228.69085
  0
VERTEX
  5
48f
  8
Layer_0
  10
333.97491
  20
228.77054
  0
VERTEX
  5
490
  8
Layer_0
  10
333.97491
  20
229.45116
  0
VERTEX
  5
491
  8
Layer_0
  10
339.17896
  20
229.45116
  0
VERTEX
  5
492
  8
Layer_0
  10
344.38297
  20
229.45116
  0
VERTEX
  5
493
  8
Layer_0
  10
344.38321
  20
228.9258
  0
VERTEX
  5
494
  8
Layer_0
  10
344.38245
  20
228.8529
  0
VERTEX
  5
495
  8
Layer_0
  10
344.38015
  20
228.744
  0
VERTEX
  5
496
  8
Layer_0
  10
344.37637
  20
228.60026
  0
VERTEX
  5
497
  8
Layer_0
  10
344.37115
  20
228.4229
  0
VERTEX
  5
498
  8
Layer_0
  10
344.36454
  20
228.21307
  0
VERTEX
  5
499
  8
Layer_0
  10
344.35658
  20
227.97198
  0
VERTEX
  5
49a
  8
Layer_0
  10
344.34734
  20
227.70081
  0
VERTEX
  5
49b
  8
Layer_0
  10
344.33684
  20
227.40074
  0
VERTEX
  5
49c
  8
Layer_0
  10
344.32515
  20
227.07296
  0
VERTEX
  5
49d
  8
Layer_0
  10
344.31231
  20
226.71865
  0
VERTEX
  5
49e
  8
Layer_0
  10
344.29837
  20
226.339
  0
VERTEX
  5
49f
  8
Layer_0
  10
344.28338
  20
225.93519
  0
VERTEX
  5
4a0
  8
Layer_0
  10
344.25043
  20
225.05984
  0
VERTEX
  5
4a1
  8
Layer_0
  10
344.21384
  20
224.10209
  0
VERTEX
  5
4a2
  8
Layer_0
  10
344.17401
  20
223.07142
  0
VERTEX
  5
4a3
  8
Layer_0
  10
344.13132
  20
221.97731
  0
VERTEX
  5
4a4
  8
Layer_0
  10
344.08615
  20
220.82923
  0
VERTEX
  5
4a5
  8
Layer_0
  10
344.03889
  20
219.63668
  0
VERTEX
  5
4a6
  8
Layer_0
  10
343.93965
  20
217.15607
  0
VERTEX
  5
4a7
  8
Layer_0
  10
343.83668
  20
214.61132
  0
VERTEX
  5
4a8
  8
Layer_0
  10
343.73307
  20
212.07828
  0
VERTEX
  5
4a9
  8
Layer_0
  10
343.6319
  20
209.63282
  0
VERTEX
  5
4aa
  8
Layer_0
  10
343.58319
  20
208.46664
  0
VERTEX
  5
4ab
  8
Layer_0
  10
343.53626
  20
207.35079
  0
VERTEX
  5
4ac
  8
Layer_0
  10
343.49147
  20
206.29475
  0
VERTEX
  5
4ad
  8
Layer_0
  10
343.44923
  20
205.30802
  0
VERTEX
  5
4ae
  8
Layer_0
  10
343.40991
  20
204.40007
  0
VERTEX
  5
4af
  8
Layer_0
  10
343.3739
  20
203.58039
  0
VERTEX
  5
4b0
  8
Layer_0
  10
343.35726
  20
203.20661
  0
VERTEX
  5
4b1
  8
Layer_0
  10
343.34159
  20
202.85845
  0
VERTEX
  5
4b2
  8
Layer_0
  10
343.32694
  20
202.53709
  0
VERTEX
  5
4b3
  8
Layer_0
  10
343.31336
  20
202.24373
  0
VERTEX
  5
4b4
  8
Layer_0
  10
343.3009
  20
201.97955
  0
VERTEX
  5
4b5
  8
Layer_0
  10
343.2896
  20
201.74572
  0
VERTEX
  5
4b6
  8
Layer_0
  10
343.27951
  20
201.54345
  0
VERTEX
  5
4b7
  8
Layer_0
  10
343.27069
  20
201.37391
  0
VERTEX
  5
4b8
  8
Layer_0
  10
343.26318
  20
201.23828
  0
VERTEX
  5
4b9
  8
Layer_0
  10
343.25702
  20
201.13776
  0
VERTEX
  5
4ba
  8
Layer_0
  10
343.25227
  20
201.07353
  0
VERTEX
  5
4bb
  8
Layer_0
  10
343.24898
  20
201.04677
  0
VERTEX
  5
4bc
  8
Layer_0
  10
343.18785
  20
201.00053
  0
VERTEX
  5
4bd
  8
Layer_0
  10
343.0284
  20
200.96252
  0
VERTEX
  5
4be
  8
Layer_0
  10
342.9072
  20
200.9464
  0
VERTEX
  5
4bf
  8
Layer_0
  10
342.75586
  20
200.9321
  0
VERTEX
  5
4c0
  8
Layer_0
  10
342.57256
  20
200.91954
  0
VERTEX
  5
4c1
  8
Layer_0
  10
342.35543
  20
200.90864
  0
VERTEX
  5
4c2
  8
Layer_0
  10
342.10263
  20
200.89932
  0
VERTEX
  5
4c3
  8
Layer_0
  10
341.81231
  20
200.8915
  0
VERTEX
  5
4c4
  8
Layer_0
  10
341.48262
  20
200.88511
  0
VERTEX
  5
4c5
  8
Layer_0
  10
341.11172
  20
200.88005
  0
VERTEX
  5
4c6
  8
Layer_0
  10
340.69775
  20
200.87626
  0
VERTEX
  5
4c7
  8
Layer_0
  10
340.23886
  20
200.87364
  0
VERTEX
  5
4c8
  8
Layer_0
  10
339.73321
  20
200.87213
  0
VERTEX
  5
4c9
  8
Layer_0
  10
339.17894
  20
200.87165
  0
VERTEX
  5
4ca
  8
Layer_0
  10
338.62492
  20
200.87214
  0
VERTEX
  5
4cb
  8
Layer_0
  10
338.11943
  20
200.87365
  0
VERTEX
  5
4cc
  8
Layer_0
  10
337.66063
  20
200.87626
  0
VERTEX
  5
4cd
  8
Layer_0
  10
337.24667
  20
200.88006
  0
VERTEX
  5
4ce
  8
Layer_0
  10
336.87572
  20
200.88512
  0
VERTEX
  5
4cf
  8
Layer_0
  10
336.54592
  20
200.89152
  0
VERTEX
  5
4d0
  8
Layer_0
  10
336.25543
  20
200.89934
  0
VERTEX
  5
4d1
  8
Layer_0
  10
336.00242
  20
200.90866
  0
VERTEX
  5
4d2
  8
Layer_0
  10
335.78503
  20
200.91957
  0
VERTEX
  5
4d3
  8
Layer_0
  10
335.60143
  20
200.93213
  0
VERTEX
  5
4d4
  8
Layer_0
  10
335.44977
  20
200.94643
  0
VERTEX
  5
4d5
  8
Layer_0
  10
335.32821
  20
200.96254
  0
VERTEX
  5
4d6
  8
Layer_0
  10
335.168
  20
201.00055
  0
VERTEX
  5
4d7
  8
Layer_0
  10
335.10606
  20
201.04677
  0
SEQEND
  0
ENDSEC
  0
EOF
