ISO-10303-21;
HEADER;
/* Generated by software containing ST-Developer
 * from STEP Tools, Inc. (www.steptools.com) 
 */

FILE_DESCRIPTION(
/* description */ (''),
/* implementation_level */ '2;1');

FILE_NAME(
/* name */ 'seconds.step',
/* time_stamp */ '2025-12-01T17:40:28-08:00',
/* author */ (''),
/* organization */ (''),
/* preprocessor_version */ 'ST-DEVELOPER v20.1',
/* originating_system */ 'Autodesk Translation Framework v14.21.0.0',
/* authorisation */ '');

FILE_SCHEMA (('AUTOMOTIVE_DESIGN { 1 0 10303 214 3 1 1 }'));
ENDSEC;

DATA;
#10=MECHANICAL_DESIGN_GEOMETRIC_PRESENTATION_REPRESENTATION('',(#13),#353);
#11=SHAPE_REPRESENTATION_RELATIONSHIP('SRR','None',#360,#12);
#12=ADVANCED_BREP_SHAPE_REPRESENTATION('',(#14),#352);
#13=STYLED_ITEM('',(#369),#14);
#14=MANIFOLD_SOLID_BREP('Body1',#141);
#15=(
BOUNDED_CURVE()
B_SPLINE_CURVE(5,(#258,#259,#260,#261,#262,#263,#264,#265,#266,#267,#268,
#269,#270,#271,#272),.UNSPECIFIED.,.F.,.F.)
B_SPLINE_CURVE_WITH_KNOTS((6,1,1,1,1,1,1,1,1,1,6),(0.00792630851403598,
0.1,0.2,0.3,0.4,0.5,0.6,0.7,0.8,0.9,1.),.UNSPECIFIED.)
CURVE()
GEOMETRIC_REPRESENTATION_ITEM()
RATIONAL_B_SPLINE_CURVE((1.,1.,1.,1.,1.,1.,1.,1.,1.,1.,1.,1.,1.,1.,1.))
REPRESENTATION_ITEM('')
);
#16=(
BOUNDED_CURVE()
B_SPLINE_CURVE(5,(#273,#274,#275,#276,#277,#278,#279,#280,#281,#282,#283,
#284,#285,#286,#287),.UNSPECIFIED.,.F.,.F.)
B_SPLINE_CURVE_WITH_KNOTS((6,1,1,1,1,1,1,1,1,1,6),(0.00792630851403598,
0.1,0.2,0.3,0.4,0.5,0.6,0.7,0.8,0.9,1.),.UNSPECIFIED.)
CURVE()
GEOMETRIC_REPRESENTATION_ITEM()
RATIONAL_B_SPLINE_CURVE((1.,1.,1.,1.,1.,1.,1.,1.,1.,1.,1.,1.,1.,1.,1.))
REPRESENTATION_ITEM('')
);
#17=(
BOUNDED_CURVE()
B_SPLINE_CURVE(5,(#318,#319,#320,#321,#322,#323,#324,#325,#326,#327,#328,
#329,#330,#331,#332),.UNSPECIFIED.,.F.,.F.)
B_SPLINE_CURVE_WITH_KNOTS((6,1,1,1,1,1,1,1,1,1,6),(0.00792630851394651,
0.1,0.2,0.3,0.4,0.5,0.6,0.7,0.8,0.9,1.),.UNSPECIFIED.)
CURVE()
GEOMETRIC_REPRESENTATION_ITEM()
RATIONAL_B_SPLINE_CURVE((1.,1.,1.,1.,1.,1.,1.,1.,1.,1.,1.,1.,1.,1.,1.))
REPRESENTATION_ITEM('')
);
#18=(
BOUNDED_CURVE()
B_SPLINE_CURVE(5,(#333,#334,#335,#336,#337,#338,#339,#340,#341,#342,#343,
#344,#345,#346,#347),.UNSPECIFIED.,.F.,.F.)
B_SPLINE_CURVE_WITH_KNOTS((6,1,1,1,1,1,1,1,1,1,6),(-1.,-0.9,-0.8,-0.7,-0.6,
-0.5,-0.4,-0.3,-0.2,-0.1,-0.00792630851394651),.UNSPECIFIED.)
CURVE()
GEOMETRIC_REPRESENTATION_ITEM()
RATIONAL_B_SPLINE_CURVE((1.,1.,1.,1.,1.,1.,1.,1.,1.,1.,1.,1.,1.,1.,1.))
REPRESENTATION_ITEM('')
);
#19=(
BOUNDED_SURFACE()
B_SPLINE_SURFACE(5,1,((#228,#229),(#230,#231),(#232,#233),(#234,#235),(#236,
#237),(#238,#239),(#240,#241),(#242,#243),(#244,#245),(#246,#247),(#248,
#249),(#250,#251),(#252,#253),(#254,#255),(#256,#257)),.UNSPECIFIED.,.F.,
 .F.,.F.)
B_SPLINE_SURFACE_WITH_KNOTS((6,1,1,1,1,1,1,1,1,1,6),(2,2),(0.00792630851403598,
0.1,0.2,0.3,0.4,0.5,0.6,0.7,0.8,0.9,1.),(0.,0.2),.UNSPECIFIED.)
GEOMETRIC_REPRESENTATION_ITEM()
RATIONAL_B_SPLINE_SURFACE(((1.,1.),(1.,1.),(1.,1.),(1.,1.),(1.,1.),(1.,
1.),(1.,1.),(1.,1.),(1.,1.),(1.,1.),(1.,1.),(1.,1.),(1.,1.),(1.,1.),(1.,
1.)))
REPRESENTATION_ITEM('')
SURFACE()
);
#20=(
BOUNDED_SURFACE()
B_SPLINE_SURFACE(5,1,((#288,#289),(#290,#291),(#292,#293),(#294,#295),(#296,
#297),(#298,#299),(#300,#301),(#302,#303),(#304,#305),(#306,#307),(#308,
#309),(#310,#311),(#312,#313),(#314,#315),(#316,#317)),.UNSPECIFIED.,.F.,
 .F.,.F.)
B_SPLINE_SURFACE_WITH_KNOTS((6,1,1,1,1,1,1,1,1,1,6),(2,2),(-1.,-0.9,-0.8,
-0.7,-0.6,-0.5,-0.4,-0.3,-0.2,-0.1,-0.00792630851394651),(0.,0.2),
 .UNSPECIFIED.)
GEOMETRIC_REPRESENTATION_ITEM()
RATIONAL_B_SPLINE_SURFACE(((1.,1.),(1.,1.),(1.,1.),(1.,1.),(1.,1.),(1.,
1.),(1.,1.),(1.,1.),(1.,1.),(1.,1.),(1.,1.),(1.,1.),(1.,1.),(1.,1.),(1.,
1.)))
REPRESENTATION_ITEM('')
SURFACE()
);
#21=PLANE('',#160);
#22=PLANE('',#161);
#23=PLANE('',#162);
#24=PLANE('',#163);
#25=PLANE('',#164);
#26=FACE_OUTER_BOUND('',#34,.T.);
#27=FACE_OUTER_BOUND('',#35,.T.);
#28=FACE_OUTER_BOUND('',#36,.T.);
#29=FACE_OUTER_BOUND('',#37,.T.);
#30=FACE_OUTER_BOUND('',#38,.T.);
#31=FACE_OUTER_BOUND('',#39,.T.);
#32=FACE_OUTER_BOUND('',#40,.T.);
#33=FACE_OUTER_BOUND('',#41,.T.);
#34=EDGE_LOOP('',(#96,#97,#98,#99,#100,#101,#102,#103));
#35=EDGE_LOOP('',(#104));
#36=EDGE_LOOP('',(#105,#106,#107,#108));
#37=EDGE_LOOP('',(#109,#110,#111,#112));
#38=EDGE_LOOP('',(#113,#114,#115,#116));
#39=EDGE_LOOP('',(#117,#118,#119,#120));
#40=EDGE_LOOP('',(#121,#122,#123,#124,#125,#126));
#41=EDGE_LOOP('',(#127,#128,#129,#130,#131));
#42=CIRCLE('',#156,2.5);
#43=CIRCLE('',#157,2.5);
#44=CIRCLE('',#158,2.5);
#45=CIRCLE('',#159,2.5);
#46=LINE('',#201,#56);
#47=LINE('',#205,#57);
#48=LINE('',#209,#58);
#49=LINE('',#216,#59);
#50=LINE('',#218,#60);
#51=LINE('',#220,#61);
#52=LINE('',#221,#62);
#53=LINE('',#224,#63);
#54=LINE('',#226,#64);
#55=LINE('',#227,#65);
#56=VECTOR('',#169,10.);
#57=VECTOR('',#172,10.);
#58=VECTOR('',#175,2.5);
#59=VECTOR('',#184,10.);
#60=VECTOR('',#185,10.);
#61=VECTOR('',#186,10.);
#62=VECTOR('',#187,10.);
#63=VECTOR('',#190,10.);
#64=VECTOR('',#191,10.);
#65=VECTOR('',#192,10.);
#66=VERTEX_POINT('',#199);
#67=VERTEX_POINT('',#200);
#68=VERTEX_POINT('',#202);
#69=VERTEX_POINT('',#204);
#70=VERTEX_POINT('',#206);
#71=VERTEX_POINT('',#208);
#72=VERTEX_POINT('',#214);
#73=VERTEX_POINT('',#215);
#74=VERTEX_POINT('',#217);
#75=VERTEX_POINT('',#219);
#76=VERTEX_POINT('',#223);
#77=VERTEX_POINT('',#225);
#78=EDGE_CURVE('',#66,#67,#46,.T.);
#79=EDGE_CURVE('',#68,#67,#42,.T.);
#80=EDGE_CURVE('',#69,#68,#47,.T.);
#81=EDGE_CURVE('',#70,#69,#43,.T.);
#82=EDGE_CURVE('',#70,#71,#48,.T.);
#83=EDGE_CURVE('',#71,#71,#44,.T.);
#84=EDGE_CURVE('',#66,#70,#45,.T.);
#85=EDGE_CURVE('',#72,#73,#49,.T.);
#86=EDGE_CURVE('',#72,#74,#50,.T.);
#87=EDGE_CURVE('',#75,#74,#51,.T.);
#88=EDGE_CURVE('',#73,#75,#52,.T.);
#89=EDGE_CURVE('',#76,#73,#53,.T.);
#90=EDGE_CURVE('',#77,#75,#54,.T.);
#91=EDGE_CURVE('',#76,#77,#55,.T.);
#92=EDGE_CURVE('',#66,#76,#15,.T.);
#93=EDGE_CURVE('',#67,#77,#16,.T.);
#94=EDGE_CURVE('',#69,#72,#17,.T.);
#95=EDGE_CURVE('',#74,#68,#18,.T.);
#96=ORIENTED_EDGE('',*,*,#78,.T.);
#97=ORIENTED_EDGE('',*,*,#79,.F.);
#98=ORIENTED_EDGE('',*,*,#80,.F.);
#99=ORIENTED_EDGE('',*,*,#81,.F.);
#100=ORIENTED_EDGE('',*,*,#82,.T.);
#101=ORIENTED_EDGE('',*,*,#83,.F.);
#102=ORIENTED_EDGE('',*,*,#82,.F.);
#103=ORIENTED_EDGE('',*,*,#84,.F.);
#104=ORIENTED_EDGE('',*,*,#83,.T.);
#105=ORIENTED_EDGE('',*,*,#85,.F.);
#106=ORIENTED_EDGE('',*,*,#86,.T.);
#107=ORIENTED_EDGE('',*,*,#87,.F.);
#108=ORIENTED_EDGE('',*,*,#88,.F.);
#109=ORIENTED_EDGE('',*,*,#89,.T.);
#110=ORIENTED_EDGE('',*,*,#88,.T.);
#111=ORIENTED_EDGE('',*,*,#90,.F.);
#112=ORIENTED_EDGE('',*,*,#91,.F.);
#113=ORIENTED_EDGE('',*,*,#92,.T.);
#114=ORIENTED_EDGE('',*,*,#91,.T.);
#115=ORIENTED_EDGE('',*,*,#93,.F.);
#116=ORIENTED_EDGE('',*,*,#78,.F.);
#117=ORIENTED_EDGE('',*,*,#94,.F.);
#118=ORIENTED_EDGE('',*,*,#80,.T.);
#119=ORIENTED_EDGE('',*,*,#95,.F.);
#120=ORIENTED_EDGE('',*,*,#86,.F.);
#121=ORIENTED_EDGE('',*,*,#94,.T.);
#122=ORIENTED_EDGE('',*,*,#85,.T.);
#123=ORIENTED_EDGE('',*,*,#89,.F.);
#124=ORIENTED_EDGE('',*,*,#92,.F.);
#125=ORIENTED_EDGE('',*,*,#84,.T.);
#126=ORIENTED_EDGE('',*,*,#81,.T.);
#127=ORIENTED_EDGE('',*,*,#95,.T.);
#128=ORIENTED_EDGE('',*,*,#79,.T.);
#129=ORIENTED_EDGE('',*,*,#93,.T.);
#130=ORIENTED_EDGE('',*,*,#90,.T.);
#131=ORIENTED_EDGE('',*,*,#87,.T.);
#132=CYLINDRICAL_SURFACE('',#155,2.5);
#133=ADVANCED_FACE('',(#26),#132,.T.);
#134=ADVANCED_FACE('',(#27),#21,.T.);
#135=ADVANCED_FACE('',(#28),#22,.T.);
#136=ADVANCED_FACE('',(#29),#23,.T.);
#137=ADVANCED_FACE('',(#30),#19,.T.);
#138=ADVANCED_FACE('',(#31),#20,.T.);
#139=ADVANCED_FACE('',(#32),#24,.T.);
#140=ADVANCED_FACE('',(#33),#25,.F.);
#141=CLOSED_SHELL('',(#133,#134,#135,#136,#137,#138,#139,#140));
#142=DERIVED_UNIT_ELEMENT(#144,1.);
#143=DERIVED_UNIT_ELEMENT(#355,-3.);
#144=(
MASS_UNIT()
NAMED_UNIT(*)
SI_UNIT(.KILO.,.GRAM.)
);
#145=DERIVED_UNIT((#142,#143));
#146=MEASURE_REPRESENTATION_ITEM('density measure',
POSITIVE_RATIO_MEASURE(7850.),#145);
#147=PROPERTY_DEFINITION_REPRESENTATION(#152,#149);
#148=PROPERTY_DEFINITION_REPRESENTATION(#153,#150);
#149=REPRESENTATION('material name',(#151),#352);
#150=REPRESENTATION('density',(#146),#352);
#151=DESCRIPTIVE_REPRESENTATION_ITEM('Steel','Steel');
#152=PROPERTY_DEFINITION('material property','material name',#362);
#153=PROPERTY_DEFINITION('material property','density of part',#362);
#154=AXIS2_PLACEMENT_3D('',#197,#165,#166);
#155=AXIS2_PLACEMENT_3D('',#198,#167,#168);
#156=AXIS2_PLACEMENT_3D('',#203,#170,#171);
#157=AXIS2_PLACEMENT_3D('',#207,#173,#174);
#158=AXIS2_PLACEMENT_3D('',#210,#176,#177);
#159=AXIS2_PLACEMENT_3D('',#211,#178,#179);
#160=AXIS2_PLACEMENT_3D('',#212,#180,#181);
#161=AXIS2_PLACEMENT_3D('',#213,#182,#183);
#162=AXIS2_PLACEMENT_3D('',#222,#188,#189);
#163=AXIS2_PLACEMENT_3D('',#348,#193,#194);
#164=AXIS2_PLACEMENT_3D('',#349,#195,#196);
#165=DIRECTION('axis',(0.,0.,1.));
#166=DIRECTION('refdir',(1.,0.,0.));
#167=DIRECTION('center_axis',(0.,1.,0.));
#168=DIRECTION('ref_axis',(1.,0.,0.));
#169=DIRECTION('',(0.,-1.,0.));
#170=DIRECTION('center_axis',(0.,1.,0.));
#171=DIRECTION('ref_axis',(-1.,0.,0.));
#172=DIRECTION('',(0.,-1.,0.));
#173=DIRECTION('center_axis',(0.,1.,0.));
#174=DIRECTION('ref_axis',(1.,0.,0.));
#175=DIRECTION('',(0.,-1.,0.));
#176=DIRECTION('center_axis',(0.,-1.,0.));
#177=DIRECTION('ref_axis',(1.,0.,0.));
#178=DIRECTION('center_axis',(0.,1.,0.));
#179=DIRECTION('ref_axis',(1.,0.,0.));
#180=DIRECTION('center_axis',(0.,-1.,0.));
#181=DIRECTION('ref_axis',(1.,0.,0.));
#182=DIRECTION('center_axis',(0.956787792945406,0.,-0.290787068609764));
#183=DIRECTION('ref_axis',(0.290787068609764,0.,0.956787792945406));
#184=DIRECTION('',(-0.290787068609764,0.,-0.956787792945406));
#185=DIRECTION('',(0.,-1.,0.));
#186=DIRECTION('',(0.290787068609764,0.,0.956787792945406));
#187=DIRECTION('',(0.,-1.,0.));
#188=DIRECTION('center_axis',(-0.956787792945406,0.,-0.290787068609764));
#189=DIRECTION('ref_axis',(0.290787068609764,0.,-0.956787792945406));
#190=DIRECTION('',(0.290787068609764,0.,-0.956787792945406));
#191=DIRECTION('',(0.290787068609764,0.,-0.956787792945406));
#192=DIRECTION('',(0.,-1.,0.));
#193=DIRECTION('center_axis',(0.,1.,0.));
#194=DIRECTION('ref_axis',(-1.,0.,0.));
#195=DIRECTION('center_axis',(0.,1.,0.));
#196=DIRECTION('ref_axis',(-1.,0.,0.));
#197=CARTESIAN_POINT('',(0.,0.,0.));
#198=CARTESIAN_POINT('Origin',(-90.0219367276753,-5.1,23.1973347126825));
#199=CARTESIAN_POINT('',(-92.3804353965828,39.9,22.3681881461685));
#200=CARTESIAN_POINT('',(-92.3804353965828,37.9,22.3681881461685));
#201=CARTESIAN_POINT('',(-92.3804353965828,39.9,22.3681881461685));
#202=CARTESIAN_POINT('',(-87.6634380587673,37.9,22.3681881461702));
#203=CARTESIAN_POINT('Origin',(-90.0219367276753,37.9,23.1973347126825));
#204=CARTESIAN_POINT('',(-87.6634380587673,39.9,22.3681881461702));
#205=CARTESIAN_POINT('',(-87.6634380587673,39.9,22.3681881461702));
#206=CARTESIAN_POINT('',(-92.5219367276753,39.9,23.1973347126825));
#207=CARTESIAN_POINT('Origin',(-90.0219367276753,39.9,23.1973347126825));
#208=CARTESIAN_POINT('',(-92.5219367276753,-5.1,23.1973347126825));
#209=CARTESIAN_POINT('',(-92.5219367276753,-5.1,23.1973347126825));
#210=CARTESIAN_POINT('Origin',(-90.0219367276753,-5.1,23.1973347126825));
#211=CARTESIAN_POINT('Origin',(-90.0219367276753,39.9,23.1973347126825));
#212=CARTESIAN_POINT('Origin',(-90.0219367276753,-5.1,23.1973347126825));
#213=CARTESIAN_POINT('Origin',(-90.0219367276753,39.9,-16.8026652873175));
#214=CARTESIAN_POINT('',(-88.5633624087983,39.9,-12.0034625233255));
#215=CARTESIAN_POINT('',(-90.0219367276753,39.9,-16.8026652873175));
#216=CARTESIAN_POINT('',(-88.5633624087983,39.9,-12.0034625233255));
#217=CARTESIAN_POINT('',(-88.5633624087983,37.9,-12.0034625233255));
#218=CARTESIAN_POINT('',(-88.5633624087983,39.9,-12.0034625233255));
#219=CARTESIAN_POINT('',(-90.0219367276753,37.9,-16.8026652873175));
#220=CARTESIAN_POINT('',(-88.5633624087983,37.9,-12.0034625233255));
#221=CARTESIAN_POINT('',(-90.0219367276753,39.9,-16.8026652873175));
#222=CARTESIAN_POINT('Origin',(-91.4805110465522,39.9,-12.0034625233255));
#223=CARTESIAN_POINT('',(-91.4805110465522,39.9,-12.0034625233255));
#224=CARTESIAN_POINT('',(-91.4805110465522,39.9,-12.0034625233255));
#225=CARTESIAN_POINT('',(-91.4805110465522,37.9,-12.0034625233255));
#226=CARTESIAN_POINT('',(-91.4805110465522,37.9,-12.0034625233255));
#227=CARTESIAN_POINT('',(-91.4805110465522,39.9,-12.0034625233255));
#228=CARTESIAN_POINT('Ctrl Pts',(-92.3804353965828,39.9,22.3681881461685));
#229=CARTESIAN_POINT('Ctrl Pts',(-92.3804353965828,37.9,22.3681881461685));
#230=CARTESIAN_POINT('Ctrl Pts',(-92.270484761224,39.9,22.0170294038161));
#231=CARTESIAN_POINT('Ctrl Pts',(-92.270484761224,37.9,22.0170294038161));
#232=CARTESIAN_POINT('Ctrl Pts',(-92.0533582064159,39.9,21.2796054183061));
#233=CARTESIAN_POINT('Ctrl Pts',(-92.0533582064159,37.9,21.2796054183061));
#234=CARTESIAN_POINT('Ctrl Pts',(-91.7618294247696,39.9,20.141641053788));
#235=CARTESIAN_POINT('Ctrl Pts',(-91.7618294247696,37.9,20.141641053788));
#236=CARTESIAN_POINT('Ctrl Pts',(-91.4440500035079,39.9,18.5469499341473));
#237=CARTESIAN_POINT('Ctrl Pts',(-91.4440500035079,37.9,18.5469499341473));
#238=CARTESIAN_POINT('Ctrl Pts',(-91.1442798493572,39.9,16.2693099688554));
#239=CARTESIAN_POINT('Ctrl Pts',(-91.1442798493572,37.9,16.2693099688554));
#240=CARTESIAN_POINT('Ctrl Pts',(-90.9157970195194,39.9,13.4840775253609));
#241=CARTESIAN_POINT('Ctrl Pts',(-90.9157970195194,37.9,13.4840775253609));
#242=CARTESIAN_POINT('Ctrl Pts',(-90.7497017107787,39.9,10.1294056723303));
#243=CARTESIAN_POINT('Ctrl Pts',(-90.7497017107787,37.9,10.1294056723303));
#244=CARTESIAN_POINT('Ctrl Pts',(-90.6522974173679,39.9,6.24692925675301));
#245=CARTESIAN_POINT('Ctrl Pts',(-90.6522974173679,37.9,6.24692925675301));
#246=CARTESIAN_POINT('Ctrl Pts',(-90.643094684075,39.9,1.94828420825299));
#247=CARTESIAN_POINT('Ctrl Pts',(-90.643094684075,37.9,1.94828420825299));
#248=CARTESIAN_POINT('Ctrl Pts',(-90.750406641015,39.9,-2.6192374941699));
#249=CARTESIAN_POINT('Ctrl Pts',(-90.750406641015,37.9,-2.6192374941699));
#250=CARTESIAN_POINT('Ctrl Pts',(-90.9542314983097,39.9,-6.3721987822856));
#251=CARTESIAN_POINT('Ctrl Pts',(-90.9542314983097,37.9,-6.3721987822856));
#252=CARTESIAN_POINT('Ctrl Pts',(-91.1854157568667,39.9,-9.19168780985454));
#253=CARTESIAN_POINT('Ctrl Pts',(-91.1854157568667,37.9,-9.19168780985454));
#254=CARTESIAN_POINT('Ctrl Pts',(-91.3760588252799,39.9,-11.0669398611177));
#255=CARTESIAN_POINT('Ctrl Pts',(-91.3760588252799,37.9,-11.0669398611177));
#256=CARTESIAN_POINT('Ctrl Pts',(-91.4805110465522,39.9,-12.0034625233255));
#257=CARTESIAN_POINT('Ctrl Pts',(-91.4805110465522,37.9,-12.0034625233255));
#258=CARTESIAN_POINT('Ctrl Pts',(-92.3804353965828,39.9,22.3681881461685));
#259=CARTESIAN_POINT('Ctrl Pts',(-92.270484761224,39.9,22.0170294038161));
#260=CARTESIAN_POINT('Ctrl Pts',(-92.0533582064159,39.9,21.2796054183061));
#261=CARTESIAN_POINT('Ctrl Pts',(-91.7618294247696,39.9,20.141641053788));
#262=CARTESIAN_POINT('Ctrl Pts',(-91.4440500035079,39.9,18.5469499341473));
#263=CARTESIAN_POINT('Ctrl Pts',(-91.1442798493572,39.9,16.2693099688554));
#264=CARTESIAN_POINT('Ctrl Pts',(-90.9157970195194,39.9,13.4840775253609));
#265=CARTESIAN_POINT('Ctrl Pts',(-90.7497017107787,39.9,10.1294056723303));
#266=CARTESIAN_POINT('Ctrl Pts',(-90.6522974173679,39.9,6.24692925675301));
#267=CARTESIAN_POINT('Ctrl Pts',(-90.643094684075,39.9,1.94828420825299));
#268=CARTESIAN_POINT('Ctrl Pts',(-90.750406641015,39.9,-2.6192374941699));
#269=CARTESIAN_POINT('Ctrl Pts',(-90.9542314983097,39.9,-6.3721987822856));
#270=CARTESIAN_POINT('Ctrl Pts',(-91.1854157568667,39.9,-9.19168780985454));
#271=CARTESIAN_POINT('Ctrl Pts',(-91.3760588252799,39.9,-11.0669398611177));
#272=CARTESIAN_POINT('Ctrl Pts',(-91.4805110465522,39.9,-12.0034625233255));
#273=CARTESIAN_POINT('Ctrl Pts',(-92.3804353965828,37.9,22.3681881461685));
#274=CARTESIAN_POINT('Ctrl Pts',(-92.270484761224,37.9,22.0170294038161));
#275=CARTESIAN_POINT('Ctrl Pts',(-92.0533582064159,37.9,21.2796054183061));
#276=CARTESIAN_POINT('Ctrl Pts',(-91.7618294247696,37.9,20.141641053788));
#277=CARTESIAN_POINT('Ctrl Pts',(-91.4440500035079,37.9,18.5469499341473));
#278=CARTESIAN_POINT('Ctrl Pts',(-91.1442798493572,37.9,16.2693099688554));
#279=CARTESIAN_POINT('Ctrl Pts',(-90.9157970195194,37.9,13.4840775253609));
#280=CARTESIAN_POINT('Ctrl Pts',(-90.7497017107787,37.9,10.1294056723303));
#281=CARTESIAN_POINT('Ctrl Pts',(-90.6522974173679,37.9,6.24692925675301));
#282=CARTESIAN_POINT('Ctrl Pts',(-90.643094684075,37.9,1.94828420825299));
#283=CARTESIAN_POINT('Ctrl Pts',(-90.750406641015,37.9,-2.6192374941699));
#284=CARTESIAN_POINT('Ctrl Pts',(-90.9542314983097,37.9,-6.3721987822856));
#285=CARTESIAN_POINT('Ctrl Pts',(-91.1854157568667,37.9,-9.19168780985454));
#286=CARTESIAN_POINT('Ctrl Pts',(-91.3760588252799,37.9,-11.0669398611177));
#287=CARTESIAN_POINT('Ctrl Pts',(-91.4805110465522,37.9,-12.0034625233255));
#288=CARTESIAN_POINT('Ctrl Pts',(-88.5633624087983,39.9,-12.0034625233255));
#289=CARTESIAN_POINT('Ctrl Pts',(-88.5633624087983,37.9,-12.0034625233255));
#290=CARTESIAN_POINT('Ctrl Pts',(-88.6678146300707,39.9,-11.0669398611177));
#291=CARTESIAN_POINT('Ctrl Pts',(-88.6678146300707,37.9,-11.0669398611177));
#292=CARTESIAN_POINT('Ctrl Pts',(-88.8584576984838,39.9,-9.19168780985454));
#293=CARTESIAN_POINT('Ctrl Pts',(-88.8584576984838,37.9,-9.19168780985454));
#294=CARTESIAN_POINT('Ctrl Pts',(-89.0896419570403,39.9,-6.3721987822856));
#295=CARTESIAN_POINT('Ctrl Pts',(-89.0896419570403,37.9,-6.3721987822856));
#296=CARTESIAN_POINT('Ctrl Pts',(-89.2934668143334,39.9,-2.6192374941699));
#297=CARTESIAN_POINT('Ctrl Pts',(-89.2934668143334,37.9,-2.6192374941699));
#298=CARTESIAN_POINT('Ctrl Pts',(-89.400778771271,39.9,1.94828420825299));
#299=CARTESIAN_POINT('Ctrl Pts',(-89.400778771271,37.9,1.94828420825299));
#300=CARTESIAN_POINT('Ctrl Pts',(-89.3915760379764,39.9,6.24692925675301));
#301=CARTESIAN_POINT('Ctrl Pts',(-89.3915760379764,37.9,6.24692925675301));
#302=CARTESIAN_POINT('Ctrl Pts',(-89.2941717445665,39.9,10.1294056723303));
#303=CARTESIAN_POINT('Ctrl Pts',(-89.2941717445665,37.9,10.1294056723303));
#304=CARTESIAN_POINT('Ctrl Pts',(-89.1280764358294,39.9,13.4840775253609));
#305=CARTESIAN_POINT('Ctrl Pts',(-89.1280764358294,37.9,13.4840775253609));
#306=CARTESIAN_POINT('Ctrl Pts',(-88.8995936059973,39.9,16.2693099688554));
#307=CARTESIAN_POINT('Ctrl Pts',(-88.8995936059973,37.9,16.2693099688554));
#308=CARTESIAN_POINT('Ctrl Pts',(-88.5998234518498,39.9,18.5469499341477));
#309=CARTESIAN_POINT('Ctrl Pts',(-88.5998234518498,37.9,18.5469499341477));
#310=CARTESIAN_POINT('Ctrl Pts',(-88.2820440305854,39.9,20.1416410537887));
#311=CARTESIAN_POINT('Ctrl Pts',(-88.2820440305854,37.9,20.1416410537887));
#312=CARTESIAN_POINT('Ctrl Pts',(-87.9905152489353,39.9,21.2796054183072));
#313=CARTESIAN_POINT('Ctrl Pts',(-87.9905152489353,37.9,21.2796054183072));
#314=CARTESIAN_POINT('Ctrl Pts',(-87.7733886941263,39.9,22.0170294038175));
#315=CARTESIAN_POINT('Ctrl Pts',(-87.7733886941263,37.9,22.0170294038175));
#316=CARTESIAN_POINT('Ctrl Pts',(-87.6634380587673,39.9,22.3681881461702));
#317=CARTESIAN_POINT('Ctrl Pts',(-87.6634380587673,37.9,22.3681881461702));
#318=CARTESIAN_POINT('Ctrl Pts',(-87.6634380587673,39.9,22.3681881461702));
#319=CARTESIAN_POINT('Ctrl Pts',(-87.7733886941263,39.9,22.0170294038174));
#320=CARTESIAN_POINT('Ctrl Pts',(-87.9905152489353,39.9,21.2796054183072));
#321=CARTESIAN_POINT('Ctrl Pts',(-88.2820440305854,39.9,20.1416410537887));
#322=CARTESIAN_POINT('Ctrl Pts',(-88.5998234518498,39.9,18.5469499341477));
#323=CARTESIAN_POINT('Ctrl Pts',(-88.8995936059973,39.9,16.2693099688554));
#324=CARTESIAN_POINT('Ctrl Pts',(-89.1280764358294,39.9,13.4840775253609));
#325=CARTESIAN_POINT('Ctrl Pts',(-89.2941717445665,39.9,10.1294056723303));
#326=CARTESIAN_POINT('Ctrl Pts',(-89.3915760379764,39.9,6.24692925675301));
#327=CARTESIAN_POINT('Ctrl Pts',(-89.400778771271,39.9,1.94828420825299));
#328=CARTESIAN_POINT('Ctrl Pts',(-89.2934668143334,39.9,-2.6192374941699));
#329=CARTESIAN_POINT('Ctrl Pts',(-89.0896419570403,39.9,-6.3721987822856));
#330=CARTESIAN_POINT('Ctrl Pts',(-88.8584576984838,39.9,-9.19168780985454));
#331=CARTESIAN_POINT('Ctrl Pts',(-88.6678146300707,39.9,-11.0669398611177));
#332=CARTESIAN_POINT('Ctrl Pts',(-88.5633624087983,39.9,-12.0034625233255));
#333=CARTESIAN_POINT('Ctrl Pts',(-88.5633624087983,37.9,-12.0034625233255));
#334=CARTESIAN_POINT('Ctrl Pts',(-88.6678146300707,37.9,-11.0669398611177));
#335=CARTESIAN_POINT('Ctrl Pts',(-88.8584576984838,37.9,-9.19168780985454));
#336=CARTESIAN_POINT('Ctrl Pts',(-89.0896419570403,37.9,-6.3721987822856));
#337=CARTESIAN_POINT('Ctrl Pts',(-89.2934668143334,37.9,-2.6192374941699));
#338=CARTESIAN_POINT('Ctrl Pts',(-89.400778771271,37.9,1.94828420825299));
#339=CARTESIAN_POINT('Ctrl Pts',(-89.3915760379764,37.9,6.24692925675301));
#340=CARTESIAN_POINT('Ctrl Pts',(-89.2941717445665,37.9,10.1294056723303));
#341=CARTESIAN_POINT('Ctrl Pts',(-89.1280764358294,37.9,13.4840775253609));
#342=CARTESIAN_POINT('Ctrl Pts',(-88.8995936059973,37.9,16.2693099688554));
#343=CARTESIAN_POINT('Ctrl Pts',(-88.5998234518498,37.9,18.5469499341477));
#344=CARTESIAN_POINT('Ctrl Pts',(-88.2820440305854,37.9,20.1416410537887));
#345=CARTESIAN_POINT('Ctrl Pts',(-87.9905152489353,37.9,21.2796054183072));
#346=CARTESIAN_POINT('Ctrl Pts',(-87.7733886941263,37.9,22.0170294038174));
#347=CARTESIAN_POINT('Ctrl Pts',(-87.6634380587673,37.9,22.3681881461702));
#348=CARTESIAN_POINT('Origin',(-90.021936727675,39.9,2.78276142942636));
#349=CARTESIAN_POINT('Origin',(-90.021936727675,37.9,2.78276142942636));
#350=UNCERTAINTY_MEASURE_WITH_UNIT(LENGTH_MEASURE(0.01),#354,
'DISTANCE_ACCURACY_VALUE',
'Maximum model space distance between geometric entities at asserted c
onnectivities');
#351=UNCERTAINTY_MEASURE_WITH_UNIT(LENGTH_MEASURE(0.01),#354,
'DISTANCE_ACCURACY_VALUE',
'Maximum model space distance between geometric entities at asserted c
onnectivities');
#352=(
GEOMETRIC_REPRESENTATION_CONTEXT(3)
GLOBAL_UNCERTAINTY_ASSIGNED_CONTEXT((#350))
GLOBAL_UNIT_ASSIGNED_CONTEXT((#354,#356,#357))
REPRESENTATION_CONTEXT('','3D')
);
#353=(
GEOMETRIC_REPRESENTATION_CONTEXT(3)
GLOBAL_UNCERTAINTY_ASSIGNED_CONTEXT((#351))
GLOBAL_UNIT_ASSIGNED_CONTEXT((#354,#356,#357))
REPRESENTATION_CONTEXT('','3D')
);
#354=(
LENGTH_UNIT()
NAMED_UNIT(*)
SI_UNIT(.MILLI.,.METRE.)
);
#355=(
LENGTH_UNIT()
NAMED_UNIT(*)
SI_UNIT($,.METRE.)
);
#356=(
NAMED_UNIT(*)
PLANE_ANGLE_UNIT()
SI_UNIT($,.RADIAN.)
);
#357=(
NAMED_UNIT(*)
SI_UNIT($,.STERADIAN.)
SOLID_ANGLE_UNIT()
);
#358=SHAPE_DEFINITION_REPRESENTATION(#359,#360);
#359=PRODUCT_DEFINITION_SHAPE('',$,#362);
#360=SHAPE_REPRESENTATION('',(#154),#352);
#361=PRODUCT_DEFINITION_CONTEXT('part definition',#366,'design');
#362=PRODUCT_DEFINITION('FusionComponent','FusionComponent',#363,#361);
#363=PRODUCT_DEFINITION_FORMATION('',$,#368);
#364=PRODUCT_RELATED_PRODUCT_CATEGORY('FusionComponent',
'FusionComponent',(#368));
#365=APPLICATION_PROTOCOL_DEFINITION('international standard',
'automotive_design',2009,#366);
#366=APPLICATION_CONTEXT(
'Core Data for Automotive Mechanical Design Process');
#367=PRODUCT_CONTEXT('part definition',#366,'mechanical');
#368=PRODUCT('FusionComponent','FusionComponent',$,(#367));
#369=PRESENTATION_STYLE_ASSIGNMENT((#370));
#370=SURFACE_STYLE_USAGE(.BOTH.,#371);
#371=SURFACE_SIDE_STYLE('',(#372));
#372=SURFACE_STYLE_FILL_AREA(#373);
#373=FILL_AREA_STYLE('Steel - Satin',(#374));
#374=FILL_AREA_STYLE_COLOUR('Steel - Satin',#375);
#375=COLOUR_RGB('Steel - Satin',0.627450980392157,0.627450980392157,0.627450980392157);
ENDSEC;
END-ISO-10303-21;
