0
SECTION
2
HEADER
9
$INSUNITS
70
1
9
$ACADVER
1
AC1014
9
$HANDSEED
5
FFFF
0
ENDSEC
0
SECTION
2
TABLES
0
TABLE
2
VPORT
5
8
100
AcDbSymbolTable
0
ENDTAB
0
TABLE
2
LTYPE
5
5
100
AcDbSymbolTable
0
LTYPE
5
14
100
AcDbSymbolTableRecord
100
AcDbLinetypeTableRecord
2
BYBLOCK
70
0
0
LTYPE
5
15
100
AcDbSymbolTableRecord
100
AcDbLinetypeTableRecord
2
BYLAYER
70
0
0
ENDTAB
0
TABLE
2
LAYER
5
2
100
AcDbSymbolTable
70
2
0
LAYER
5
50
100
AcDbSymbolTableRecord
100
AcDbLayerTableRecord
2
0
70
0
6
CONTINUOUS
0
ENDTAB
0
TABLE
2
STYLE
5
3
100
AcDbSymbolTable
70
1
0
STYLE
5
11
100
AcDbSymbolTableRecord
100
AcDbTextStyleTableRecord
2
STANDARD
70
0
0
ENDTAB
0
TABLE
2
VIEW
5
6
100
AcDbSymbolTable
70
0
0
ENDTAB
0
TABLE
2
UCS
5
7
100
AcDbSymbolTable
70
0
0
ENDTAB
0
TABLE
2
APPID
5
9
100
AcDbSymbolTable
70
2
0
APPID
5
12
100
AcDbSymbolTableRecord
100
AcDbRegAppTableRecord
2
ACAD
70
0
0
ENDTAB
0
TABLE
2
DIMSTYLE
5
A
100
AcDbSymbolTable
70
1
0
ENDTAB
0
TABLE
2
BLOCK_RECORD
5
1
100
AcDbSymbolTable
70
1
0
BLOCK_RECORD
5
1F
100
AcDbSymbolTableRecord
100
AcDbBlockTableRecord
2
*MODEL_SPACE
0
BLOCK_RECORD
5
1B
100
AcDbSymbolTableRecord
100
AcDbBlockTableRecord
2
*PAPER_SPACE
0
ENDTAB
0
ENDSEC
0
SECTION
2
BLOCKS
0
BLOCK
5
20
100
AcDbEntity
100
AcDbBlockBegin
2
*MODEL_SPACE
0
ENDBLK
5
21
100
AcDbEntity
100
AcDbBlockEnd
0
BLOCK
5
1C
100
AcDbEntity
100
AcDbBlockBegin
2
*PAPER_SPACE
0
ENDBLK
5
1D
100
AcDbEntity
100
AcDbBlockEnd
0
ENDSEC
0
SECTION
2
ENTITIES
0
LWPOLYLINE
5
100
100
AcDbEntity
8
0
100
AcDbPolyline
90
8
70
1
43
0.0
10
21.75
20
-0.99999999999999989
10
21.75
20
-0.75
10
20.249999999999993
20
-0.75
10
20.249999999999993
20
-0.99999999999999989
10
-1.3749999999999967
20
-0.99999999999999989
10
-1.3749999999999969
20
0
10
31.374999999999996
20
0
10
31.374999999999996
20
-0.99999999999999989
0
LINE
5
101
100
AcDbEntity
8
0
100
AcDbLine
10
20.249999999999993
20
-0.49999999999999994
30
0
11
20.249999999999993
21
-0.75
31
0
0
LWPOLYLINE
5
102
100
AcDbEntity
8
0
100
AcDbPolyline
90
13
70
1
43
0.0
10
16.999999808514225
20
-0.25000006382859585
10
16.999999936171424
20
-0.75000006382859619
42
0.41421348759324506
10
17.24999993617141
20
-0.99999999999999989
10
20.999999999999996
20
-0.99999999999999989
10
24.749999906134398
20
-0.99999999999999989
42
0.41421367234346929
10
24.999999906134384
20
-0.7499999061344178
10
24.999999718403213
20
-0.24999990613441853
42
0.41421345240274204
10
24.749999718403231
20
-1.0053200616684488e-15
10
22.835084939471077
20
-4.0824736417318743e-14
42
-0.2989180158098893
10
22.146928087169417
20
0.45177165354327897
42
0.65649517552908865
10
19.853071912830586
20
0.4517716535433095
42
-0.29891801580987704
10
19.164915060528941
20
8.7414690707660475e-17
10
17.249999808514215
20
8.7419135797256413e-17
42
0.41421363715294868
0
CIRCLE
5
103
100
AcDbEntity
8
0
100
AcDbCircle
10
20.999999999999996
20
-0.045275590551181008
30
0
40
0.85629921259842523
210
0
220
0
230
1
0
LINE
5
104
100
AcDbEntity
8
0
100
AcDbLine
10
20.999999999999996
20
-0.75
30
0
11
20.999999999999996
21
0
31
0
0
CIRCLE
5
105
100
AcDbEntity
8
0
100
AcDbCircle
10
17.249999808514215
20
-0.24999999999999989
30
0
40
0.062499999999999098
210
0
220
0
230
1
0
LINE
5
106
100
AcDbEntity
8
0
100
AcDbLine
10
20.249999999999993
20
-0.99999999999999989
30
0
11
20.249999999999993
21
-0.75
31
0
0
LINE
5
107
100
AcDbEntity
8
0
100
AcDbLine
10
21.75
20
-0.99999999999999989
30
0
11
20.249999999999993
21
-0.99999999999999989
31
0
0
LINE
5
108
100
AcDbEntity
8
0
100
AcDbLine
10
21.75
20
-0.49999999999999994
30
0
11
20.249999999999993
21
-0.49999999999999994
31
0
0
LINE
5
109
100
AcDbEntity
8
0
100
AcDbLine
10
20.249999999999993
20
-0.75
30
0
11
20.200000644668819
21
-0.75
31
0
0
CIRCLE
5
110
100
AcDbEntity
8
0
100
AcDbCircle
10
24.749999718403238
20
-0.24999999999999545
30
0
40
0.062499999999999098
210
0
220
0
230
1
0
CIRCLE
5
111
100
AcDbEntity
8
0
100
AcDbCircle
10
20.999999999999996
20
-0.045275590551181008
30
0
40
0.95472440944881887
210
0
220
0
230
1
0
LINE
5
112
100
AcDbEntity
8
0
100
AcDbLine
10
20.249999999999993
20
-0.99999999999999989
30
0
11
20.249999999999993
21
-0.75
31
0
0
LINE
5
113
100
AcDbEntity
8
0
100
AcDbLine
10
20.200000644668819
20
-0.75
30
0
11
19.950000644668819
21
-0.75
31
0
0
CIRCLE
5
114
100
AcDbEntity
8
0
100
AcDbCircle
10
22
20
-0.75
30
0
40
0.062499999999999098
210
0
220
0
230
1
0
LINE
5
115
100
AcDbEntity
8
0
100
AcDbLine
10
21.75
20
-0.75
30
0
11
22
21
-0.75
31
0
0
LINE
5
116
100
AcDbEntity
8
0
100
AcDbLine
10
21.75
20
-0.75
30
0
11
21.75
21
-0.49999999999999994
31
0
0
LINE
5
117
100
AcDbEntity
8
0
100
AcDbLine
10
21.75
20
-0.75
30
0
11
21.75
21
-0.99999999999999989
31
0
0
LINE
5
118
100
AcDbEntity
8
0
100
AcDbLine
10
20.249999999999993
20
-0.75
30
0
11
21.75
21
-0.75
31
0
0
LINE
5
119
100
AcDbEntity
8
0
100
AcDbLine
10
21.75
20
-0.75
30
0
11
21.75
21
-0.99999999999999989
31
0
0
LINE
5
120
100
AcDbEntity
8
0
100
AcDbLine
10
20.249999999999993
20
-0.75
30
0
11
21.75
21
-0.75
31
0
0
CIRCLE
5
121
100
AcDbEntity
8
0
100
AcDbCircle
10
19.950000644668819
20
-0.75
30
0
40
0.062499999999999098
210
0
220
0
230
1
0
LINE
5
122
100
AcDbEntity
8
0
100
AcDbLine
10
20.249999999999993
20
-0.75
30
0
11
21.75
21
-0.75
31
0
0
ENDSEC
0
SECTION
2
OBJECTS
0
DICTIONARY
5
C
100
AcDbDictionary
3
ACAD_GROUP
350
D
3
ACAD_MLINESTYLE
350
17
0
DICTIONARY
5
D
100
AcDbDictionary
0
DICTIONARY
5
1A
330
C
100
AcDbDictionary
0
DICTIONARY
5
17
100
AcDbDictionary
0
ENDSEC
0
EOF
