  0
SECTION
  2
HEADER
  9
$ACADVER
  1
AC1014
  9
$HANDSEED
  5
FFFF
  9
$INSUNITS
 70
     4
  9
$MEASUREMENT
 70
     1
  0
ENDSEC
  0
SECTION
  2
TABLES
  0
TABLE
  2
VPORT
  5
8
330
0
100
AcDbSymbolTable
 70
     4
  0
VPORT
  5
2E
330
8
100
AcDbSymbolTableRecord
100
AcDbViewportTableRecord
  2
*ACTIVE
 70
     0
 10
0.0
 20
0.0
 11
1.0
 21
1.0
 12
210.0
 22
148.5
 13
0.0
 23
0.0
 14
10.0
 24
10.0
 15
10.0
 25
10.0
 16
0.0
 26
0.0
 36
1.0
 17
0.0
 27
0.0
 37
0.0
 40
341.0
 41
1.24
 42
50.0
 43
0.0
 44
0.0
 50
0.0
 51
0.0
 71
     0
 72
   100
 73
     1
 74
     3
 75
     0
 76
     0
 77
     0
 78
     0
  0
ENDTAB
  0
TABLE
  2
LTYPE
  5
5
330
0
100
AcDbSymbolTable
 70
     1
  0
LTYPE
  5
14
330
5
100
AcDbSymbolTableRecord
100
AcDbLinetypeTableRecord
  2
BYBLOCK
 70
     0
  3

 72
    65
 73
     0
 40
0.0
  0
LTYPE
  5
15
330
5
100
AcDbSymbolTableRecord
100
AcDbLinetypeTableRecord
  2
BYLAYER
 70
     0
  3

 72
    65
 73
     0
 40
0.0
  0
LTYPE
  5
16
330
5
100
AcDbSymbolTableRecord
100
AcDbLinetypeTableRecord
  2
CONTINUOUS
 70
     0
  3
Solid line
 72
    65
 73
     0
 40
0.0
  0
ENDTAB
  0
TABLE
  2
LAYER
  5
2
100
AcDbSymbolTable
 70
2
  0
LAYER
  5
50
100
AcDbSymbolTableRecord
100
AcDbLayerTableRecord
  2
0
 70
0
  6
CONTINUOUS
  0
LAYER
  5
51
100
AcDbSymbolTableRecord
100
AcDbLayerTableRecord
  2
Layer_1
 70
0
  6
CONTINUOUS
  0
ENDTAB
  0
TABLE
  2
STYLE
  5
3
330
0
100
AcDbSymbolTable
 70
     1
  0
STYLE
  5
11
330
3
100
AcDbSymbolTableRecord
100
AcDbTextStyleTableRecord
  2
STANDARD
 70
     0
 40
0.0
 41
1.0
 50
0.0
 71
     0
 42
2.5
  3
txt
  4

  0
ENDTAB
  0
TABLE
  2
VIEW
  5
6
330
0
100
AcDbSymbolTable
 70
     0
  0
ENDTAB
  0
TABLE
  2
UCS
  5
7
330
0
100
AcDbSymbolTable
 70
     0
  0
ENDTAB
  0
TABLE
  2
APPID
  5
9
330
0
100
AcDbSymbolTable
 70
     2
  0
APPID
  5
12
330
9
100
AcDbSymbolTableRecord
100
AcDbRegAppTableRecord
  2
ACAD
 70
     0
  0
ENDTAB
  0
TABLE
  2
DIMSTYLE
  5
A
330
0
100
AcDbSymbolTable
 70
     1
  0
DIMSTYLE
105
27
330
A
100
AcDbSymbolTableRecord
100
AcDbDimStyleTableRecord
  2
ISO-25
 70
     0
  3

  4

  5

  6

  7

 40
1.0
 41
2.5
 42
0.625
 43
3.75
 44
1.25
 45
0.0
 46
0.0
 47
0.0
 48
0.0
140
2.5
141
2.5
142
0.0
143
0.03937007874016
144
1.0
145
0.0
146
1.0
147
0.625
 71
     0
 72
     0
 73
     0
 74
     0
 75
     0
 76
     0
 77
     1
 78
     8
170
     0
171
     3
172
     1
173
     0
174
     0
175
     0
176
     0
177
     0
178
     0
270
     2
271
     2
272
     2
273
     2
274
     3
340
11
275
     0
280
     0
281
     0
282
     0
283
     0
284
     8
285
     0
286
     0
287
     3
288
     0
  0
ENDTAB
  0
TABLE
  2
BLOCK_RECORD
  5
1
330
0
100
AcDbSymbolTable
 70
     1
  0
BLOCK_RECORD
  5
1F
330
1
100
AcDbSymbolTableRecord
100
AcDbBlockTableRecord
  2
*MODEL_SPACE
  0
BLOCK_RECORD
  5
1B
330
1
100
AcDbSymbolTableRecord
100
AcDbBlockTableRecord
  2
*PAPER_SPACE
  0
ENDTAB
  0
ENDSEC
  0
SECTION
  2
BLOCKS
  0
BLOCK
  5
20
330
1F
100
AcDbEntity
  8
0
100
AcDbBlockBegin
  2
*MODEL_SPACE
 70
     0
 10
0.0
 20
0.0
 30
0.0
  3
*MODEL_SPACE
  1

  0
ENDBLK
  5
21
330
1F
100
AcDbEntity
  8
0
100
AcDbBlockEnd
  0
BLOCK
  5
1C
330
1B
100
AcDbEntity
 67
     1
  8
0
100
AcDbBlockBegin
  2
*PAPER_SPACE
  1

  0
ENDBLK
  5
1D
330
1B
100
AcDbEntity
 67
     1
  8
0
100
AcDbBlockEnd
  0
ENDSEC
  0
SECTION
  2
ENTITIES
  0
SPLINE
  5
100
100
AcDbEntity
  8
Layer_1
 62
1
100
AcDbSpline
 70
8
 71
3
 72
8
 73
4
 74
0
 40
0
 40
0
 40
0
 40
0
 40
1
 40
1
 40
1
 40
1
 10
220.893960
 20
158.577210
 30
0.0
 10
219.113930
 20
158.577210
 30
0.0
 10
217.680980
 20
156.466570
 30
0.0
 10
217.680980
 20
153.844770
 30
0.0
  0
SPLINE
  5
101
100
AcDbEntity
  8
Layer_1
 62
1
100
AcDbSpline
 70
8
 71
3
 72
8
 73
4
 74
0
 40
0
 40
0
 40
0
 40
0
 40
1
 40
1
 40
1
 40
1
 10
217.680980
 20
142.818590
 30
0.0
 10
217.680980
 20
140.196790
 30
0.0
 10
219.113930
 20
138.086150
 30
0.0
 10
220.893960
 20
138.086150
 30
0.0
  0
LWPOLYLINE
  5
102
100
AcDbEntity
  8
Layer_1
 62
1
100
AcDbPolyline
 90
2
 70
0
 10
217.680980
 20
153.844770
 30
0.0
 10
217.680980
 20
142.818590
 30
0.0
  0
SPLINE
  5
103
100
AcDbEntity
  8
Layer_1
 62
1
100
AcDbSpline
 70
8
 71
3
 72
8
 73
4
 74
0
 40
0
 40
0
 40
0
 40
0
 40
1
 40
1
 40
1
 40
1
 10
272.602900
 20
138.086150
 30
0.0
 10
274.382930
 20
138.086150
 30
0.0
 10
275.815870
 20
140.196790
 30
0.0
 10
275.815870
 20
142.818590
 30
0.0
  0
LWPOLYLINE
  5
104
100
AcDbEntity
  8
Layer_1
 62
1
100
AcDbPolyline
 90
2
 70
0
 10
220.893960
 20
138.086150
 30
0.0
 10
272.602900
 20
138.086150
 30
0.0
  0
SPLINE
  5
105
100
AcDbEntity
  8
Layer_1
 62
1
100
AcDbSpline
 70
8
 71
3
 72
8
 73
4
 74
0
 40
0
 40
0
 40
0
 40
0
 40
1
 40
1
 40
1
 40
1
 10
275.815870
 20
153.844770
 30
0.0
 10
275.815870
 20
156.466570
 30
0.0
 10
274.382930
 20
158.577210
 30
0.0
 10
272.602900
 20
158.577210
 30
0.0
  0
LWPOLYLINE
  5
106
100
AcDbEntity
  8
Layer_1
 62
1
100
AcDbPolyline
 90
2
 70
0
 10
275.815870
 20
142.818590
 30
0.0
 10
275.815870
 20
153.844770
 30
0.0
  0
SPLINE
  5
107
100
AcDbEntity
  8
Layer_1
 62
1
100
AcDbSpline
 70
8
 71
3
 72
8
 73
4
 74
0
 40
0
 40
0
 40
0
 40
0
 40
1
 40
1
 40
1
 40
1
 10
240.311790
 20
158.577210
 30
0.0
 10
239.203373
 20
155.544803
 30
0.0
 10
236.038239
 20
153.490946
 30
0.0
 10
232.464810
 20
153.485300
 30
0.0
  0
SPLINE
  5
108
100
AcDbEntity
  8
Layer_1
 62
1
100
AcDbSpline
 70
8
 71
3
 72
8
 73
4
 74
0
 40
0
 40
0
 40
0
 40
0
 40
1
 40
1
 40
1
 40
1
 10
232.464810
 20
153.485300
 30
0.0
 10
228.891595
 20
153.491169
 30
0.0
 10
225.726760
 20
155.544984
 30
0.0
 10
224.618410
 20
158.577210
 30
0.0
  0
LWPOLYLINE
  5
109
100
AcDbEntity
  8
Layer_1
 62
1
100
AcDbPolyline
 90
2
 70
0
 10
272.602900
 20
158.577210
 30
0.0
 10
240.311790
 20
158.577210
 30
0.0
  0
SPLINE
  5
10a
100
AcDbEntity
  8
Layer_1
 62
1
100
AcDbSpline
 70
8
 71
3
 72
8
 73
4
 74
0
 40
0
 40
0
 40
0
 40
0
 40
1
 40
1
 40
1
 40
1
 10
35.552159
 20
213.200547
 30
0.0
 10
32.640105
 20
213.200547
 30
0.0
 10
30.014791
 20
211.446368
 30
0.0
 10
28.900396
 20
208.755981
 30
0.0
  0
SPLINE
  5
10b
100
AcDbEntity
  8
Layer_1
 62
1
100
AcDbSpline
 70
8
 71
3
 72
8
 73
4
 74
0
 40
0
 40
0
 40
0
 40
0
 40
1
 40
1
 40
1
 40
1
 10
28.900396
 20
208.755981
 30
0.0
 10
27.786001
 20
206.065593
 30
0.0
 10
28.401987
 20
202.968824
 30
0.0
 10
30.461120
 20
200.909691
 30
0.0
  0
SPLINE
  5
10c
100
AcDbEntity
  8
Layer_1
 62
1
100
AcDbSpline
 70
8
 71
3
 72
8
 73
4
 74
0
 40
0
 40
0
 40
0
 40
0
 40
1
 40
1
 40
1
 40
1
 10
30.461120
 20
200.909691
 30
0.0
 10
32.520253
 20
198.850558
 30
0.0
 10
35.617022
 20
198.234572
 30
0.0
 10
38.307409
 20
199.348967
 30
0.0
  0
SPLINE
  5
10d
100
AcDbEntity
  8
Layer_1
 62
1
100
AcDbSpline
 70
8
 71
3
 72
8
 73
4
 74
0
 40
0
 40
0
 40
0
 40
0
 40
1
 40
1
 40
1
 40
1
 10
38.307409
 20
199.348967
 30
0.0
 10
40.997796
 20
200.463362
 30
0.0
 10
42.751975
 20
203.088676
 30
0.0
 10
42.751975
 20
206.000730
 30
0.0
  0
SPLINE
  5
10e
100
AcDbEntity
  8
Layer_1
 62
1
100
AcDbSpline
 70
8
 71
3
 72
8
 73
4
 74
0
 40
0
 40
0
 40
0
 40
0
 40
1
 40
1
 40
1
 40
1
 10
42.751975
 20
206.000730
 30
0.0
 10
42.751975
 20
209.977079
 30
0.0
 10
39.528508
 20
213.200547
 30
0.0
 10
35.552159
 20
213.200547
 30
0.0
  0
LWPOLYLINE
  5
10f
100
AcDbEntity
  8
Layer_1
 62
1
100
AcDbPolyline
 90
2
 70
0
 10
224.618410
 20
158.577210
 30
0.0
 10
220.893960
 20
158.577210
 30
0.0
  0
SPLINE
  5
110
100
AcDbEntity
  8
Layer_1
 62
1
100
AcDbSpline
 70
8
 71
3
 72
8
 73
4
 74
0
 40
0
 40
0
 40
0
 40
0
 40
1
 40
1
 40
1
 40
1
 10
115.902040
 20
236.366350
 30
0.0
 10
111.074370
 20
230.467290
 30
0.0
 10
108.574810
 20
225.771990
 30
0.0
 10
87.748720
 20
225.685350
 30
0.0
  0
SPLINE
  5
111
100
AcDbEntity
  8
Layer_1
 62
1
100
AcDbSpline
 70
8
 71
3
 72
8
 73
4
 74
0
 40
0
 40
0
 40
0
 40
0
 40
1
 40
1
 40
1
 40
1
 10
87.748720
 20
225.685350
 30
0.0
 10
80.164328
 20
229.726800
 30
0.0
 10
71.702330
 20
231.840789
 30
0.0
 10
63.108360
 20
231.841040
 30
0.0
  0
SPLINE
  5
112
100
AcDbEntity
  8
Layer_1
 62
1
100
AcDbSpline
 70
8
 71
3
 72
8
 73
4
 74
0
 40
0
 40
0
 40
0
 40
0
 40
1
 40
1
 40
1
 40
1
 10
63.108360
 20
231.841040
 30
0.0
 10
34.168700
 20
231.841026
 30
0.0
 10
10.708474
 20
208.380800
 30
0.0
 10
10.708460
 20
179.441140
 30
0.0
  0
SPLINE
  5
113
100
AcDbEntity
  8
Layer_1
 62
1
100
AcDbSpline
 70
8
 71
3
 72
8
 73
4
 74
0
 40
0
 40
0
 40
0
 40
0
 40
1
 40
1
 40
1
 40
1
 10
10.708460
 20
179.441140
 30
0.0
 10
10.708474
 20
150.501480
 30
0.0
 10
34.168700
 20
127.041254
 30
0.0
 10
63.108360
 20
127.041240
 30
0.0
  0
SPLINE
  5
114
100
AcDbEntity
  8
Layer_1
 62
1
100
AcDbSpline
 70
8
 71
3
 72
8
 73
4
 74
0
 40
0
 40
0
 40
0
 40
0
 40
1
 40
1
 40
1
 40
1
 10
63.108360
 20
127.041240
 30
0.0
 10
79.939010
 20
127.054603
 30
0.0
 10
95.738840
 20
135.151669
 30
0.0
 10
105.578630
 20
148.806320
 30
0.0
  0
SPLINE
  5
115
100
AcDbEntity
  8
Layer_1
 62
1
100
AcDbSpline
 70
8
 71
3
 72
8
 73
4
 74
0
 40
0
 40
0
 40
0
 40
0
 40
1
 40
1
 40
1
 40
1
 10
105.578630
 20
148.806320
 30
0.0
 10
150.934690
 20
146.604430
 30
0.0
 10
162.454470
 20
156.818880
 30
0.0
 10
176.369150
 20
164.043110
 30
0.0
  0
SPLINE
  5
116
100
AcDbEntity
  8
Layer_1
 62
1
100
AcDbSpline
 70
8
 71
3
 72
8
 73
4
 74
0
 40
0
 40
0
 40
0
 40
0
 40
1
 40
1
 40
1
 40
1
 10
176.369150
 20
164.043110
 30
0.0
 10
151.271630
 20
184.527210
 30
0.0
 10
127.758830
 20
214.528610
 30
0.0
 10
115.902040
 20
236.366350
 30
0.0
  0
LWPOLYLINE
  5
117
100
AcDbEntity
  8
Layer_1
 62
1
100
AcDbPolyline
 90
1
 70
1
 10
35.552159
 20
213.200547
 30
0.0
  0
SPLINE
  5
118
100
AcDbEntity
  8
Layer_1
 62
1
100
AcDbSpline
 70
8
 71
3
 72
8
 73
4
 74
0
 40
0
 40
0
 40
0
 40
0
 40
1
 40
1
 40
1
 40
1
 10
63.108250
 20
185.610154
 30
0.0
 10
60.620801
 20
185.610154
 30
0.0
 10
58.378283
 20
184.111751
 30
0.0
 10
57.426378
 20
181.813649
 30
0.0
  0
SPLINE
  5
119
100
AcDbEntity
  8
Layer_1
 62
1
100
AcDbSpline
 70
8
 71
3
 72
8
 73
4
 74
0
 40
0
 40
0
 40
0
 40
0
 40
1
 40
1
 40
1
 40
1
 10
57.426378
 20
181.813649
 30
0.0
 10
56.474472
 20
179.515546
 30
0.0
 10
57.000641
 20
176.870315
 30
0.0
 10
58.759533
 20
175.111423
 30
0.0
  0
SPLINE
  5
11a
100
AcDbEntity
  8
Layer_1
 62
1
100
AcDbSpline
 70
8
 71
3
 72
8
 73
4
 74
0
 40
0
 40
0
 40
0
 40
0
 40
1
 40
1
 40
1
 40
1
 10
58.759533
 20
175.111423
 30
0.0
 10
60.518425
 20
173.352531
 30
0.0
 10
63.163656
 20
172.826362
 30
0.0
 10
65.461759
 20
173.778268
 30
0.0
  0
SPLINE
  5
11b
100
AcDbEntity
  8
Layer_1
 62
1
100
AcDbSpline
 70
8
 71
3
 72
8
 73
4
 74
0
 40
0
 40
0
 40
0
 40
0
 40
1
 40
1
 40
1
 40
1
 10
65.461759
 20
173.778268
 30
0.0
 10
67.759861
 20
174.730173
 30
0.0
 10
69.258264
 20
176.972691
 30
0.0
 10
69.258264
 20
179.460140
 30
0.0
  0
SPLINE
  5
11c
100
AcDbEntity
  8
Layer_1
 62
1
100
AcDbSpline
 70
8
 71
3
 72
8
 73
4
 74
0
 40
0
 40
0
 40
0
 40
0
 40
1
 40
1
 40
1
 40
1
 10
69.258264
 20
179.460140
 30
0.0
 10
69.258264
 20
181.091225
 30
0.0
 10
68.610318
 20
182.655505
 30
0.0
 10
67.456967
 20
183.808857
 30
0.0
  0
SPLINE
  5
11d
100
AcDbEntity
  8
Layer_1
 62
1
100
AcDbSpline
 70
8
 71
3
 72
8
 73
4
 74
0
 40
0
 40
0
 40
0
 40
0
 40
1
 40
1
 40
1
 40
1
 10
67.456967
 20
183.808857
 30
0.0
 10
66.303615
 20
184.962208
 30
0.0
 10
64.739335
 20
185.610154
 30
0.0
 10
63.108250
 20
185.610154
 30
0.0
  0
LWPOLYLINE
  5
11e
100
AcDbEntity
  8
Layer_1
 62
1
100
AcDbPolyline
 90
1
 70
1
 10
115.902040
 20
236.366350
 30
0.0
  0
SPLINE
  5
11f
100
AcDbEntity
  8
Layer_1
 62
1
100
AcDbSpline
 70
8
 71
3
 72
8
 73
4
 74
0
 40
0
 40
0
 40
0
 40
0
 40
1
 40
1
 40
1
 40
1
 10
89.665867
 20
159.102037
 30
0.0
 10
86.753813
 20
159.102037
 30
0.0
 10
84.128499
 20
157.347858
 30
0.0
 10
83.014104
 20
154.657471
 30
0.0
  0
SPLINE
  5
120
100
AcDbEntity
  8
Layer_1
 62
1
100
AcDbSpline
 70
8
 71
3
 72
8
 73
4
 74
0
 40
0
 40
0
 40
0
 40
0
 40
1
 40
1
 40
1
 40
1
 10
83.014104
 20
154.657471
 30
0.0
 10
81.899709
 20
151.967083
 30
0.0
 10
82.515695
 20
148.870314
 30
0.0
 10
84.574828
 20
146.811181
 30
0.0
  0
SPLINE
  5
121
100
AcDbEntity
  8
Layer_1
 62
1
100
AcDbSpline
 70
8
 71
3
 72
8
 73
4
 74
0
 40
0
 40
0
 40
0
 40
0
 40
1
 40
1
 40
1
 40
1
 10
84.574828
 20
146.811181
 30
0.0
 10
86.633961
 20
144.752048
 30
0.0
 10
89.730730
 20
144.136062
 30
0.0
 10
92.421117
 20
145.250457
 30
0.0
  0
SPLINE
  5
122
100
AcDbEntity
  8
Layer_1
 62
1
100
AcDbSpline
 70
8
 71
3
 72
8
 73
4
 74
0
 40
0
 40
0
 40
0
 40
0
 40
1
 40
1
 40
1
 40
1
 10
92.421117
 20
145.250457
 30
0.0
 10
95.111504
 20
146.364852
 30
0.0
 10
96.865683
 20
148.990166
 30
0.0
 10
96.865683
 20
151.902220
 30
0.0
  0
SPLINE
  5
123
100
AcDbEntity
  8
Layer_1
 62
1
100
AcDbSpline
 70
8
 71
3
 72
8
 73
4
 74
0
 40
0
 40
0
 40
0
 40
0
 40
1
 40
1
 40
1
 40
1
 10
96.865683
 20
151.902220
 30
0.0
 10
96.865683
 20
155.878569
 30
0.0
 10
93.642216
 20
159.102037
 30
0.0
 10
89.665867
 20
159.102037
 30
0.0
  0
LWPOLYLINE
  5
124
100
AcDbEntity
  8
Layer_1
 62
1
100
AcDbPolyline
 90
1
 70
1
 10
63.108250
 20
185.610154
 30
0.0
  0
SPLINE
  5
125
100
AcDbEntity
  8
Layer_1
 62
1
100
AcDbSpline
 70
8
 71
3
 72
8
 73
4
 74
0
 40
0
 40
0
 40
0
 40
0
 40
1
 40
1
 40
1
 40
1
 10
35.654637
 20
160.100087
 30
0.0
 10
32.742583
 20
160.100087
 30
0.0
 10
30.117269
 20
158.345908
 30
0.0
 10
29.002874
 20
155.655521
 30
0.0
  0
SPLINE
  5
126
100
AcDbEntity
  8
Layer_1
 62
1
100
AcDbSpline
 70
8
 71
3
 72
8
 73
4
 74
0
 40
0
 40
0
 40
0
 40
0
 40
1
 40
1
 40
1
 40
1
 10
29.002874
 20
155.655521
 30
0.0
 10
27.888479
 20
152.965133
 30
0.0
 10
28.504465
 20
149.868364
 30
0.0
 10
30.563598
 20
147.809231
 30
0.0
  0
SPLINE
  5
127
100
AcDbEntity
  8
Layer_1
 62
1
100
AcDbSpline
 70
8
 71
3
 72
8
 73
4
 74
0
 40
0
 40
0
 40
0
 40
0
 40
1
 40
1
 40
1
 40
1
 10
30.563598
 20
147.809231
 30
0.0
 10
32.622731
 20
145.750098
 30
0.0
 10
35.719500
 20
145.134112
 30
0.0
 10
38.409887
 20
146.248507
 30
0.0
  0
SPLINE
  5
128
100
AcDbEntity
  8
Layer_1
 62
1
100
AcDbSpline
 70
8
 71
3
 72
8
 73
4
 74
0
 40
0
 40
0
 40
0
 40
0
 40
1
 40
1
 40
1
 40
1
 10
38.409887
 20
146.248507
 30
0.0
 10
41.100274
 20
147.362902
 30
0.0
 10
42.854453
 20
149.988216
 30
0.0
 10
42.854453
 20
152.900270
 30
0.0
  0
SPLINE
  5
129
100
AcDbEntity
  8
Layer_1
 62
1
100
AcDbSpline
 70
8
 71
3
 72
8
 73
4
 74
0
 40
0
 40
0
 40
0
 40
0
 40
1
 40
1
 40
1
 40
1
 10
42.854453
 20
152.900270
 30
0.0
 10
42.854453
 20
154.809780
 30
0.0
 10
42.095903
 20
156.641082
 30
0.0
 10
40.745676
 20
157.991309
 30
0.0
  0
SPLINE
  5
12a
100
AcDbEntity
  8
Layer_1
 62
1
100
AcDbSpline
 70
8
 71
3
 72
8
 73
4
 74
0
 40
0
 40
0
 40
0
 40
0
 40
1
 40
1
 40
1
 40
1
 10
40.745676
 20
157.991309
 30
0.0
 10
39.395448
 20
159.341537
 30
0.0
 10
37.564147
 20
160.100087
 30
0.0
 10
35.654637
 20
160.100087
 30
0.0
  0
LWPOLYLINE
  5
12b
100
AcDbEntity
  8
Layer_1
 62
1
100
AcDbPolyline
 90
1
 70
1
 10
89.665867
 20
159.102037
 30
0.0
  0
SPLINE
  5
12c
100
AcDbEntity
  8
Layer_1
 62
1
100
AcDbSpline
 70
8
 71
3
 72
8
 73
4
 74
0
 40
0
 40
0
 40
0
 40
0
 40
1
 40
1
 40
1
 40
1
 10
101.460000
 20
186.575977
 30
0.0
 10
98.547946
 20
186.575977
 30
0.0
 10
95.922632
 20
184.821798
 30
0.0
 10
94.808237
 20
182.131411
 30
0.0
  0
SPLINE
  5
12d
100
AcDbEntity
  8
Layer_1
 62
1
100
AcDbSpline
 70
8
 71
3
 72
8
 73
4
 74
0
 40
0
 40
0
 40
0
 40
0
 40
1
 40
1
 40
1
 40
1
 10
94.808237
 20
182.131411
 30
0.0
 10
93.693842
 20
179.441023
 30
0.0
 10
94.309828
 20
176.344254
 30
0.0
 10
96.368961
 20
174.285121
 30
0.0
  0
SPLINE
  5
12e
100
AcDbEntity
  8
Layer_1
 62
1
100
AcDbSpline
 70
8
 71
3
 72
8
 73
4
 74
0
 40
0
 40
0
 40
0
 40
0
 40
1
 40
1
 40
1
 40
1
 10
96.368961
 20
174.285121
 30
0.0
 10
98.428094
 20
172.225988
 30
0.0
 10
101.524863
 20
171.610002
 30
0.0
 10
104.215250
 20
172.724397
 30
0.0
  0
SPLINE
  5
12f
100
AcDbEntity
  8
Layer_1
 62
1
100
AcDbSpline
 70
8
 71
3
 72
8
 73
4
 74
0
 40
0
 40
0
 40
0
 40
0
 40
1
 40
1
 40
1
 40
1
 10
104.215250
 20
172.724397
 30
0.0
 10
106.905637
 20
173.838792
 30
0.0
 10
108.659816
 20
176.464106
 30
0.0
 10
108.659816
 20
179.376160
 30
0.0
  0
SPLINE
  5
130
100
AcDbEntity
  8
Layer_1
 62
1
100
AcDbSpline
 70
8
 71
3
 72
8
 73
4
 74
0
 40
0
 40
0
 40
0
 40
0
 40
1
 40
1
 40
1
 40
1
 10
108.659816
 20
179.376160
 30
0.0
 10
108.659816
 20
183.352509
 30
0.0
 10
105.436349
 20
186.575977
 30
0.0
 10
101.460000
 20
186.575977
 30
0.0
  0
LWPOLYLINE
  5
131
100
AcDbEntity
  8
Layer_1
 62
1
100
AcDbPolyline
 90
1
 70
1
 10
35.654637
 20
160.100087
 30
0.0
  0
SPLINE
  5
132
100
AcDbEntity
  8
Layer_1
 62
1
100
AcDbSpline
 70
8
 71
3
 72
8
 73
4
 74
0
 40
0
 40
0
 40
0
 40
0
 40
1
 40
1
 40
1
 40
1
 10
89.641148
 20
214.267257
 30
0.0
 10
86.729094
 20
214.267257
 30
0.0
 10
84.103780
 20
212.513078
 30
0.0
 10
82.989385
 20
209.822691
 30
0.0
  0
SPLINE
  5
133
100
AcDbEntity
  8
Layer_1
 62
1
100
AcDbSpline
 70
8
 71
3
 72
8
 73
4
 74
0
 40
0
 40
0
 40
0
 40
0
 40
1
 40
1
 40
1
 40
1
 10
82.989385
 20
209.822691
 30
0.0
 10
81.874990
 20
207.132303
 30
0.0
 10
82.490976
 20
204.035534
 30
0.0
 10
84.550109
 20
201.976401
 30
0.0
  0
SPLINE
  5
134
100
AcDbEntity
  8
Layer_1
 62
1
100
AcDbSpline
 70
8
 71
3
 72
8
 73
4
 74
0
 40
0
 40
0
 40
0
 40
0
 40
1
 40
1
 40
1
 40
1
 10
84.550109
 20
201.976401
 30
0.0
 10
86.609242
 20
199.917268
 30
0.0
 10
89.706011
 20
199.301282
 30
0.0
 10
92.396398
 20
200.415677
 30
0.0
  0
SPLINE
  5
135
100
AcDbEntity
  8
Layer_1
 62
1
100
AcDbSpline
 70
8
 71
3
 72
8
 73
4
 74
0
 40
0
 40
0
 40
0
 40
0
 40
1
 40
1
 40
1
 40
1
 10
92.396398
 20
200.415677
 30
0.0
 10
95.086785
 20
201.530072
 30
0.0
 10
96.840964
 20
204.155386
 30
0.0
 10
96.840964
 20
207.067440
 30
0.0
  0
SPLINE
  5
136
100
AcDbEntity
  8
Layer_1
 62
1
100
AcDbSpline
 70
8
 71
3
 72
8
 73
4
 74
0
 40
0
 40
0
 40
0
 40
0
 40
1
 40
1
 40
1
 40
1
 10
96.840964
 20
207.067440
 30
0.0
 10
96.840964
 20
208.976950
 30
0.0
 10
96.082414
 20
210.808252
 30
0.0
 10
94.732187
 20
212.158479
 30
0.0
  0
SPLINE
  5
137
100
AcDbEntity
  8
Layer_1
 62
1
100
AcDbSpline
 70
8
 71
3
 72
8
 73
4
 74
0
 40
0
 40
0
 40
0
 40
0
 40
1
 40
1
 40
1
 40
1
 10
94.732187
 20
212.158479
 30
0.0
 10
93.381959
 20
213.508707
 30
0.0
 10
91.550658
 20
214.267257
 30
0.0
 10
89.641148
 20
214.267257
 30
0.0
  0
LWPOLYLINE
  5
138
100
AcDbEntity
  8
Layer_1
 62
1
100
AcDbPolyline
 90
1
 70
1
 10
101.460000
 20
186.575977
 30
0.0
  0
SPLINE
  5
139
100
AcDbEntity
  8
Layer_1
 62
1
100
AcDbSpline
 70
8
 71
3
 72
8
 73
4
 74
0
 40
0
 40
0
 40
0
 40
0
 40
1
 40
1
 40
1
 40
1
 10
62.952915
 20
224.942277
 30
0.0
 10
60.040861
 20
224.942277
 30
0.0
 10
57.415547
 20
223.188098
 30
0.0
 10
56.301152
 20
220.497711
 30
0.0
  0
SPLINE
  5
13a
100
AcDbEntity
  8
Layer_1
 62
1
100
AcDbSpline
 70
8
 71
3
 72
8
 73
4
 74
0
 40
0
 40
0
 40
0
 40
0
 40
1
 40
1
 40
1
 40
1
 10
56.301152
 20
220.497711
 30
0.0
 10
55.186757
 20
217.807323
 30
0.0
 10
55.802743
 20
214.710554
 30
0.0
 10
57.861876
 20
212.651421
 30
0.0
  0
SPLINE
  5
13b
100
AcDbEntity
  8
Layer_1
 62
1
100
AcDbSpline
 70
8
 71
3
 72
8
 73
4
 74
0
 40
0
 40
0
 40
0
 40
0
 40
1
 40
1
 40
1
 40
1
 10
57.861876
 20
212.651421
 30
0.0
 10
59.921009
 20
210.592288
 30
0.0
 10
63.017778
 20
209.976302
 30
0.0
 10
65.708165
 20
211.090697
 30
0.0
  0
SPLINE
  5
13c
100
AcDbEntity
  8
Layer_1
 62
1
100
AcDbSpline
 70
8
 71
3
 72
8
 73
4
 74
0
 40
0
 40
0
 40
0
 40
0
 40
1
 40
1
 40
1
 40
1
 10
65.708165
 20
211.090697
 30
0.0
 10
68.398552
 20
212.205092
 30
0.0
 10
70.152731
 20
214.830406
 30
0.0
 10
70.152731
 20
217.742460
 30
0.0
  0
SPLINE
  5
13d
100
AcDbEntity
  8
Layer_1
 62
1
100
AcDbSpline
 70
8
 71
3
 72
8
 73
4
 74
0
 40
0
 40
0
 40
0
 40
0
 40
1
 40
1
 40
1
 40
1
 10
70.152731
 20
217.742460
 30
0.0
 10
70.152731
 20
219.651970
 30
0.0
 10
69.394181
 20
221.483272
 30
0.0
 10
68.043954
 20
222.833499
 30
0.0
  0
SPLINE
  5
13e
100
AcDbEntity
  8
Layer_1
 62
1
100
AcDbSpline
 70
8
 71
3
 72
8
 73
4
 74
0
 40
0
 40
0
 40
0
 40
0
 40
1
 40
1
 40
1
 40
1
 10
68.043954
 20
222.833499
 30
0.0
 10
66.693726
 20
224.183727
 30
0.0
 10
64.862425
 20
224.942277
 30
0.0
 10
62.952915
 20
224.942277
 30
0.0
  0
LWPOLYLINE
  5
13f
100
AcDbEntity
  8
Layer_1
 62
1
100
AcDbPolyline
 90
1
 70
1
 10
89.641148
 20
214.267257
 30
0.0
  0
SPLINE
  5
140
100
AcDbEntity
  8
Layer_1
 62
1
100
AcDbSpline
 70
8
 71
3
 72
8
 73
4
 74
0
 40
0
 40
0
 40
0
 40
0
 40
1
 40
1
 40
1
 40
1
 10
24.860447
 20
186.631887
 30
0.0
 10
21.948393
 20
186.631887
 30
0.0
 10
19.323079
 20
184.877708
 30
0.0
 10
18.208684
 20
182.187321
 30
0.0
  0
SPLINE
  5
141
100
AcDbEntity
  8
Layer_1
 62
1
100
AcDbSpline
 70
8
 71
3
 72
8
 73
4
 74
0
 40
0
 40
0
 40
0
 40
0
 40
1
 40
1
 40
1
 40
1
 10
18.208684
 20
182.187321
 30
0.0
 10
17.094289
 20
179.496933
 30
0.0
 10
17.710275
 20
176.400164
 30
0.0
 10
19.769408
 20
174.341031
 30
0.0
  0
SPLINE
  5
142
100
AcDbEntity
  8
Layer_1
 62
1
100
AcDbSpline
 70
8
 71
3
 72
8
 73
4
 74
0
 40
0
 40
0
 40
0
 40
0
 40
1
 40
1
 40
1
 40
1
 10
19.769408
 20
174.341031
 30
0.0
 10
21.828541
 20
172.281898
 30
0.0
 10
24.925310
 20
171.665912
 30
0.0
 10
27.615697
 20
172.780307
 30
0.0
  0
SPLINE
  5
143
100
AcDbEntity
  8
Layer_1
 62
1
100
AcDbSpline
 70
8
 71
3
 72
8
 73
4
 74
0
 40
0
 40
0
 40
0
 40
0
 40
1
 40
1
 40
1
 40
1
 10
27.615697
 20
172.780307
 30
0.0
 10
30.306084
 20
173.894702
 30
0.0
 10
32.060263
 20
176.520016
 30
0.0
 10
32.060263
 20
179.432070
 30
0.0
  0
SPLINE
  5
144
100
AcDbEntity
  8
Layer_1
 62
1
100
AcDbSpline
 70
8
 71
3
 72
8
 73
4
 74
0
 40
0
 40
0
 40
0
 40
0
 40
1
 40
1
 40
1
 40
1
 10
32.060263
 20
179.432070
 30
0.0
 10
32.060263
 20
181.341580
 30
0.0
 10
31.301713
 20
183.172882
 30
0.0
 10
29.951486
 20
184.523109
 30
0.0
  0
SPLINE
  5
145
100
AcDbEntity
  8
Layer_1
 62
1
100
AcDbSpline
 70
8
 71
3
 72
8
 73
4
 74
0
 40
0
 40
0
 40
0
 40
0
 40
1
 40
1
 40
1
 40
1
 10
29.951486
 20
184.523109
 30
0.0
 10
28.601258
 20
185.873337
 30
0.0
 10
26.769957
 20
186.631887
 30
0.0
 10
24.860447
 20
186.631887
 30
0.0
  0
LWPOLYLINE
  5
146
100
AcDbEntity
  8
Layer_1
 62
1
100
AcDbPolyline
 90
1
 70
1
 10
62.952915
 20
224.942277
 30
0.0
  0
SPLINE
  5
147
100
AcDbEntity
  8
Layer_1
 62
1
100
AcDbSpline
 70
8
 71
3
 72
8
 73
4
 74
0
 40
0
 40
0
 40
0
 40
0
 40
1
 40
1
 40
1
 40
1
 10
62.789951
 20
148.383657
 30
0.0
 10
59.877897
 20
148.383657
 30
0.0
 10
57.252583
 20
146.629478
 30
0.0
 10
56.138188
 20
143.939091
 30
0.0
  0
SPLINE
  5
148
100
AcDbEntity
  8
Layer_1
 62
1
100
AcDbSpline
 70
8
 71
3
 72
8
 73
4
 74
0
 40
0
 40
0
 40
0
 40
0
 40
1
 40
1
 40
1
 40
1
 10
56.138188
 20
143.939091
 30
0.0
 10
55.023793
 20
141.248703
 30
0.0
 10
55.639779
 20
138.151934
 30
0.0
 10
57.698912
 20
136.092801
 30
0.0
  0
SPLINE
  5
149
100
AcDbEntity
  8
Layer_1
 62
1
100
AcDbSpline
 70
8
 71
3
 72
8
 73
4
 74
0
 40
0
 40
0
 40
0
 40
0
 40
1
 40
1
 40
1
 40
1
 10
57.698912
 20
136.092801
 30
0.0
 10
59.758045
 20
134.033668
 30
0.0
 10
62.854814
 20
133.417682
 30
0.0
 10
65.545201
 20
134.532077
 30
0.0
  0
SPLINE
  5
14a
100
AcDbEntity
  8
Layer_1
 62
1
100
AcDbSpline
 70
8
 71
3
 72
8
 73
4
 74
0
 40
0
 40
0
 40
0
 40
0
 40
1
 40
1
 40
1
 40
1
 10
65.545201
 20
134.532077
 30
0.0
 10
68.235588
 20
135.646472
 30
0.0
 10
69.989767
 20
138.271786
 30
0.0
 10
69.989767
 20
141.183840
 30
0.0
  0
SPLINE
  5
14b
100
AcDbEntity
  8
Layer_1
 62
1
100
AcDbSpline
 70
8
 71
3
 72
8
 73
4
 74
0
 40
0
 40
0
 40
0
 40
0
 40
1
 40
1
 40
1
 40
1
 10
69.989767
 20
141.183840
 30
0.0
 10
69.989767
 20
143.093350
 30
0.0
 10
69.231217
 20
144.924652
 30
0.0
 10
67.880990
 20
146.274879
 30
0.0
  0
SPLINE
  5
14c
100
AcDbEntity
  8
Layer_1
 62
1
100
AcDbSpline
 70
8
 71
3
 72
8
 73
4
 74
0
 40
0
 40
0
 40
0
 40
0
 40
1
 40
1
 40
1
 40
1
 10
67.880990
 20
146.274879
 30
0.0
 10
66.530762
 20
147.625107
 30
0.0
 10
64.699461
 20
148.383657
 30
0.0
 10
62.789951
 20
148.383657
 30
0.0
  0
LWPOLYLINE
  5
14d
100
AcDbEntity
  8
Layer_1
 62
1
100
AcDbPolyline
 90
1
 70
1
 10
24.860447
 20
186.631887
 30
0.0
  0
SPLINE
  5
14e
100
AcDbEntity
  8
Layer_1
 62
1
100
AcDbSpline
 70
8
 71
3
 72
8
 73
4
 74
0
 40
0
 40
0
 40
0
 40
0
 40
1
 40
1
 40
1
 40
1
 10
121.429070
 20
196.882820
 30
0.0
 10
121.270270
 20
196.813020
 30
0.0
 10
121.038550
 20
196.556800
 30
0.0
 10
121.365470
 20
196.148740
 30
0.0
  0
SPLINE
  5
14f
100
AcDbEntity
  8
Layer_1
 62
1
100
AcDbSpline
 70
8
 71
3
 72
8
 73
4
 74
0
 40
0
 40
0
 40
0
 40
0
 40
1
 40
1
 40
1
 40
1
 10
121.365470
 20
196.148740
 30
0.0
 10
127.685790
 20
188.259240
 30
0.0
 10
127.682470
 20
177.256700
 30
0.0
 10
128.795630
 20
168.244630
 30
0.0
  0
SPLINE
  5
150
100
AcDbEntity
  8
Layer_1
 62
1
100
AcDbSpline
 70
8
 71
3
 72
8
 73
4
 74
0
 40
0
 40
0
 40
0
 40
0
 40
1
 40
1
 40
1
 40
1
 10
128.795630
 20
168.244630
 30
0.0
 10
140.479730
 20
167.049560
 30
0.0
 10
142.858290
 20
168.934840
 30
0.0
 10
147.476870
 20
171.124750
 30
0.0
  0
SPLINE
  5
151
100
AcDbEntity
  8
Layer_1
 62
1
100
AcDbSpline
 70
8
 71
3
 72
8
 73
4
 74
0
 40
0
 40
0
 40
0
 40
0
 40
1
 40
1
 40
1
 40
1
 10
147.476870
 20
171.124750
 30
0.0
 10
139.521780
 20
177.722400
 30
0.0
 10
132.109510
 20
189.985420
 30
0.0
 10
123.918240
 20
197.300620
 30
0.0
  0
SPLINE
  5
152
100
AcDbEntity
  8
Layer_1
 62
1
100
AcDbSpline
 70
8
 71
3
 72
8
 73
4
 74
0
 40
0
 40
0
 40
0
 40
0
 40
1
 40
1
 40
1
 40
1
 10
123.918240
 20
197.300620
 30
0.0
 10
122.872620
 20
198.234410
 30
0.0
 10
123.085280
 20
197.418040
 30
0.0
 10
121.429090
 20
196.882820
 30
0.0
  0
LWPOLYLINE
  5
153
100
AcDbEntity
  8
Layer_1
 62
1
100
AcDbPolyline
 90
1
 70
1
 10
62.789951
 20
148.383657
 30
0.0
  0
SPLINE
  5
154
100
AcDbEntity
  8
Layer_1
 62
1
100
AcDbSpline
 70
8
 71
3
 72
8
 73
4
 74
0
 40
0
 40
0
 40
0
 40
0
 40
1
 40
1
 40
1
 40
1
 10
227.400408
 20
342.730995
 30
0.0
 10
222.283922
 20
342.730995
 30
0.0
 10
217.671239
 20
339.648898
 30
0.0
 10
215.713244
 20
334.921882
 30
0.0
  0
SPLINE
  5
155
100
AcDbEntity
  8
Layer_1
 62
1
100
AcDbSpline
 70
8
 71
3
 72
8
 73
4
 74
0
 40
0
 40
0
 40
0
 40
0
 40
1
 40
1
 40
1
 40
1
 10
215.713244
 20
334.921882
 30
0.0
 10
213.755250
 20
330.194865
 30
0.0
 10
214.837538
 20
324.753834
 30
0.0
 10
218.455440
 20
321.135932
 30
0.0
  0
SPLINE
  5
156
100
AcDbEntity
  8
Layer_1
 62
1
100
AcDbSpline
 70
8
 71
3
 72
8
 73
4
 74
0
 40
0
 40
0
 40
0
 40
0
 40
1
 40
1
 40
1
 40
1
 10
218.455440
 20
321.135932
 30
0.0
 10
222.073342
 20
317.518030
 30
0.0
 10
227.514373
 20
316.435742
 30
0.0
 10
232.241390
 20
318.393736
 30
0.0
  0
SPLINE
  5
157
100
AcDbEntity
  8
Layer_1
 62
1
100
AcDbSpline
 70
8
 71
3
 72
8
 73
4
 74
0
 40
0
 40
0
 40
0
 40
0
 40
1
 40
1
 40
1
 40
1
 10
232.241390
 20
318.393736
 30
0.0
 10
236.968406
 20
320.351731
 30
0.0
 10
240.050503
 20
324.964414
 30
0.0
 10
240.050503
 20
330.080900
 30
0.0
  0
SPLINE
  5
158
100
AcDbEntity
  8
Layer_1
 62
1
100
AcDbSpline
 70
8
 71
3
 72
8
 73
4
 74
0
 40
0
 40
0
 40
0
 40
0
 40
1
 40
1
 40
1
 40
1
 10
240.050503
 20
330.080900
 30
0.0
 10
240.050503
 20
337.067355
 30
0.0
 10
234.386863
 20
342.730995
 30
0.0
 10
227.400408
 20
342.730995
 30
0.0
  0
LWPOLYLINE
  5
159
100
AcDbEntity
  8
Layer_1
 62
1
100
AcDbPolyline
 90
1
 70
1
 10
121.429090
 20
196.882820
 30
0.0
  0
SPLINE
  5
15a
100
AcDbEntity
  8
Layer_1
 62
1
100
AcDbSpline
 70
8
 71
3
 72
8
 73
4
 74
0
 40
0
 40
0
 40
0
 40
0
 40
1
 40
1
 40
1
 40
1
 10
227.247271
 20
337.126659
 30
0.0
 10
224.355228
 20
337.126659
 30
0.0
 10
221.747953
 20
335.372396
 30
0.0
 10
220.641216
 20
332.681881
 30
0.0
  0
SPLINE
  5
15b
100
AcDbEntity
  8
Layer_1
 62
1
100
AcDbSpline
 70
8
 71
3
 72
8
 73
4
 74
0
 40
0
 40
0
 40
0
 40
0
 40
1
 40
1
 40
1
 40
1
 10
220.641216
 20
332.681881
 30
0.0
 10
219.534479
 20
329.991367
 30
0.0
 10
220.146232
 20
326.894450
 30
0.0
 10
222.191216
 20
324.835219
 30
0.0
  0
SPLINE
  5
15c
100
AcDbEntity
  8
Layer_1
 62
1
100
AcDbSpline
 70
8
 71
3
 72
8
 73
4
 74
0
 40
0
 40
0
 40
0
 40
0
 40
1
 40
1
 40
1
 40
1
 10
222.191216
 20
324.835219
 30
0.0
 10
224.236199
 20
322.775988
 30
0.0
 10
227.311689
 20
322.159973
 30
0.0
 10
229.983588
 20
323.274421
 30
0.0
  0
SPLINE
  5
15d
100
AcDbEntity
  8
Layer_1
 62
1
100
AcDbSpline
 70
8
 71
3
 72
8
 73
4
 74
0
 40
0
 40
0
 40
0
 40
0
 40
1
 40
1
 40
1
 40
1
 10
229.983588
 20
323.274421
 30
0.0
 10
232.655488
 20
324.388869
 30
0.0
 10
234.397613
 20
327.014308
 30
0.0
 10
234.397613
 20
329.926500
 30
0.0
  0
SPLINE
  5
15e
100
AcDbEntity
  8
Layer_1
 62
1
100
AcDbSpline
 70
8
 71
3
 72
8
 73
4
 74
0
 40
0
 40
0
 40
0
 40
0
 40
1
 40
1
 40
1
 40
1
 10
234.397613
 20
329.926500
 30
0.0
 10
234.397613
 20
331.836101
 30
0.0
 10
233.644276
 20
333.667489
 30
0.0
 10
232.303326
 20
335.017781
 30
0.0
  0
SPLINE
  5
15f
100
AcDbEntity
  8
Layer_1
 62
1
100
AcDbSpline
 70
8
 71
3
 72
8
 73
4
 74
0
 40
0
 40
0
 40
0
 40
0
 40
1
 40
1
 40
1
 40
1
 10
232.303326
 20
335.017781
 30
0.0
 10
230.962377
 20
336.368073
 30
0.0
 10
229.143660
 20
337.126659
 30
0.0
 10
227.247271
 20
337.126659
 30
0.0
  0
LWPOLYLINE
  5
160
100
AcDbEntity
  8
Layer_1
 62
1
100
AcDbPolyline
 90
1
 70
1
 10
227.400408
 20
342.730995
 30
0.0
  0
SPLINE
  5
161
100
AcDbEntity
  8
Layer_1
 62
1
100
AcDbSpline
 70
8
 71
3
 72
8
 73
4
 74
0
 40
0
 40
0
 40
0
 40
0
 40
1
 40
1
 40
1
 40
1
 10
197.095408
 20
343.261995
 30
0.0
 10
191.978922
 20
343.261995
 30
0.0
 10
187.366239
 20
340.179898
 30
0.0
 10
185.408244
 20
335.452882
 30
0.0
  0
SPLINE
  5
162
100
AcDbEntity
  8
Layer_1
 62
1
100
AcDbSpline
 70
8
 71
3
 72
8
 73
4
 74
0
 40
0
 40
0
 40
0
 40
0
 40
1
 40
1
 40
1
 40
1
 10
185.408244
 20
335.452882
 30
0.0
 10
183.450250
 20
330.725865
 30
0.0
 10
184.532538
 20
325.284834
 30
0.0
 10
188.150440
 20
321.666932
 30
0.0
  0
SPLINE
  5
163
100
AcDbEntity
  8
Layer_1
 62
1
100
AcDbSpline
 70
8
 71
3
 72
8
 73
4
 74
0
 40
0
 40
0
 40
0
 40
0
 40
1
 40
1
 40
1
 40
1
 10
188.150440
 20
321.666932
 30
0.0
 10
191.768342
 20
318.049030
 30
0.0
 10
197.209373
 20
316.966742
 30
0.0
 10
201.936390
 20
318.924736
 30
0.0
  0
SPLINE
  5
164
100
AcDbEntity
  8
Layer_1
 62
1
100
AcDbSpline
 70
8
 71
3
 72
8
 73
4
 74
0
 40
0
 40
0
 40
0
 40
0
 40
1
 40
1
 40
1
 40
1
 10
201.936390
 20
318.924736
 30
0.0
 10
206.663406
 20
320.882731
 30
0.0
 10
209.745503
 20
325.495414
 30
0.0
 10
209.745503
 20
330.611900
 30
0.0
  0
SPLINE
  5
165
100
AcDbEntity
  8
Layer_1
 62
1
100
AcDbSpline
 70
8
 71
3
 72
8
 73
4
 74
0
 40
0
 40
0
 40
0
 40
0
 40
1
 40
1
 40
1
 40
1
 10
209.745503
 20
330.611900
 30
0.0
 10
209.745503
 20
337.598355
 30
0.0
 10
204.081863
 20
343.261995
 30
0.0
 10
197.095408
 20
343.261995
 30
0.0
  0
LWPOLYLINE
  5
166
100
AcDbEntity
  8
Layer_1
 62
1
100
AcDbPolyline
 90
1
 70
1
 10
227.247271
 20
337.126659
 30
0.0
  0
SPLINE
  5
167
100
AcDbEntity
  8
Layer_1
 62
1
100
AcDbSpline
 70
8
 71
3
 72
8
 73
4
 74
0
 40
0
 40
0
 40
0
 40
0
 40
1
 40
1
 40
1
 40
1
 10
196.942271
 20
337.657659
 30
0.0
 10
194.050228
 20
337.657659
 30
0.0
 10
191.442953
 20
335.903396
 30
0.0
 10
190.336216
 20
333.212881
 30
0.0
  0
SPLINE
  5
168
100
AcDbEntity
  8
Layer_1
 62
1
100
AcDbSpline
 70
8
 71
3
 72
8
 73
4
 74
0
 40
0
 40
0
 40
0
 40
0
 40
1
 40
1
 40
1
 40
1
 10
190.336216
 20
333.212881
 30
0.0
 10
189.229479
 20
330.522367
 30
0.0
 10
189.841232
 20
327.425450
 30
0.0
 10
191.886216
 20
325.366219
 30
0.0
  0
SPLINE
  5
169
100
AcDbEntity
  8
Layer_1
 62
1
100
AcDbSpline
 70
8
 71
3
 72
8
 73
4
 74
0
 40
0
 40
0
 40
0
 40
0
 40
1
 40
1
 40
1
 40
1
 10
191.886216
 20
325.366219
 30
0.0
 10
193.931199
 20
323.306988
 30
0.0
 10
197.006689
 20
322.690973
 30
0.0
 10
199.678588
 20
323.805421
 30
0.0
  0
SPLINE
  5
16a
100
AcDbEntity
  8
Layer_1
 62
1
100
AcDbSpline
 70
8
 71
3
 72
8
 73
4
 74
0
 40
0
 40
0
 40
0
 40
0
 40
1
 40
1
 40
1
 40
1
 10
199.678588
 20
323.805421
 30
0.0
 10
202.350488
 20
324.919869
 30
0.0
 10
204.092613
 20
327.545308
 30
0.0
 10
204.092613
 20
330.457500
 30
0.0
  0
SPLINE
  5
16b
100
AcDbEntity
  8
Layer_1
 62
1
100
AcDbSpline
 70
8
 71
3
 72
8
 73
4
 74
0
 40
0
 40
0
 40
0
 40
0
 40
1
 40
1
 40
1
 40
1
 10
204.092613
 20
330.457500
 30
0.0
 10
204.092613
 20
332.367101
 30
0.0
 10
203.339276
 20
334.198489
 30
0.0
 10
201.998326
 20
335.548781
 30
0.0
  0
SPLINE
  5
16c
100
AcDbEntity
  8
Layer_1
 62
1
100
AcDbSpline
 70
8
 71
3
 72
8
 73
4
 74
0
 40
0
 40
0
 40
0
 40
0
 40
1
 40
1
 40
1
 40
1
 10
201.998326
 20
335.548781
 30
0.0
 10
200.657377
 20
336.899073
 30
0.0
 10
198.838660
 20
337.657659
 30
0.0
 10
196.942271
 20
337.657659
 30
0.0
  0
LWPOLYLINE
  5
16d
100
AcDbEntity
  8
Layer_1
 62
1
100
AcDbPolyline
 90
1
 70
1
 10
197.095408
 20
343.261995
 30
0.0
  0
SPLINE
  5
16e
100
AcDbEntity
  8
Layer_1
 62
1
100
AcDbSpline
 70
8
 71
3
 72
8
 73
4
 74
0
 40
0
 40
0
 40
0
 40
0
 40
1
 40
1
 40
1
 40
1
 10
26.530860
 20
322.792857
 30
0.0
 10
23.618806
 20
322.792857
 30
0.0
 10
20.993492
 20
321.038678
 30
0.0
 10
19.879097
 20
318.348291
 30
0.0
  0
SPLINE
  5
16f
100
AcDbEntity
  8
Layer_1
 62
1
100
AcDbSpline
 70
8
 71
3
 72
8
 73
4
 74
0
 40
0
 40
0
 40
0
 40
0
 40
1
 40
1
 40
1
 40
1
 10
19.879097
 20
318.348291
 30
0.0
 10
18.764702
 20
315.657903
 30
0.0
 10
19.380688
 20
312.561134
 30
0.0
 10
21.439821
 20
310.502001
 30
0.0
  0
SPLINE
  5
170
100
AcDbEntity
  8
Layer_1
 62
1
100
AcDbSpline
 70
8
 71
3
 72
8
 73
4
 74
0
 40
0
 40
0
 40
0
 40
0
 40
1
 40
1
 40
1
 40
1
 10
21.439821
 20
310.502001
 30
0.0
 10
23.498954
 20
308.442868
 30
0.0
 10
26.595723
 20
307.826882
 30
0.0
 10
29.286110
 20
308.941277
 30
0.0
  0
SPLINE
  5
171
100
AcDbEntity
  8
Layer_1
 62
1
100
AcDbSpline
 70
8
 71
3
 72
8
 73
4
 74
0
 40
0
 40
0
 40
0
 40
0
 40
1
 40
1
 40
1
 40
1
 10
29.286110
 20
308.941277
 30
0.0
 10
31.976497
 20
310.055672
 30
0.0
 10
33.730676
 20
312.680986
 30
0.0
 10
33.730676
 20
315.593040
 30
0.0
  0
SPLINE
  5
172
100
AcDbEntity
  8
Layer_1
 62
1
100
AcDbSpline
 70
8
 71
3
 72
8
 73
4
 74
0
 40
0
 40
0
 40
0
 40
0
 40
1
 40
1
 40
1
 40
1
 10
33.730676
 20
315.593040
 30
0.0
 10
33.730676
 20
317.502550
 30
0.0
 10
32.972126
 20
319.333852
 30
0.0
 10
31.621899
 20
320.684079
 30
0.0
  0
SPLINE
  5
173
100
AcDbEntity
  8
Layer_1
 62
1
100
AcDbSpline
 70
8
 71
3
 72
8
 73
4
 74
0
 40
0
 40
0
 40
0
 40
0
 40
1
 40
1
 40
1
 40
1
 10
31.621899
 20
320.684079
 30
0.0
 10
30.271671
 20
322.034307
 30
0.0
 10
28.440370
 20
322.792857
 30
0.0
 10
26.530860
 20
322.792857
 30
0.0
  0
LWPOLYLINE
  5
174
100
AcDbEntity
  8
Layer_1
 62
1
100
AcDbPolyline
 90
1
 70
1
 10
196.942271
 20
337.657659
 30
0.0
  0
SPLINE
  5
175
100
AcDbEntity
  8
Layer_1
 62
1
100
AcDbSpline
 70
8
 71
3
 72
8
 73
4
 74
0
 40
0
 40
0
 40
0
 40
0
 40
1
 40
1
 40
1
 40
1
 10
106.880740
 20
345.958650
 30
0.0
 10
102.053070
 20
340.059590
 30
0.0
 10
99.553510
 20
335.364290
 30
0.0
 10
78.727420
 20
335.277650
 30
0.0
  0
SPLINE
  5
176
100
AcDbEntity
  8
Layer_1
 62
1
100
AcDbSpline
 70
8
 71
3
 72
8
 73
4
 74
0
 40
0
 40
0
 40
0
 40
0
 40
1
 40
1
 40
1
 40
1
 10
78.727420
 20
335.277650
 30
0.0
 10
71.143028
 20
339.319100
 30
0.0
 10
62.681030
 20
341.433089
 30
0.0
 10
54.087060
 20
341.433340
 30
0.0
  0
SPLINE
  5
177
100
AcDbEntity
  8
Layer_1
 62
1
100
AcDbSpline
 70
8
 71
3
 72
8
 73
4
 74
0
 40
0
 40
0
 40
0
 40
0
 40
1
 40
1
 40
1
 40
1
 10
54.087060
 20
341.433340
 30
0.0
 10
25.147400
 20
341.433326
 30
0.0
 10
1.687174
 20
317.973100
 30
0.0
 10
1.687160
 20
289.033440
 30
0.0
  0
SPLINE
  5
178
100
AcDbEntity
  8
Layer_1
 62
1
100
AcDbSpline
 70
8
 71
3
 72
8
 73
4
 74
0
 40
0
 40
0
 40
0
 40
0
 40
1
 40
1
 40
1
 40
1
 10
1.687160
 20
289.033440
 30
0.0
 10
1.687174
 20
260.093780
 30
0.0
 10
25.147400
 20
236.633554
 30
0.0
 10
54.087060
 20
236.633540
 30
0.0
  0
SPLINE
  5
179
100
AcDbEntity
  8
Layer_1
 62
1
100
AcDbSpline
 70
8
 71
3
 72
8
 73
4
 74
0
 40
0
 40
0
 40
0
 40
0
 40
1
 40
1
 40
1
 40
1
 10
54.087060
 20
236.633540
 30
0.0
 10
70.917710
 20
236.646903
 30
0.0
 10
86.717540
 20
244.743969
 30
0.0
 10
96.557330
 20
258.398620
 30
0.0
  0
SPLINE
  5
17a
100
AcDbEntity
  8
Layer_1
 62
1
100
AcDbSpline
 70
8
 71
3
 72
8
 73
4
 74
0
 40
0
 40
0
 40
0
 40
0
 40
1
 40
1
 40
1
 40
1
 10
96.557330
 20
258.398620
 30
0.0
 10
141.913390
 20
256.196730
 30
0.0
 10
153.433170
 20
266.411180
 30
0.0
 10
167.347850
 20
273.635410
 30
0.0
  0
SPLINE
  5
17b
100
AcDbEntity
  8
Layer_1
 62
1
100
AcDbSpline
 70
8
 71
3
 72
8
 73
4
 74
0
 40
0
 40
0
 40
0
 40
0
 40
1
 40
1
 40
1
 40
1
 10
167.347850
 20
273.635410
 30
0.0
 10
142.250330
 20
294.119510
 30
0.0
 10
118.737530
 20
324.120910
 30
0.0
 10
106.880740
 20
345.958650
 30
0.0
  0
LWPOLYLINE
  5
17c
100
AcDbEntity
  8
Layer_1
 62
1
100
AcDbPolyline
 90
1
 70
1
 10
26.530860
 20
322.792857
 30
0.0
  0
SPLINE
  5
17d
100
AcDbEntity
  8
Layer_1
 62
1
100
AcDbSpline
 70
8
 71
3
 72
8
 73
4
 74
0
 40
0
 40
0
 40
0
 40
0
 40
1
 40
1
 40
1
 40
1
 10
54.086950
 20
295.202464
 30
0.0
 10
51.599501
 20
295.202464
 30
0.0
 10
49.356983
 20
293.704061
 30
0.0
 10
48.405078
 20
291.405959
 30
0.0
  0
SPLINE
  5
17e
100
AcDbEntity
  8
Layer_1
 62
1
100
AcDbSpline
 70
8
 71
3
 72
8
 73
4
 74
0
 40
0
 40
0
 40
0
 40
0
 40
1
 40
1
 40
1
 40
1
 10
48.405078
 20
291.405959
 30
0.0
 10
47.453172
 20
289.107856
 30
0.0
 10
47.979341
 20
286.462625
 30
0.0
 10
49.738233
 20
284.703733
 30
0.0
  0
SPLINE
  5
17f
100
AcDbEntity
  8
Layer_1
 62
1
100
AcDbSpline
 70
8
 71
3
 72
8
 73
4
 74
0
 40
0
 40
0
 40
0
 40
0
 40
1
 40
1
 40
1
 40
1
 10
49.738233
 20
284.703733
 30
0.0
 10
51.497125
 20
282.944841
 30
0.0
 10
54.142356
 20
282.418672
 30
0.0
 10
56.440459
 20
283.370578
 30
0.0
  0
SPLINE
  5
180
100
AcDbEntity
  8
Layer_1
 62
1
100
AcDbSpline
 70
8
 71
3
 72
8
 73
4
 74
0
 40
0
 40
0
 40
0
 40
0
 40
1
 40
1
 40
1
 40
1
 10
56.440459
 20
283.370578
 30
0.0
 10
58.738561
 20
284.322483
 30
0.0
 10
60.236964
 20
286.565001
 30
0.0
 10
60.236964
 20
289.052450
 30
0.0
  0
SPLINE
  5
181
100
AcDbEntity
  8
Layer_1
 62
1
100
AcDbSpline
 70
8
 71
3
 72
8
 73
4
 74
0
 40
0
 40
0
 40
0
 40
0
 40
1
 40
1
 40
1
 40
1
 10
60.236964
 20
289.052450
 30
0.0
 10
60.236964
 20
290.683535
 30
0.0
 10
59.589018
 20
292.247815
 30
0.0
 10
58.435667
 20
293.401167
 30
0.0
  0
SPLINE
  5
182
100
AcDbEntity
  8
Layer_1
 62
1
100
AcDbSpline
 70
8
 71
3
 72
8
 73
4
 74
0
 40
0
 40
0
 40
0
 40
0
 40
1
 40
1
 40
1
 40
1
 10
58.435667
 20
293.401167
 30
0.0
 10
57.282315
 20
294.554518
 30
0.0
 10
55.718035
 20
295.202464
 30
0.0
 10
54.086950
 20
295.202464
 30
0.0
  0
LWPOLYLINE
  5
183
100
AcDbEntity
  8
Layer_1
 62
1
100
AcDbPolyline
 90
1
 70
1
 10
106.880740
 20
345.958650
 30
0.0
  0
SPLINE
  5
184
100
AcDbEntity
  8
Layer_1
 62
1
100
AcDbSpline
 70
8
 71
3
 72
8
 73
4
 74
0
 40
0
 40
0
 40
0
 40
0
 40
1
 40
1
 40
1
 40
1
 10
80.644570
 20
268.694347
 30
0.0
 10
77.732516
 20
268.694347
 30
0.0
 10
75.107202
 20
266.940168
 30
0.0
 10
73.992807
 20
264.249781
 30
0.0
  0
SPLINE
  5
185
100
AcDbEntity
  8
Layer_1
 62
1
100
AcDbSpline
 70
8
 71
3
 72
8
 73
4
 74
0
 40
0
 40
0
 40
0
 40
0
 40
1
 40
1
 40
1
 40
1
 10
73.992807
 20
264.249781
 30
0.0
 10
72.878412
 20
261.559393
 30
0.0
 10
73.494398
 20
258.462624
 30
0.0
 10
75.553531
 20
256.403491
 30
0.0
  0
SPLINE
  5
186
100
AcDbEntity
  8
Layer_1
 62
1
100
AcDbSpline
 70
8
 71
3
 72
8
 73
4
 74
0
 40
0
 40
0
 40
0
 40
0
 40
1
 40
1
 40
1
 40
1
 10
75.553531
 20
256.403491
 30
0.0
 10
77.612664
 20
254.344358
 30
0.0
 10
80.709433
 20
253.728372
 30
0.0
 10
83.399820
 20
254.842767
 30
0.0
  0
SPLINE
  5
187
100
AcDbEntity
  8
Layer_1
 62
1
100
AcDbSpline
 70
8
 71
3
 72
8
 73
4
 74
0
 40
0
 40
0
 40
0
 40
0
 40
1
 40
1
 40
1
 40
1
 10
83.399820
 20
254.842767
 30
0.0
 10
86.090207
 20
255.957162
 30
0.0
 10
87.844386
 20
258.582476
 30
0.0
 10
87.844386
 20
261.494530
 30
0.0
  0
SPLINE
  5
188
100
AcDbEntity
  8
Layer_1
 62
1
100
AcDbSpline
 70
8
 71
3
 72
8
 73
4
 74
0
 40
0
 40
0
 40
0
 40
0
 40
1
 40
1
 40
1
 40
1
 10
87.844386
 20
261.494530
 30
0.0
 10
87.844386
 20
263.404040
 30
0.0
 10
87.085836
 20
265.235342
 30
0.0
 10
85.735609
 20
266.585569
 30
0.0
  0
SPLINE
  5
189
100
AcDbEntity
  8
Layer_1
 62
1
100
AcDbSpline
 70
8
 71
3
 72
8
 73
4
 74
0
 40
0
 40
0
 40
0
 40
0
 40
1
 40
1
 40
1
 40
1
 10
85.735609
 20
266.585569
 30
0.0
 10
84.385381
 20
267.935797
 30
0.0
 10
82.554080
 20
268.694347
 30
0.0
 10
80.644570
 20
268.694347
 30
0.0
  0
LWPOLYLINE
  5
18a
100
AcDbEntity
  8
Layer_1
 62
1
100
AcDbPolyline
 90
1
 70
1
 10
54.086950
 20
295.202464
 30
0.0
  0
SPLINE
  5
18b
100
AcDbEntity
  8
Layer_1
 62
1
100
AcDbSpline
 70
8
 71
3
 72
8
 73
4
 74
0
 40
0
 40
0
 40
0
 40
0
 40
1
 40
1
 40
1
 40
1
 10
26.633340
 20
269.692387
 30
0.0
 10
23.721286
 20
269.692387
 30
0.0
 10
21.095972
 20
267.938208
 30
0.0
 10
19.981577
 20
265.247821
 30
0.0
  0
SPLINE
  5
18c
100
AcDbEntity
  8
Layer_1
 62
1
100
AcDbSpline
 70
8
 71
3
 72
8
 73
4
 74
0
 40
0
 40
0
 40
0
 40
0
 40
1
 40
1
 40
1
 40
1
 10
19.981577
 20
265.247821
 30
0.0
 10
18.867182
 20
262.557433
 30
0.0
 10
19.483168
 20
259.460664
 30
0.0
 10
21.542301
 20
257.401531
 30
0.0
  0
SPLINE
  5
18d
100
AcDbEntity
  8
Layer_1
 62
1
100
AcDbSpline
 70
8
 71
3
 72
8
 73
4
 74
0
 40
0
 40
0
 40
0
 40
0
 40
1
 40
1
 40
1
 40
1
 10
21.542301
 20
257.401531
 30
0.0
 10
23.601434
 20
255.342398
 30
0.0
 10
26.698203
 20
254.726412
 30
0.0
 10
29.388590
 20
255.840807
 30
0.0
  0
SPLINE
  5
18e
100
AcDbEntity
  8
Layer_1
 62
1
100
AcDbSpline
 70
8
 71
3
 72
8
 73
4
 74
0
 40
0
 40
0
 40
0
 40
0
 40
1
 40
1
 40
1
 40
1
 10
29.388590
 20
255.840807
 30
0.0
 10
32.078977
 20
256.955202
 30
0.0
 10
33.833156
 20
259.580516
 30
0.0
 10
33.833156
 20
262.492570
 30
0.0
  0
SPLINE
  5
18f
100
AcDbEntity
  8
Layer_1
 62
1
100
AcDbSpline
 70
8
 71
3
 72
8
 73
4
 74
0
 40
0
 40
0
 40
0
 40
0
 40
1
 40
1
 40
1
 40
1
 10
33.833156
 20
262.492570
 30
0.0
 10
33.833156
 20
264.402080
 30
0.0
 10
33.074606
 20
266.233382
 30
0.0
 10
31.724379
 20
267.583609
 30
0.0
  0
SPLINE
  5
190
100
AcDbEntity
  8
Layer_1
 62
1
100
AcDbSpline
 70
8
 71
3
 72
8
 73
4
 74
0
 40
0
 40
0
 40
0
 40
0
 40
1
 40
1
 40
1
 40
1
 10
31.724379
 20
267.583609
 30
0.0
 10
30.374151
 20
268.933837
 30
0.0
 10
28.542850
 20
269.692387
 30
0.0
 10
26.633340
 20
269.692387
 30
0.0
  0
LWPOLYLINE
  5
191
100
AcDbEntity
  8
Layer_1
 62
1
100
AcDbPolyline
 90
1
 70
1
 10
80.644570
 20
268.694347
 30
0.0
  0
SPLINE
  5
192
100
AcDbEntity
  8
Layer_1
 62
1
100
AcDbSpline
 70
8
 71
3
 72
8
 73
4
 74
0
 40
0
 40
0
 40
0
 40
0
 40
1
 40
1
 40
1
 40
1
 10
92.438690
 20
296.168287
 30
0.0
 10
89.526636
 20
296.168287
 30
0.0
 10
86.901322
 20
294.414108
 30
0.0
 10
85.786927
 20
291.723721
 30
0.0
  0
SPLINE
  5
193
100
AcDbEntity
  8
Layer_1
 62
1
100
AcDbSpline
 70
8
 71
3
 72
8
 73
4
 74
0
 40
0
 40
0
 40
0
 40
0
 40
1
 40
1
 40
1
 40
1
 10
85.786927
 20
291.723721
 30
0.0
 10
84.672532
 20
289.033333
 30
0.0
 10
85.288518
 20
285.936564
 30
0.0
 10
87.347651
 20
283.877431
 30
0.0
  0
SPLINE
  5
194
100
AcDbEntity
  8
Layer_1
 62
1
100
AcDbSpline
 70
8
 71
3
 72
8
 73
4
 74
0
 40
0
 40
0
 40
0
 40
0
 40
1
 40
1
 40
1
 40
1
 10
87.347651
 20
283.877431
 30
0.0
 10
89.406784
 20
281.818298
 30
0.0
 10
92.503553
 20
281.202312
 30
0.0
 10
95.193940
 20
282.316707
 30
0.0
  0
SPLINE
  5
195
100
AcDbEntity
  8
Layer_1
 62
1
100
AcDbSpline
 70
8
 71
3
 72
8
 73
4
 74
0
 40
0
 40
0
 40
0
 40
0
 40
1
 40
1
 40
1
 40
1
 10
95.193940
 20
282.316707
 30
0.0
 10
97.884327
 20
283.431102
 30
0.0
 10
99.638506
 20
286.056416
 30
0.0
 10
99.638506
 20
288.968470
 30
0.0
  0
SPLINE
  5
196
100
AcDbEntity
  8
Layer_1
 62
1
100
AcDbSpline
 70
8
 71
3
 72
8
 73
4
 74
0
 40
0
 40
0
 40
0
 40
0
 40
1
 40
1
 40
1
 40
1
 10
99.638506
 20
288.968470
 30
0.0
 10
99.638506
 20
292.944819
 30
0.0
 10
96.415039
 20
296.168287
 30
0.0
 10
92.438690
 20
296.168287
 30
0.0
  0
LWPOLYLINE
  5
197
100
AcDbEntity
  8
Layer_1
 62
1
100
AcDbPolyline
 90
1
 70
1
 10
26.633340
 20
269.692387
 30
0.0
  0
SPLINE
  5
198
100
AcDbEntity
  8
Layer_1
 62
1
100
AcDbSpline
 70
8
 71
3
 72
8
 73
4
 74
0
 40
0
 40
0
 40
0
 40
0
 40
1
 40
1
 40
1
 40
1
 10
80.619850
 20
323.859567
 30
0.0
 10
77.707796
 20
323.859567
 30
0.0
 10
75.082482
 20
322.105388
 30
0.0
 10
73.968087
 20
319.415001
 30
0.0
  0
SPLINE
  5
199
100
AcDbEntity
  8
Layer_1
 62
1
100
AcDbSpline
 70
8
 71
3
 72
8
 73
4
 74
0
 40
0
 40
0
 40
0
 40
0
 40
1
 40
1
 40
1
 40
1
 10
73.968087
 20
319.415001
 30
0.0
 10
72.853692
 20
316.724613
 30
0.0
 10
73.469678
 20
313.627844
 30
0.0
 10
75.528811
 20
311.568711
 30
0.0
  0
SPLINE
  5
19a
100
AcDbEntity
  8
Layer_1
 62
1
100
AcDbSpline
 70
8
 71
3
 72
8
 73
4
 74
0
 40
0
 40
0
 40
0
 40
0
 40
1
 40
1
 40
1
 40
1
 10
75.528811
 20
311.568711
 30
0.0
 10
77.587944
 20
309.509578
 30
0.0
 10
80.684713
 20
308.893592
 30
0.0
 10
83.375100
 20
310.007987
 30
0.0
  0
SPLINE
  5
19b
100
AcDbEntity
  8
Layer_1
 62
1
100
AcDbSpline
 70
8
 71
3
 72
8
 73
4
 74
0
 40
0
 40
0
 40
0
 40
0
 40
1
 40
1
 40
1
 40
1
 10
83.375100
 20
310.007987
 30
0.0
 10
86.065487
 20
311.122382
 30
0.0
 10
87.819666
 20
313.747696
 30
0.0
 10
87.819666
 20
316.659750
 30
0.0
  0
SPLINE
  5
19c
100
AcDbEntity
  8
Layer_1
 62
1
100
AcDbSpline
 70
8
 71
3
 72
8
 73
4
 74
0
 40
0
 40
0
 40
0
 40
0
 40
1
 40
1
 40
1
 40
1
 10
87.819666
 20
316.659750
 30
0.0
 10
87.819666
 20
318.569260
 30
0.0
 10
87.061116
 20
320.400562
 30
0.0
 10
85.710889
 20
321.750789
 30
0.0
  0
SPLINE
  5
19d
100
AcDbEntity
  8
Layer_1
 62
1
100
AcDbSpline
 70
8
 71
3
 72
8
 73
4
 74
0
 40
0
 40
0
 40
0
 40
0
 40
1
 40
1
 40
1
 40
1
 10
85.710889
 20
321.750789
 30
0.0
 10
84.360661
 20
323.101017
 30
0.0
 10
82.529360
 20
323.859567
 30
0.0
 10
80.619850
 20
323.859567
 30
0.0
  0
LWPOLYLINE
  5
19e
100
AcDbEntity
  8
Layer_1
 62
1
100
AcDbPolyline
 90
1
 70
1
 10
92.438690
 20
296.168287
 30
0.0
  0
SPLINE
  5
19f
100
AcDbEntity
  8
Layer_1
 62
1
100
AcDbSpline
 70
8
 71
3
 72
8
 73
4
 74
0
 40
0
 40
0
 40
0
 40
0
 40
1
 40
1
 40
1
 40
1
 10
53.931610
 20
334.534587
 30
0.0
 10
51.019556
 20
334.534587
 30
0.0
 10
48.394242
 20
332.780408
 30
0.0
 10
47.279847
 20
330.090021
 30
0.0
  0
SPLINE
  5
1a0
100
AcDbEntity
  8
Layer_1
 62
1
100
AcDbSpline
 70
8
 71
3
 72
8
 73
4
 74
0
 40
0
 40
0
 40
0
 40
0
 40
1
 40
1
 40
1
 40
1
 10
47.279847
 20
330.090021
 30
0.0
 10
46.165452
 20
327.399633
 30
0.0
 10
46.781438
 20
324.302864
 30
0.0
 10
48.840571
 20
322.243731
 30
0.0
  0
SPLINE
  5
1a1
100
AcDbEntity
  8
Layer_1
 62
1
100
AcDbSpline
 70
8
 71
3
 72
8
 73
4
 74
0
 40
0
 40
0
 40
0
 40
0
 40
1
 40
1
 40
1
 40
1
 10
48.840571
 20
322.243731
 30
0.0
 10
50.899704
 20
320.184598
 30
0.0
 10
53.996473
 20
319.568612
 30
0.0
 10
56.686860
 20
320.683007
 30
0.0
  0
SPLINE
  5
1a2
100
AcDbEntity
  8
Layer_1
 62
1
100
AcDbSpline
 70
8
 71
3
 72
8
 73
4
 74
0
 40
0
 40
0
 40
0
 40
0
 40
1
 40
1
 40
1
 40
1
 10
56.686860
 20
320.683007
 30
0.0
 10
59.377247
 20
321.797402
 30
0.0
 10
61.131426
 20
324.422716
 30
0.0
 10
61.131426
 20
327.334770
 30
0.0
  0
SPLINE
  5
1a3
100
AcDbEntity
  8
Layer_1
 62
1
100
AcDbSpline
 70
8
 71
3
 72
8
 73
4
 74
0
 40
0
 40
0
 40
0
 40
0
 40
1
 40
1
 40
1
 40
1
 10
61.131426
 20
327.334770
 30
0.0
 10
61.131426
 20
329.244280
 30
0.0
 10
60.372876
 20
331.075582
 30
0.0
 10
59.022649
 20
332.425809
 30
0.0
  0
SPLINE
  5
1a4
100
AcDbEntity
  8
Layer_1
 62
1
100
AcDbSpline
 70
8
 71
3
 72
8
 73
4
 74
0
 40
0
 40
0
 40
0
 40
0
 40
1
 40
1
 40
1
 40
1
 10
59.022649
 20
332.425809
 30
0.0
 10
57.672421
 20
333.776037
 30
0.0
 10
55.841120
 20
334.534587
 30
0.0
 10
53.931610
 20
334.534587
 30
0.0
  0
LWPOLYLINE
  5
1a5
100
AcDbEntity
  8
Layer_1
 62
1
100
AcDbPolyline
 90
1
 70
1
 10
80.619850
 20
323.859567
 30
0.0
  0
SPLINE
  5
1a6
100
AcDbEntity
  8
Layer_1
 62
1
100
AcDbSpline
 70
8
 71
3
 72
8
 73
4
 74
0
 40
0
 40
0
 40
0
 40
0
 40
1
 40
1
 40
1
 40
1
 10
15.839150
 20
296.224187
 30
0.0
 10
12.927096
 20
296.224187
 30
0.0
 10
10.301782
 20
294.470008
 30
0.0
 10
9.187387
 20
291.779621
 30
0.0
  0
SPLINE
  5
1a7
100
AcDbEntity
  8
Layer_1
 62
1
100
AcDbSpline
 70
8
 71
3
 72
8
 73
4
 74
0
 40
0
 40
0
 40
0
 40
0
 40
1
 40
1
 40
1
 40
1
 10
9.187387
 20
291.779621
 30
0.0
 10
8.072992
 20
289.089233
 30
0.0
 10
8.688978
 20
285.992464
 30
0.0
 10
10.748111
 20
283.933331
 30
0.0
  0
SPLINE
  5
1a8
100
AcDbEntity
  8
Layer_1
 62
1
100
AcDbSpline
 70
8
 71
3
 72
8
 73
4
 74
0
 40
0
 40
0
 40
0
 40
0
 40
1
 40
1
 40
1
 40
1
 10
10.748111
 20
283.933331
 30
0.0
 10
12.807244
 20
281.874198
 30
0.0
 10
15.904013
 20
281.258212
 30
0.0
 10
18.594400
 20
282.372607
 30
0.0
  0
SPLINE
  5
1a9
100
AcDbEntity
  8
Layer_1
 62
1
100
AcDbSpline
 70
8
 71
3
 72
8
 73
4
 74
0
 40
0
 40
0
 40
0
 40
0
 40
1
 40
1
 40
1
 40
1
 10
18.594400
 20
282.372607
 30
0.0
 10
21.284787
 20
283.487002
 30
0.0
 10
23.038966
 20
286.112316
 30
0.0
 10
23.038966
 20
289.024370
 30
0.0
  0
SPLINE
  5
1aa
100
AcDbEntity
  8
Layer_1
 62
1
100
AcDbSpline
 70
8
 71
3
 72
8
 73
4
 74
0
 40
0
 40
0
 40
0
 40
0
 40
1
 40
1
 40
1
 40
1
 10
23.038966
 20
289.024370
 30
0.0
 10
23.038966
 20
290.933880
 30
0.0
 10
22.280416
 20
292.765182
 30
0.0
 10
20.930189
 20
294.115409
 30
0.0
  0
SPLINE
  5
1ab
100
AcDbEntity
  8
Layer_1
 62
1
100
AcDbSpline
 70
8
 71
3
 72
8
 73
4
 74
0
 40
0
 40
0
 40
0
 40
0
 40
1
 40
1
 40
1
 40
1
 10
20.930189
 20
294.115409
 30
0.0
 10
19.579961
 20
295.465637
 30
0.0
 10
17.748660
 20
296.224187
 30
0.0
 10
15.839150
 20
296.224187
 30
0.0
  0
LWPOLYLINE
  5
1ac
100
AcDbEntity
  8
Layer_1
 62
1
100
AcDbPolyline
 90
1
 70
1
 10
53.931610
 20
334.534587
 30
0.0
  0
SPLINE
  5
1ad
100
AcDbEntity
  8
Layer_1
 62
1
100
AcDbSpline
 70
8
 71
3
 72
8
 73
4
 74
0
 40
0
 40
0
 40
0
 40
0
 40
1
 40
1
 40
1
 40
1
 10
53.768650
 20
257.975957
 30
0.0
 10
50.856596
 20
257.975957
 30
0.0
 10
48.231282
 20
256.221778
 30
0.0
 10
47.116887
 20
253.531391
 30
0.0
  0
SPLINE
  5
1ae
100
AcDbEntity
  8
Layer_1
 62
1
100
AcDbSpline
 70
8
 71
3
 72
8
 73
4
 74
0
 40
0
 40
0
 40
0
 40
0
 40
1
 40
1
 40
1
 40
1
 10
47.116887
 20
253.531391
 30
0.0
 10
46.002492
 20
250.841003
 30
0.0
 10
46.618478
 20
247.744234
 30
0.0
 10
48.677611
 20
245.685101
 30
0.0
  0
SPLINE
  5
1af
100
AcDbEntity
  8
Layer_1
 62
1
100
AcDbSpline
 70
8
 71
3
 72
8
 73
4
 74
0
 40
0
 40
0
 40
0
 40
0
 40
1
 40
1
 40
1
 40
1
 10
48.677611
 20
245.685101
 30
0.0
 10
50.736744
 20
243.625968
 30
0.0
 10
53.833513
 20
243.009982
 30
0.0
 10
56.523900
 20
244.124377
 30
0.0
  0
SPLINE
  5
1b0
100
AcDbEntity
  8
Layer_1
 62
1
100
AcDbSpline
 70
8
 71
3
 72
8
 73
4
 74
0
 40
0
 40
0
 40
0
 40
0
 40
1
 40
1
 40
1
 40
1
 10
56.523900
 20
244.124377
 30
0.0
 10
59.214287
 20
245.238772
 30
0.0
 10
60.968466
 20
247.864086
 30
0.0
 10
60.968466
 20
250.776140
 30
0.0
  0
SPLINE
  5
1b1
100
AcDbEntity
  8
Layer_1
 62
1
100
AcDbSpline
 70
8
 71
3
 72
8
 73
4
 74
0
 40
0
 40
0
 40
0
 40
0
 40
1
 40
1
 40
1
 40
1
 10
60.968466
 20
250.776140
 30
0.0
 10
60.968466
 20
252.685650
 30
0.0
 10
60.209916
 20
254.516952
 30
0.0
 10
58.859689
 20
255.867179
 30
0.0
  0
SPLINE
  5
1b2
100
AcDbEntity
  8
Layer_1
 62
1
100
AcDbSpline
 70
8
 71
3
 72
8
 73
4
 74
0
 40
0
 40
0
 40
0
 40
0
 40
1
 40
1
 40
1
 40
1
 10
58.859689
 20
255.867179
 30
0.0
 10
57.509461
 20
257.217407
 30
0.0
 10
55.678160
 20
257.975957
 30
0.0
 10
53.768650
 20
257.975957
 30
0.0
  0
LWPOLYLINE
  5
1b3
100
AcDbEntity
  8
Layer_1
 62
1
100
AcDbPolyline
 90
1
 70
1
 10
15.839150
 20
296.224187
 30
0.0
  0
SPLINE
  5
1b4
100
AcDbEntity
  8
Layer_1
 62
1
100
AcDbSpline
 70
8
 71
3
 72
8
 73
4
 74
0
 40
0
 40
0
 40
0
 40
0
 40
1
 40
1
 40
1
 40
1
 10
112.407770
 20
306.475120
 30
0.0
 10
112.248970
 20
306.405320
 30
0.0
 10
112.017250
 20
306.149100
 30
0.0
 10
112.344170
 20
305.741040
 30
0.0
  0
SPLINE
  5
1b5
100
AcDbEntity
  8
Layer_1
 62
1
100
AcDbSpline
 70
8
 71
3
 72
8
 73
4
 74
0
 40
0
 40
0
 40
0
 40
0
 40
1
 40
1
 40
1
 40
1
 10
112.344170
 20
305.741040
 30
0.0
 10
118.664490
 20
297.851540
 30
0.0
 10
118.661170
 20
286.849000
 30
0.0
 10
119.774330
 20
277.836930
 30
0.0
  0
SPLINE
  5
1b6
100
AcDbEntity
  8
Layer_1
 62
1
100
AcDbSpline
 70
8
 71
3
 72
8
 73
4
 74
0
 40
0
 40
0
 40
0
 40
0
 40
1
 40
1
 40
1
 40
1
 10
119.774330
 20
277.836930
 30
0.0
 10
131.458430
 20
276.641860
 30
0.0
 10
133.836990
 20
278.527140
 30
0.0
 10
138.455570
 20
280.717050
 30
0.0
  0
SPLINE
  5
1b7
100
AcDbEntity
  8
Layer_1
 62
1
100
AcDbSpline
 70
8
 71
3
 72
8
 73
4
 74
0
 40
0
 40
0
 40
0
 40
0
 40
1
 40
1
 40
1
 40
1
 10
138.455570
 20
280.717050
 30
0.0
 10
130.500480
 20
287.314700
 30
0.0
 10
123.088210
 20
299.577720
 30
0.0
 10
114.896940
 20
306.892920
 30
0.0
  0
SPLINE
  5
1b8
100
AcDbEntity
  8
Layer_1
 62
1
100
AcDbSpline
 70
8
 71
3
 72
8
 73
4
 74
0
 40
0
 40
0
 40
0
 40
0
 40
1
 40
1
 40
1
 40
1
 10
114.896940
 20
306.892920
 30
0.0
 10
113.851320
 20
307.826710
 30
0.0
 10
114.063980
 20
307.010340
 30
0.0
 10
112.407790
 20
306.475120
 30
0.0
  0
LWPOLYLINE
  5
1b9
100
AcDbEntity
  8
Layer_1
 62
1
100
AcDbPolyline
 90
1
 70
1
 10
53.768650
 20
257.975957
 30
0.0
  0
SPLINE
  5
1ba
100
AcDbEntity
  8
Layer_1
 62
1
100
AcDbSpline
 70
8
 71
3
 72
8
 73
4
 74
0
 40
0
 40
0
 40
0
 40
0
 40
1
 40
1
 40
1
 40
1
 10
250.600800
 20
235.745395
 30
0.0
 10
243.614345
 20
235.745395
 30
0.0
 10
237.950705
 20
230.081755
 30
0.0
 10
237.950705
 20
223.095300
 30
0.0
  0
SPLINE
  5
1bb
100
AcDbEntity
  8
Layer_1
 62
1
100
AcDbSpline
 70
8
 71
3
 72
8
 73
4
 74
0
 40
0
 40
0
 40
0
 40
0
 40
1
 40
1
 40
1
 40
1
 10
237.950705
 20
223.095300
 30
0.0
 10
237.950705
 20
216.108845
 30
0.0
 10
243.614345
 20
210.445205
 30
0.0
 10
250.600800
 20
210.445205
 30
0.0
  0
SPLINE
  5
1bc
100
AcDbEntity
  8
Layer_1
 62
1
100
AcDbSpline
 70
8
 71
3
 72
8
 73
4
 74
0
 40
0
 40
0
 40
0
 40
0
 40
1
 40
1
 40
1
 40
1
 10
250.600800
 20
210.445205
 30
0.0
 10
257.587255
 20
210.445205
 30
0.0
 10
263.250895
 20
216.108845
 30
0.0
 10
263.250895
 20
223.095300
 30
0.0
  0
SPLINE
  5
1bd
100
AcDbEntity
  8
Layer_1
 62
1
100
AcDbSpline
 70
8
 71
3
 72
8
 73
4
 74
0
 40
0
 40
0
 40
0
 40
0
 40
1
 40
1
 40
1
 40
1
 10
263.250895
 20
223.095300
 30
0.0
 10
263.250895
 20
226.450314
 30
0.0
 10
261.918121
 20
229.667915
 30
0.0
 10
259.545768
 20
232.040268
 30
0.0
  0
SPLINE
  5
1be
100
AcDbEntity
  8
Layer_1
 62
1
100
AcDbSpline
 70
8
 71
3
 72
8
 73
4
 74
0
 40
0
 40
0
 40
0
 40
0
 40
1
 40
1
 40
1
 40
1
 10
259.545768
 20
232.040268
 30
0.0
 10
257.173415
 20
234.412621
 30
0.0
 10
253.955814
 20
235.745395
 30
0.0
 10
250.600800
 20
235.745395
 30
0.0
  0
LWPOLYLINE
  5
1bf
100
AcDbEntity
  8
Layer_1
 62
1
100
AcDbPolyline
 90
1
 70
1
 10
112.407790
 20
306.475120
 30
0.0
  0
SPLINE
  5
1c0
100
AcDbEntity
  8
Layer_1
 62
1
100
AcDbSpline
 70
8
 71
3
 72
8
 73
4
 74
0
 40
0
 40
0
 40
0
 40
0
 40
1
 40
1
 40
1
 40
1
 10
250.855260
 20
240.663011
 30
0.0
 10
243.821427
 20
240.663011
 30
0.0
 10
237.480190
 20
236.425932
 30
0.0
 10
234.788458
 20
229.927517
 30
0.0
  0
SPLINE
  5
1c1
100
AcDbEntity
  8
Layer_1
 62
1
100
AcDbSpline
 70
8
 71
3
 72
8
 73
4
 74
0
 40
0
 40
0
 40
0
 40
0
 40
1
 40
1
 40
1
 40
1
 10
234.788458
 20
229.927517
 30
0.0
 10
232.096727
 20
223.429102
 30
0.0
 10
233.584591
 20
215.949104
 30
0.0
 10
238.558262
 20
210.975432
 30
0.0
  0
SPLINE
  5
1c2
100
AcDbEntity
  8
Layer_1
 62
1
100
AcDbSpline
 70
8
 71
3
 72
8
 73
4
 74
0
 40
0
 40
0
 40
0
 40
0
 40
1
 40
1
 40
1
 40
1
 10
238.558262
 20
210.975432
 30
0.0
 10
243.531934
 20
206.001761
 30
0.0
 10
251.011932
 20
204.513897
 30
0.0
 10
257.510347
 20
207.205628
 30
0.0
  0
SPLINE
  5
1c3
100
AcDbEntity
  8
Layer_1
 62
1
100
AcDbSpline
 70
8
 71
3
 72
8
 73
4
 74
0
 40
0
 40
0
 40
0
 40
0
 40
1
 40
1
 40
1
 40
1
 10
257.510347
 20
207.205628
 30
0.0
 10
264.008762
 20
209.897360
 30
0.0
 10
268.245841
 20
216.238597
 30
0.0
 10
268.245841
 20
223.272430
 30
0.0
  0
SPLINE
  5
1c4
100
AcDbEntity
  8
Layer_1
 62
1
100
AcDbSpline
 70
8
 71
3
 72
8
 73
4
 74
0
 40
0
 40
0
 40
0
 40
0
 40
1
 40
1
 40
1
 40
1
 10
268.245841
 20
223.272430
 30
0.0
 10
268.245841
 20
227.884699
 30
0.0
 10
266.413624
 20
232.308061
 30
0.0
 10
263.152258
 20
235.569428
 30
0.0
  0
SPLINE
  5
1c5
100
AcDbEntity
  8
Layer_1
 62
1
100
AcDbSpline
 70
8
 71
3
 72
8
 73
4
 74
0
 40
0
 40
0
 40
0
 40
0
 40
1
 40
1
 40
1
 40
1
 10
263.152258
 20
235.569428
 30
0.0
 10
259.890891
 20
238.830794
 30
0.0
 10
255.467529
 20
240.663011
 30
0.0
 10
250.855260
 20
240.663011
 30
0.0
  0
LWPOLYLINE
  5
1c6
100
AcDbEntity
  8
Layer_1
 62
1
100
AcDbPolyline
 90
1
 70
1
 10
250.600800
 20
235.745395
 30
0.0
  0
SPLINE
  5
1c7
100
AcDbEntity
  8
Layer_1
 62
1
100
AcDbSpline
 70
8
 71
3
 72
8
 73
4
 74
0
 40
0
 40
0
 40
0
 40
0
 40
1
 40
1
 40
1
 40
1
 10
266.177500
 20
270.840395
 30
0.0
 10
259.191045
 20
270.840395
 30
0.0
 10
253.527405
 20
265.176755
 30
0.0
 10
253.527405
 20
258.190300
 30
0.0
  0
SPLINE
  5
1c8
100
AcDbEntity
  8
Layer_1
 62
1
100
AcDbSpline
 70
8
 71
3
 72
8
 73
4
 74
0
 40
0
 40
0
 40
0
 40
0
 40
1
 40
1
 40
1
 40
1
 10
253.527405
 20
258.190300
 30
0.0
 10
253.527405
 20
251.203845
 30
0.0
 10
259.191045
 20
245.540205
 30
0.0
 10
266.177500
 20
245.540205
 30
0.0
  0
SPLINE
  5
1c9
100
AcDbEntity
  8
Layer_1
 62
1
100
AcDbSpline
 70
8
 71
3
 72
8
 73
4
 74
0
 40
0
 40
0
 40
0
 40
0
 40
1
 40
1
 40
1
 40
1
 10
266.177500
 20
245.540205
 30
0.0
 10
273.163955
 20
245.540205
 30
0.0
 10
278.827595
 20
251.203845
 30
0.0
 10
278.827595
 20
258.190300
 30
0.0
  0
SPLINE
  5
1ca
100
AcDbEntity
  8
Layer_1
 62
1
100
AcDbSpline
 70
8
 71
3
 72
8
 73
4
 74
0
 40
0
 40
0
 40
0
 40
0
 40
1
 40
1
 40
1
 40
1
 10
278.827595
 20
258.190300
 30
0.0
 10
278.827595
 20
261.545314
 30
0.0
 10
277.494821
 20
264.762915
 30
0.0
 10
275.122468
 20
267.135268
 30
0.0
  0
SPLINE
  5
1cb
100
AcDbEntity
  8
Layer_1
 62
1
100
AcDbSpline
 70
8
 71
3
 72
8
 73
4
 74
0
 40
0
 40
0
 40
0
 40
0
 40
1
 40
1
 40
1
 40
1
 10
275.122468
 20
267.135268
 30
0.0
 10
272.750115
 20
269.507621
 30
0.0
 10
269.532514
 20
270.840395
 30
0.0
 10
266.177500
 20
270.840395
 30
0.0
  0
LWPOLYLINE
  5
1cc
100
AcDbEntity
  8
Layer_1
 62
1
100
AcDbPolyline
 90
1
 70
1
 10
250.855260
 20
240.663011
 30
0.0
  0
SPLINE
  5
1cd
100
AcDbEntity
  8
Layer_1
 62
1
100
AcDbSpline
 70
8
 71
3
 72
8
 73
4
 74
0
 40
0
 40
0
 40
0
 40
0
 40
1
 40
1
 40
1
 40
1
 10
266.431960
 20
275.758011
 30
0.0
 10
259.398127
 20
275.758011
 30
0.0
 10
253.056890
 20
271.520932
 30
0.0
 10
250.365158
 20
265.022517
 30
0.0
  0
SPLINE
  5
1ce
100
AcDbEntity
  8
Layer_1
 62
1
100
AcDbSpline
 70
8
 71
3
 72
8
 73
4
 74
0
 40
0
 40
0
 40
0
 40
0
 40
1
 40
1
 40
1
 40
1
 10
250.365158
 20
265.022517
 30
0.0
 10
247.673427
 20
258.524102
 30
0.0
 10
249.161291
 20
251.044104
 30
0.0
 10
254.134962
 20
246.070432
 30
0.0
  0
SPLINE
  5
1cf
100
AcDbEntity
  8
Layer_1
 62
1
100
AcDbSpline
 70
8
 71
3
 72
8
 73
4
 74
0
 40
0
 40
0
 40
0
 40
0
 40
1
 40
1
 40
1
 40
1
 10
254.134962
 20
246.070432
 30
0.0
 10
259.108634
 20
241.096761
 30
0.0
 10
266.588632
 20
239.608897
 30
0.0
 10
273.087047
 20
242.300628
 30
0.0
  0
SPLINE
  5
1d0
100
AcDbEntity
  8
Layer_1
 62
1
100
AcDbSpline
 70
8
 71
3
 72
8
 73
4
 74
0
 40
0
 40
0
 40
0
 40
0
 40
1
 40
1
 40
1
 40
1
 10
273.087047
 20
242.300628
 30
0.0
 10
279.585462
 20
244.992360
 30
0.0
 10
283.822541
 20
251.333597
 30
0.0
 10
283.822541
 20
258.367430
 30
0.0
  0
SPLINE
  5
1d1
100
AcDbEntity
  8
Layer_1
 62
1
100
AcDbSpline
 70
8
 71
3
 72
8
 73
4
 74
0
 40
0
 40
0
 40
0
 40
0
 40
1
 40
1
 40
1
 40
1
 10
283.822541
 20
258.367430
 30
0.0
 10
283.822541
 20
262.979699
 30
0.0
 10
281.990324
 20
267.403061
 30
0.0
 10
278.728958
 20
270.664428
 30
0.0
  0
SPLINE
  5
1d2
100
AcDbEntity
  8
Layer_1
 62
1
100
AcDbSpline
 70
8
 71
3
 72
8
 73
4
 74
0
 40
0
 40
0
 40
0
 40
0
 40
1
 40
1
 40
1
 40
1
 10
278.728958
 20
270.664428
 30
0.0
 10
275.467591
 20
273.925794
 30
0.0
 10
271.044229
 20
275.758011
 30
0.0
 10
266.431960
 20
275.758011
 30
0.0
  0
LWPOLYLINE
  5
1d3
100
AcDbEntity
  8
Layer_1
 62
1
100
AcDbPolyline
 90
1
 70
1
 10
266.177500
 20
270.840395
 30
0.0
  0
SPLINE
  5
1d4
100
AcDbEntity
  8
Layer_1
 62
1
100
AcDbSpline
 70
8
 71
3
 72
8
 73
4
 74
0
 40
0
 40
0
 40
0
 40
0
 40
1
 40
1
 40
1
 40
1
 10
329.074900
 20
264.174095
 30
0.0
 10
322.088445
 20
264.174095
 30
0.0
 10
316.424805
 20
258.510455
 30
0.0
 10
316.424805
 20
251.524000
 30
0.0
  0
SPLINE
  5
1d5
100
AcDbEntity
  8
Layer_1
 62
1
100
AcDbSpline
 70
8
 71
3
 72
8
 73
4
 74
0
 40
0
 40
0
 40
0
 40
0
 40
1
 40
1
 40
1
 40
1
 10
316.424805
 20
251.524000
 30
0.0
 10
316.424805
 20
244.537545
 30
0.0
 10
322.088445
 20
238.873905
 30
0.0
 10
329.074900
 20
238.873905
 30
0.0
  0
SPLINE
  5
1d6
100
AcDbEntity
  8
Layer_1
 62
1
100
AcDbSpline
 70
8
 71
3
 72
8
 73
4
 74
0
 40
0
 40
0
 40
0
 40
0
 40
1
 40
1
 40
1
 40
1
 10
329.074900
 20
238.873905
 30
0.0
 10
336.061355
 20
238.873905
 30
0.0
 10
341.724995
 20
244.537545
 30
0.0
 10
341.724995
 20
251.524000
 30
0.0
  0
SPLINE
  5
1d7
100
AcDbEntity
  8
Layer_1
 62
1
100
AcDbSpline
 70
8
 71
3
 72
8
 73
4
 74
0
 40
0
 40
0
 40
0
 40
0
 40
1
 40
1
 40
1
 40
1
 10
341.724995
 20
251.524000
 30
0.0
 10
341.724995
 20
254.879014
 30
0.0
 10
340.392221
 20
258.096615
 30
0.0
 10
338.019868
 20
260.468968
 30
0.0
  0
SPLINE
  5
1d8
100
AcDbEntity
  8
Layer_1
 62
1
100
AcDbSpline
 70
8
 71
3
 72
8
 73
4
 74
0
 40
0
 40
0
 40
0
 40
0
 40
1
 40
1
 40
1
 40
1
 10
338.019868
 20
260.468968
 30
0.0
 10
335.647515
 20
262.841321
 30
0.0
 10
332.429914
 20
264.174095
 30
0.0
 10
329.074900
 20
264.174095
 30
0.0
  0
LWPOLYLINE
  5
1d9
100
AcDbEntity
  8
Layer_1
 62
1
100
AcDbPolyline
 90
1
 70
1
 10
266.431960
 20
275.758011
 30
0.0
  0
SPLINE
  5
1da
100
AcDbEntity
  8
Layer_1
 62
1
100
AcDbSpline
 70
8
 71
3
 72
8
 73
4
 74
0
 40
0
 40
0
 40
0
 40
0
 40
1
 40
1
 40
1
 40
1
 10
329.233440
 20
270.965525
 30
0.0
 10
321.395740
 20
270.965525
 30
0.0
 10
314.329791
 20
266.244209
 30
0.0
 10
311.330433
 20
259.003118
 30
0.0
  0
SPLINE
  5
1db
100
AcDbEntity
  8
Layer_1
 62
1
100
AcDbSpline
 70
8
 71
3
 72
8
 73
4
 74
0
 40
0
 40
0
 40
0
 40
0
 40
1
 40
1
 40
1
 40
1
 10
311.330433
 20
259.003118
 30
0.0
 10
308.331075
 20
251.762028
 30
0.0
 10
309.988981
 20
243.427172
 30
0.0
 10
315.531072
 20
237.885082
 30
0.0
  0
SPLINE
  5
1dc
100
AcDbEntity
  8
Layer_1
 62
1
100
AcDbSpline
 70
8
 71
3
 72
8
 73
4
 74
0
 40
0
 40
0
 40
0
 40
0
 40
1
 40
1
 40
1
 40
1
 10
315.531072
 20
237.885082
 30
0.0
 10
321.073162
 20
232.342991
 30
0.0
 10
329.408018
 20
230.685085
 30
0.0
 10
336.649108
 20
233.684443
 30
0.0
  0
SPLINE
  5
1dd
100
AcDbEntity
  8
Layer_1
 62
1
100
AcDbSpline
 70
8
 71
3
 72
8
 73
4
 74
0
 40
0
 40
0
 40
0
 40
0
 40
1
 40
1
 40
1
 40
1
 10
336.649108
 20
233.684443
 30
0.0
 10
343.890199
 20
236.683801
 30
0.0
 10
348.611515
 20
243.749750
 30
0.0
 10
348.611515
 20
251.587450
 30
0.0
  0
SPLINE
  5
1de
100
AcDbEntity
  8
Layer_1
 62
1
100
AcDbSpline
 70
8
 71
3
 72
8
 73
4
 74
0
 40
0
 40
0
 40
0
 40
0
 40
1
 40
1
 40
1
 40
1
 10
348.611515
 20
251.587450
 30
0.0
 10
348.611515
 20
256.726835
 30
0.0
 10
346.569902
 20
261.655724
 30
0.0
 10
342.935808
 20
265.289818
 30
0.0
  0
SPLINE
  5
1df
100
AcDbEntity
  8
Layer_1
 62
1
100
AcDbSpline
 70
8
 71
3
 72
8
 73
4
 74
0
 40
0
 40
0
 40
0
 40
0
 40
1
 40
1
 40
1
 40
1
 10
342.935808
 20
265.289818
 30
0.0
 10
339.301714
 20
268.923912
 30
0.0
 10
334.372825
 20
270.965525
 30
0.0
 10
329.233440
 20
270.965525
 30
0.0
  0
LWPOLYLINE
  5
1e0
100
AcDbEntity
  8
Layer_1
 62
1
100
AcDbPolyline
 90
1
 70
1
 10
329.074900
 20
264.174095
 30
0.0
  0
SPLINE
  5
1e1
100
AcDbEntity
  8
Layer_1
 62
1
100
AcDbSpline
 70
8
 71
3
 72
8
 73
4
 74
0
 40
0
 40
0
 40
0
 40
0
 40
1
 40
1
 40
1
 40
1
 10
291.764430
 20
239.535095
 30
0.0
 10
284.777975
 20
239.535095
 30
0.0
 10
279.114335
 20
233.871455
 30
0.0
 10
279.114335
 20
226.885000
 30
0.0
  0
SPLINE
  5
1e2
100
AcDbEntity
  8
Layer_1
 62
1
100
AcDbSpline
 70
8
 71
3
 72
8
 73
4
 74
0
 40
0
 40
0
 40
0
 40
0
 40
1
 40
1
 40
1
 40
1
 10
279.114335
 20
226.885000
 30
0.0
 10
279.114335
 20
219.898545
 30
0.0
 10
284.777975
 20
214.234905
 30
0.0
 10
291.764430
 20
214.234905
 30
0.0
  0
SPLINE
  5
1e3
100
AcDbEntity
  8
Layer_1
 62
1
100
AcDbSpline
 70
8
 71
3
 72
8
 73
4
 74
0
 40
0
 40
0
 40
0
 40
0
 40
1
 40
1
 40
1
 40
1
 10
291.764430
 20
214.234905
 30
0.0
 10
298.750885
 20
214.234905
 30
0.0
 10
304.414525
 20
219.898545
 30
0.0
 10
304.414525
 20
226.885000
 30
0.0
  0
SPLINE
  5
1e4
100
AcDbEntity
  8
Layer_1
 62
1
100
AcDbSpline
 70
8
 71
3
 72
8
 73
4
 74
0
 40
0
 40
0
 40
0
 40
0
 40
1
 40
1
 40
1
 40
1
 10
304.414525
 20
226.885000
 30
0.0
 10
304.414525
 20
230.240014
 30
0.0
 10
303.081751
 20
233.457615
 30
0.0
 10
300.709398
 20
235.829968
 30
0.0
  0
SPLINE
  5
1e5
100
AcDbEntity
  8
Layer_1
 62
1
100
AcDbSpline
 70
8
 71
3
 72
8
 73
4
 74
0
 40
0
 40
0
 40
0
 40
0
 40
1
 40
1
 40
1
 40
1
 10
300.709398
 20
235.829968
 30
0.0
 10
298.337045
 20
238.202321
 30
0.0
 10
295.119444
 20
239.535095
 30
0.0
 10
291.764430
 20
239.535095
 30
0.0
  0
LWPOLYLINE
  5
1e6
100
AcDbEntity
  8
Layer_1
 62
1
100
AcDbPolyline
 90
1
 70
1
 10
329.233440
 20
270.965525
 30
0.0
  0
SPLINE
  5
1e7
100
AcDbEntity
  8
Layer_1
 62
1
100
AcDbSpline
 70
8
 71
3
 72
8
 73
4
 74
0
 40
0
 40
0
 40
0
 40
0
 40
1
 40
1
 40
1
 40
1
 10
291.922970
 20
246.326525
 30
0.0
 10
284.085270
 20
246.326525
 30
0.0
 10
277.019321
 20
241.605209
 30
0.0
 10
274.019963
 20
234.364118
 30
0.0
  0
SPLINE
  5
1e8
100
AcDbEntity
  8
Layer_1
 62
1
100
AcDbSpline
 70
8
 71
3
 72
8
 73
4
 74
0
 40
0
 40
0
 40
0
 40
0
 40
1
 40
1
 40
1
 40
1
 10
274.019963
 20
234.364118
 30
0.0
 10
271.020605
 20
227.123028
 30
0.0
 10
272.678511
 20
218.788172
 30
0.0
 10
278.220602
 20
213.246082
 30
0.0
  0
SPLINE
  5
1e9
100
AcDbEntity
  8
Layer_1
 62
1
100
AcDbSpline
 70
8
 71
3
 72
8
 73
4
 74
0
 40
0
 40
0
 40
0
 40
0
 40
1
 40
1
 40
1
 40
1
 10
278.220602
 20
213.246082
 30
0.0
 10
283.762692
 20
207.703991
 30
0.0
 10
292.097548
 20
206.046085
 30
0.0
 10
299.338638
 20
209.045443
 30
0.0
  0
SPLINE
  5
1ea
100
AcDbEntity
  8
Layer_1
 62
1
100
AcDbSpline
 70
8
 71
3
 72
8
 73
4
 74
0
 40
0
 40
0
 40
0
 40
0
 40
1
 40
1
 40
1
 40
1
 10
299.338638
 20
209.045443
 30
0.0
 10
306.579729
 20
212.044801
 30
0.0
 10
311.301045
 20
219.110750
 30
0.0
 10
311.301045
 20
226.948450
 30
0.0
  0
SPLINE
  5
1eb
100
AcDbEntity
  8
Layer_1
 62
1
100
AcDbSpline
 70
8
 71
3
 72
8
 73
4
 74
0
 40
0
 40
0
 40
0
 40
0
 40
1
 40
1
 40
1
 40
1
 10
311.301045
 20
226.948450
 30
0.0
 10
311.301045
 20
232.087835
 30
0.0
 10
309.259432
 20
237.016724
 30
0.0
 10
305.625338
 20
240.650818
 30
0.0
  0
SPLINE
  5
1ec
100
AcDbEntity
  8
Layer_1
 62
1
100
AcDbSpline
 70
8
 71
3
 72
8
 73
4
 74
0
 40
0
 40
0
 40
0
 40
0
 40
1
 40
1
 40
1
 40
1
 10
305.625338
 20
240.650818
 30
0.0
 10
301.991244
 20
244.284912
 30
0.0
 10
297.062355
 20
246.326525
 30
0.0
 10
291.922970
 20
246.326525
 30
0.0
  0
LWPOLYLINE
  5
1ed
100
AcDbEntity
  8
Layer_1
 62
1
100
AcDbPolyline
 90
1
 70
1
 10
291.764430
 20
239.535095
 30
0.0
  0
SPLINE
  5
1ee
100
AcDbEntity
  8
Layer_1
 62
1
100
AcDbSpline
 70
8
 71
3
 72
8
 73
4
 74
0
 40
0
 40
0
 40
0
 40
0
 40
1
 40
1
 40
1
 40
1
 10
214.857110
 20
239.284739
 30
0.0
 10
208.428786
 20
239.284739
 30
0.0
 10
202.633436
 20
235.412410
 30
0.0
 10
200.173422
 20
229.473413
 30
0.0
  0
SPLINE
  5
1ef
100
AcDbEntity
  8
Layer_1
 62
1
100
AcDbSpline
 70
8
 71
3
 72
8
 73
4
 74
0
 40
0
 40
0
 40
0
 40
0
 40
1
 40
1
 40
1
 40
1
 10
200.173422
 20
229.473413
 30
0.0
 10
197.713409
 20
223.534415
 30
0.0
 10
199.073190
 20
216.698334
 30
0.0
 10
203.618702
 20
212.152822
 30
0.0
  0
SPLINE
  5
1f0
100
AcDbEntity
  8
Layer_1
 62
1
100
AcDbSpline
 70
8
 71
3
 72
8
 73
4
 74
0
 40
0
 40
0
 40
0
 40
0
 40
1
 40
1
 40
1
 40
1
 10
203.618702
 20
212.152822
 30
0.0
 10
208.164214
 20
207.607310
 30
0.0
 10
215.000295
 20
206.247529
 30
0.0
 10
220.939293
 20
208.707542
 30
0.0
  0
SPLINE
  5
1f1
100
AcDbEntity
  8
Layer_1
 62
1
100
AcDbSpline
 70
8
 71
3
 72
8
 73
4
 74
0
 40
0
 40
0
 40
0
 40
0
 40
1
 40
1
 40
1
 40
1
 10
220.939293
 20
208.707542
 30
0.0
 10
226.878290
 20
211.167556
 30
0.0
 10
230.750619
 20
216.962906
 30
0.0
 10
230.750619
 20
223.391230
 30
0.0
  0
SPLINE
  5
1f2
100
AcDbEntity
  8
Layer_1
 62
1
100
AcDbSpline
 70
8
 71
3
 72
8
 73
4
 74
0
 40
0
 40
0
 40
0
 40
0
 40
1
 40
1
 40
1
 40
1
 10
230.750619
 20
223.391230
 30
0.0
 10
230.750619
 20
227.606451
 30
0.0
 10
229.076129
 20
231.649027
 30
0.0
 10
226.095518
 20
234.629638
 30
0.0
  0
SPLINE
  5
1f3
100
AcDbEntity
  8
Layer_1
 62
1
100
AcDbSpline
 70
8
 71
3
 72
8
 73
4
 74
0
 40
0
 40
0
 40
0
 40
0
 40
1
 40
1
 40
1
 40
1
 10
226.095518
 20
234.629638
 30
0.0
 10
223.114907
 20
237.610249
 30
0.0
 10
219.072331
 20
239.284739
 30
0.0
 10
214.857110
 20
239.284739
 30
0.0
  0
LWPOLYLINE
  5
1f4
100
AcDbEntity
  8
Layer_1
 62
1
100
AcDbPolyline
 90
1
 70
1
 10
291.922970
 20
246.326525
 30
0.0
  0
SPLINE
  5
1f5
100
AcDbEntity
  8
Layer_1
 62
1
100
AcDbSpline
 70
8
 71
3
 72
8
 73
4
 74
0
 40
0
 40
0
 40
0
 40
0
 40
1
 40
1
 40
1
 40
1
 10
227.899010
 20
273.075183
 30
0.0
 10
221.470686
 20
273.075183
 30
0.0
 10
215.675336
 20
269.202854
 30
0.0
 10
213.215322
 20
263.263857
 30
0.0
  0
SPLINE
  5
1f6
100
AcDbEntity
  8
Layer_1
 62
1
100
AcDbSpline
 70
8
 71
3
 72
8
 73
4
 74
0
 40
0
 40
0
 40
0
 40
0
 40
1
 40
1
 40
1
 40
1
 10
213.215322
 20
263.263857
 30
0.0
 10
210.755309
 20
257.324859
 30
0.0
 10
212.115090
 20
250.488778
 30
0.0
 10
216.660602
 20
245.943266
 30
0.0
  0
SPLINE
  5
1f7
100
AcDbEntity
  8
Layer_1
 62
1
100
AcDbSpline
 70
8
 71
3
 72
8
 73
4
 74
0
 40
0
 40
0
 40
0
 40
0
 40
1
 40
1
 40
1
 40
1
 10
216.660602
 20
245.943266
 30
0.0
 10
221.206114
 20
241.397754
 30
0.0
 10
228.042195
 20
240.037973
 30
0.0
 10
233.981193
 20
242.497986
 30
0.0
  0
SPLINE
  5
1f8
100
AcDbEntity
  8
Layer_1
 62
1
100
AcDbSpline
 70
8
 71
3
 72
8
 73
4
 74
0
 40
0
 40
0
 40
0
 40
0
 40
1
 40
1
 40
1
 40
1
 10
233.981193
 20
242.497986
 30
0.0
 10
239.920190
 20
244.958000
 30
0.0
 10
243.792519
 20
250.753350
 30
0.0
 10
243.792519
 20
257.181674
 30
0.0
  0
SPLINE
  5
1f9
100
AcDbEntity
  8
Layer_1
 62
1
100
AcDbSpline
 70
8
 71
3
 72
8
 73
4
 74
0
 40
0
 40
0
 40
0
 40
0
 40
1
 40
1
 40
1
 40
1
 10
243.792519
 20
257.181674
 30
0.0
 10
243.792519
 20
261.396895
 30
0.0
 10
242.118029
 20
265.439471
 30
0.0
 10
239.137418
 20
268.420082
 30
0.0
  0
SPLINE
  5
1fa
100
AcDbEntity
  8
Layer_1
 62
1
100
AcDbSpline
 70
8
 71
3
 72
8
 73
4
 74
0
 40
0
 40
0
 40
0
 40
0
 40
1
 40
1
 40
1
 40
1
 10
239.137418
 20
268.420082
 30
0.0
 10
236.156807
 20
271.400693
 30
0.0
 10
232.114231
 20
273.075183
 30
0.0
 10
227.899010
 20
273.075183
 30
0.0
  0
LWPOLYLINE
  5
1fb
100
AcDbEntity
  8
Layer_1
 62
1
100
AcDbPolyline
 90
1
 70
1
 10
214.857110
 20
239.284739
 30
0.0
  0
SPLINE
  5
1fc
100
AcDbEntity
  8
Layer_1
 62
1
100
AcDbSpline
 70
8
 71
3
 72
8
 73
4
 74
0
 40
0
 40
0
 40
0
 40
0
 40
1
 40
1
 40
1
 40
1
 10
142.866800
 20
253.469669
 30
0.0
 10
136.438476
 20
253.469669
 30
0.0
 10
130.643126
 20
249.597340
 30
0.0
 10
128.183112
 20
243.658343
 30
0.0
  0
SPLINE
  5
1fd
100
AcDbEntity
  8
Layer_1
 62
1
100
AcDbSpline
 70
8
 71
3
 72
8
 73
4
 74
0
 40
0
 40
0
 40
0
 40
0
 40
1
 40
1
 40
1
 40
1
 10
128.183112
 20
243.658343
 30
0.0
 10
125.723099
 20
237.719345
 30
0.0
 10
127.082880
 20
230.883264
 30
0.0
 10
131.628392
 20
226.337752
 30
0.0
  0
SPLINE
  5
1fe
100
AcDbEntity
  8
Layer_1
 62
1
100
AcDbSpline
 70
8
 71
3
 72
8
 73
4
 74
0
 40
0
 40
0
 40
0
 40
0
 40
1
 40
1
 40
1
 40
1
 10
131.628392
 20
226.337752
 30
0.0
 10
136.173904
 20
221.792240
 30
0.0
 10
143.009985
 20
220.432459
 30
0.0
 10
148.948983
 20
222.892472
 30
0.0
  0
SPLINE
  5
1ff
100
AcDbEntity
  8
Layer_1
 62
1
100
AcDbSpline
 70
8
 71
3
 72
8
 73
4
 74
0
 40
0
 40
0
 40
0
 40
0
 40
1
 40
1
 40
1
 40
1
 10
148.948983
 20
222.892472
 30
0.0
 10
154.887980
 20
225.352486
 30
0.0
 10
158.760309
 20
231.147836
 30
0.0
 10
158.760309
 20
237.576160
 30
0.0
  0
SPLINE
  5
200
100
AcDbEntity
  8
Layer_1
 62
1
100
AcDbSpline
 70
8
 71
3
 72
8
 73
4
 74
0
 40
0
 40
0
 40
0
 40
0
 40
1
 40
1
 40
1
 40
1
 10
158.760309
 20
237.576160
 30
0.0
 10
158.760309
 20
246.353903
 30
0.0
 10
151.644543
 20
253.469669
 30
0.0
 10
142.866800
 20
253.469669
 30
0.0
  0
LWPOLYLINE
  5
201
100
AcDbEntity
  8
Layer_1
 62
1
100
AcDbPolyline
 90
1
 70
1
 10
227.899010
 20
273.075183
 30
0.0
  0
SPLINE
  5
202
100
AcDbEntity
  8
Layer_1
 62
1
100
AcDbSpline
 70
8
 71
3
 72
8
 73
4
 74
0
 40
0
 40
0
 40
0
 40
0
 40
1
 40
1
 40
1
 40
1
 10
169.608250
 20
229.595089
 30
0.0
 10
163.179926
 20
229.595089
 30
0.0
 10
157.384576
 20
225.722760
 30
0.0
 10
154.924562
 20
219.783763
 30
0.0
  0
SPLINE
  5
203
100
AcDbEntity
  8
Layer_1
 62
1
100
AcDbSpline
 70
8
 71
3
 72
8
 73
4
 74
0
 40
0
 40
0
 40
0
 40
0
 40
1
 40
1
 40
1
 40
1
 10
154.924562
 20
219.783763
 30
0.0
 10
152.464549
 20
213.844765
 30
0.0
 10
153.824330
 20
207.008684
 30
0.0
 10
158.369842
 20
202.463172
 30
0.0
  0
SPLINE
  5
204
100
AcDbEntity
  8
Layer_1
 62
1
100
AcDbSpline
 70
8
 71
3
 72
8
 73
4
 74
0
 40
0
 40
0
 40
0
 40
0
 40
1
 40
1
 40
1
 40
1
 10
158.369842
 20
202.463172
 30
0.0
 10
162.915354
 20
197.917660
 30
0.0
 10
169.751435
 20
196.557879
 30
0.0
 10
175.690433
 20
199.017892
 30
0.0
  0
SPLINE
  5
205
100
AcDbEntity
  8
Layer_1
 62
1
100
AcDbSpline
 70
8
 71
3
 72
8
 73
4
 74
0
 40
0
 40
0
 40
0
 40
0
 40
1
 40
1
 40
1
 40
1
 10
175.690433
 20
199.017892
 30
0.0
 10
181.629430
 20
201.477906
 30
0.0
 10
185.501759
 20
207.273256
 30
0.0
 10
185.501759
 20
213.701580
 30
0.0
  0
SPLINE
  5
206
100
AcDbEntity
  8
Layer_1
 62
1
100
AcDbSpline
 70
8
 71
3
 72
8
 73
4
 74
0
 40
0
 40
0
 40
0
 40
0
 40
1
 40
1
 40
1
 40
1
 10
185.501759
 20
213.701580
 30
0.0
 10
185.501759
 20
217.916801
 30
0.0
 10
183.827269
 20
221.959377
 30
0.0
 10
180.846658
 20
224.939988
 30
0.0
  0
SPLINE
  5
207
100
AcDbEntity
  8
Layer_1
 62
1
100
AcDbSpline
 70
8
 71
3
 72
8
 73
4
 74
0
 40
0
 40
0
 40
0
 40
0
 40
1
 40
1
 40
1
 40
1
 10
180.846658
 20
224.939988
 30
0.0
 10
177.866047
 20
227.920599
 30
0.0
 10
173.823471
 20
229.595089
 30
0.0
 10
169.608250
 20
229.595089
 30
0.0
  0
LWPOLYLINE
  5
208
100
AcDbEntity
  8
Layer_1
 62
1
100
AcDbPolyline
 90
1
 70
1
 10
142.866800
 20
253.469669
 30
0.0
  0
SPLINE
  5
209
100
AcDbEntity
  8
Layer_1
 62
1
100
AcDbSpline
 70
8
 71
3
 72
8
 73
4
 74
0
 40
0
 40
0
 40
0
 40
0
 40
1
 40
1
 40
1
 40
1
 10
268.798640
 20
129.959880
 30
0.0
 10
267.347430
 20
129.959880
 30
0.0
 10
266.040810
 20
129.228830
 30
0.0
 10
265.102230
 20
128.050430
 30
0.0
  0
LWPOLYLINE
  5
20a
100
AcDbEntity
  8
Layer_1
 62
1
100
AcDbPolyline
 90
1
 70
1
 10
169.608250
 20
229.595089
 30
0.0
  0
SPLINE
  5
20b
100
AcDbEntity
  8
Layer_1
 62
1
100
AcDbSpline
 70
8
 71
3
 72
8
 73
4
 74
0
 40
0
 40
0
 40
0
 40
0
 40
1
 40
1
 40
1
 40
1
 10
228.195610
 20
90.492520
 30
0.0
 10
224.788095
 20
87.052516
 30
0.0
 10
222.874440
 20
82.407639
 30
0.0
 10
222.869840
 20
77.565660
 30
0.0
  0
SPLINE
  5
20c
100
AcDbEntity
  8
Layer_1
 62
1
100
AcDbSpline
 70
8
 71
3
 72
8
 73
4
 74
0
 40
0
 40
0
 40
0
 40
0
 40
1
 40
1
 40
1
 40
1
 10
222.869840
 20
77.565660
 30
0.0
 10
222.870869
 20
73.368383
 30
0.0
 10
224.307388
 20
69.297697
 30
0.0
 10
226.940910
 20
66.029410
 30
0.0
  0
LWPOLYLINE
  5
20d
100
AcDbEntity
  8
Layer_1
 62
1
100
AcDbPolyline
 90
3
 70
0
 10
265.102230
 20
128.050430
 30
0.0
 10
228.200610
 20
90.585020
 30
0.0
 10
228.195610
 20
90.492520
 30
0.0
  0
SPLINE
  5
20e
100
AcDbEntity
  8
Layer_1
 62
1
100
AcDbSpline
 70
8
 71
3
 72
8
 73
4
 74
0
 40
0
 40
0
 40
0
 40
0
 40
1
 40
1
 40
1
 40
1
 10
227.271190
 20
65.646010
 30
0.0
 10
227.829470
 20
64.989856
 30
0.0
 10
228.433159
 20
64.373736
 30
0.0
 10
229.077800
 20
63.802200
 30
0.0
  0
LWPOLYLINE
  5
20f
100
AcDbEntity
  8
Layer_1
 62
1
100
AcDbPolyline
 90
3
 70
0
 10
226.940910
 20
66.029410
 30
0.0
 10
226.938910
 20
65.985010
 30
0.0
 10
227.271190
 20
65.646010
 30
0.0
  0
SPLINE
  5
210
100
AcDbEntity
  8
Layer_1
 62
1
100
AcDbSpline
 70
8
 71
3
 72
8
 73
4
 74
0
 40
0
 40
0
 40
0
 40
0
 40
1
 40
1
 40
1
 40
1
 10
265.084390
 20
27.056640
 30
0.0
 10
266.024210
 20
25.864920
 30
0.0
 10
267.337870
 20
25.123940
 30
0.0
 10
268.798370
 20
25.123940
 30
0.0
  0
LWPOLYLINE
  5
211
100
AcDbEntity
  8
Layer_1
 62
1
100
AcDbPolyline
 90
2
 70
0
 10
229.077800
 20
63.802200
 30
0.0
 10
265.084390
 20
27.056640
 30
0.0
  0
SPLINE
  5
212
100
AcDbEntity
  8
Layer_1
 62
1
100
AcDbSpline
 70
8
 71
3
 72
8
 73
4
 74
0
 40
0
 40
0
 40
0
 40
0
 40
1
 40
1
 40
1
 40
1
 10
363.274780
 20
25.123940
 30
0.0
 10
366.144210
 20
25.123940
 30
0.0
 10
368.454310
 20
27.974060
 30
0.0
 10
368.454310
 20
31.513730
 30
0.0
  0
LWPOLYLINE
  5
213
100
AcDbEntity
  8
Layer_1
 62
1
100
AcDbPolyline
 90
2
 70
0
 10
268.798370
 20
25.123940
 30
0.0
 10
363.274780
 20
25.123940
 30
0.0
  0
SPLINE
  5
214
100
AcDbEntity
  8
Layer_1
 62
1
100
AcDbSpline
 70
8
 71
3
 72
8
 73
4
 74
0
 40
0
 40
0
 40
0
 40
0
 40
1
 40
1
 40
1
 40
1
 10
368.454310
 20
123.570640
 30
0.0
 10
368.454310
 20
127.110310
 30
0.0
 10
366.144210
 20
129.959920
 30
0.0
 10
363.274780
 20
129.959920
 30
0.0
  0
LWPOLYLINE
  5
215
100
AcDbEntity
  8
Layer_1
 62
1
100
AcDbPolyline
 90
2
 70
0
 10
368.454310
 20
31.513730
 30
0.0
 10
368.454310
 20
123.570640
 30
0.0
  0
SPLINE
  5
216
100
AcDbEntity
  8
Layer_1
 62
1
100
AcDbSpline
 70
8
 71
3
 72
8
 73
4
 74
0
 40
0
 40
0
 40
0
 40
0
 40
1
 40
1
 40
1
 40
1
 10
240.799180
 20
84.439774
 30
0.0
 10
238.210236
 20
84.439774
 30
0.0
 10
235.876216
 20
82.880231
 30
0.0
 10
234.885470
 20
80.488359
 30
0.0
  0
SPLINE
  5
217
100
AcDbEntity
  8
Layer_1
 62
1
100
AcDbSpline
 70
8
 71
3
 72
8
 73
4
 74
0
 40
0
 40
0
 40
0
 40
0
 40
1
 40
1
 40
1
 40
1
 10
234.885470
 20
80.488359
 30
0.0
 10
233.894724
 20
78.096486
 30
0.0
 10
234.442362
 20
75.343322
 30
0.0
 10
236.273022
 20
73.512662
 30
0.0
  0
SPLINE
  5
218
100
AcDbEntity
  8
Layer_1
 62
1
100
AcDbSpline
 70
8
 71
3
 72
8
 73
4
 74
0
 40
0
 40
0
 40
0
 40
0
 40
1
 40
1
 40
1
 40
1
 10
236.273022
 20
73.512662
 30
0.0
 10
238.103682
 20
71.682002
 30
0.0
 10
240.856846
 20
71.134364
 30
0.0
 10
243.248719
 20
72.125110
 30
0.0
  0
SPLINE
  5
219
100
AcDbEntity
  8
Layer_1
 62
1
100
AcDbSpline
 70
8
 71
3
 72
8
 73
4
 74
0
 40
0
 40
0
 40
0
 40
0
 40
1
 40
1
 40
1
 40
1
 10
243.248719
 20
72.125110
 30
0.0
 10
245.640591
 20
73.115856
 30
0.0
 10
247.200134
 20
75.449876
 30
0.0
 10
247.200134
 20
78.038820
 30
0.0
  0
SPLINE
  5
21a
100
AcDbEntity
  8
Layer_1
 62
1
100
AcDbSpline
 70
8
 71
3
 72
8
 73
4
 74
0
 40
0
 40
0
 40
0
 40
0
 40
1
 40
1
 40
1
 40
1
 10
247.200134
 20
78.038820
 30
0.0
 10
247.200134
 20
79.736458
 30
0.0
 10
246.525750
 20
81.364566
 30
0.0
 10
245.325338
 20
82.564978
 30
0.0
  0
SPLINE
  5
21b
100
AcDbEntity
  8
Layer_1
 62
1
100
AcDbSpline
 70
8
 71
3
 72
8
 73
4
 74
0
 40
0
 40
0
 40
0
 40
0
 40
1
 40
1
 40
1
 40
1
 10
245.325338
 20
82.564978
 30
0.0
 10
244.124926
 20
83.765390
 30
0.0
 10
242.496818
 20
84.439774
 30
0.0
 10
240.799180
 20
84.439774
 30
0.0
  0
LWPOLYLINE
  5
21c
100
AcDbEntity
  8
Layer_1
 62
1
100
AcDbPolyline
 90
2
 70
0
 10
363.274780
 20
129.959920
 30
0.0
 10
268.798640
 20
129.959880
 30
0.0
  0
LWPOLYLINE
  5
21d
100
AcDbEntity
  8
Layer_1
 62
1
100
AcDbPolyline
 90
1
 70
1
 10
240.799180
 20
84.439774
 30
0.0
  0
SPLINE
  5
21e
100
AcDbEntity
  8
Layer_1
 62
1
100
AcDbSpline
 70
8
 71
3
 72
8
 73
4
 74
0
 40
0
 40
0
 40
0
 40
0
 40
1
 40
1
 40
1
 40
1
 10
137.832620
 20
143.981030
 30
0.0
 10
137.148492
 20
143.906534
 30
0.0
 10
136.469084
 20
143.793704
 30
0.0
 10
135.797600
 20
143.643070
 30
0.0
  0
LWPOLYLINE
  5
21f
100
AcDbEntity
  8
Layer_1
 62
1
100
AcDbPolyline
 90
2
 70
0
 10
162.276080
 20
148.038670
 30
0.0
 10
137.832620
 20
143.981030
 30
0.0
  0
SPLINE
  5
220
100
AcDbEntity
  8
Layer_1
 62
1
100
AcDbSpline
 70
8
 71
3
 72
8
 73
4
 74
0
 40
0
 40
0
 40
0
 40
0
 40
1
 40
1
 40
1
 40
1
 10
135.763000
 20
143.633070
 30
0.0
 10
127.429991
 20
141.698148
 30
0.0
 10
121.531021
 20
134.273625
 30
0.0
 10
121.529760
 20
125.718920
 30
0.0
  0
SPLINE
  5
221
100
AcDbEntity
  8
Layer_1
 62
1
100
AcDbSpline
 70
8
 71
3
 72
8
 73
4
 74
0
 40
0
 40
0
 40
0
 40
0
 40
1
 40
1
 40
1
 40
1
 10
121.529760
 20
125.718920
 30
0.0
 10
121.535710
 20
117.409404
 30
0.0
 10
127.112107
 20
110.135817
 30
0.0
 10
135.135140
 20
107.972710
 30
0.0
  0
LWPOLYLINE
  5
222
100
AcDbEntity
  8
Layer_1
 62
1
100
AcDbPolyline
 90
3
 70
0
 10
135.797600
 20
143.643070
 30
0.0
 10
135.763000
 20
143.637070
 30
0.0
 10
135.763000
 20
143.633070
 30
0.0
  0
SPLINE
  5
223
100
AcDbEntity
  8
Layer_1
 62
1
100
AcDbSpline
 70
8
 71
3
 72
8
 73
4
 74
0
 40
0
 40
0
 40
0
 40
0
 40
1
 40
1
 40
1
 40
1
 10
136.338200
 20
107.690570
 30
0.0
 10
136.681260
 20
107.620271
 30
0.0
 10
137.026257
 20
107.559783
 30
0.0
 10
137.372770
 20
107.509180
 30
0.0
  0
LWPOLYLINE
  5
224
100
AcDbEntity
  8
Layer_1
 62
1
100
AcDbPolyline
 90
3
 70
0
 10
135.135140
 20
107.972710
 30
0.0
 10
135.134140
 20
107.901410
 30
0.0
 10
136.338200
 20
107.690570
 30
0.0
  0
SPLINE
  5
225
100
AcDbEntity
  8
Layer_1
 62
1
100
AcDbSpline
 70
8
 71
3
 72
8
 73
4
 74
0
 40
0
 40
0
 40
0
 40
0
 40
1
 40
1
 40
1
 40
1
 10
139.430590
 20
132.432634
 30
0.0
 10
136.841646
 20
132.432634
 30
0.0
 10
134.507626
 20
130.873091
 30
0.0
 10
133.516880
 20
128.481219
 30
0.0
  0
SPLINE
  5
226
100
AcDbEntity
  8
Layer_1
 62
1
100
AcDbSpline
 70
8
 71
3
 72
8
 73
4
 74
0
 40
0
 40
0
 40
0
 40
0
 40
1
 40
1
 40
1
 40
1
 10
133.516880
 20
128.481219
 30
0.0
 10
132.526134
 20
126.089346
 30
0.0
 10
133.073772
 20
123.336182
 30
0.0
 10
134.904432
 20
121.505522
 30
0.0
  0
SPLINE
  5
227
100
AcDbEntity
  8
Layer_1
 62
1
100
AcDbSpline
 70
8
 71
3
 72
8
 73
4
 74
0
 40
0
 40
0
 40
0
 40
0
 40
1
 40
1
 40
1
 40
1
 10
134.904432
 20
121.505522
 30
0.0
 10
136.735092
 20
119.674862
 30
0.0
 10
139.488256
 20
119.127224
 30
0.0
 10
141.880129
 20
120.117970
 30
0.0
  0
SPLINE
  5
228
100
AcDbEntity
  8
Layer_1
 62
1
100
AcDbSpline
 70
8
 71
3
 72
8
 73
4
 74
0
 40
0
 40
0
 40
0
 40
0
 40
1
 40
1
 40
1
 40
1
 10
141.880129
 20
120.117970
 30
0.0
 10
144.272001
 20
121.108716
 30
0.0
 10
145.831544
 20
123.442736
 30
0.0
 10
145.831544
 20
126.031680
 30
0.0
  0
SPLINE
  5
229
100
AcDbEntity
  8
Layer_1
 62
1
100
AcDbSpline
 70
8
 71
3
 72
8
 73
4
 74
0
 40
0
 40
0
 40
0
 40
0
 40
1
 40
1
 40
1
 40
1
 10
145.831544
 20
126.031680
 30
0.0
 10
145.831544
 20
127.729318
 30
0.0
 10
145.157160
 20
129.357426
 30
0.0
 10
143.956748
 20
130.557838
 30
0.0
  0
SPLINE
  5
22a
100
AcDbEntity
  8
Layer_1
 62
1
100
AcDbSpline
 70
8
 71
3
 72
8
 73
4
 74
0
 40
0
 40
0
 40
0
 40
0
 40
1
 40
1
 40
1
 40
1
 10
143.956748
 20
130.557838
 30
0.0
 10
142.756336
 20
131.758250
 30
0.0
 10
141.128228
 20
132.432634
 30
0.0
 10
139.430590
 20
132.432634
 30
0.0
  0
LWPOLYLINE
  5
22b
100
AcDbEntity
  8
Layer_1
 62
1
100
AcDbPolyline
 90
3
 70
0
 10
137.372770
 20
107.509180
 30
0.0
 10
162.066350
 20
103.185420
 30
0.0
 10
162.276080
 20
148.038670
 30
0.0
  0
LWPOLYLINE
  5
22c
100
AcDbEntity
  8
Layer_1
 62
1
100
AcDbPolyline
 90
1
 70
1
 10
139.430590
 20
132.432634
 30
0.0
  0
SPLINE
  5
22d
100
AcDbEntity
  8
Layer_1
 62
1
100
AcDbSpline
 70
8
 71
3
 72
8
 73
4
 74
0
 40
0
 40
0
 40
0
 40
0
 40
1
 40
1
 40
1
 40
1
 10
389.820620
 20
74.691030
 30
0.0
 10
389.136492
 20
74.616534
 30
0.0
 10
388.457084
 20
74.503704
 30
0.0
 10
387.785600
 20
74.353070
 30
0.0
  0
LWPOLYLINE
  5
22e
100
AcDbEntity
  8
Layer_1
 62
1
100
AcDbPolyline
 90
2
 70
0
 10
414.264080
 20
78.748670
 30
0.0
 10
389.820620
 20
74.691030
 30
0.0
  0
SPLINE
  5
22f
100
AcDbEntity
  8
Layer_1
 62
1
100
AcDbSpline
 70
8
 71
3
 72
8
 73
4
 74
0
 40
0
 40
0
 40
0
 40
0
 40
1
 40
1
 40
1
 40
1
 10
387.751000
 20
74.343070
 30
0.0
 10
379.417991
 20
72.408148
 30
0.0
 10
373.519021
 20
64.983625
 30
0.0
 10
373.517760
 20
56.428920
 30
0.0
  0
SPLINE
  5
230
100
AcDbEntity
  8
Layer_1
 62
1
100
AcDbSpline
 70
8
 71
3
 72
8
 73
4
 74
0
 40
0
 40
0
 40
0
 40
0
 40
1
 40
1
 40
1
 40
1
 10
373.517760
 20
56.428920
 30
0.0
 10
373.523710
 20
48.119404
 30
0.0
 10
379.100107
 20
40.845817
 30
0.0
 10
387.123140
 20
38.682710
 30
0.0
  0
LWPOLYLINE
  5
231
100
AcDbEntity
  8
Layer_1
 62
1
100
AcDbPolyline
 90
3
 70
0
 10
387.785600
 20
74.353070
 30
0.0
 10
387.751000
 20
74.347070
 30
0.0
 10
387.751000
 20
74.343070
 30
0.0
  0
SPLINE
  5
232
100
AcDbEntity
  8
Layer_1
 62
1
100
AcDbSpline
 70
8
 71
3
 72
8
 73
4
 74
0
 40
0
 40
0
 40
0
 40
0
 40
1
 40
1
 40
1
 40
1
 10
388.326200
 20
38.400570
 30
0.0
 10
388.669260
 20
38.330271
 30
0.0
 10
389.014257
 20
38.269783
 30
0.0
 10
389.360770
 20
38.219180
 30
0.0
  0
LWPOLYLINE
  5
233
100
AcDbEntity
  8
Layer_1
 62
1
100
AcDbPolyline
 90
3
 70
0
 10
387.123140
 20
38.682710
 30
0.0
 10
387.122140
 20
38.611410
 30
0.0
 10
388.326200
 20
38.400570
 30
0.0
  0
SPLINE
  5
234
100
AcDbEntity
  8
Layer_1
 62
1
100
AcDbSpline
 70
8
 71
3
 72
8
 73
4
 74
0
 40
0
 40
0
 40
0
 40
0
 40
1
 40
1
 40
1
 40
1
 10
391.418590
 20
63.142634
 30
0.0
 10
388.829646
 20
63.142634
 30
0.0
 10
386.495626
 20
61.583091
 30
0.0
 10
385.504880
 20
59.191219
 30
0.0
  0
SPLINE
  5
235
100
AcDbEntity
  8
Layer_1
 62
1
100
AcDbSpline
 70
8
 71
3
 72
8
 73
4
 74
0
 40
0
 40
0
 40
0
 40
0
 40
1
 40
1
 40
1
 40
1
 10
385.504880
 20
59.191219
 30
0.0
 10
384.514134
 20
56.799346
 30
0.0
 10
385.061772
 20
54.046182
 30
0.0
 10
386.892432
 20
52.215522
 30
0.0
  0
SPLINE
  5
236
100
AcDbEntity
  8
Layer_1
 62
1
100
AcDbSpline
 70
8
 71
3
 72
8
 73
4
 74
0
 40
0
 40
0
 40
0
 40
0
 40
1
 40
1
 40
1
 40
1
 10
386.892432
 20
52.215522
 30
0.0
 10
388.723092
 20
50.384862
 30
0.0
 10
391.476256
 20
49.837224
 30
0.0
 10
393.868129
 20
50.827970
 30
0.0
  0
SPLINE
  5
237
100
AcDbEntity
  8
Layer_1
 62
1
100
AcDbSpline
 70
8
 71
3
 72
8
 73
4
 74
0
 40
0
 40
0
 40
0
 40
0
 40
1
 40
1
 40
1
 40
1
 10
393.868129
 20
50.827970
 30
0.0
 10
396.260001
 20
51.818716
 30
0.0
 10
397.819544
 20
54.152736
 30
0.0
 10
397.819544
 20
56.741680
 30
0.0
  0
SPLINE
  5
238
100
AcDbEntity
  8
Layer_1
 62
1
100
AcDbSpline
 70
8
 71
3
 72
8
 73
4
 74
0
 40
0
 40
0
 40
0
 40
0
 40
1
 40
1
 40
1
 40
1
 10
397.819544
 20
56.741680
 30
0.0
 10
397.819544
 20
58.439318
 30
0.0
 10
397.145160
 20
60.067426
 30
0.0
 10
395.944748
 20
61.267838
 30
0.0
  0
SPLINE
  5
239
100
AcDbEntity
  8
Layer_1
 62
1
100
AcDbSpline
 70
8
 71
3
 72
8
 73
4
 74
0
 40
0
 40
0
 40
0
 40
0
 40
1
 40
1
 40
1
 40
1
 10
395.944748
 20
61.267838
 30
0.0
 10
394.744336
 20
62.468250
 30
0.0
 10
393.116228
 20
63.142634
 30
0.0
 10
391.418590
 20
63.142634
 30
0.0
  0
LWPOLYLINE
  5
23a
100
AcDbEntity
  8
Layer_1
 62
1
100
AcDbPolyline
 90
3
 70
0
 10
389.360770
 20
38.219180
 30
0.0
 10
414.054350
 20
33.895420
 30
0.0
 10
414.264080
 20
78.748670
 30
0.0
  0
LWPOLYLINE
  5
23b
100
AcDbEntity
  8
Layer_1
 62
1
100
AcDbPolyline
 90
1
 70
1
 10
391.418590
 20
63.142634
 30
0.0
  0
SPLINE
  5
23c
100
AcDbEntity
  8
Layer_1
 62
1
100
AcDbSpline
 70
8
 71
3
 72
8
 73
4
 74
0
 40
0
 40
0
 40
0
 40
0
 40
1
 40
1
 40
1
 40
1
 10
389.808620
 20
124.021030
 30
0.0
 10
389.124492
 20
123.946534
 30
0.0
 10
388.445084
 20
123.833704
 30
0.0
 10
387.773600
 20
123.683070
 30
0.0
  0
LWPOLYLINE
  5
23d
100
AcDbEntity
  8
Layer_1
 62
1
100
AcDbPolyline
 90
2
 70
0
 10
414.252080
 20
128.078670
 30
0.0
 10
389.808620
 20
124.021030
 30
0.0
  0
SPLINE
  5
23e
100
AcDbEntity
  8
Layer_1
 62
1
100
AcDbSpline
 70
8
 71
3
 72
8
 73
4
 74
0
 40
0
 40
0
 40
0
 40
0
 40
1
 40
1
 40
1
 40
1
 10
387.739000
 20
123.673070
 30
0.0
 10
379.405991
 20
121.738148
 30
0.0
 10
373.507021
 20
114.313625
 30
0.0
 10
373.505760
 20
105.758920
 30
0.0
  0
SPLINE
  5
23f
100
AcDbEntity
  8
Layer_1
 62
1
100
AcDbSpline
 70
8
 71
3
 72
8
 73
4
 74
0
 40
0
 40
0
 40
0
 40
0
 40
1
 40
1
 40
1
 40
1
 10
373.505760
 20
105.758920
 30
0.0
 10
373.511710
 20
97.449404
 30
0.0
 10
379.088107
 20
90.175817
 30
0.0
 10
387.111140
 20
88.012710
 30
0.0
  0
LWPOLYLINE
  5
240
100
AcDbEntity
  8
Layer_1
 62
1
100
AcDbPolyline
 90
3
 70
0
 10
387.773600
 20
123.683070
 30
0.0
 10
387.739000
 20
123.677070
 30
0.0
 10
387.739000
 20
123.673070
 30
0.0
  0
SPLINE
  5
241
100
AcDbEntity
  8
Layer_1
 62
1
100
AcDbSpline
 70
8
 71
3
 72
8
 73
4
 74
0
 40
0
 40
0
 40
0
 40
0
 40
1
 40
1
 40
1
 40
1
 10
388.314200
 20
87.730570
 30
0.0
 10
388.657260
 20
87.660271
 30
0.0
 10
389.002257
 20
87.599783
 30
0.0
 10
389.348770
 20
87.549180
 30
0.0
  0
LWPOLYLINE
  5
242
100
AcDbEntity
  8
Layer_1
 62
1
100
AcDbPolyline
 90
3
 70
0
 10
387.111140
 20
88.012710
 30
0.0
 10
387.110140
 20
87.941410
 30
0.0
 10
388.314200
 20
87.730570
 30
0.0
  0
SPLINE
  5
243
100
AcDbEntity
  8
Layer_1
 62
1
100
AcDbSpline
 70
8
 71
3
 72
8
 73
4
 74
0
 40
0
 40
0
 40
0
 40
0
 40
1
 40
1
 40
1
 40
1
 10
391.406590
 20
112.472634
 30
0.0
 10
388.817646
 20
112.472634
 30
0.0
 10
386.483626
 20
110.913091
 30
0.0
 10
385.492880
 20
108.521219
 30
0.0
  0
SPLINE
  5
244
100
AcDbEntity
  8
Layer_1
 62
1
100
AcDbSpline
 70
8
 71
3
 72
8
 73
4
 74
0
 40
0
 40
0
 40
0
 40
0
 40
1
 40
1
 40
1
 40
1
 10
385.492880
 20
108.521219
 30
0.0
 10
384.502134
 20
106.129346
 30
0.0
 10
385.049772
 20
103.376182
 30
0.0
 10
386.880432
 20
101.545522
 30
0.0
  0
SPLINE
  5
245
100
AcDbEntity
  8
Layer_1
 62
1
100
AcDbSpline
 70
8
 71
3
 72
8
 73
4
 74
0
 40
0
 40
0
 40
0
 40
0
 40
1
 40
1
 40
1
 40
1
 10
386.880432
 20
101.545522
 30
0.0
 10
388.711092
 20
99.714862
 30
0.0
 10
391.464256
 20
99.167224
 30
0.0
 10
393.856129
 20
100.157970
 30
0.0
  0
SPLINE
  5
246
100
AcDbEntity
  8
Layer_1
 62
1
100
AcDbSpline
 70
8
 71
3
 72
8
 73
4
 74
0
 40
0
 40
0
 40
0
 40
0
 40
1
 40
1
 40
1
 40
1
 10
393.856129
 20
100.157970
 30
0.0
 10
396.248001
 20
101.148716
 30
0.0
 10
397.807544
 20
103.482736
 30
0.0
 10
397.807544
 20
106.071680
 30
0.0
  0
SPLINE
  5
247
100
AcDbEntity
  8
Layer_1
 62
1
100
AcDbSpline
 70
8
 71
3
 72
8
 73
4
 74
0
 40
0
 40
0
 40
0
 40
0
 40
1
 40
1
 40
1
 40
1
 10
397.807544
 20
106.071680
 30
0.0
 10
397.807544
 20
107.769318
 30
0.0
 10
397.133160
 20
109.397426
 30
0.0
 10
395.932748
 20
110.597838
 30
0.0
  0
SPLINE
  5
248
100
AcDbEntity
  8
Layer_1
 62
1
100
AcDbSpline
 70
8
 71
3
 72
8
 73
4
 74
0
 40
0
 40
0
 40
0
 40
0
 40
1
 40
1
 40
1
 40
1
 10
395.932748
 20
110.597838
 30
0.0
 10
394.732336
 20
111.798250
 30
0.0
 10
393.104228
 20
112.472634
 30
0.0
 10
391.406590
 20
112.472634
 30
0.0
  0
LWPOLYLINE
  5
249
100
AcDbEntity
  8
Layer_1
 62
1
100
AcDbPolyline
 90
3
 70
0
 10
389.348770
 20
87.549180
 30
0.0
 10
414.042350
 20
83.225420
 30
0.0
 10
414.252080
 20
128.078670
 30
0.0
  0
LWPOLYLINE
  5
24a
100
AcDbEntity
  8
Layer_1
 62
1
100
AcDbPolyline
 90
1
 70
1
 10
391.406590
 20
112.472634
 30
0.0
  0
SPLINE
  5
24b
100
AcDbEntity
  8
Layer_1
 62
1
100
AcDbSpline
 70
8
 71
3
 72
8
 73
4
 74
0
 40
0
 40
0
 40
0
 40
0
 40
1
 40
1
 40
1
 40
1
 10
145.386620
 20
342.098030
 30
0.0
 10
144.702492
 20
342.023534
 30
0.0
 10
144.023084
 20
341.910704
 30
0.0
 10
143.351600
 20
341.760070
 30
0.0
  0
LWPOLYLINE
  5
24c
100
AcDbEntity
  8
Layer_1
 62
1
100
AcDbPolyline
 90
2
 70
0
 10
169.830080
 20
346.155670
 30
0.0
 10
145.386620
 20
342.098030
 30
0.0
  0
SPLINE
  5
24d
100
AcDbEntity
  8
Layer_1
 62
1
100
AcDbSpline
 70
8
 71
3
 72
8
 73
4
 74
0
 40
0
 40
0
 40
0
 40
0
 40
1
 40
1
 40
1
 40
1
 10
143.317000
 20
341.750070
 30
0.0
 10
134.983991
 20
339.815148
 30
0.0
 10
129.085021
 20
332.390625
 30
0.0
 10
129.083760
 20
323.835920
 30
0.0
  0
SPLINE
  5
24e
100
AcDbEntity
  8
Layer_1
 62
1
100
AcDbSpline
 70
8
 71
3
 72
8
 73
4
 74
0
 40
0
 40
0
 40
0
 40
0
 40
1
 40
1
 40
1
 40
1
 10
129.083760
 20
323.835920
 30
0.0
 10
129.089710
 20
315.526404
 30
0.0
 10
134.666107
 20
308.252817
 30
0.0
 10
142.689140
 20
306.089710
 30
0.0
  0
LWPOLYLINE
  5
24f
100
AcDbEntity
  8
Layer_1
 62
1
100
AcDbPolyline
 90
3
 70
0
 10
143.351600
 20
341.760070
 30
0.0
 10
143.317000
 20
341.754070
 30
0.0
 10
143.317000
 20
341.750070
 30
0.0
  0
SPLINE
  5
250
100
AcDbEntity
  8
Layer_1
 62
1
100
AcDbSpline
 70
8
 71
3
 72
8
 73
4
 74
0
 40
0
 40
0
 40
0
 40
0
 40
1
 40
1
 40
1
 40
1
 10
143.892200
 20
305.807570
 30
0.0
 10
144.235260
 20
305.737271
 30
0.0
 10
144.580257
 20
305.676783
 30
0.0
 10
144.926770
 20
305.626180
 30
0.0
  0
LWPOLYLINE
  5
251
100
AcDbEntity
  8
Layer_1
 62
1
100
AcDbPolyline
 90
3
 70
0
 10
142.689140
 20
306.089710
 30
0.0
 10
142.688140
 20
306.018410
 30
0.0
 10
143.892200
 20
305.807570
 30
0.0
  0
SPLINE
  5
252
100
AcDbEntity
  8
Layer_1
 62
1
100
AcDbSpline
 70
8
 71
3
 72
8
 73
4
 74
0
 40
0
 40
0
 40
0
 40
0
 40
1
 40
1
 40
1
 40
1
 10
146.984590
 20
330.549634
 30
0.0
 10
144.395646
 20
330.549634
 30
0.0
 10
142.061626
 20
328.990091
 30
0.0
 10
141.070880
 20
326.598219
 30
0.0
  0
SPLINE
  5
253
100
AcDbEntity
  8
Layer_1
 62
1
100
AcDbSpline
 70
8
 71
3
 72
8
 73
4
 74
0
 40
0
 40
0
 40
0
 40
0
 40
1
 40
1
 40
1
 40
1
 10
141.070880
 20
326.598219
 30
0.0
 10
140.080134
 20
324.206346
 30
0.0
 10
140.627772
 20
321.453182
 30
0.0
 10
142.458432
 20
319.622522
 30
0.0
  0
SPLINE
  5
254
100
AcDbEntity
  8
Layer_1
 62
1
100
AcDbSpline
 70
8
 71
3
 72
8
 73
4
 74
0
 40
0
 40
0
 40
0
 40
0
 40
1
 40
1
 40
1
 40
1
 10
142.458432
 20
319.622522
 30
0.0
 10
144.289092
 20
317.791862
 30
0.0
 10
147.042256
 20
317.244224
 30
0.0
 10
149.434129
 20
318.234970
 30
0.0
  0
SPLINE
  5
255
100
AcDbEntity
  8
Layer_1
 62
1
100
AcDbSpline
 70
8
 71
3
 72
8
 73
4
 74
0
 40
0
 40
0
 40
0
 40
0
 40
1
 40
1
 40
1
 40
1
 10
149.434129
 20
318.234970
 30
0.0
 10
151.826001
 20
319.225716
 30
0.0
 10
153.385544
 20
321.559736
 30
0.0
 10
153.385544
 20
324.148680
 30
0.0
  0
SPLINE
  5
256
100
AcDbEntity
  8
Layer_1
 62
1
100
AcDbSpline
 70
8
 71
3
 72
8
 73
4
 74
0
 40
0
 40
0
 40
0
 40
0
 40
1
 40
1
 40
1
 40
1
 10
153.385544
 20
324.148680
 30
0.0
 10
153.385544
 20
325.846318
 30
0.0
 10
152.711160
 20
327.474426
 30
0.0
 10
151.510748
 20
328.674838
 30
0.0
  0
SPLINE
  5
257
100
AcDbEntity
  8
Layer_1
 62
1
100
AcDbSpline
 70
8
 71
3
 72
8
 73
4
 74
0
 40
0
 40
0
 40
0
 40
0
 40
1
 40
1
 40
1
 40
1
 10
151.510748
 20
328.674838
 30
0.0
 10
150.310336
 20
329.875250
 30
0.0
 10
148.682228
 20
330.549634
 30
0.0
 10
146.984590
 20
330.549634
 30
0.0
  0
LWPOLYLINE
  5
258
100
AcDbEntity
  8
Layer_1
 62
1
100
AcDbPolyline
 90
3
 70
0
 10
144.926770
 20
305.626180
 30
0.0
 10
169.620350
 20
301.302420
 30
0.0
 10
169.830080
 20
346.155670
 30
0.0
  0
SPLINE
  5
259
100
AcDbEntity
  8
Layer_1
 62
1
100
AcDbSpline
 70
8
 71
3
 72
8
 73
4
 74
0
 40
0
 40
0
 40
0
 40
0
 40
1
 40
1
 40
1
 40
1
 10
391.346950
 20
347.032940
 30
0.0
 10
373.696430
 20
347.022140
 30
0.0
 10
357.237300
 20
338.126080
 30
0.0
 10
347.558930
 20
323.365650
 30
0.0
  0
SPLINE
  5
25a
100
AcDbEntity
  8
Layer_1
 62
1
100
AcDbSpline
 70
8
 71
3
 72
8
 73
4
 74
0
 40
0
 40
0
 40
0
 40
0
 40
1
 40
1
 40
1
 40
1
 10
347.558930
 20
323.365650
 30
0.0
 10
328.001760
 20
318.897710
 30
0.0
 10
288.413080
 20
313.092590
 30
0.0
 10
194.074760
 20
311.409790
 30
0.0
  0
SPLINE
  5
25b
100
AcDbEntity
  8
Layer_1
 62
1
100
AcDbSpline
 70
8
 71
3
 72
8
 73
4
 74
0
 40
0
 40
0
 40
0
 40
0
 40
1
 40
1
 40
1
 40
1
 10
194.074760
 20
311.409790
 30
0.0
 10
178.719090
 20
311.011200
 30
0.0
 10
174.618390
 20
304.475470
 30
0.0
 10
177.716580
 20
292.270910
 30
0.0
  0
SPLINE
  5
25c
100
AcDbEntity
  8
Layer_1
 62
1
100
AcDbSpline
 70
8
 71
3
 72
8
 73
4
 74
0
 40
0
 40
0
 40
0
 40
0
 40
1
 40
1
 40
1
 40
1
 10
177.716580
 20
292.270910
 30
0.0
 10
180.920400
 20
281.568220
 30
0.0
 10
176.349520
 20
270.131830
 30
0.0
 10
173.654300
 20
267.984020
 30
0.0
  0
SPLINE
  5
25d
100
AcDbEntity
  8
Layer_1
 62
1
100
AcDbSpline
 70
8
 71
3
 72
8
 73
4
 74
0
 40
0
 40
0
 40
0
 40
0
 40
1
 40
1
 40
1
 40
1
 10
173.654300
 20
267.984020
 30
0.0
 10
167.854200
 20
264.348360
 30
0.0
 10
164.330220
 20
257.986490
 30
0.0
 10
164.324640
 20
251.141120
 30
0.0
  0
SPLINE
  5
25e
100
AcDbEntity
  8
Layer_1
 62
1
100
AcDbSpline
 70
8
 71
3
 72
8
 73
4
 74
0
 40
0
 40
0
 40
0
 40
0
 40
1
 40
1
 40
1
 40
1
 10
164.324640
 20
251.141120
 30
0.0
 10
164.324880
 20
240.152230
 30
0.0
 10
173.233240
 20
231.244090
 30
0.0
 10
184.222130
 20
231.244140
 30
0.0
  0
SPLINE
  5
25f
100
AcDbEntity
  8
Layer_1
 62
1
100
AcDbSpline
 70
8
 71
3
 72
8
 73
4
 74
0
 40
0
 40
0
 40
0
 40
0
 40
1
 40
1
 40
1
 40
1
 10
184.222130
 20
231.244140
 30
0.0
 10
195.211020
 20
231.244090
 30
0.0
 10
204.119380
 20
240.152230
 30
0.0
 10
204.119620
 20
251.141120
 30
0.0
  0
SPLINE
  5
260
100
AcDbEntity
  8
Layer_1
 62
1
100
AcDbSpline
 70
8
 71
3
 72
8
 73
4
 74
0
 40
0
 40
0
 40
0
 40
0
 40
1
 40
1
 40
1
 40
1
 10
204.119620
 20
251.141120
 30
0.0
 10
204.119480
 20
254.044840
 30
0.0
 10
203.483800
 20
256.913330
 30
0.0
 10
202.257200
 20
259.545260
 30
0.0
  0
SPLINE
  5
261
100
AcDbEntity
  8
Layer_1
 62
1
100
AcDbSpline
 70
8
 71
3
 72
8
 73
4
 74
0
 40
0
 40
0
 40
0
 40
0
 40
1
 40
1
 40
1
 40
1
 10
202.257200
 20
259.545260
 30
0.0
 10
197.103440
 20
270.328020
 30
0.0
 10
220.910470
 20
278.726700
 30
0.0
 10
228.754810
 20
279.199350
 30
0.0
  0
SPLINE
  5
262
100
AcDbEntity
  8
Layer_1
 62
1
100
AcDbSpline
 70
8
 71
3
 72
8
 73
4
 74
0
 40
0
 40
0
 40
0
 40
0
 40
1
 40
1
 40
1
 40
1
 10
228.754810
 20
279.199350
 30
0.0
 10
239.628240
 20
279.702550
 30
0.0
 10
313.183820
 20
279.062530
 30
0.0
 10
344.143630
 20
271.882490
 30
0.0
  0
SPLINE
  5
263
100
AcDbEntity
  8
Layer_1
 62
1
100
AcDbSpline
 70
8
 71
3
 72
8
 73
4
 74
0
 40
0
 40
0
 40
0
 40
0
 40
1
 40
1
 40
1
 40
1
 10
344.143630
 20
271.882490
 30
0.0
 10
352.880090
 20
253.755880
 30
0.0
 10
371.224830
 20
242.233180
 30
0.0
 10
391.346950
 20
242.233140
 30
0.0
  0
SPLINE
  5
264
100
AcDbEntity
  8
Layer_1
 62
1
100
AcDbSpline
 70
8
 71
3
 72
8
 73
4
 74
0
 40
0
 40
0
 40
0
 40
0
 40
1
 40
1
 40
1
 40
1
 10
391.346950
 20
242.233140
 30
0.0
 10
420.286610
 20
242.233150
 30
0.0
 10
443.746850
 20
265.693380
 30
0.0
 10
443.746860
 20
294.633040
 30
0.0
  0
SPLINE
  5
265
100
AcDbEntity
  8
Layer_1
 62
1
100
AcDbSpline
 70
8
 71
3
 72
8
 73
4
 74
0
 40
0
 40
0
 40
0
 40
0
 40
1
 40
1
 40
1
 40
1
 10
443.746860
 20
294.633040
 30
0.0
 10
443.746850
 20
323.572700
 30
0.0
 10
420.286610
 20
347.032930
 30
0.0
 10
391.346950
 20
347.032940
 30
0.0
  0
LWPOLYLINE
  5
266
100
AcDbEntity
  8
Layer_1
 62
1
100
AcDbPolyline
 90
1
 70
1
 10
146.984590
 20
330.549634
 30
0.0
  0
SPLINE
  5
267
100
AcDbEntity
  8
Layer_1
 62
1
100
AcDbSpline
 70
8
 71
3
 72
8
 73
4
 74
0
 40
0
 40
0
 40
0
 40
0
 40
1
 40
1
 40
1
 40
1
 10
192.019190
 20
298.008054
 30
0.0
 10
190.744146
 20
298.008054
 30
0.0
 10
189.594650
 20
297.239985
 30
0.0
 10
189.106712
 20
296.061998
 30
0.0
  0
SPLINE
  5
268
100
AcDbEntity
  8
Layer_1
 62
1
100
AcDbSpline
 70
8
 71
3
 72
8
 73
4
 74
0
 40
0
 40
0
 40
0
 40
0
 40
1
 40
1
 40
1
 40
1
 10
189.106712
 20
296.061998
 30
0.0
 10
188.618774
 20
294.884010
 30
0.0
 10
188.888483
 20
293.528088
 30
0.0
 10
189.790076
 20
292.626496
 30
0.0
  0
SPLINE
  5
269
100
AcDbEntity
  8
Layer_1
 62
1
100
AcDbSpline
 70
8
 71
3
 72
8
 73
4
 74
0
 40
0
 40
0
 40
0
 40
0
 40
1
 40
1
 40
1
 40
1
 10
189.790076
 20
292.626496
 30
0.0
 10
190.691668
 20
291.724903
 30
0.0
 10
192.047590
 20
291.455194
 30
0.0
 10
193.225578
 20
291.943132
 30
0.0
  0
SPLINE
  5
26a
100
AcDbEntity
  8
Layer_1
 62
1
100
AcDbSpline
 70
8
 71
3
 72
8
 73
4
 74
0
 40
0
 40
0
 40
0
 40
0
 40
1
 40
1
 40
1
 40
1
 10
193.225578
 20
291.943132
 30
0.0
 10
194.403565
 20
292.431070
 30
0.0
 10
195.171634
 20
293.580566
 30
0.0
 10
195.171634
 20
294.855610
 30
0.0
  0
SPLINE
  5
26b
100
AcDbEntity
  8
Layer_1
 62
1
100
AcDbSpline
 70
8
 71
3
 72
8
 73
4
 74
0
 40
0
 40
0
 40
0
 40
0
 40
1
 40
1
 40
1
 40
1
 10
195.171634
 20
294.855610
 30
0.0
 10
195.171634
 20
295.691690
 30
0.0
 10
194.839502
 20
296.493526
 30
0.0
 10
194.248304
 20
297.084724
 30
0.0
  0
SPLINE
  5
26c
100
AcDbEntity
  8
Layer_1
 62
1
100
AcDbSpline
 70
8
 71
3
 72
8
 73
4
 74
0
 40
0
 40
0
 40
0
 40
0
 40
1
 40
1
 40
1
 40
1
 10
194.248304
 20
297.084724
 30
0.0
 10
193.657106
 20
297.675922
 30
0.0
 10
192.855270
 20
298.008054
 30
0.0
 10
192.019190
 20
298.008054
 30
0.0
  0
LWPOLYLINE
  5
26d
100
AcDbEntity
  8
Layer_1
 62
1
100
AcDbPolyline
 90
1
 70
1
 10
391.346950
 20
347.032940
 30
0.0
  0
SPLINE
  5
26e
100
AcDbEntity
  8
Layer_1
 62
1
100
AcDbSpline
 70
8
 71
3
 72
8
 73
4
 74
0
 40
0
 40
0
 40
0
 40
0
 40
1
 40
1
 40
1
 40
1
 10
261.554210
 20
298.008054
 30
0.0
 10
260.279166
 20
298.008054
 30
0.0
 10
259.129670
 20
297.239985
 30
0.0
 10
258.641732
 20
296.061998
 30
0.0
  0
SPLINE
  5
26f
100
AcDbEntity
  8
Layer_1
 62
1
100
AcDbSpline
 70
8
 71
3
 72
8
 73
4
 74
0
 40
0
 40
0
 40
0
 40
0
 40
1
 40
1
 40
1
 40
1
 10
258.641732
 20
296.061998
 30
0.0
 10
258.153794
 20
294.884010
 30
0.0
 10
258.423503
 20
293.528088
 30
0.0
 10
259.325096
 20
292.626496
 30
0.0
  0
SPLINE
  5
270
100
AcDbEntity
  8
Layer_1
 62
1
100
AcDbSpline
 70
8
 71
3
 72
8
 73
4
 74
0
 40
0
 40
0
 40
0
 40
0
 40
1
 40
1
 40
1
 40
1
 10
259.325096
 20
292.626496
 30
0.0
 10
260.226688
 20
291.724903
 30
0.0
 10
261.582610
 20
291.455194
 30
0.0
 10
262.760598
 20
291.943132
 30
0.0
  0
SPLINE
  5
271
100
AcDbEntity
  8
Layer_1
 62
1
100
AcDbSpline
 70
8
 71
3
 72
8
 73
4
 74
0
 40
0
 40
0
 40
0
 40
0
 40
1
 40
1
 40
1
 40
1
 10
262.760598
 20
291.943132
 30
0.0
 10
263.938585
 20
292.431070
 30
0.0
 10
264.706654
 20
293.580566
 30
0.0
 10
264.706654
 20
294.855610
 30
0.0
  0
SPLINE
  5
272
100
AcDbEntity
  8
Layer_1
 62
1
100
AcDbSpline
 70
8
 71
3
 72
8
 73
4
 74
0
 40
0
 40
0
 40
0
 40
0
 40
1
 40
1
 40
1
 40
1
 10
264.706654
 20
294.855610
 30
0.0
 10
264.706654
 20
295.691690
 30
0.0
 10
264.374522
 20
296.493526
 30
0.0
 10
263.783324
 20
297.084724
 30
0.0
  0
SPLINE
  5
273
100
AcDbEntity
  8
Layer_1
 62
1
100
AcDbSpline
 70
8
 71
3
 72
8
 73
4
 74
0
 40
0
 40
0
 40
0
 40
0
 40
1
 40
1
 40
1
 40
1
 10
263.783324
 20
297.084724
 30
0.0
 10
263.192126
 20
297.675922
 30
0.0
 10
262.390290
 20
298.008054
 30
0.0
 10
261.554210
 20
298.008054
 30
0.0
  0
LWPOLYLINE
  5
274
100
AcDbEntity
  8
Layer_1
 62
1
100
AcDbPolyline
 90
1
 70
1
 10
192.019190
 20
298.008054
 30
0.0
  0
SPLINE
  5
275
100
AcDbEntity
  8
Layer_1
 62
1
100
AcDbSpline
 70
8
 71
3
 72
8
 73
4
 74
0
 40
0
 40
0
 40
0
 40
0
 40
1
 40
1
 40
1
 40
1
 10
330.844000
 20
298.008054
 30
0.0
 10
329.102953
 20
298.008054
 30
0.0
 10
327.691556
 20
296.596657
 30
0.0
 10
327.691556
 20
294.855610
 30
0.0
  0
SPLINE
  5
276
100
AcDbEntity
  8
Layer_1
 62
1
100
AcDbSpline
 70
8
 71
3
 72
8
 73
4
 74
0
 40
0
 40
0
 40
0
 40
0
 40
1
 40
1
 40
1
 40
1
 10
327.691556
 20
294.855610
 30
0.0
 10
327.691556
 20
293.114563
 30
0.0
 10
329.102953
 20
291.703166
 30
0.0
 10
330.844000
 20
291.703166
 30
0.0
  0
SPLINE
  5
277
100
AcDbEntity
  8
Layer_1
 62
1
100
AcDbSpline
 70
8
 71
3
 72
8
 73
4
 74
0
 40
0
 40
0
 40
0
 40
0
 40
1
 40
1
 40
1
 40
1
 10
330.844000
 20
291.703166
 30
0.0
 10
332.585047
 20
291.703166
 30
0.0
 10
333.996444
 20
293.114563
 30
0.0
 10
333.996444
 20
294.855610
 30
0.0
  0
SPLINE
  5
278
100
AcDbEntity
  8
Layer_1
 62
1
100
AcDbSpline
 70
8
 71
3
 72
8
 73
4
 74
0
 40
0
 40
0
 40
0
 40
0
 40
1
 40
1
 40
1
 40
1
 10
333.996444
 20
294.855610
 30
0.0
 10
333.996444
 20
295.691690
 30
0.0
 10
333.664312
 20
296.493526
 30
0.0
 10
333.073114
 20
297.084724
 30
0.0
  0
SPLINE
  5
279
100
AcDbEntity
  8
Layer_1
 62
1
100
AcDbSpline
 70
8
 71
3
 72
8
 73
4
 74
0
 40
0
 40
0
 40
0
 40
0
 40
1
 40
1
 40
1
 40
1
 10
333.073114
 20
297.084724
 30
0.0
 10
332.481916
 20
297.675922
 30
0.0
 10
331.680080
 20
298.008054
 30
0.0
 10
330.844000
 20
298.008054
 30
0.0
  0
LWPOLYLINE
  5
27a
100
AcDbEntity
  8
Layer_1
 62
1
100
AcDbPolyline
 90
1
 70
1
 10
261.554210
 20
298.008054
 30
0.0
  0
SPLINE
  5
27b
100
AcDbEntity
  8
Layer_1
 62
1
100
AcDbSpline
 70
8
 71
3
 72
8
 73
4
 74
0
 40
0
 40
0
 40
0
 40
0
 40
1
 40
1
 40
1
 40
1
 10
391.536230
 20
300.673654
 30
0.0
 10
389.048781
 20
300.673654
 30
0.0
 10
386.806263
 20
299.175251
 30
0.0
 10
385.854358
 20
296.877149
 30
0.0
  0
SPLINE
  5
27c
100
AcDbEntity
  8
Layer_1
 62
1
100
AcDbSpline
 70
8
 71
3
 72
8
 73
4
 74
0
 40
0
 40
0
 40
0
 40
0
 40
1
 40
1
 40
1
 40
1
 10
385.854358
 20
296.877149
 30
0.0
 10
384.902452
 20
294.579046
 30
0.0
 10
385.428621
 20
291.933815
 30
0.0
 10
387.187513
 20
290.174923
 30
0.0
  0
SPLINE
  5
27d
100
AcDbEntity
  8
Layer_1
 62
1
100
AcDbSpline
 70
8
 71
3
 72
8
 73
4
 74
0
 40
0
 40
0
 40
0
 40
0
 40
1
 40
1
 40
1
 40
1
 10
387.187513
 20
290.174923
 30
0.0
 10
388.946405
 20
288.416031
 30
0.0
 10
391.591636
 20
287.889862
 30
0.0
 10
393.889739
 20
288.841768
 30
0.0
  0
SPLINE
  5
27e
100
AcDbEntity
  8
Layer_1
 62
1
100
AcDbSpline
 70
8
 71
3
 72
8
 73
4
 74
0
 40
0
 40
0
 40
0
 40
0
 40
1
 40
1
 40
1
 40
1
 10
393.889739
 20
288.841768
 30
0.0
 10
396.187841
 20
289.793673
 30
0.0
 10
397.686244
 20
292.036191
 30
0.0
 10
397.686244
 20
294.523640
 30
0.0
  0
SPLINE
  5
27f
100
AcDbEntity
  8
Layer_1
 62
1
100
AcDbSpline
 70
8
 71
3
 72
8
 73
4
 74
0
 40
0
 40
0
 40
0
 40
0
 40
1
 40
1
 40
1
 40
1
 10
397.686244
 20
294.523640
 30
0.0
 10
397.686244
 20
296.154725
 30
0.0
 10
397.038298
 20
297.719005
 30
0.0
 10
395.884947
 20
298.872357
 30
0.0
  0
SPLINE
  5
280
100
AcDbEntity
  8
Layer_1
 62
1
100
AcDbSpline
 70
8
 71
3
 72
8
 73
4
 74
0
 40
0
 40
0
 40
0
 40
0
 40
1
 40
1
 40
1
 40
1
 10
395.884947
 20
298.872357
 30
0.0
 10
394.731595
 20
300.025708
 30
0.0
 10
393.167315
 20
300.673654
 30
0.0
 10
391.536230
 20
300.673654
 30
0.0
  0
LWPOLYLINE
  5
281
100
AcDbEntity
  8
Layer_1
 62
1
100
AcDbPolyline
 90
1
 70
1
 10
330.844000
 20
298.008054
 30
0.0
  0
SPLINE
  5
282
100
AcDbEntity
  8
Layer_1
 62
1
100
AcDbSpline
 70
8
 71
3
 72
8
 73
4
 74
0
 40
0
 40
0
 40
0
 40
0
 40
1
 40
1
 40
1
 40
1
 10
391.367410
 20
337.886004
 30
0.0
 10
389.304146
 20
337.886004
 30
0.0
 10
387.444043
 20
336.643123
 30
0.0
 10
386.654466
 20
334.736915
 30
0.0
  0
SPLINE
  5
283
100
AcDbEntity
  8
Layer_1
 62
1
100
AcDbSpline
 70
8
 71
3
 72
8
 73
4
 74
0
 40
0
 40
0
 40
0
 40
0
 40
1
 40
1
 40
1
 40
1
 10
386.654466
 20
334.736915
 30
0.0
 10
385.864889
 20
332.830707
 30
0.0
 10
386.301331
 20
330.636567
 30
0.0
 10
387.760279
 20
329.177619
 30
0.0
  0
SPLINE
  5
284
100
AcDbEntity
  8
Layer_1
 62
1
100
AcDbSpline
 70
8
 71
3
 72
8
 73
4
 74
0
 40
0
 40
0
 40
0
 40
0
 40
1
 40
1
 40
1
 40
1
 10
387.760279
 20
329.177619
 30
0.0
 10
389.219227
 20
327.718670
 30
0.0
 10
391.413367
 20
327.282229
 30
0.0
 10
393.319575
 20
328.071806
 30
0.0
  0
SPLINE
  5
285
100
AcDbEntity
  8
Layer_1
 62
1
100
AcDbSpline
 70
8
 71
3
 72
8
 73
4
 74
0
 40
0
 40
0
 40
0
 40
0
 40
1
 40
1
 40
1
 40
1
 10
393.319575
 20
328.071806
 30
0.0
 10
395.225783
 20
328.861383
 30
0.0
 10
396.468663
 20
330.721485
 30
0.0
 10
396.468663
 20
332.784750
 30
0.0
  0
SPLINE
  5
286
100
AcDbEntity
  8
Layer_1
 62
1
100
AcDbSpline
 70
8
 71
3
 72
8
 73
4
 74
0
 40
0
 40
0
 40
0
 40
0
 40
1
 40
1
 40
1
 40
1
 10
396.468663
 20
332.784750
 30
0.0
 10
396.468663
 20
334.137687
 30
0.0
 10
395.931212
 20
335.435211
 30
0.0
 10
394.974541
 20
336.391881
 30
0.0
  0
SPLINE
  5
287
100
AcDbEntity
  8
Layer_1
 62
1
100
AcDbSpline
 70
8
 71
3
 72
8
 73
4
 74
0
 40
0
 40
0
 40
0
 40
0
 40
1
 40
1
 40
1
 40
1
 10
394.974541
 20
336.391881
 30
0.0
 10
394.017870
 20
337.348552
 30
0.0
 10
392.720347
 20
337.886004
 30
0.0
 10
391.367410
 20
337.886004
 30
0.0
  0
LWPOLYLINE
  5
288
100
AcDbEntity
  8
Layer_1
 62
1
100
AcDbPolyline
 90
1
 70
1
 10
391.536230
 20
300.673654
 30
0.0
  0
SPLINE
  5
289
100
AcDbEntity
  8
Layer_1
 62
1
100
AcDbSpline
 70
8
 71
3
 72
8
 73
4
 74
0
 40
0
 40
0
 40
0
 40
0
 40
1
 40
1
 40
1
 40
1
 10
418.081880
 20
327.200884
 30
0.0
 10
416.018616
 20
327.200884
 30
0.0
 10
414.158513
 20
325.958003
 30
0.0
 10
413.368936
 20
324.051795
 30
0.0
  0
SPLINE
  5
28a
100
AcDbEntity
  8
Layer_1
 62
1
100
AcDbSpline
 70
8
 71
3
 72
8
 73
4
 74
0
 40
0
 40
0
 40
0
 40
0
 40
1
 40
1
 40
1
 40
1
 10
413.368936
 20
324.051795
 30
0.0
 10
412.579359
 20
322.145587
 30
0.0
 10
413.015801
 20
319.951447
 30
0.0
 10
414.474749
 20
318.492499
 30
0.0
  0
SPLINE
  5
28b
100
AcDbEntity
  8
Layer_1
 62
1
100
AcDbSpline
 70
8
 71
3
 72
8
 73
4
 74
0
 40
0
 40
0
 40
0
 40
0
 40
1
 40
1
 40
1
 40
1
 10
414.474749
 20
318.492499
 30
0.0
 10
415.933697
 20
317.033550
 30
0.0
 10
418.127837
 20
316.597109
 30
0.0
 10
420.034045
 20
317.386686
 30
0.0
  0
SPLINE
  5
28c
100
AcDbEntity
  8
Layer_1
 62
1
100
AcDbSpline
 70
8
 71
3
 72
8
 73
4
 74
0
 40
0
 40
0
 40
0
 40
0
 40
1
 40
1
 40
1
 40
1
 10
420.034045
 20
317.386686
 30
0.0
 10
421.940253
 20
318.176263
 30
0.0
 10
423.183133
 20
320.036365
 30
0.0
 10
423.183133
 20
322.099630
 30
0.0
  0
SPLINE
  5
28d
100
AcDbEntity
  8
Layer_1
 62
1
100
AcDbSpline
 70
8
 71
3
 72
8
 73
4
 74
0
 40
0
 40
0
 40
0
 40
0
 40
1
 40
1
 40
1
 40
1
 10
423.183133
 20
322.099630
 30
0.0
 10
423.183133
 20
323.452567
 30
0.0
 10
422.645682
 20
324.750091
 30
0.0
 10
421.689011
 20
325.706761
 30
0.0
  0
SPLINE
  5
28e
100
AcDbEntity
  8
Layer_1
 62
1
100
AcDbSpline
 70
8
 71
3
 72
8
 73
4
 74
0
 40
0
 40
0
 40
0
 40
0
 40
1
 40
1
 40
1
 40
1
 10
421.689011
 20
325.706761
 30
0.0
 10
420.732340
 20
326.663432
 30
0.0
 10
419.434817
 20
327.200884
 30
0.0
 10
418.081880
 20
327.200884
 30
0.0
  0
LWPOLYLINE
  5
28f
100
AcDbEntity
  8
Layer_1
 62
1
100
AcDbPolyline
 90
1
 70
1
 10
391.367410
 20
337.886004
 30
0.0
  0
SPLINE
  5
290
100
AcDbEntity
  8
Layer_1
 62
1
100
AcDbSpline
 70
8
 71
3
 72
8
 73
4
 74
0
 40
0
 40
0
 40
0
 40
0
 40
1
 40
1
 40
1
 40
1
 10
429.938180
 20
299.412704
 30
0.0
 10
427.874916
 20
299.412704
 30
0.0
 10
426.014813
 20
298.169823
 30
0.0
 10
425.225236
 20
296.263615
 30
0.0
  0
SPLINE
  5
291
100
AcDbEntity
  8
Layer_1
 62
1
100
AcDbSpline
 70
8
 71
3
 72
8
 73
4
 74
0
 40
0
 40
0
 40
0
 40
0
 40
1
 40
1
 40
1
 40
1
 10
425.225236
 20
296.263615
 30
0.0
 10
424.435659
 20
294.357407
 30
0.0
 10
424.872101
 20
292.163267
 30
0.0
 10
426.331049
 20
290.704319
 30
0.0
  0
SPLINE
  5
292
100
AcDbEntity
  8
Layer_1
 62
1
100
AcDbSpline
 70
8
 71
3
 72
8
 73
4
 74
0
 40
0
 40
0
 40
0
 40
0
 40
1
 40
1
 40
1
 40
1
 10
426.331049
 20
290.704319
 30
0.0
 10
427.789997
 20
289.245370
 30
0.0
 10
429.984137
 20
288.808929
 30
0.0
 10
431.890345
 20
289.598506
 30
0.0
  0
SPLINE
  5
293
100
AcDbEntity
  8
Layer_1
 62
1
100
AcDbSpline
 70
8
 71
3
 72
8
 73
4
 74
0
 40
0
 40
0
 40
0
 40
0
 40
1
 40
1
 40
1
 40
1
 10
431.890345
 20
289.598506
 30
0.0
 10
433.796553
 20
290.388083
 30
0.0
 10
435.039433
 20
292.248185
 30
0.0
 10
435.039433
 20
294.311450
 30
0.0
  0
SPLINE
  5
294
100
AcDbEntity
  8
Layer_1
 62
1
100
AcDbSpline
 70
8
 71
3
 72
8
 73
4
 74
0
 40
0
 40
0
 40
0
 40
0
 40
1
 40
1
 40
1
 40
1
 10
435.039433
 20
294.311450
 30
0.0
 10
435.039433
 20
295.664387
 30
0.0
 10
434.501982
 20
296.961911
 30
0.0
 10
433.545311
 20
297.918581
 30
0.0
  0
SPLINE
  5
295
100
AcDbEntity
  8
Layer_1
 62
1
100
AcDbSpline
 70
8
 71
3
 72
8
 73
4
 74
0
 40
0
 40
0
 40
0
 40
0
 40
1
 40
1
 40
1
 40
1
 10
433.545311
 20
297.918581
 30
0.0
 10
432.588640
 20
298.875252
 30
0.0
 10
431.291117
 20
299.412704
 30
0.0
 10
429.938180
 20
299.412704
 30
0.0
  0
LWPOLYLINE
  5
296
100
AcDbEntity
  8
Layer_1
 62
1
100
AcDbPolyline
 90
1
 70
1
 10
418.081880
 20
327.200884
 30
0.0
  0
SPLINE
  5
297
100
AcDbEntity
  8
Layer_1
 62
1
100
AcDbSpline
 70
8
 71
3
 72
8
 73
4
 74
0
 40
0
 40
0
 40
0
 40
0
 40
1
 40
1
 40
1
 40
1
 10
418.081880
 20
271.995044
 30
0.0
 10
416.018616
 20
271.995044
 30
0.0
 10
414.158513
 20
270.752163
 30
0.0
 10
413.368936
 20
268.845955
 30
0.0
  0
SPLINE
  5
298
100
AcDbEntity
  8
Layer_1
 62
1
100
AcDbSpline
 70
8
 71
3
 72
8
 73
4
 74
0
 40
0
 40
0
 40
0
 40
0
 40
1
 40
1
 40
1
 40
1
 10
413.368936
 20
268.845955
 30
0.0
 10
412.579359
 20
266.939747
 30
0.0
 10
413.015801
 20
264.745607
 30
0.0
 10
414.474749
 20
263.286659
 30
0.0
  0
SPLINE
  5
299
100
AcDbEntity
  8
Layer_1
 62
1
100
AcDbSpline
 70
8
 71
3
 72
8
 73
4
 74
0
 40
0
 40
0
 40
0
 40
0
 40
1
 40
1
 40
1
 40
1
 10
414.474749
 20
263.286659
 30
0.0
 10
415.933697
 20
261.827710
 30
0.0
 10
418.127837
 20
261.391269
 30
0.0
 10
420.034045
 20
262.180846
 30
0.0
  0
SPLINE
  5
29a
100
AcDbEntity
  8
Layer_1
 62
1
100
AcDbSpline
 70
8
 71
3
 72
8
 73
4
 74
0
 40
0
 40
0
 40
0
 40
0
 40
1
 40
1
 40
1
 40
1
 10
420.034045
 20
262.180846
 30
0.0
 10
421.940253
 20
262.970423
 30
0.0
 10
423.183133
 20
264.830525
 30
0.0
 10
423.183133
 20
266.893790
 30
0.0
  0
SPLINE
  5
29b
100
AcDbEntity
  8
Layer_1
 62
1
100
AcDbSpline
 70
8
 71
3
 72
8
 73
4
 74
0
 40
0
 40
0
 40
0
 40
0
 40
1
 40
1
 40
1
 40
1
 10
423.183133
 20
266.893790
 30
0.0
 10
423.183133
 20
268.246727
 30
0.0
 10
422.645682
 20
269.544251
 30
0.0
 10
421.689011
 20
270.500921
 30
0.0
  0
SPLINE
  5
29c
100
AcDbEntity
  8
Layer_1
 62
1
100
AcDbSpline
 70
8
 71
3
 72
8
 73
4
 74
0
 40
0
 40
0
 40
0
 40
0
 40
1
 40
1
 40
1
 40
1
 10
421.689011
 20
270.500921
 30
0.0
 10
420.732340
 20
271.457592
 30
0.0
 10
419.434817
 20
271.995044
 30
0.0
 10
418.081880
 20
271.995044
 30
0.0
  0
LWPOLYLINE
  5
29d
100
AcDbEntity
  8
Layer_1
 62
1
100
AcDbPolyline
 90
1
 70
1
 10
429.938180
 20
299.412704
 30
0.0
  0
SPLINE
  5
29e
100
AcDbEntity
  8
Layer_1
 62
1
100
AcDbSpline
 70
8
 71
3
 72
8
 73
4
 74
0
 40
0
 40
0
 40
0
 40
0
 40
1
 40
1
 40
1
 40
1
 10
391.257020
 20
261.324384
 30
0.0
 10
389.193756
 20
261.324384
 30
0.0
 10
387.333653
 20
260.081503
 30
0.0
 10
386.544076
 20
258.175295
 30
0.0
  0
SPLINE
  5
29f
100
AcDbEntity
  8
Layer_1
 62
1
100
AcDbSpline
 70
8
 71
3
 72
8
 73
4
 74
0
 40
0
 40
0
 40
0
 40
0
 40
1
 40
1
 40
1
 40
1
 10
386.544076
 20
258.175295
 30
0.0
 10
385.754499
 20
256.269087
 30
0.0
 10
386.190941
 20
254.074947
 30
0.0
 10
387.649889
 20
252.615999
 30
0.0
  0
SPLINE
  5
2a0
100
AcDbEntity
  8
Layer_1
 62
1
100
AcDbSpline
 70
8
 71
3
 72
8
 73
4
 74
0
 40
0
 40
0
 40
0
 40
0
 40
1
 40
1
 40
1
 40
1
 10
387.649889
 20
252.615999
 30
0.0
 10
389.108837
 20
251.157050
 30
0.0
 10
391.302977
 20
250.720609
 30
0.0
 10
393.209185
 20
251.510186
 30
0.0
  0
SPLINE
  5
2a1
100
AcDbEntity
  8
Layer_1
 62
1
100
AcDbSpline
 70
8
 71
3
 72
8
 73
4
 74
0
 40
0
 40
0
 40
0
 40
0
 40
1
 40
1
 40
1
 40
1
 10
393.209185
 20
251.510186
 30
0.0
 10
395.115393
 20
252.299763
 30
0.0
 10
396.358273
 20
254.159865
 30
0.0
 10
396.358273
 20
256.223130
 30
0.0
  0
SPLINE
  5
2a2
100
AcDbEntity
  8
Layer_1
 62
1
100
AcDbSpline
 70
8
 71
3
 72
8
 73
4
 74
0
 40
0
 40
0
 40
0
 40
0
 40
1
 40
1
 40
1
 40
1
 10
396.358273
 20
256.223130
 30
0.0
 10
396.358273
 20
259.040475
 30
0.0
 10
394.074365
 20
261.324384
 30
0.0
 10
391.257020
 20
261.324384
 30
0.0
  0
LWPOLYLINE
  5
2a3
100
AcDbEntity
  8
Layer_1
 62
1
100
AcDbPolyline
 90
1
 70
1
 10
418.081880
 20
271.995044
 30
0.0
  0
SPLINE
  5
2a4
100
AcDbEntity
  8
Layer_1
 62
1
100
AcDbSpline
 70
8
 71
3
 72
8
 73
4
 74
0
 40
0
 40
0
 40
0
 40
0
 40
1
 40
1
 40
1
 40
1
 10
364.079660
 20
272.882794
 30
0.0
 10
362.016396
 20
272.882794
 30
0.0
 10
360.156293
 20
271.639913
 30
0.0
 10
359.366716
 20
269.733705
 30
0.0
  0
SPLINE
  5
2a5
100
AcDbEntity
  8
Layer_1
 62
1
100
AcDbSpline
 70
8
 71
3
 72
8
 73
4
 74
0
 40
0
 40
0
 40
0
 40
0
 40
1
 40
1
 40
1
 40
1
 10
359.366716
 20
269.733705
 30
0.0
 10
358.577139
 20
267.827497
 30
0.0
 10
359.013581
 20
265.633357
 30
0.0
 10
360.472529
 20
264.174409
 30
0.0
  0
SPLINE
  5
2a6
100
AcDbEntity
  8
Layer_1
 62
1
100
AcDbSpline
 70
8
 71
3
 72
8
 73
4
 74
0
 40
0
 40
0
 40
0
 40
0
 40
1
 40
1
 40
1
 40
1
 10
360.472529
 20
264.174409
 30
0.0
 10
361.931477
 20
262.715460
 30
0.0
 10
364.125617
 20
262.279019
 30
0.0
 10
366.031825
 20
263.068596
 30
0.0
  0
SPLINE
  5
2a7
100
AcDbEntity
  8
Layer_1
 62
1
100
AcDbSpline
 70
8
 71
3
 72
8
 73
4
 74
0
 40
0
 40
0
 40
0
 40
0
 40
1
 40
1
 40
1
 40
1
 10
366.031825
 20
263.068596
 30
0.0
 10
367.938033
 20
263.858173
 30
0.0
 10
369.180913
 20
265.718275
 30
0.0
 10
369.180913
 20
267.781540
 30
0.0
  0
SPLINE
  5
2a8
100
AcDbEntity
  8
Layer_1
 62
1
100
AcDbSpline
 70
8
 71
3
 72
8
 73
4
 74
0
 40
0
 40
0
 40
0
 40
0
 40
1
 40
1
 40
1
 40
1
 10
369.180913
 20
267.781540
 30
0.0
 10
369.180913
 20
269.134477
 30
0.0
 10
368.643462
 20
270.432001
 30
0.0
 10
367.686791
 20
271.388671
 30
0.0
  0
SPLINE
  5
2a9
100
AcDbEntity
  8
Layer_1
 62
1
100
AcDbSpline
 70
8
 71
3
 72
8
 73
4
 74
0
 40
0
 40
0
 40
0
 40
0
 40
1
 40
1
 40
1
 40
1
 10
367.686791
 20
271.388671
 30
0.0
 10
366.730120
 20
272.345342
 30
0.0
 10
365.432597
 20
272.882794
 30
0.0
 10
364.079660
 20
272.882794
 30
0.0
  0
LWPOLYLINE
  5
2aa
100
AcDbEntity
  8
Layer_1
 62
1
100
AcDbPolyline
 90
1
 70
1
 10
391.257020
 20
261.324384
 30
0.0
  0
SPLINE
  5
2ab
100
AcDbEntity
  8
Layer_1
 62
1
100
AcDbSpline
 70
8
 71
3
 72
8
 73
4
 74
0
 40
0
 40
0
 40
0
 40
0
 40
1
 40
1
 40
1
 40
1
 10
353.180910
 20
299.553364
 30
0.0
 10
351.117646
 20
299.553364
 30
0.0
 10
349.257543
 20
298.310483
 30
0.0
 10
348.467966
 20
296.404275
 30
0.0
  0
SPLINE
  5
2ac
100
AcDbEntity
  8
Layer_1
 62
1
100
AcDbSpline
 70
8
 71
3
 72
8
 73
4
 74
0
 40
0
 40
0
 40
0
 40
0
 40
1
 40
1
 40
1
 40
1
 10
348.467966
 20
296.404275
 30
0.0
 10
347.678389
 20
294.498067
 30
0.0
 10
348.114831
 20
292.303927
 30
0.0
 10
349.573779
 20
290.844979
 30
0.0
  0
SPLINE
  5
2ad
100
AcDbEntity
  8
Layer_1
 62
1
100
AcDbSpline
 70
8
 71
3
 72
8
 73
4
 74
0
 40
0
 40
0
 40
0
 40
0
 40
1
 40
1
 40
1
 40
1
 10
349.573779
 20
290.844979
 30
0.0
 10
351.032727
 20
289.386030
 30
0.0
 10
353.226867
 20
288.949589
 30
0.0
 10
355.133075
 20
289.739166
 30
0.0
  0
SPLINE
  5
2ae
100
AcDbEntity
  8
Layer_1
 62
1
100
AcDbSpline
 70
8
 71
3
 72
8
 73
4
 74
0
 40
0
 40
0
 40
0
 40
0
 40
1
 40
1
 40
1
 40
1
 10
355.133075
 20
289.739166
 30
0.0
 10
357.039283
 20
290.528743
 30
0.0
 10
358.282164
 20
292.388845
 30
0.0
 10
358.282164
 20
294.452110
 30
0.0
  0
SPLINE
  5
2af
100
AcDbEntity
  8
Layer_1
 62
1
100
AcDbSpline
 70
8
 71
3
 72
8
 73
4
 74
0
 40
0
 40
0
 40
0
 40
0
 40
1
 40
1
 40
1
 40
1
 10
358.282164
 20
294.452110
 30
0.0
 10
358.282164
 20
295.805047
 30
0.0
 10
357.744712
 20
297.102571
 30
0.0
 10
356.788041
 20
298.059241
 30
0.0
  0
SPLINE
  5
2b0
100
AcDbEntity
  8
Layer_1
 62
1
100
AcDbSpline
 70
8
 71
3
 72
8
 73
4
 74
0
 40
0
 40
0
 40
0
 40
0
 40
1
 40
1
 40
1
 40
1
 10
356.788041
 20
298.059241
 30
0.0
 10
355.831370
 20
299.015912
 30
0.0
 10
354.533847
 20
299.553364
 30
0.0
 10
353.180910
 20
299.553364
 30
0.0
  0
LWPOLYLINE
  5
2b1
100
AcDbEntity
  8
Layer_1
 62
1
100
AcDbPolyline
 90
1
 70
1
 10
364.079660
 20
272.882794
 30
0.0
  0
SPLINE
  5
2b2
100
AcDbEntity
  8
Layer_1
 62
1
100
AcDbSpline
 70
8
 71
3
 72
8
 73
4
 74
0
 40
0
 40
0
 40
0
 40
0
 40
1
 40
1
 40
1
 40
1
 10
363.922490
 20
326.171494
 30
0.0
 10
361.859226
 20
326.171494
 30
0.0
 10
359.999123
 20
324.928613
 30
0.0
 10
359.209546
 20
323.022405
 30
0.0
  0
SPLINE
  5
2b3
100
AcDbEntity
  8
Layer_1
 62
1
100
AcDbSpline
 70
8
 71
3
 72
8
 73
4
 74
0
 40
0
 40
0
 40
0
 40
0
 40
1
 40
1
 40
1
 40
1
 10
359.209546
 20
323.022405
 30
0.0
 10
358.419969
 20
321.116197
 30
0.0
 10
358.856411
 20
318.922057
 30
0.0
 10
360.315359
 20
317.463109
 30
0.0
  0
SPLINE
  5
2b4
100
AcDbEntity
  8
Layer_1
 62
1
100
AcDbSpline
 70
8
 71
3
 72
8
 73
4
 74
0
 40
0
 40
0
 40
0
 40
0
 40
1
 40
1
 40
1
 40
1
 10
360.315359
 20
317.463109
 30
0.0
 10
361.774307
 20
316.004160
 30
0.0
 10
363.968447
 20
315.567719
 30
0.0
 10
365.874655
 20
316.357296
 30
0.0
  0
SPLINE
  5
2b5
100
AcDbEntity
  8
Layer_1
 62
1
100
AcDbSpline
 70
8
 71
3
 72
8
 73
4
 74
0
 40
0
 40
0
 40
0
 40
0
 40
1
 40
1
 40
1
 40
1
 10
365.874655
 20
316.357296
 30
0.0
 10
367.780863
 20
317.146873
 30
0.0
 10
369.023743
 20
319.006975
 30
0.0
 10
369.023743
 20
321.070240
 30
0.0
  0
SPLINE
  5
2b6
100
AcDbEntity
  8
Layer_1
 62
1
100
AcDbSpline
 70
8
 71
3
 72
8
 73
4
 74
0
 40
0
 40
0
 40
0
 40
0
 40
1
 40
1
 40
1
 40
1
 10
369.023743
 20
321.070240
 30
0.0
 10
369.023743
 20
322.423177
 30
0.0
 10
368.486292
 20
323.720701
 30
0.0
 10
367.529621
 20
324.677371
 30
0.0
  0
SPLINE
  5
2b7
100
AcDbEntity
  8
Layer_1
 62
1
100
AcDbSpline
 70
8
 71
3
 72
8
 73
4
 74
0
 40
0
 40
0
 40
0
 40
0
 40
1
 40
1
 40
1
 40
1
 10
367.529621
 20
324.677371
 30
0.0
 10
366.572950
 20
325.634042
 30
0.0
 10
365.275427
 20
326.171494
 30
0.0
 10
363.922490
 20
326.171494
 30
0.0
  0
LWPOLYLINE
  5
2b8
100
AcDbEntity
  8
Layer_1
 62
1
100
AcDbPolyline
 90
1
 70
1
 10
353.180910
 20
299.553364
 30
0.0
  0
SPLINE
  5
2b9
100
AcDbEntity
  8
Layer_1
 62
1
100
AcDbSpline
 70
8
 71
3
 72
8
 73
4
 74
0
 40
0
 40
0
 40
0
 40
0
 40
1
 40
1
 40
1
 40
1
 10
184.251970
 20
261.165176
 30
0.0
 10
180.038393
 20
261.165176
 30
0.0
 10
176.239712
 20
258.626979
 30
0.0
 10
174.627246
 20
254.734141
 30
0.0
  0
SPLINE
  5
2ba
100
AcDbEntity
  8
Layer_1
 62
1
100
AcDbSpline
 70
8
 71
3
 72
8
 73
4
 74
0
 40
0
 40
0
 40
0
 40
0
 40
1
 40
1
 40
1
 40
1
 10
174.627246
 20
254.734141
 30
0.0
 10
173.014780
 20
250.841304
 30
0.0
 10
173.906077
 20
246.360454
 30
0.0
 10
176.885525
 20
243.381005
 30
0.0
  0
SPLINE
  5
2bb
100
AcDbEntity
  8
Layer_1
 62
1
100
AcDbSpline
 70
8
 71
3
 72
8
 73
4
 74
0
 40
0
 40
0
 40
0
 40
0
 40
1
 40
1
 40
1
 40
1
 10
176.885525
 20
243.381005
 30
0.0
 10
179.864974
 20
240.401557
 30
0.0
 10
184.345824
 20
239.510260
 30
0.0
 10
188.238661
 20
241.122726
 30
0.0
  0
SPLINE
  5
2bc
100
AcDbEntity
  8
Layer_1
 62
1
100
AcDbSpline
 70
8
 71
3
 72
8
 73
4
 74
0
 40
0
 40
0
 40
0
 40
0
 40
1
 40
1
 40
1
 40
1
 10
188.238661
 20
241.122726
 30
0.0
 10
192.131499
 20
242.735192
 30
0.0
 10
194.669696
 20
246.533873
 30
0.0
 10
194.669696
 20
250.747450
 30
0.0
  0
SPLINE
  5
2bd
100
AcDbEntity
  8
Layer_1
 62
1
100
AcDbSpline
 70
8
 71
3
 72
8
 73
4
 74
0
 40
0
 40
0
 40
0
 40
0
 40
1
 40
1
 40
1
 40
1
 10
194.669696
 20
250.747450
 30
0.0
 10
194.669696
 20
253.510403
 30
0.0
 10
193.572117
 20
256.160192
 30
0.0
 10
191.618415
 20
258.113895
 30
0.0
  0
SPLINE
  5
2be
100
AcDbEntity
  8
Layer_1
 62
1
100
AcDbSpline
 70
8
 71
3
 72
8
 73
4
 74
0
 40
0
 40
0
 40
0
 40
0
 40
1
 40
1
 40
1
 40
1
 10
191.618415
 20
258.113895
 30
0.0
 10
189.664712
 20
260.067597
 30
0.0
 10
187.014923
 20
261.165176
 30
0.0
 10
184.251970
 20
261.165176
 30
0.0
  0
LWPOLYLINE
  5
2bf
100
AcDbEntity
  8
Layer_1
 62
1
100
AcDbPolyline
 90
1
 70
1
 10
363.922490
 20
326.171494
 30
0.0
  0
SPLINE
  5
2c0
100
AcDbEntity
  8
Layer_1
 62
1
100
AcDbSpline
 70
8
 71
3
 72
8
 73
4
 74
0
 40
0
 40
0
 40
0
 40
0
 40
1
 40
1
 40
1
 40
1
 10
396.249110
 20
236.412940
 30
0.0
 10
378.598590
 20
236.402140
 30
0.0
 10
362.139460
 20
227.506080
 30
0.0
 10
352.461090
 20
212.745650
 30
0.0
  0
SPLINE
  5
2c1
100
AcDbEntity
  8
Layer_1
 62
1
100
AcDbSpline
 70
8
 71
3
 72
8
 73
4
 74
0
 40
0
 40
0
 40
0
 40
0
 40
1
 40
1
 40
1
 40
1
 10
352.461090
 20
212.745650
 30
0.0
 10
332.903920
 20
208.277710
 30
0.0
 10
293.315240
 20
202.472590
 30
0.0
 10
198.976920
 20
200.789790
 30
0.0
  0
SPLINE
  5
2c2
100
AcDbEntity
  8
Layer_1
 62
1
100
AcDbSpline
 70
8
 71
3
 72
8
 73
4
 74
0
 40
0
 40
0
 40
0
 40
0
 40
1
 40
1
 40
1
 40
1
 10
198.976920
 20
200.789790
 30
0.0
 10
183.621250
 20
200.391200
 30
0.0
 10
179.520550
 20
193.855470
 30
0.0
 10
182.618740
 20
181.650910
 30
0.0
  0
SPLINE
  5
2c3
100
AcDbEntity
  8
Layer_1
 62
1
100
AcDbSpline
 70
8
 71
3
 72
8
 73
4
 74
0
 40
0
 40
0
 40
0
 40
0
 40
1
 40
1
 40
1
 40
1
 10
182.618740
 20
181.650910
 30
0.0
 10
185.822560
 20
170.948220
 30
0.0
 10
181.251680
 20
159.511830
 30
0.0
 10
178.556460
 20
157.364020
 30
0.0
  0
SPLINE
  5
2c4
100
AcDbEntity
  8
Layer_1
 62
1
100
AcDbSpline
 70
8
 71
3
 72
8
 73
4
 74
0
 40
0
 40
0
 40
0
 40
0
 40
1
 40
1
 40
1
 40
1
 10
178.556460
 20
157.364020
 30
0.0
 10
172.756360
 20
153.728360
 30
0.0
 10
169.232380
 20
147.366490
 30
0.0
 10
169.226800
 20
140.521120
 30
0.0
  0
SPLINE
  5
2c5
100
AcDbEntity
  8
Layer_1
 62
1
100
AcDbSpline
 70
8
 71
3
 72
8
 73
4
 74
0
 40
0
 40
0
 40
0
 40
0
 40
1
 40
1
 40
1
 40
1
 10
169.226800
 20
140.521120
 30
0.0
 10
169.227040
 20
129.532230
 30
0.0
 10
178.135400
 20
120.624090
 30
0.0
 10
189.124290
 20
120.624140
 30
0.0
  0
SPLINE
  5
2c6
100
AcDbEntity
  8
Layer_1
 62
1
100
AcDbSpline
 70
8
 71
3
 72
8
 73
4
 74
0
 40
0
 40
0
 40
0
 40
0
 40
1
 40
1
 40
1
 40
1
 10
189.124290
 20
120.624140
 30
0.0
 10
200.113180
 20
120.624090
 30
0.0
 10
209.021540
 20
129.532230
 30
0.0
 10
209.021780
 20
140.521120
 30
0.0
  0
SPLINE
  5
2c7
100
AcDbEntity
  8
Layer_1
 62
1
100
AcDbSpline
 70
8
 71
3
 72
8
 73
4
 74
0
 40
0
 40
0
 40
0
 40
0
 40
1
 40
1
 40
1
 40
1
 10
209.021780
 20
140.521120
 30
0.0
 10
209.021640
 20
143.424840
 30
0.0
 10
208.385960
 20
146.293330
 30
0.0
 10
207.159360
 20
148.925260
 30
0.0
  0
SPLINE
  5
2c8
100
AcDbEntity
  8
Layer_1
 62
1
100
AcDbSpline
 70
8
 71
3
 72
8
 73
4
 74
0
 40
0
 40
0
 40
0
 40
0
 40
1
 40
1
 40
1
 40
1
 10
207.159360
 20
148.925260
 30
0.0
 10
202.005600
 20
159.708020
 30
0.0
 10
225.812630
 20
168.106700
 30
0.0
 10
233.656970
 20
168.579350
 30
0.0
  0
SPLINE
  5
2c9
100
AcDbEntity
  8
Layer_1
 62
1
100
AcDbSpline
 70
8
 71
3
 72
8
 73
4
 74
0
 40
0
 40
0
 40
0
 40
0
 40
1
 40
1
 40
1
 40
1
 10
233.656970
 20
168.579350
 30
0.0
 10
244.530400
 20
169.082550
 30
0.0
 10
318.085980
 20
168.442530
 30
0.0
 10
349.045790
 20
161.262490
 30
0.0
  0
SPLINE
  5
2ca
100
AcDbEntity
  8
Layer_1
 62
1
100
AcDbSpline
 70
8
 71
3
 72
8
 73
4
 74
0
 40
0
 40
0
 40
0
 40
0
 40
1
 40
1
 40
1
 40
1
 10
349.045790
 20
161.262490
 30
0.0
 10
357.782250
 20
143.135880
 30
0.0
 10
376.126990
 20
131.613180
 30
0.0
 10
396.249110
 20
131.613140
 30
0.0
  0
SPLINE
  5
2cb
100
AcDbEntity
  8
Layer_1
 62
1
100
AcDbSpline
 70
8
 71
3
 72
8
 73
4
 74
0
 40
0
 40
0
 40
0
 40
0
 40
1
 40
1
 40
1
 40
1
 10
396.249110
 20
131.613140
 30
0.0
 10
425.188770
 20
131.613150
 30
0.0
 10
448.649010
 20
155.073380
 30
0.0
 10
448.649020
 20
184.013040
 30
0.0
  0
SPLINE
  5
2cc
100
AcDbEntity
  8
Layer_1
 62
1
100
AcDbSpline
 70
8
 71
3
 72
8
 73
4
 74
0
 40
0
 40
0
 40
0
 40
0
 40
1
 40
1
 40
1
 40
1
 10
448.649020
 20
184.013040
 30
0.0
 10
448.649010
 20
212.952700
 30
0.0
 10
425.188770
 20
236.412930
 30
0.0
 10
396.249110
 20
236.412940
 30
0.0
  0
LWPOLYLINE
  5
2cd
100
AcDbEntity
  8
Layer_1
 62
1
100
AcDbPolyline
 90
1
 70
1
 10
184.251970
 20
261.165176
 30
0.0
  0
SPLINE
  5
2ce
100
AcDbEntity
  8
Layer_1
 62
1
100
AcDbSpline
 70
8
 71
3
 72
8
 73
4
 74
0
 40
0
 40
0
 40
0
 40
0
 40
1
 40
1
 40
1
 40
1
 10
196.921350
 20
187.388054
 30
0.0
 10
195.646306
 20
187.388054
 30
0.0
 10
194.496810
 20
186.619985
 30
0.0
 10
194.008872
 20
185.441998
 30
0.0
  0
SPLINE
  5
2cf
100
AcDbEntity
  8
Layer_1
 62
1
100
AcDbSpline
 70
8
 71
3
 72
8
 73
4
 74
0
 40
0
 40
0
 40
0
 40
0
 40
1
 40
1
 40
1
 40
1
 10
194.008872
 20
185.441998
 30
0.0
 10
193.520934
 20
184.264010
 30
0.0
 10
193.790643
 20
182.908088
 30
0.0
 10
194.692236
 20
182.006496
 30
0.0
  0
SPLINE
  5
2d0
100
AcDbEntity
  8
Layer_1
 62
1
100
AcDbSpline
 70
8
 71
3
 72
8
 73
4
 74
0
 40
0
 40
0
 40
0
 40
0
 40
1
 40
1
 40
1
 40
1
 10
194.692236
 20
182.006496
 30
0.0
 10
195.593828
 20
181.104903
 30
0.0
 10
196.949750
 20
180.835194
 30
0.0
 10
198.127738
 20
181.323132
 30
0.0
  0
SPLINE
  5
2d1
100
AcDbEntity
  8
Layer_1
 62
1
100
AcDbSpline
 70
8
 71
3
 72
8
 73
4
 74
0
 40
0
 40
0
 40
0
 40
0
 40
1
 40
1
 40
1
 40
1
 10
198.127738
 20
181.323132
 30
0.0
 10
199.305725
 20
181.811070
 30
0.0
 10
200.073794
 20
182.960566
 30
0.0
 10
200.073794
 20
184.235610
 30
0.0
  0
SPLINE
  5
2d2
100
AcDbEntity
  8
Layer_1
 62
1
100
AcDbSpline
 70
8
 71
3
 72
8
 73
4
 74
0
 40
0
 40
0
 40
0
 40
0
 40
1
 40
1
 40
1
 40
1
 10
200.073794
 20
184.235610
 30
0.0
 10
200.073794
 20
185.071690
 30
0.0
 10
199.741662
 20
185.873526
 30
0.0
 10
199.150464
 20
186.464724
 30
0.0
  0
SPLINE
  5
2d3
100
AcDbEntity
  8
Layer_1
 62
1
100
AcDbSpline
 70
8
 71
3
 72
8
 73
4
 74
0
 40
0
 40
0
 40
0
 40
0
 40
1
 40
1
 40
1
 40
1
 10
199.150464
 20
186.464724
 30
0.0
 10
198.559266
 20
187.055922
 30
0.0
 10
197.757430
 20
187.388054
 30
0.0
 10
196.921350
 20
187.388054
 30
0.0
  0
LWPOLYLINE
  5
2d4
100
AcDbEntity
  8
Layer_1
 62
1
100
AcDbPolyline
 90
1
 70
1
 10
396.249110
 20
236.412940
 30
0.0
  0
SPLINE
  5
2d5
100
AcDbEntity
  8
Layer_1
 62
1
100
AcDbSpline
 70
8
 71
3
 72
8
 73
4
 74
0
 40
0
 40
0
 40
0
 40
0
 40
1
 40
1
 40
1
 40
1
 10
266.456370
 20
187.388054
 30
0.0
 10
265.181326
 20
187.388054
 30
0.0
 10
264.031830
 20
186.619985
 30
0.0
 10
263.543892
 20
185.441998
 30
0.0
  0
SPLINE
  5
2d6
100
AcDbEntity
  8
Layer_1
 62
1
100
AcDbSpline
 70
8
 71
3
 72
8
 73
4
 74
0
 40
0
 40
0
 40
0
 40
0
 40
1
 40
1
 40
1
 40
1
 10
263.543892
 20
185.441998
 30
0.0
 10
263.055954
 20
184.264010
 30
0.0
 10
263.325663
 20
182.908088
 30
0.0
 10
264.227256
 20
182.006496
 30
0.0
  0
SPLINE
  5
2d7
100
AcDbEntity
  8
Layer_1
 62
1
100
AcDbSpline
 70
8
 71
3
 72
8
 73
4
 74
0
 40
0
 40
0
 40
0
 40
0
 40
1
 40
1
 40
1
 40
1
 10
264.227256
 20
182.006496
 30
0.0
 10
265.128848
 20
181.104903
 30
0.0
 10
266.484770
 20
180.835194
 30
0.0
 10
267.662758
 20
181.323132
 30
0.0
  0
SPLINE
  5
2d8
100
AcDbEntity
  8
Layer_1
 62
1
100
AcDbSpline
 70
8
 71
3
 72
8
 73
4
 74
0
 40
0
 40
0
 40
0
 40
0
 40
1
 40
1
 40
1
 40
1
 10
267.662758
 20
181.323132
 30
0.0
 10
268.840745
 20
181.811070
 30
0.0
 10
269.608814
 20
182.960566
 30
0.0
 10
269.608814
 20
184.235610
 30
0.0
  0
SPLINE
  5
2d9
100
AcDbEntity
  8
Layer_1
 62
1
100
AcDbSpline
 70
8
 71
3
 72
8
 73
4
 74
0
 40
0
 40
0
 40
0
 40
0
 40
1
 40
1
 40
1
 40
1
 10
269.608814
 20
184.235610
 30
0.0
 10
269.608814
 20
185.071690
 30
0.0
 10
269.276682
 20
185.873526
 30
0.0
 10
268.685484
 20
186.464724
 30
0.0
  0
SPLINE
  5
2da
100
AcDbEntity
  8
Layer_1
 62
1
100
AcDbSpline
 70
8
 71
3
 72
8
 73
4
 74
0
 40
0
 40
0
 40
0
 40
0
 40
1
 40
1
 40
1
 40
1
 10
268.685484
 20
186.464724
 30
0.0
 10
268.094286
 20
187.055922
 30
0.0
 10
267.292450
 20
187.388054
 30
0.0
 10
266.456370
 20
187.388054
 30
0.0
  0
LWPOLYLINE
  5
2db
100
AcDbEntity
  8
Layer_1
 62
1
100
AcDbPolyline
 90
1
 70
1
 10
196.921350
 20
187.388054
 30
0.0
  0
SPLINE
  5
2dc
100
AcDbEntity
  8
Layer_1
 62
1
100
AcDbSpline
 70
8
 71
3
 72
8
 73
4
 74
0
 40
0
 40
0
 40
0
 40
0
 40
1
 40
1
 40
1
 40
1
 10
335.746160
 20
187.388054
 30
0.0
 10
334.005113
 20
187.388054
 30
0.0
 10
332.593716
 20
185.976657
 30
0.0
 10
332.593716
 20
184.235610
 30
0.0
  0
SPLINE
  5
2dd
100
AcDbEntity
  8
Layer_1
 62
1
100
AcDbSpline
 70
8
 71
3
 72
8
 73
4
 74
0
 40
0
 40
0
 40
0
 40
0
 40
1
 40
1
 40
1
 40
1
 10
332.593716
 20
184.235610
 30
0.0
 10
332.593716
 20
182.494563
 30
0.0
 10
334.005113
 20
181.083166
 30
0.0
 10
335.746160
 20
181.083166
 30
0.0
  0
SPLINE
  5
2de
100
AcDbEntity
  8
Layer_1
 62
1
100
AcDbSpline
 70
8
 71
3
 72
8
 73
4
 74
0
 40
0
 40
0
 40
0
 40
0
 40
1
 40
1
 40
1
 40
1
 10
335.746160
 20
181.083166
 30
0.0
 10
337.487207
 20
181.083166
 30
0.0
 10
338.898604
 20
182.494563
 30
0.0
 10
338.898604
 20
184.235610
 30
0.0
  0
SPLINE
  5
2df
100
AcDbEntity
  8
Layer_1
 62
1
100
AcDbSpline
 70
8
 71
3
 72
8
 73
4
 74
0
 40
0
 40
0
 40
0
 40
0
 40
1
 40
1
 40
1
 40
1
 10
338.898604
 20
184.235610
 30
0.0
 10
338.898604
 20
185.071690
 30
0.0
 10
338.566472
 20
185.873526
 30
0.0
 10
337.975274
 20
186.464724
 30
0.0
  0
SPLINE
  5
2e0
100
AcDbEntity
  8
Layer_1
 62
1
100
AcDbSpline
 70
8
 71
3
 72
8
 73
4
 74
0
 40
0
 40
0
 40
0
 40
0
 40
1
 40
1
 40
1
 40
1
 10
337.975274
 20
186.464724
 30
0.0
 10
337.384076
 20
187.055922
 30
0.0
 10
336.582240
 20
187.388054
 30
0.0
 10
335.746160
 20
187.388054
 30
0.0
  0
LWPOLYLINE
  5
2e1
100
AcDbEntity
  8
Layer_1
 62
1
100
AcDbPolyline
 90
1
 70
1
 10
266.456370
 20
187.388054
 30
0.0
  0
SPLINE
  5
2e2
100
AcDbEntity
  8
Layer_1
 62
1
100
AcDbSpline
 70
8
 71
3
 72
8
 73
4
 74
0
 40
0
 40
0
 40
0
 40
0
 40
1
 40
1
 40
1
 40
1
 10
396.438390
 20
190.053654
 30
0.0
 10
393.950941
 20
190.053654
 30
0.0
 10
391.708423
 20
188.555251
 30
0.0
 10
390.756518
 20
186.257149
 30
0.0
  0
SPLINE
  5
2e3
100
AcDbEntity
  8
Layer_1
 62
1
100
AcDbSpline
 70
8
 71
3
 72
8
 73
4
 74
0
 40
0
 40
0
 40
0
 40
0
 40
1
 40
1
 40
1
 40
1
 10
390.756518
 20
186.257149
 30
0.0
 10
389.804612
 20
183.959046
 30
0.0
 10
390.330781
 20
181.313815
 30
0.0
 10
392.089673
 20
179.554923
 30
0.0
  0
SPLINE
  5
2e4
100
AcDbEntity
  8
Layer_1
 62
1
100
AcDbSpline
 70
8
 71
3
 72
8
 73
4
 74
0
 40
0
 40
0
 40
0
 40
0
 40
1
 40
1
 40
1
 40
1
 10
392.089673
 20
179.554923
 30
0.0
 10
393.848565
 20
177.796031
 30
0.0
 10
396.493796
 20
177.269862
 30
0.0
 10
398.791899
 20
178.221768
 30
0.0
  0
SPLINE
  5
2e5
100
AcDbEntity
  8
Layer_1
 62
1
100
AcDbSpline
 70
8
 71
3
 72
8
 73
4
 74
0
 40
0
 40
0
 40
0
 40
0
 40
1
 40
1
 40
1
 40
1
 10
398.791899
 20
178.221768
 30
0.0
 10
401.090001
 20
179.173673
 30
0.0
 10
402.588404
 20
181.416191
 30
0.0
 10
402.588404
 20
183.903640
 30
0.0
  0
SPLINE
  5
2e6
100
AcDbEntity
  8
Layer_1
 62
1
100
AcDbSpline
 70
8
 71
3
 72
8
 73
4
 74
0
 40
0
 40
0
 40
0
 40
0
 40
1
 40
1
 40
1
 40
1
 10
402.588404
 20
183.903640
 30
0.0
 10
402.588404
 20
185.534725
 30
0.0
 10
401.940458
 20
187.099005
 30
0.0
 10
400.787107
 20
188.252357
 30
0.0
  0
SPLINE
  5
2e7
100
AcDbEntity
  8
Layer_1
 62
1
100
AcDbSpline
 70
8
 71
3
 72
8
 73
4
 74
0
 40
0
 40
0
 40
0
 40
0
 40
1
 40
1
 40
1
 40
1
 10
400.787107
 20
188.252357
 30
0.0
 10
399.633755
 20
189.405708
 30
0.0
 10
398.069475
 20
190.053654
 30
0.0
 10
396.438390
 20
190.053654
 30
0.0
  0
LWPOLYLINE
  5
2e8
100
AcDbEntity
  8
Layer_1
 62
1
100
AcDbPolyline
 90
1
 70
1
 10
335.746160
 20
187.388054
 30
0.0
  0
SPLINE
  5
2e9
100
AcDbEntity
  8
Layer_1
 62
1
100
AcDbSpline
 70
8
 71
3
 72
8
 73
4
 74
0
 40
0
 40
0
 40
0
 40
0
 40
1
 40
1
 40
1
 40
1
 10
396.269570
 20
227.266004
 30
0.0
 10
394.206306
 20
227.266004
 30
0.0
 10
392.346203
 20
226.023123
 30
0.0
 10
391.556626
 20
224.116915
 30
0.0
  0
SPLINE
  5
2ea
100
AcDbEntity
  8
Layer_1
 62
1
100
AcDbSpline
 70
8
 71
3
 72
8
 73
4
 74
0
 40
0
 40
0
 40
0
 40
0
 40
1
 40
1
 40
1
 40
1
 10
391.556626
 20
224.116915
 30
0.0
 10
390.767049
 20
222.210707
 30
0.0
 10
391.203491
 20
220.016567
 30
0.0
 10
392.662439
 20
218.557619
 30
0.0
  0
SPLINE
  5
2eb
100
AcDbEntity
  8
Layer_1
 62
1
100
AcDbSpline
 70
8
 71
3
 72
8
 73
4
 74
0
 40
0
 40
0
 40
0
 40
0
 40
1
 40
1
 40
1
 40
1
 10
392.662439
 20
218.557619
 30
0.0
 10
394.121387
 20
217.098670
 30
0.0
 10
396.315527
 20
216.662229
 30
0.0
 10
398.221735
 20
217.451806
 30
0.0
  0
SPLINE
  5
2ec
100
AcDbEntity
  8
Layer_1
 62
1
100
AcDbSpline
 70
8
 71
3
 72
8
 73
4
 74
0
 40
0
 40
0
 40
0
 40
0
 40
1
 40
1
 40
1
 40
1
 10
398.221735
 20
217.451806
 30
0.0
 10
400.127943
 20
218.241383
 30
0.0
 10
401.370823
 20
220.101485
 30
0.0
 10
401.370823
 20
222.164750
 30
0.0
  0
SPLINE
  5
2ed
100
AcDbEntity
  8
Layer_1
 62
1
100
AcDbSpline
 70
8
 71
3
 72
8
 73
4
 74
0
 40
0
 40
0
 40
0
 40
0
 40
1
 40
1
 40
1
 40
1
 10
401.370823
 20
222.164750
 30
0.0
 10
401.370823
 20
223.517687
 30
0.0
 10
400.833372
 20
224.815211
 30
0.0
 10
399.876701
 20
225.771881
 30
0.0
  0
SPLINE
  5
2ee
100
AcDbEntity
  8
Layer_1
 62
1
100
AcDbSpline
 70
8
 71
3
 72
8
 73
4
 74
0
 40
0
 40
0
 40
0
 40
0
 40
1
 40
1
 40
1
 40
1
 10
399.876701
 20
225.771881
 30
0.0
 10
398.920030
 20
226.728552
 30
0.0
 10
397.622507
 20
227.266004
 30
0.0
 10
396.269570
 20
227.266004
 30
0.0
  0
LWPOLYLINE
  5
2ef
100
AcDbEntity
  8
Layer_1
 62
1
100
AcDbPolyline
 90
1
 70
1
 10
396.438390
 20
190.053654
 30
0.0
  0
SPLINE
  5
2f0
100
AcDbEntity
  8
Layer_1
 62
1
100
AcDbSpline
 70
8
 71
3
 72
8
 73
4
 74
0
 40
0
 40
0
 40
0
 40
0
 40
1
 40
1
 40
1
 40
1
 10
422.984040
 20
216.580884
 30
0.0
 10
420.920776
 20
216.580884
 30
0.0
 10
419.060673
 20
215.338003
 30
0.0
 10
418.271096
 20
213.431795
 30
0.0
  0
SPLINE
  5
2f1
100
AcDbEntity
  8
Layer_1
 62
1
100
AcDbSpline
 70
8
 71
3
 72
8
 73
4
 74
0
 40
0
 40
0
 40
0
 40
0
 40
1
 40
1
 40
1
 40
1
 10
418.271096
 20
213.431795
 30
0.0
 10
417.481519
 20
211.525587
 30
0.0
 10
417.917961
 20
209.331447
 30
0.0
 10
419.376909
 20
207.872499
 30
0.0
  0
SPLINE
  5
2f2
100
AcDbEntity
  8
Layer_1
 62
1
100
AcDbSpline
 70
8
 71
3
 72
8
 73
4
 74
0
 40
0
 40
0
 40
0
 40
0
 40
1
 40
1
 40
1
 40
1
 10
419.376909
 20
207.872499
 30
0.0
 10
420.835857
 20
206.413550
 30
0.0
 10
423.029997
 20
205.977109
 30
0.0
 10
424.936205
 20
206.766686
 30
0.0
  0
SPLINE
  5
2f3
100
AcDbEntity
  8
Layer_1
 62
1
100
AcDbSpline
 70
8
 71
3
 72
8
 73
4
 74
0
 40
0
 40
0
 40
0
 40
0
 40
1
 40
1
 40
1
 40
1
 10
424.936205
 20
206.766686
 30
0.0
 10
426.842413
 20
207.556263
 30
0.0
 10
428.085293
 20
209.416365
 30
0.0
 10
428.085293
 20
211.479630
 30
0.0
  0
SPLINE
  5
2f4
100
AcDbEntity
  8
Layer_1
 62
1
100
AcDbSpline
 70
8
 71
3
 72
8
 73
4
 74
0
 40
0
 40
0
 40
0
 40
0
 40
1
 40
1
 40
1
 40
1
 10
428.085293
 20
211.479630
 30
0.0
 10
428.085293
 20
212.832567
 30
0.0
 10
427.547842
 20
214.130091
 30
0.0
 10
426.591171
 20
215.086761
 30
0.0
  0
SPLINE
  5
2f5
100
AcDbEntity
  8
Layer_1
 62
1
100
AcDbSpline
 70
8
 71
3
 72
8
 73
4
 74
0
 40
0
 40
0
 40
0
 40
0
 40
1
 40
1
 40
1
 40
1
 10
426.591171
 20
215.086761
 30
0.0
 10
425.634500
 20
216.043432
 30
0.0
 10
424.336977
 20
216.580884
 30
0.0
 10
422.984040
 20
216.580884
 30
0.0
  0
LWPOLYLINE
  5
2f6
100
AcDbEntity
  8
Layer_1
 62
1
100
AcDbPolyline
 90
1
 70
1
 10
396.269570
 20
227.266004
 30
0.0
  0
SPLINE
  5
2f7
100
AcDbEntity
  8
Layer_1
 62
1
100
AcDbSpline
 70
8
 71
3
 72
8
 73
4
 74
0
 40
0
 40
0
 40
0
 40
0
 40
1
 40
1
 40
1
 40
1
 10
434.840340
 20
188.792704
 30
0.0
 10
432.777076
 20
188.792704
 30
0.0
 10
430.916973
 20
187.549823
 30
0.0
 10
430.127396
 20
185.643615
 30
0.0
  0
SPLINE
  5
2f8
100
AcDbEntity
  8
Layer_1
 62
1
100
AcDbSpline
 70
8
 71
3
 72
8
 73
4
 74
0
 40
0
 40
0
 40
0
 40
0
 40
1
 40
1
 40
1
 40
1
 10
430.127396
 20
185.643615
 30
0.0
 10
429.337819
 20
183.737407
 30
0.0
 10
429.774261
 20
181.543267
 30
0.0
 10
431.233209
 20
180.084319
 30
0.0
  0
SPLINE
  5
2f9
100
AcDbEntity
  8
Layer_1
 62
1
100
AcDbSpline
 70
8
 71
3
 72
8
 73
4
 74
0
 40
0
 40
0
 40
0
 40
0
 40
1
 40
1
 40
1
 40
1
 10
431.233209
 20
180.084319
 30
0.0
 10
432.692157
 20
178.625370
 30
0.0
 10
434.886297
 20
178.188929
 30
0.0
 10
436.792505
 20
178.978506
 30
0.0
  0
SPLINE
  5
2fa
100
AcDbEntity
  8
Layer_1
 62
1
100
AcDbSpline
 70
8
 71
3
 72
8
 73
4
 74
0
 40
0
 40
0
 40
0
 40
0
 40
1
 40
1
 40
1
 40
1
 10
436.792505
 20
178.978506
 30
0.0
 10
438.698713
 20
179.768083
 30
0.0
 10
439.941593
 20
181.628185
 30
0.0
 10
439.941593
 20
183.691450
 30
0.0
  0
SPLINE
  5
2fb
100
AcDbEntity
  8
Layer_1
 62
1
100
AcDbSpline
 70
8
 71
3
 72
8
 73
4
 74
0
 40
0
 40
0
 40
0
 40
0
 40
1
 40
1
 40
1
 40
1
 10
439.941593
 20
183.691450
 30
0.0
 10
439.941593
 20
185.044387
 30
0.0
 10
439.404142
 20
186.341911
 30
0.0
 10
438.447471
 20
187.298581
 30
0.0
  0
SPLINE
  5
2fc
100
AcDbEntity
  8
Layer_1
 62
1
100
AcDbSpline
 70
8
 71
3
 72
8
 73
4
 74
0
 40
0
 40
0
 40
0
 40
0
 40
1
 40
1
 40
1
 40
1
 10
438.447471
 20
187.298581
 30
0.0
 10
437.490800
 20
188.255252
 30
0.0
 10
436.193277
 20
188.792704
 30
0.0
 10
434.840340
 20
188.792704
 30
0.0
  0
LWPOLYLINE
  5
2fd
100
AcDbEntity
  8
Layer_1
 62
1
100
AcDbPolyline
 90
1
 70
1
 10
422.984040
 20
216.580884
 30
0.0
  0
SPLINE
  5
2fe
100
AcDbEntity
  8
Layer_1
 62
1
100
AcDbSpline
 70
8
 71
3
 72
8
 73
4
 74
0
 40
0
 40
0
 40
0
 40
0
 40
1
 40
1
 40
1
 40
1
 10
422.984040
 20
161.375044
 30
0.0
 10
420.920776
 20
161.375044
 30
0.0
 10
419.060673
 20
160.132163
 30
0.0
 10
418.271096
 20
158.225955
 30
0.0
  0
SPLINE
  5
2ff
100
AcDbEntity
  8
Layer_1
 62
1
100
AcDbSpline
 70
8
 71
3
 72
8
 73
4
 74
0
 40
0
 40
0
 40
0
 40
0
 40
1
 40
1
 40
1
 40
1
 10
418.271096
 20
158.225955
 30
0.0
 10
417.481519
 20
156.319747
 30
0.0
 10
417.917961
 20
154.125607
 30
0.0
 10
419.376909
 20
152.666659
 30
0.0
  0
SPLINE
  5
300
100
AcDbEntity
  8
Layer_1
 62
1
100
AcDbSpline
 70
8
 71
3
 72
8
 73
4
 74
0
 40
0
 40
0
 40
0
 40
0
 40
1
 40
1
 40
1
 40
1
 10
419.376909
 20
152.666659
 30
0.0
 10
420.835857
 20
151.207710
 30
0.0
 10
423.029997
 20
150.771269
 30
0.0
 10
424.936205
 20
151.560846
 30
0.0
  0
SPLINE
  5
301
100
AcDbEntity
  8
Layer_1
 62
1
100
AcDbSpline
 70
8
 71
3
 72
8
 73
4
 74
0
 40
0
 40
0
 40
0
 40
0
 40
1
 40
1
 40
1
 40
1
 10
424.936205
 20
151.560846
 30
0.0
 10
426.842413
 20
152.350423
 30
0.0
 10
428.085293
 20
154.210525
 30
0.0
 10
428.085293
 20
156.273790
 30
0.0
  0
SPLINE
  5
302
100
AcDbEntity
  8
Layer_1
 62
1
100
AcDbSpline
 70
8
 71
3
 72
8
 73
4
 74
0
 40
0
 40
0
 40
0
 40
0
 40
1
 40
1
 40
1
 40
1
 10
428.085293
 20
156.273790
 30
0.0
 10
428.085293
 20
157.626727
 30
0.0
 10
427.547842
 20
158.924251
 30
0.0
 10
426.591171
 20
159.880921
 30
0.0
  0
SPLINE
  5
303
100
AcDbEntity
  8
Layer_1
 62
1
100
AcDbSpline
 70
8
 71
3
 72
8
 73
4
 74
0
 40
0
 40
0
 40
0
 40
0
 40
1
 40
1
 40
1
 40
1
 10
426.591171
 20
159.880921
 30
0.0
 10
425.634500
 20
160.837592
 30
0.0
 10
424.336977
 20
161.375044
 30
0.0
 10
422.984040
 20
161.375044
 30
0.0
  0
LWPOLYLINE
  5
304
100
AcDbEntity
  8
Layer_1
 62
1
100
AcDbPolyline
 90
1
 70
1
 10
434.840340
 20
188.792704
 30
0.0
  0
SPLINE
  5
305
100
AcDbEntity
  8
Layer_1
 62
1
100
AcDbSpline
 70
8
 71
3
 72
8
 73
4
 74
0
 40
0
 40
0
 40
0
 40
0
 40
1
 40
1
 40
1
 40
1
 10
396.159180
 20
150.704384
 30
0.0
 10
394.095916
 20
150.704384
 30
0.0
 10
392.235813
 20
149.461503
 30
0.0
 10
391.446236
 20
147.555295
 30
0.0
  0
SPLINE
  5
306
100
AcDbEntity
  8
Layer_1
 62
1
100
AcDbSpline
 70
8
 71
3
 72
8
 73
4
 74
0
 40
0
 40
0
 40
0
 40
0
 40
1
 40
1
 40
1
 40
1
 10
391.446236
 20
147.555295
 30
0.0
 10
390.656659
 20
145.649087
 30
0.0
 10
391.093101
 20
143.454947
 30
0.0
 10
392.552049
 20
141.995999
 30
0.0
  0
SPLINE
  5
307
100
AcDbEntity
  8
Layer_1
 62
1
100
AcDbSpline
 70
8
 71
3
 72
8
 73
4
 74
0
 40
0
 40
0
 40
0
 40
0
 40
1
 40
1
 40
1
 40
1
 10
392.552049
 20
141.995999
 30
0.0
 10
394.010997
 20
140.537050
 30
0.0
 10
396.205137
 20
140.100609
 30
0.0
 10
398.111345
 20
140.890186
 30
0.0
  0
SPLINE
  5
308
100
AcDbEntity
  8
Layer_1
 62
1
100
AcDbSpline
 70
8
 71
3
 72
8
 73
4
 74
0
 40
0
 40
0
 40
0
 40
0
 40
1
 40
1
 40
1
 40
1
 10
398.111345
 20
140.890186
 30
0.0
 10
400.017553
 20
141.679763
 30
0.0
 10
401.260433
 20
143.539865
 30
0.0
 10
401.260433
 20
145.603130
 30
0.0
  0
SPLINE
  5
309
100
AcDbEntity
  8
Layer_1
 62
1
100
AcDbSpline
 70
8
 71
3
 72
8
 73
4
 74
0
 40
0
 40
0
 40
0
 40
0
 40
1
 40
1
 40
1
 40
1
 10
401.260433
 20
145.603130
 30
0.0
 10
401.260433
 20
148.420475
 30
0.0
 10
398.976525
 20
150.704384
 30
0.0
 10
396.159180
 20
150.704384
 30
0.0
  0
LWPOLYLINE
  5
30a
100
AcDbEntity
  8
Layer_1
 62
1
100
AcDbPolyline
 90
1
 70
1
 10
422.984040
 20
161.375044
 30
0.0
  0
SPLINE
  5
30b
100
AcDbEntity
  8
Layer_1
 62
1
100
AcDbSpline
 70
8
 71
3
 72
8
 73
4
 74
0
 40
0
 40
0
 40
0
 40
0
 40
1
 40
1
 40
1
 40
1
 10
368.981820
 20
162.262794
 30
0.0
 10
366.918556
 20
162.262794
 30
0.0
 10
365.058453
 20
161.019913
 30
0.0
 10
364.268876
 20
159.113705
 30
0.0
  0
SPLINE
  5
30c
100
AcDbEntity
  8
Layer_1
 62
1
100
AcDbSpline
 70
8
 71
3
 72
8
 73
4
 74
0
 40
0
 40
0
 40
0
 40
0
 40
1
 40
1
 40
1
 40
1
 10
364.268876
 20
159.113705
 30
0.0
 10
363.479299
 20
157.207497
 30
0.0
 10
363.915741
 20
155.013357
 30
0.0
 10
365.374689
 20
153.554409
 30
0.0
  0
SPLINE
  5
30d
100
AcDbEntity
  8
Layer_1
 62
1
100
AcDbSpline
 70
8
 71
3
 72
8
 73
4
 74
0
 40
0
 40
0
 40
0
 40
0
 40
1
 40
1
 40
1
 40
1
 10
365.374689
 20
153.554409
 30
0.0
 10
366.833637
 20
152.095460
 30
0.0
 10
369.027777
 20
151.659019
 30
0.0
 10
370.933985
 20
152.448596
 30
0.0
  0
SPLINE
  5
30e
100
AcDbEntity
  8
Layer_1
 62
1
100
AcDbSpline
 70
8
 71
3
 72
8
 73
4
 74
0
 40
0
 40
0
 40
0
 40
0
 40
1
 40
1
 40
1
 40
1
 10
370.933985
 20
152.448596
 30
0.0
 10
372.840193
 20
153.238173
 30
0.0
 10
374.083073
 20
155.098275
 30
0.0
 10
374.083073
 20
157.161540
 30
0.0
  0
SPLINE
  5
30f
100
AcDbEntity
  8
Layer_1
 62
1
100
AcDbSpline
 70
8
 71
3
 72
8
 73
4
 74
0
 40
0
 40
0
 40
0
 40
0
 40
1
 40
1
 40
1
 40
1
 10
374.083073
 20
157.161540
 30
0.0
 10
374.083073
 20
158.514477
 30
0.0
 10
373.545622
 20
159.812001
 30
0.0
 10
372.588951
 20
160.768671
 30
0.0
  0
SPLINE
  5
310
100
AcDbEntity
  8
Layer_1
 62
1
100
AcDbSpline
 70
8
 71
3
 72
8
 73
4
 74
0
 40
0
 40
0
 40
0
 40
0
 40
1
 40
1
 40
1
 40
1
 10
372.588951
 20
160.768671
 30
0.0
 10
371.632280
 20
161.725342
 30
0.0
 10
370.334757
 20
162.262794
 30
0.0
 10
368.981820
 20
162.262794
 30
0.0
  0
LWPOLYLINE
  5
311
100
AcDbEntity
  8
Layer_1
 62
1
100
AcDbPolyline
 90
1
 70
1
 10
396.159180
 20
150.704384
 30
0.0
  0
SPLINE
  5
312
100
AcDbEntity
  8
Layer_1
 62
1
100
AcDbSpline
 70
8
 71
3
 72
8
 73
4
 74
0
 40
0
 40
0
 40
0
 40
0
 40
1
 40
1
 40
1
 40
1
 10
358.083070
 20
188.933364
 30
0.0
 10
356.019806
 20
188.933364
 30
0.0
 10
354.159703
 20
187.690483
 30
0.0
 10
353.370126
 20
185.784275
 30
0.0
  0
SPLINE
  5
313
100
AcDbEntity
  8
Layer_1
 62
1
100
AcDbSpline
 70
8
 71
3
 72
8
 73
4
 74
0
 40
0
 40
0
 40
0
 40
0
 40
1
 40
1
 40
1
 40
1
 10
353.370126
 20
185.784275
 30
0.0
 10
352.580549
 20
183.878067
 30
0.0
 10
353.016991
 20
181.683927
 30
0.0
 10
354.475939
 20
180.224979
 30
0.0
  0
SPLINE
  5
314
100
AcDbEntity
  8
Layer_1
 62
1
100
AcDbSpline
 70
8
 71
3
 72
8
 73
4
 74
0
 40
0
 40
0
 40
0
 40
0
 40
1
 40
1
 40
1
 40
1
 10
354.475939
 20
180.224979
 30
0.0
 10
355.934887
 20
178.766030
 30
0.0
 10
358.129027
 20
178.329589
 30
0.0
 10
360.035235
 20
179.119166
 30
0.0
  0
SPLINE
  5
315
100
AcDbEntity
  8
Layer_1
 62
1
100
AcDbSpline
 70
8
 71
3
 72
8
 73
4
 74
0
 40
0
 40
0
 40
0
 40
0
 40
1
 40
1
 40
1
 40
1
 10
360.035235
 20
179.119166
 30
0.0
 10
361.941443
 20
179.908743
 30
0.0
 10
363.184324
 20
181.768845
 30
0.0
 10
363.184324
 20
183.832110
 30
0.0
  0
SPLINE
  5
316
100
AcDbEntity
  8
Layer_1
 62
1
100
AcDbSpline
 70
8
 71
3
 72
8
 73
4
 74
0
 40
0
 40
0
 40
0
 40
0
 40
1
 40
1
 40
1
 40
1
 10
363.184324
 20
183.832110
 30
0.0
 10
363.184324
 20
185.185047
 30
0.0
 10
362.646872
 20
186.482571
 30
0.0
 10
361.690201
 20
187.439241
 30
0.0
  0
SPLINE
  5
317
100
AcDbEntity
  8
Layer_1
 62
1
100
AcDbSpline
 70
8
 71
3
 72
8
 73
4
 74
0
 40
0
 40
0
 40
0
 40
0
 40
1
 40
1
 40
1
 40
1
 10
361.690201
 20
187.439241
 30
0.0
 10
360.733530
 20
188.395912
 30
0.0
 10
359.436007
 20
188.933364
 30
0.0
 10
358.083070
 20
188.933364
 30
0.0
  0
LWPOLYLINE
  5
318
100
AcDbEntity
  8
Layer_1
 62
1
100
AcDbPolyline
 90
1
 70
1
 10
368.981820
 20
162.262794
 30
0.0
  0
SPLINE
  5
319
100
AcDbEntity
  8
Layer_1
 62
1
100
AcDbSpline
 70
8
 71
3
 72
8
 73
4
 74
0
 40
0
 40
0
 40
0
 40
0
 40
1
 40
1
 40
1
 40
1
 10
368.824650
 20
215.551494
 30
0.0
 10
366.761386
 20
215.551494
 30
0.0
 10
364.901283
 20
214.308613
 30
0.0
 10
364.111706
 20
212.402405
 30
0.0
  0
SPLINE
  5
31a
100
AcDbEntity
  8
Layer_1
 62
1
100
AcDbSpline
 70
8
 71
3
 72
8
 73
4
 74
0
 40
0
 40
0
 40
0
 40
0
 40
1
 40
1
 40
1
 40
1
 10
364.111706
 20
212.402405
 30
0.0
 10
363.322129
 20
210.496197
 30
0.0
 10
363.758571
 20
208.302057
 30
0.0
 10
365.217519
 20
206.843109
 30
0.0
  0
SPLINE
  5
31b
100
AcDbEntity
  8
Layer_1
 62
1
100
AcDbSpline
 70
8
 71
3
 72
8
 73
4
 74
0
 40
0
 40
0
 40
0
 40
0
 40
1
 40
1
 40
1
 40
1
 10
365.217519
 20
206.843109
 30
0.0
 10
366.676467
 20
205.384160
 30
0.0
 10
368.870607
 20
204.947719
 30
0.0
 10
370.776815
 20
205.737296
 30
0.0
  0
SPLINE
  5
31c
100
AcDbEntity
  8
Layer_1
 62
1
100
AcDbSpline
 70
8
 71
3
 72
8
 73
4
 74
0
 40
0
 40
0
 40
0
 40
0
 40
1
 40
1
 40
1
 40
1
 10
370.776815
 20
205.737296
 30
0.0
 10
372.683023
 20
206.526873
 30
0.0
 10
373.925903
 20
208.386975
 30
0.0
 10
373.925903
 20
210.450240
 30
0.0
  0
SPLINE
  5
31d
100
AcDbEntity
  8
Layer_1
 62
1
100
AcDbSpline
 70
8
 71
3
 72
8
 73
4
 74
0
 40
0
 40
0
 40
0
 40
0
 40
1
 40
1
 40
1
 40
1
 10
373.925903
 20
210.450240
 30
0.0
 10
373.925903
 20
211.803177
 30
0.0
 10
373.388452
 20
213.100701
 30
0.0
 10
372.431781
 20
214.057371
 30
0.0
  0
SPLINE
  5
31e
100
AcDbEntity
  8
Layer_1
 62
1
100
AcDbSpline
 70
8
 71
3
 72
8
 73
4
 74
0
 40
0
 40
0
 40
0
 40
0
 40
1
 40
1
 40
1
 40
1
 10
372.431781
 20
214.057371
 30
0.0
 10
371.475110
 20
215.014042
 30
0.0
 10
370.177587
 20
215.551494
 30
0.0
 10
368.824650
 20
215.551494
 30
0.0
  0
LWPOLYLINE
  5
31f
100
AcDbEntity
  8
Layer_1
 62
1
100
AcDbPolyline
 90
1
 70
1
 10
358.083070
 20
188.933364
 30
0.0
  0
SPLINE
  5
320
100
AcDbEntity
  8
Layer_1
 62
1
100
AcDbSpline
 70
8
 71
3
 72
8
 73
4
 74
0
 40
0
 40
0
 40
0
 40
0
 40
1
 40
1
 40
1
 40
1
 10
189.154130
 20
150.545176
 30
0.0
 10
184.940553
 20
150.545176
 30
0.0
 10
181.141872
 20
148.006979
 30
0.0
 10
179.529406
 20
144.114141
 30
0.0
  0
SPLINE
  5
321
100
AcDbEntity
  8
Layer_1
 62
1
100
AcDbSpline
 70
8
 71
3
 72
8
 73
4
 74
0
 40
0
 40
0
 40
0
 40
0
 40
1
 40
1
 40
1
 40
1
 10
179.529406
 20
144.114141
 30
0.0
 10
177.916940
 20
140.221304
 30
0.0
 10
178.808237
 20
135.740454
 30
0.0
 10
181.787685
 20
132.761005
 30
0.0
  0
SPLINE
  5
322
100
AcDbEntity
  8
Layer_1
 62
1
100
AcDbSpline
 70
8
 71
3
 72
8
 73
4
 74
0
 40
0
 40
0
 40
0
 40
0
 40
1
 40
1
 40
1
 40
1
 10
181.787685
 20
132.761005
 30
0.0
 10
184.767134
 20
129.781557
 30
0.0
 10
189.247984
 20
128.890260
 30
0.0
 10
193.140821
 20
130.502726
 30
0.0
  0
SPLINE
  5
323
100
AcDbEntity
  8
Layer_1
 62
1
100
AcDbSpline
 70
8
 71
3
 72
8
 73
4
 74
0
 40
0
 40
0
 40
0
 40
0
 40
1
 40
1
 40
1
 40
1
 10
193.140821
 20
130.502726
 30
0.0
 10
197.033659
 20
132.115192
 30
0.0
 10
199.571856
 20
135.913873
 30
0.0
 10
199.571856
 20
140.127450
 30
0.0
  0
SPLINE
  5
324
100
AcDbEntity
  8
Layer_1
 62
1
100
AcDbSpline
 70
8
 71
3
 72
8
 73
4
 74
0
 40
0
 40
0
 40
0
 40
0
 40
1
 40
1
 40
1
 40
1
 10
199.571856
 20
140.127450
 30
0.0
 10
199.571856
 20
142.890403
 30
0.0
 10
198.474277
 20
145.540192
 30
0.0
 10
196.520575
 20
147.493895
 30
0.0
  0
SPLINE
  5
325
100
AcDbEntity
  8
Layer_1
 62
1
100
AcDbSpline
 70
8
 71
3
 72
8
 73
4
 74
0
 40
0
 40
0
 40
0
 40
0
 40
1
 40
1
 40
1
 40
1
 10
196.520575
 20
147.493895
 30
0.0
 10
194.566872
 20
149.447597
 30
0.0
 10
191.917083
 20
150.545176
 30
0.0
 10
189.154130
 20
150.545176
 30
0.0
  0
LWPOLYLINE
  5
326
100
AcDbEntity
  8
Layer_1
 62
1
100
AcDbPolyline
 90
1
 70
1
 10
368.824650
 20
215.551494
 30
0.0
  0
SPLINE
  5
327
100
AcDbEntity
  8
Layer_1
 62
1
100
AcDbSpline
 70
8
 71
3
 72
8
 73
4
 74
0
 40
0
 40
0
 40
0
 40
0
 40
1
 40
1
 40
1
 40
1
 10
106.415900
 20
128.709580
 30
0.0
 10
94.269220
 20
128.823080
 30
0.0
 10
78.658370
 20
126.377920
 30
0.0
 10
51.012050
 20
111.875980
 30
0.0
  0
SPLINE
  5
328
100
AcDbEntity
  8
Layer_1
 62
1
100
AcDbSpline
 70
8
 71
3
 72
8
 73
4
 74
0
 40
0
 40
0
 40
0
 40
0
 40
1
 40
1
 40
1
 40
1
 10
51.012050
 20
111.875980
 30
0.0
 10
24.559840
 20
95.398820
 30
0.0
 10
9.964370
 20
84.109370
 30
0.0
 10
4.751820
 20
73.406500
 30
0.0
  0
SPLINE
  5
329
100
AcDbEntity
  8
Layer_1
 62
1
100
AcDbSpline
 70
8
 71
3
 72
8
 73
4
 74
0
 40
0
 40
0
 40
0
 40
0
 40
1
 40
1
 40
1
 40
1
 10
4.751820
 20
73.406500
 30
0.0
 10
2.895520
 20
70.219570
 30
0.0
 10
1.916970
 20
66.597600
 30
0.0
 10
1.915820
 20
62.909460
 30
0.0
  0
SPLINE
  5
32a
100
AcDbEntity
  8
Layer_1
 62
1
100
AcDbSpline
 70
8
 71
3
 72
8
 73
4
 74
0
 40
0
 40
0
 40
0
 40
0
 40
1
 40
1
 40
1
 40
1
 10
1.915820
 20
62.909460
 30
0.0
 10
1.921820
 20
53.986570
 30
0.0
 10
7.600390
 20
46.054750
 30
0.0
 10
16.045190
 20
43.173200
 30
0.0
  0
SPLINE
  5
32b
100
AcDbEntity
  8
Layer_1
 62
1
100
AcDbSpline
 70
8
 71
3
 72
8
 73
4
 74
0
 40
0
 40
0
 40
0
 40
0
 40
1
 40
1
 40
1
 40
1
 10
16.045190
 20
43.173200
 30
0.0
 10
16.190450
 20
43.119300
 30
0.0
 10
16.339950
 20
43.070100
 30
0.0
 10
16.487540
 20
43.018690
 30
0.0
  0
SPLINE
  5
32c
100
AcDbEntity
  8
Layer_1
 62
1
100
AcDbSpline
 70
8
 71
3
 72
8
 73
4
 74
0
 40
0
 40
0
 40
0
 40
0
 40
1
 40
1
 40
1
 40
1
 10
16.487540
 20
43.018690
 30
0.0
 10
16.548540
 20
42.997890
 30
0.0
 10
16.609750
 20
42.977390
 30
0.0
 10
16.670990
 20
42.957190
 30
0.0
  0
SPLINE
  5
32d
100
AcDbEntity
  8
Layer_1
 62
1
100
AcDbSpline
 70
8
 71
3
 72
8
 73
4
 74
0
 40
0
 40
0
 40
0
 40
0
 40
1
 40
1
 40
1
 40
1
 10
16.670990
 20
42.957190
 30
0.0
 10
24.627800
 20
40.257200
 30
0.0
 10
35.912820
 20
41.080690
 30
0.0
 10
50.262220
 20
45.510530
 30
0.0
  0
SPLINE
  5
32e
100
AcDbEntity
  8
Layer_1
 62
1
100
AcDbSpline
 70
8
 71
3
 72
8
 73
4
 74
0
 40
0
 40
0
 40
0
 40
0
 40
1
 40
1
 40
1
 40
1
 10
50.262220
 20
45.510530
 30
0.0
 10
68.463470
 20
50.493570
 30
0.0
 10
90.379160
 20
40.120090
 30
0.0
 10
97.241780
 20
36.802010
 30
0.0
  0
SPLINE
  5
32f
100
AcDbEntity
  8
Layer_1
 62
1
100
AcDbSpline
 70
8
 71
3
 72
8
 73
4
 74
0
 40
0
 40
0
 40
0
 40
0
 40
1
 40
1
 40
1
 40
1
 10
97.241780
 20
36.802010
 30
0.0
 10
98.801940
 20
61.601910
 30
0.0
 10
103.643900
 20
98.417730
 30
0.0
 10
117.783900
 20
127.564640
 30
0.0
  0
SPLINE
  5
330
100
AcDbEntity
  8
Layer_1
 62
1
100
AcDbSpline
 70
8
 71
3
 72
8
 73
4
 74
0
 40
0
 40
0
 40
0
 40
0
 40
1
 40
1
 40
1
 40
1
 10
117.783900
 20
127.564640
 30
0.0
 10
112.889250
 20
127.781550
 30
0.0
 10
111.937120
 20
128.657990
 30
0.0
 10
106.415900
 20
128.709580
 30
0.0
  0
LWPOLYLINE
  5
331
100
AcDbEntity
  8
Layer_1
 62
1
100
AcDbPolyline
 90
1
 70
1
 10
189.154130
 20
150.545176
 30
0.0
  0
SPLINE
  5
332
100
AcDbEntity
  8
Layer_1
 62
1
100
AcDbSpline
 70
8
 71
3
 72
8
 73
4
 74
0
 40
0
 40
0
 40
0
 40
0
 40
1
 40
1
 40
1
 40
1
 10
85.630830
 20
74.942200
 30
0.0
 10
85.457400
 20
74.938200
 30
0.0
 10
85.139340
 20
75.073490
 30
0.0
 10
85.264070
 20
75.581260
 30
0.0
  0
SPLINE
  5
333
100
AcDbEntity
  8
Layer_1
 62
1
100
AcDbSpline
 70
8
 71
3
 72
8
 73
4
 74
0
 40
0
 40
0
 40
0
 40
0
 40
1
 40
1
 40
1
 40
1
 10
85.264070
 20
75.581260
 30
0.0
 10
87.675110
 20
85.398460
 30
0.0
 10
83.039640
 20
95.376850
 30
0.0
 10
80.254920
 20
104.019880
 30
0.0
  0
SPLINE
  5
334
100
AcDbEntity
  8
Layer_1
 62
1
100
AcDbSpline
 70
8
 71
3
 72
8
 73
4
 74
0
 40
0
 40
0
 40
0
 40
0
 40
1
 40
1
 40
1
 40
1
 10
80.254920
 20
104.019880
 30
0.0
 10
90.349740
 20
110.023280
 30
0.0
 10
93.300970
 20
109.314710
 30
0.0
 10
98.412260
 20
109.272950
 30
0.0
  0
SPLINE
  5
335
100
AcDbEntity
  8
Layer_1
 62
1
100
AcDbSpline
 70
8
 71
3
 72
8
 73
4
 74
0
 40
0
 40
0
 40
0
 40
0
 40
1
 40
1
 40
1
 40
1
 10
98.412260
 20
109.272950
 30
0.0
 10
93.974490
 20
99.939220
 30
0.0
 10
92.414410
 20
85.695290
 30
0.0
 10
88.064520
 20
75.611260
 30
0.0
  0
SPLINE
  5
336
100
AcDbEntity
  8
Layer_1
 62
1
100
AcDbSpline
 70
8
 71
3
 72
8
 73
4
 74
0
 40
0
 40
0
 40
0
 40
0
 40
1
 40
1
 40
1
 40
1
 10
88.064520
 20
75.611260
 30
0.0
 10
87.509260
 20
74.324030
 30
0.0
 10
87.358430
 20
75.154050
 30
0.0
 10
85.630850
 20
74.942200
 30
0.0
  0
LWPOLYLINE
  5
337
100
AcDbEntity
  8
Layer_1
 62
1
100
AcDbPolyline
 90
1
 70
1
 10
106.415900
 20
128.709580
 30
0.0
  0
SPLINE
  5
338
100
AcDbEntity
  8
Layer_1
 62
1
100
AcDbSpline
 70
8
 71
3
 72
8
 73
4
 74
0
 40
0
 40
0
 40
0
 40
0
 40
1
 40
1
 40
1
 40
1
 10
58.486750
 20
93.345425
 30
0.0
 10
53.370264
 20
93.345425
 30
0.0
 10
48.757581
 20
90.263328
 30
0.0
 10
46.799586
 20
85.536312
 30
0.0
  0
SPLINE
  5
339
100
AcDbEntity
  8
Layer_1
 62
1
100
AcDbSpline
 70
8
 71
3
 72
8
 73
4
 74
0
 40
0
 40
0
 40
0
 40
0
 40
1
 40
1
 40
1
 40
1
 10
46.799586
 20
85.536312
 30
0.0
 10
44.841592
 20
80.809295
 30
0.0
 10
45.923880
 20
75.368264
 30
0.0
 10
49.541782
 20
71.750362
 30
0.0
  0
SPLINE
  5
33a
100
AcDbEntity
  8
Layer_1
 62
1
100
AcDbSpline
 70
8
 71
3
 72
8
 73
4
 74
0
 40
0
 40
0
 40
0
 40
0
 40
1
 40
1
 40
1
 40
1
 10
49.541782
 20
71.750362
 30
0.0
 10
53.159684
 20
68.132460
 30
0.0
 10
58.600715
 20
67.050172
 30
0.0
 10
63.327732
 20
69.008166
 30
0.0
  0
SPLINE
  5
33b
100
AcDbEntity
  8
Layer_1
 62
1
100
AcDbSpline
 70
8
 71
3
 72
8
 73
4
 74
0
 40
0
 40
0
 40
0
 40
0
 40
1
 40
1
 40
1
 40
1
 10
63.327732
 20
69.008166
 30
0.0
 10
68.054748
 20
70.966161
 30
0.0
 10
71.136845
 20
75.578844
 30
0.0
 10
71.136845
 20
80.695330
 30
0.0
  0
SPLINE
  5
33c
100
AcDbEntity
  8
Layer_1
 62
1
100
AcDbSpline
 70
8
 71
3
 72
8
 73
4
 74
0
 40
0
 40
0
 40
0
 40
0
 40
1
 40
1
 40
1
 40
1
 10
71.136845
 20
80.695330
 30
0.0
 10
71.136845
 20
84.050344
 30
0.0
 10
69.804071
 20
87.267945
 30
0.0
 10
67.431718
 20
89.640298
 30
0.0
  0
SPLINE
  5
33d
100
AcDbEntity
  8
Layer_1
 62
1
100
AcDbSpline
 70
8
 71
3
 72
8
 73
4
 74
0
 40
0
 40
0
 40
0
 40
0
 40
1
 40
1
 40
1
 40
1
 10
67.431718
 20
89.640298
 30
0.0
 10
65.059365
 20
92.012651
 30
0.0
 10
61.841764
 20
93.345425
 30
0.0
 10
58.486750
 20
93.345425
 30
0.0
  0
LWPOLYLINE
  5
33e
100
AcDbEntity
  8
Layer_1
 62
1
100
AcDbPolyline
 90
1
 70
1
 10
85.630850
 20
74.942200
 30
0.0
  0
SPLINE
  5
33f
100
AcDbEntity
  8
Layer_1
 62
1
100
AcDbSpline
 70
8
 71
3
 72
8
 73
4
 74
0
 40
0
 40
0
 40
0
 40
0
 40
1
 40
1
 40
1
 40
1
 10
23.999563
 20
74.640625
 30
0.0
 10
19.893241
 20
74.640625
 30
0.0
 10
16.191255
 20
72.167037
 30
0.0
 10
14.619834
 20
68.373291
 30
0.0
  0
SPLINE
  5
340
100
AcDbEntity
  8
Layer_1
 62
1
100
AcDbSpline
 70
8
 71
3
 72
8
 73
4
 74
0
 40
0
 40
0
 40
0
 40
0
 40
1
 40
1
 40
1
 40
1
 10
14.619834
 20
68.373291
 30
0.0
 10
13.048412
 20
64.579545
 30
0.0
 10
13.917021
 20
60.212754
 30
0.0
 10
16.820629
 20
57.309147
 30
0.0
  0
SPLINE
  5
341
100
AcDbEntity
  8
Layer_1
 62
1
100
AcDbSpline
 70
8
 71
3
 72
8
 73
4
 74
0
 40
0
 40
0
 40
0
 40
0
 40
1
 40
1
 40
1
 40
1
 10
16.820629
 20
57.309147
 30
0.0
 10
19.724237
 20
54.405539
 30
0.0
 10
24.091028
 20
53.536930
 30
0.0
 10
27.884774
 20
55.108351
 30
0.0
  0
SPLINE
  5
342
100
AcDbEntity
  8
Layer_1
 62
1
100
AcDbSpline
 70
8
 71
3
 72
8
 73
4
 74
0
 40
0
 40
0
 40
0
 40
0
 40
1
 40
1
 40
1
 40
1
 10
27.884774
 20
55.108351
 30
0.0
 10
31.678521
 20
56.679773
 30
0.0
 10
34.152109
 20
60.381759
 30
0.0
 10
34.152109
 20
64.488080
 30
0.0
  0
SPLINE
  5
343
100
AcDbEntity
  8
Layer_1
 62
1
100
AcDbSpline
 70
8
 71
3
 72
8
 73
4
 74
0
 40
0
 40
0
 40
0
 40
0
 40
1
 40
1
 40
1
 40
1
 10
34.152109
 20
64.488080
 30
0.0
 10
34.152109
 20
67.180702
 30
0.0
 10
33.082469
 20
69.763042
 30
0.0
 10
31.178497
 20
71.667013
 30
0.0
  0
SPLINE
  5
344
100
AcDbEntity
  8
Layer_1
 62
1
100
AcDbSpline
 70
8
 71
3
 72
8
 73
4
 74
0
 40
0
 40
0
 40
0
 40
0
 40
1
 40
1
 40
1
 40
1
 10
31.178497
 20
71.667013
 30
0.0
 10
29.274525
 20
73.570985
 30
0.0
 10
26.692186
 20
74.640625
 30
0.0
 10
23.999563
 20
74.640625
 30
0.0
  0
LWPOLYLINE
  5
345
100
AcDbEntity
  8
Layer_1
 62
1
100
AcDbPolyline
 90
1
 70
1
 10
58.486750
 20
93.345425
 30
0.0
  0
SPLINE
  5
346
100
AcDbEntity
  8
Layer_1
 62
1
100
AcDbSpline
 70
8
 71
3
 72
8
 73
4
 74
0
 40
0
 40
0
 40
0
 40
0
 40
1
 40
1
 40
1
 40
1
 10
206.263200
 20
110.496380
 30
0.0
 10
194.116520
 20
110.609880
 30
0.0
 10
178.505670
 20
108.164720
 30
0.0
 10
150.859350
 20
93.662780
 30
0.0
  0
SPLINE
  5
347
100
AcDbEntity
  8
Layer_1
 62
1
100
AcDbSpline
 70
8
 71
3
 72
8
 73
4
 74
0
 40
0
 40
0
 40
0
 40
0
 40
1
 40
1
 40
1
 40
1
 10
150.859350
 20
93.662780
 30
0.0
 10
124.407140
 20
77.185620
 30
0.0
 10
109.811670
 20
65.896170
 30
0.0
 10
104.599120
 20
55.193300
 30
0.0
  0
SPLINE
  5
348
100
AcDbEntity
  8
Layer_1
 62
1
100
AcDbSpline
 70
8
 71
3
 72
8
 73
4
 74
0
 40
0
 40
0
 40
0
 40
0
 40
1
 40
1
 40
1
 40
1
 10
104.599120
 20
55.193300
 30
0.0
 10
102.742820
 20
52.006370
 30
0.0
 10
101.764270
 20
48.384400
 30
0.0
 10
101.763120
 20
44.696260
 30
0.0
  0
SPLINE
  5
349
100
AcDbEntity
  8
Layer_1
 62
1
100
AcDbSpline
 70
8
 71
3
 72
8
 73
4
 74
0
 40
0
 40
0
 40
0
 40
0
 40
1
 40
1
 40
1
 40
1
 10
101.763120
 20
44.696260
 30
0.0
 10
101.769120
 20
35.773370
 30
0.0
 10
107.447690
 20
27.841550
 30
0.0
 10
115.892490
 20
24.960000
 30
0.0
  0
SPLINE
  5
34a
100
AcDbEntity
  8
Layer_1
 62
1
100
AcDbSpline
 70
8
 71
3
 72
8
 73
4
 74
0
 40
0
 40
0
 40
0
 40
0
 40
1
 40
1
 40
1
 40
1
 10
115.892490
 20
24.960000
 30
0.0
 10
116.037750
 20
24.906100
 30
0.0
 10
116.187250
 20
24.856900
 30
0.0
 10
116.334840
 20
24.805490
 30
0.0
  0
SPLINE
  5
34b
100
AcDbEntity
  8
Layer_1
 62
1
100
AcDbSpline
 70
8
 71
3
 72
8
 73
4
 74
0
 40
0
 40
0
 40
0
 40
0
 40
1
 40
1
 40
1
 40
1
 10
116.334840
 20
24.805490
 30
0.0
 10
116.395840
 20
24.784690
 30
0.0
 10
116.457050
 20
24.764190
 30
0.0
 10
116.518290
 20
24.743990
 30
0.0
  0
SPLINE
  5
34c
100
AcDbEntity
  8
Layer_1
 62
1
100
AcDbSpline
 70
8
 71
3
 72
8
 73
4
 74
0
 40
0
 40
0
 40
0
 40
0
 40
1
 40
1
 40
1
 40
1
 10
116.518290
 20
24.743990
 30
0.0
 10
124.475100
 20
22.044000
 30
0.0
 10
135.760120
 20
22.867490
 30
0.0
 10
150.109520
 20
27.297330
 30
0.0
  0
SPLINE
  5
34d
100
AcDbEntity
  8
Layer_1
 62
1
100
AcDbSpline
 70
8
 71
3
 72
8
 73
4
 74
0
 40
0
 40
0
 40
0
 40
0
 40
1
 40
1
 40
1
 40
1
 10
150.109520
 20
27.297330
 30
0.0
 10
168.310770
 20
32.280370
 30
0.0
 10
190.226460
 20
21.906890
 30
0.0
 10
197.089080
 20
18.588810
 30
0.0
  0
SPLINE
  5
34e
100
AcDbEntity
  8
Layer_1
 62
1
100
AcDbSpline
 70
8
 71
3
 72
8
 73
4
 74
0
 40
0
 40
0
 40
0
 40
0
 40
1
 40
1
 40
1
 40
1
 10
197.089080
 20
18.588810
 30
0.0
 10
198.649240
 20
43.388710
 30
0.0
 10
203.491200
 20
80.204530
 30
0.0
 10
217.631200
 20
109.351440
 30
0.0
  0
SPLINE
  5
34f
100
AcDbEntity
  8
Layer_1
 62
1
100
AcDbSpline
 70
8
 71
3
 72
8
 73
4
 74
0
 40
0
 40
0
 40
0
 40
0
 40
1
 40
1
 40
1
 40
1
 10
217.631200
 20
109.351440
 30
0.0
 10
212.736550
 20
109.568350
 30
0.0
 10
211.784420
 20
110.444790
 30
0.0
 10
206.263200
 20
110.496380
 30
0.0
  0
LWPOLYLINE
  5
350
100
AcDbEntity
  8
Layer_1
 62
1
100
AcDbPolyline
 90
1
 70
1
 10
23.999563
 20
74.640625
 30
0.0
  0
SPLINE
  5
351
100
AcDbEntity
  8
Layer_1
 62
1
100
AcDbSpline
 70
8
 71
3
 72
8
 73
4
 74
0
 40
0
 40
0
 40
0
 40
0
 40
1
 40
1
 40
1
 40
1
 10
185.478130
 20
56.729000
 30
0.0
 10
185.304700
 20
56.725000
 30
0.0
 10
184.986640
 20
56.860290
 30
0.0
 10
185.111370
 20
57.368060
 30
0.0
  0
SPLINE
  5
352
100
AcDbEntity
  8
Layer_1
 62
1
100
AcDbSpline
 70
8
 71
3
 72
8
 73
4
 74
0
 40
0
 40
0
 40
0
 40
0
 40
1
 40
1
 40
1
 40
1
 10
185.111370
 20
57.368060
 30
0.0
 10
187.522410
 20
67.185260
 30
0.0
 10
182.886940
 20
77.163650
 30
0.0
 10
180.102220
 20
85.806680
 30
0.0
  0
SPLINE
  5
353
100
AcDbEntity
  8
Layer_1
 62
1
100
AcDbSpline
 70
8
 71
3
 72
8
 73
4
 74
0
 40
0
 40
0
 40
0
 40
0
 40
1
 40
1
 40
1
 40
1
 10
180.102220
 20
85.806680
 30
0.0
 10
190.197040
 20
91.810080
 30
0.0
 10
193.148270
 20
91.101510
 30
0.0
 10
198.259560
 20
91.059750
 30
0.0
  0
SPLINE
  5
354
100
AcDbEntity
  8
Layer_1
 62
1
100
AcDbSpline
 70
8
 71
3
 72
8
 73
4
 74
0
 40
0
 40
0
 40
0
 40
0
 40
1
 40
1
 40
1
 40
1
 10
198.259560
 20
91.059750
 30
0.0
 10
193.821790
 20
81.726020
 30
0.0
 10
192.261710
 20
67.482090
 30
0.0
 10
187.911820
 20
57.398060
 30
0.0
  0
SPLINE
  5
355
100
AcDbEntity
  8
Layer_1
 62
1
100
AcDbSpline
 70
8
 71
3
 72
8
 73
4
 74
0
 40
0
 40
0
 40
0
 40
0
 40
1
 40
1
 40
1
 40
1
 10
187.911820
 20
57.398060
 30
0.0
 10
187.356560
 20
56.110830
 30
0.0
 10
187.205730
 20
56.940850
 30
0.0
 10
185.478150
 20
56.729000
 30
0.0
  0
LWPOLYLINE
  5
356
100
AcDbEntity
  8
Layer_1
 62
1
100
AcDbPolyline
 90
1
 70
1
 10
206.263200
 20
110.496380
 30
0.0
  0
SPLINE
  5
357
100
AcDbEntity
  8
Layer_1
 62
1
100
AcDbSpline
 70
8
 71
3
 72
8
 73
4
 74
0
 40
0
 40
0
 40
0
 40
0
 40
1
 40
1
 40
1
 40
1
 10
158.334050
 20
75.132225
 30
0.0
 10
153.217564
 20
75.132225
 30
0.0
 10
148.604881
 20
72.050128
 30
0.0
 10
146.646886
 20
67.323112
 30
0.0
  0
SPLINE
  5
358
100
AcDbEntity
  8
Layer_1
 62
1
100
AcDbSpline
 70
8
 71
3
 72
8
 73
4
 74
0
 40
0
 40
0
 40
0
 40
0
 40
1
 40
1
 40
1
 40
1
 10
146.646886
 20
67.323112
 30
0.0
 10
144.688892
 20
62.596095
 30
0.0
 10
145.771180
 20
57.155064
 30
0.0
 10
149.389082
 20
53.537162
 30
0.0
  0
SPLINE
  5
359
100
AcDbEntity
  8
Layer_1
 62
1
100
AcDbSpline
 70
8
 71
3
 72
8
 73
4
 74
0
 40
0
 40
0
 40
0
 40
0
 40
1
 40
1
 40
1
 40
1
 10
149.389082
 20
53.537162
 30
0.0
 10
153.006984
 20
49.919260
 30
0.0
 10
158.448015
 20
48.836972
 30
0.0
 10
163.175032
 20
50.794966
 30
0.0
  0
SPLINE
  5
35a
100
AcDbEntity
  8
Layer_1
 62
1
100
AcDbSpline
 70
8
 71
3
 72
8
 73
4
 74
0
 40
0
 40
0
 40
0
 40
0
 40
1
 40
1
 40
1
 40
1
 10
163.175032
 20
50.794966
 30
0.0
 10
167.902048
 20
52.752961
 30
0.0
 10
170.984145
 20
57.365644
 30
0.0
 10
170.984145
 20
62.482130
 30
0.0
  0
SPLINE
  5
35b
100
AcDbEntity
  8
Layer_1
 62
1
100
AcDbSpline
 70
8
 71
3
 72
8
 73
4
 74
0
 40
0
 40
0
 40
0
 40
0
 40
1
 40
1
 40
1
 40
1
 10
170.984145
 20
62.482130
 30
0.0
 10
170.984145
 20
65.837144
 30
0.0
 10
169.651371
 20
69.054745
 30
0.0
 10
167.279018
 20
71.427098
 30
0.0
  0
SPLINE
  5
35c
100
AcDbEntity
  8
Layer_1
 62
1
100
AcDbSpline
 70
8
 71
3
 72
8
 73
4
 74
0
 40
0
 40
0
 40
0
 40
0
 40
1
 40
1
 40
1
 40
1
 10
167.279018
 20
71.427098
 30
0.0
 10
164.906665
 20
73.799451
 30
0.0
 10
161.689064
 20
75.132225
 30
0.0
 10
158.334050
 20
75.132225
 30
0.0
  0
LWPOLYLINE
  5
35d
100
AcDbEntity
  8
Layer_1
 62
1
100
AcDbPolyline
 90
1
 70
1
 10
185.478150
 20
56.729000
 30
0.0
  0
SPLINE
  5
35e
100
AcDbEntity
  8
Layer_1
 62
1
100
AcDbSpline
 70
8
 71
3
 72
8
 73
4
 74
0
 40
0
 40
0
 40
0
 40
0
 40
1
 40
1
 40
1
 40
1
 10
123.846863
 20
56.427425
 30
0.0
 10
119.740541
 20
56.427425
 30
0.0
 10
116.038555
 20
53.953837
 30
0.0
 10
114.467134
 20
50.160091
 30
0.0
  0
SPLINE
  5
35f
100
AcDbEntity
  8
Layer_1
 62
1
100
AcDbSpline
 70
8
 71
3
 72
8
 73
4
 74
0
 40
0
 40
0
 40
0
 40
0
 40
1
 40
1
 40
1
 40
1
 10
114.467134
 20
50.160091
 30
0.0
 10
112.895712
 20
46.366345
 30
0.0
 10
113.764321
 20
41.999554
 30
0.0
 10
116.667929
 20
39.095947
 30
0.0
  0
SPLINE
  5
360
100
AcDbEntity
  8
Layer_1
 62
1
100
AcDbSpline
 70
8
 71
3
 72
8
 73
4
 74
0
 40
0
 40
0
 40
0
 40
0
 40
1
 40
1
 40
1
 40
1
 10
116.667929
 20
39.095947
 30
0.0
 10
119.571537
 20
36.192339
 30
0.0
 10
123.938328
 20
35.323730
 30
0.0
 10
127.732074
 20
36.895151
 30
0.0
  0
SPLINE
  5
361
100
AcDbEntity
  8
Layer_1
 62
1
100
AcDbSpline
 70
8
 71
3
 72
8
 73
4
 74
0
 40
0
 40
0
 40
0
 40
0
 40
1
 40
1
 40
1
 40
1
 10
127.732074
 20
36.895151
 30
0.0
 10
131.525821
 20
38.466573
 30
0.0
 10
133.999409
 20
42.168559
 30
0.0
 10
133.999409
 20
46.274880
 30
0.0
  0
SPLINE
  5
362
100
AcDbEntity
  8
Layer_1
 62
1
100
AcDbSpline
 70
8
 71
3
 72
8
 73
4
 74
0
 40
0
 40
0
 40
0
 40
0
 40
1
 40
1
 40
1
 40
1
 10
133.999409
 20
46.274880
 30
0.0
 10
133.999409
 20
48.967502
 30
0.0
 10
132.929769
 20
51.549842
 30
0.0
 10
131.025797
 20
53.453813
 30
0.0
  0
SPLINE
  5
363
100
AcDbEntity
  8
Layer_1
 62
1
100
AcDbSpline
 70
8
 71
3
 72
8
 73
4
 74
0
 40
0
 40
0
 40
0
 40
0
 40
1
 40
1
 40
1
 40
1
 10
131.025797
 20
53.453813
 30
0.0
 10
129.121825
 20
55.357785
 30
0.0
 10
126.539486
 20
56.427425
 30
0.0
 10
123.846863
 20
56.427425
 30
0.0
  0
LWPOLYLINE
  5
364
100
AcDbEntity
  8
Layer_1
 62
1
100
AcDbPolyline
 90
1
 70
1
 10
158.334050
 20
75.132225
 30
0.0
  0
SPLINE
  5
365
100
AcDbEntity
  8
Layer_1
 62
1
100
AcDbSpline
 70
8
 71
3
 72
8
 73
4
 74
0
 40
0
 40
0
 40
0
 40
0
 40
1
 40
1
 40
1
 40
1
 10
285.965890
 20
158.877680
 30
0.0
 10
284.185860
 20
158.877680
 30
0.0
 10
282.752910
 20
156.767040
 30
0.0
 10
282.752910
 20
154.145240
 30
0.0
  0
LWPOLYLINE
  5
366
100
AcDbEntity
  8
Layer_1
 62
1
100
AcDbPolyline
 90
1
 70
1
 10
123.846863
 20
56.427425
 30
0.0
  0
SPLINE
  5
367
100
AcDbEntity
  8
Layer_1
 62
1
100
AcDbSpline
 70
8
 71
3
 72
8
 73
4
 74
0
 40
0
 40
0
 40
0
 40
0
 40
1
 40
1
 40
1
 40
1
 10
282.752910
 20
143.119060
 30
0.0
 10
282.752910
 20
140.497260
 30
0.0
 10
284.185860
 20
138.386620
 30
0.0
 10
285.965890
 20
138.386620
 30
0.0
  0
LWPOLYLINE
  5
368
100
AcDbEntity
  8
Layer_1
 62
1
100
AcDbPolyline
 90
2
 70
0
 10
282.752910
 20
154.145240
 30
0.0
 10
282.752910
 20
143.119060
 30
0.0
  0
SPLINE
  5
369
100
AcDbEntity
  8
Layer_1
 62
1
100
AcDbSpline
 70
8
 71
3
 72
8
 73
4
 74
0
 40
0
 40
0
 40
0
 40
0
 40
1
 40
1
 40
1
 40
1
 10
337.674830
 20
138.386620
 30
0.0
 10
339.454860
 20
138.386620
 30
0.0
 10
340.887800
 20
140.497260
 30
0.0
 10
340.887800
 20
143.119060
 30
0.0
  0
LWPOLYLINE
  5
36a
100
AcDbEntity
  8
Layer_1
 62
1
100
AcDbPolyline
 90
2
 70
0
 10
285.965890
 20
138.386620
 30
0.0
 10
337.674830
 20
138.386620
 30
0.0
  0
SPLINE
  5
36b
100
AcDbEntity
  8
Layer_1
 62
1
100
AcDbSpline
 70
8
 71
3
 72
8
 73
4
 74
0
 40
0
 40
0
 40
0
 40
0
 40
1
 40
1
 40
1
 40
1
 10
340.887800
 20
154.145240
 30
0.0
 10
340.887800
 20
156.767040
 30
0.0
 10
339.454860
 20
158.877680
 30
0.0
 10
337.674830
 20
158.877680
 30
0.0
  0
LWPOLYLINE
  5
36c
100
AcDbEntity
  8
Layer_1
 62
1
100
AcDbPolyline
 90
2
 70
0
 10
340.887800
 20
143.119060
 30
0.0
 10
340.887800
 20
154.145240
 30
0.0
  0
SPLINE
  5
36d
100
AcDbEntity
  8
Layer_1
 62
1
100
AcDbSpline
 70
8
 71
3
 72
8
 73
4
 74
0
 40
0
 40
0
 40
0
 40
0
 40
1
 40
1
 40
1
 40
1
 10
305.383720
 20
158.877680
 30
0.0
 10
304.275303
 20
155.845273
 30
0.0
 10
301.110169
 20
153.791416
 30
0.0
 10
297.536740
 20
153.785770
 30
0.0
  0
SPLINE
  5
36e
100
AcDbEntity
  8
Layer_1
 62
1
100
AcDbSpline
 70
8
 71
3
 72
8
 73
4
 74
0
 40
0
 40
0
 40
0
 40
0
 40
1
 40
1
 40
1
 40
1
 10
297.536740
 20
153.785770
 30
0.0
 10
293.963525
 20
153.791639
 30
0.0
 10
290.798690
 20
155.845454
 30
0.0
 10
289.690340
 20
158.877680
 30
0.0
  0
LWPOLYLINE
  5
36f
100
AcDbEntity
  8
Layer_1
 62
1
100
AcDbPolyline
 90
2
 70
0
 10
337.674830
 20
158.877680
 30
0.0
 10
305.383720
 20
158.877680
 30
0.0
  0
LWPOLYLINE
  5
370
100
AcDbEntity
  8
Layer_1
 62
1
100
AcDbPolyline
 90
2
 70
0
 10
289.690340
 20
158.877680
 30
0.0
 10
285.965890
 20
158.877680
 30
0.0
  0
ENDSEC
  0
SECTION
  2
OBJECTS
  0
DICTIONARY
  5
C
330
0
100
AcDbDictionary
  3
ACAD_GROUP
350
D
  3
ACAD_MLINESTYLE
350
17
  0
DICTIONARY
  5
D
330
C
100
AcDbDictionary
  0
DICTIONARY
  5
1A
330
C
100
AcDbDictionary
  0
DICTIONARY
  5
17
330
C
100
AcDbDictionary
  3
STANDARD
350
18
  0
DICTIONARY
  5
19
330
C
100
AcDbDictionary
  0
ENDSEC
  0
EOF
