0
SECTION
2
HEADER
9
$INSUNITS
70
4
9
$ACADVER
1
AC1014
9
$HANDSEED
5
FFFF
0
ENDSEC
0
SECTION
2
TABLES
0
TABLE
2
VPORT
5
8
100
AcDbSymbolTable
0
ENDTAB
0
TABLE
2
LTYPE
5
5
100
AcDbSymbolTable
0
LTYPE
5
14
100
AcDbSymbolTableRecord
100
AcDbLinetypeTableRecord
2
BYBLOCK
70
0
0
LTYPE
5
15
100
AcDbSymbolTableRecord
100
AcDbLinetypeTableRecord
2
BYLAYER
70
0
0
ENDTAB
0
TABLE
2
LAYER
5
2
100
AcDbSymbolTable
70
2
0
LAYER
5
50
100
AcDbSymbolTableRecord
100
AcDbLayerTableRecord
2
0
70
0
6
CONTINUOUS
0
ENDTAB
0
TABLE
2
STYLE
5
3
100
AcDbSymbolTable
70
1
0
STYLE
5
11
100
AcDbSymbolTableRecord
100
AcDbTextStyleTableRecord
2
STANDARD
70
0
0
ENDTAB
0
TABLE
2
VIEW
5
6
100
AcDbSymbolTable
70
0
0
ENDTAB
0
TABLE
2
UCS
5
7
100
AcDbSymbolTable
70
0
0
ENDTAB
0
TABLE
2
APPID
5
9
100
AcDbSymbolTable
70
2
0
APPID
5
12
100
AcDbSymbolTableRecord
100
AcDbRegAppTableRecord
2
ACAD
70
0
0
ENDTAB
0
TABLE
2
DIMSTYLE
5
A
100
AcDbSymbolTable
70
1
0
ENDTAB
0
TABLE
2
BLOCK_RECORD
5
1
100
AcDbSymbolTable
70
1
0
BLOCK_RECORD
5
1F
100
AcDbSymbolTableRecord
100
AcDbBlockTableRecord
2
*MODEL_SPACE
0
BLOCK_RECORD
5
1B
100
AcDbSymbolTableRecord
100
AcDbBlockTableRecord
2
*PAPER_SPACE
0
ENDTAB
0
ENDSEC
0
SECTION
2
BLOCKS
0
BLOCK
5
20
100
AcDbEntity
100
AcDbBlockBegin
2
*MODEL_SPACE
0
ENDBLK
5
21
100
AcDbEntity
100
AcDbBlockEnd
0
BLOCK
5
1C
100
AcDbEntity
100
AcDbBlockBegin
2
*PAPER_SPACE
0
ENDBLK
5
1D
100
AcDbEntity
100
AcDbBlockEnd
0
ENDSEC
0
SECTION
2
ENTITIES
0
CIRCLE
5
100
100
AcDbEntity
8
0
100
AcDbCircle
10
-7.9950000000000374
20
278.72944335272712
30
0
40
1.6500000000000015
210
5.1092973480205617e-82
220
-7.4707031215235159e-131
230
1
0
CIRCLE
5
101
100
AcDbEntity
8
0
100
AcDbCircle
10
8.0049999999999617
20
278.72944335272712
30
0
40
1.6499999999999881
210
5.1092973480205617e-82
220
-7.4707031215235159e-131
230
1
0
CIRCLE
5
102
100
AcDbEntity
8
0
100
AcDbCircle
10
12.749999999999941
20
357.71988670545426
30
0
40
1.6499999999999981
210
-0
220
0
230
1
0
CIRCLE
5
103
100
AcDbEntity
8
0
100
AcDbCircle
10
8.7499999999999591
20
174.23899999999989
30
0
40
1.6499999999999981
210
6.2385395773645919e-147
220
0
230
1
0
CIRCLE
5
104
100
AcDbEntity
8
0
100
AcDbCircle
10
7.9999999850988299
20
380.42429365619785
30
0
40
1.6500000000000037
210
6.2385395773646586e-147
220
0
230
1
0
CIRCLE
5
105
100
AcDbEntity
8
0
100
AcDbCircle
10
-7.9999999850988468
20
380.42429365619785
30
0
40
1.6500000000000159
210
6.2385395773646575e-147
220
0
230
1
0
CIRCLE
5
106
100
AcDbEntity
8
0
100
AcDbCircle
10
-8.7400000000000553
20
174.23899999999998
30
0
40
1.6499999999999992
210
6.2385395773645953e-147
220
-1.1847695038293844e-211
230
1
0
CIRCLE
5
107
100
AcDbEntity
8
0
100
AcDbCircle
10
-12.740000000000045
20
357.71988670545426
30
0
40
1.6499999999999937
210
-0
220
0
230
1
0
LWPOLYLINE
5
108
100
AcDbEntity
8
0
100
AcDbPolyline
90
4
70
1
43
0.0
10
-3.9950000000000352
20
192.73900000000003
42
0.99999999999999989
10
4.0049999999999635
20
192.73900000000003
10
4.0049999999999599
20
267.73900000000003
42
0.99999999999999989
10
-3.9950000000000352
20
267.73900000000003
0
LWPOLYLINE
5
109
100
AcDbEntity
8
0
100
AcDbPolyline
90
4
70
1
43
0.0
10
-3.9950000000000321
20
289.71988670545431
42
0.99999999999999989
10
4.0049999999999333
20
289.71988670545431
10
4.0049999999999333
20
364.71988670545431
42
0.99999999999999989
10
-3.9950000000000694
20
364.71988670545431
0
CIRCLE
5
110
100
AcDbEntity
8
0
100
AcDbCircle
10
-32.740000000000023
20
188.23899999999995
30
0
40
1.6500000000000004
210
6.1629758220391547e-33
220
1.1704190886730496e-97
230
1
0
CIRCLE
5
111
100
AcDbEntity
8
0
100
AcDbCircle
10
32.749999999999979
20
188.23899999999986
30
0
40
1.6499999999999915
210
-6.1629758220391547e-33
220
1.1704190886730496e-97
230
1
0
LWPOLYLINE
5
112
100
AcDbEntity
8
0
100
AcDbPolyline
90
28
70
1
43
0.0
10
-12.74000000000003
20
172.239
42
0.41421356237309692
10
-5.2400000000000304
20
164.73899999999998
10
5.2499999999999636
20
164.739
42
0.41421356237309698
10
12.749999999999941
20
172.239
10
12.749999999999968
20
176.73899999999978
42
-0.41421356237309243
10
20.249999999999901
20
184.23899999999978
10
32.749999999999979
20
184.23899999999989
42
0.99999999999999989
10
32.750000000000014
20
192.23899999999986
10
20.249999999999968
20
192.23899999999986
42
-0.41421356237309503
10
12.749999999999968
20
199.73899999999986
10
12.749999999999966
20
351.39533138511752
42
-0.28968986330277752
10
14.464285714285639
20
354.10585509383327
42
0.63245553203367955
10
14.464285714285632
20
361.33391831707524
42
-0.28968986330277724
10
12.749999999999954
20
364.044442025791
10
12.749999999999952
20
385.21988670545426
42
0.4142135623730932
10
5.2499999999999512
20
392.71988670545431
10
-5.2400000000000428
20
392.71988670545426
42
0.4142135623730932
10
-12.739999999999995
20
385.21988670545426
10
-12.74000000000002
20
364.044442025791
42
-0.28968986330278579
10
-14.454285714285795
20
361.33391831707519
42
0.632455532033667
10
-14.45428571428579
20
354.10585509383333
42
-0.28968986330278446
10
-12.740000000000041
20
351.39533138511752
10
-12.74000000000003
20
199.73899999999992
42
-0.41421356237309503
10
-20.24000000000003
20
192.23899999999992
10
-32.740000000000023
20
192.23899999999992
42
0.99999999999999989
10
-32.740000000000052
20
184.23899999999998
10
-20.240000000000027
20
184.23899999999998
42
-0.41421356237309503
10
-12.740000000000027
20
176.73899999999998
0
ENDSEC
0
SECTION
2
OBJECTS
0
DICTIONARY
5
C
100
AcDbDictionary
3
ACAD_GROUP
350
D
3
ACAD_MLINESTYLE
350
17
0
DICTIONARY
5
D
100
AcDbDictionary
0
DICTIONARY
5
1A
330
C
100
AcDbDictionary
0
DICTIONARY
5
17
100
AcDbDictionary
0
ENDSEC
0
EOF
