ISO-10303-21;
HEADER;
/* Generated by software containing ST-Developer
 * from STEP Tools, Inc. (www.steptools.com) 
 */

FILE_DESCRIPTION(
/* description */ (''),
/* implementation_level */ '2;1');

FILE_NAME(
/* name */ 'MOLD 2 TURNING.step',
/* time_stamp */ '2024-06-30T17:51:41+02:00',
/* author */ (''),
/* organization */ (''),
/* preprocessor_version */ 'ST-DEVELOPER v20',
/* originating_system */ 'Autodesk Translation Framework v13.14.0.145',

/* authorisation */ '');

FILE_SCHEMA (('AUTOMOTIVE_DESIGN { 1 0 10303 214 3 1 1 }'));
ENDSEC;

DATA;
#10=MECHANICAL_DESIGN_GEOMETRIC_PRESENTATION_REPRESENTATION('',(#13),#267);
#11=SHAPE_REPRESENTATION_RELATIONSHIP('SRR','None',#274,#12);
#12=ADVANCED_BREP_SHAPE_REPRESENTATION('',(#14),#266);
#13=STYLED_ITEM('',(#283),#14);
#14=MANIFOLD_SOLID_BREP('semistampo mobile TORNIO',#141);
#15=CONICAL_SURFACE('',#165,31.1979188058455,0.785366147394257);
#16=CONICAL_SURFACE('',#172,42.395771339814,1.02009609144691E-5);
#17=TOROIDAL_SURFACE('',#162,28.6171535365924,0.199999999999983);
#18=TOROIDAL_SURFACE('',#167,33.7786840750986,0.199999999999989);
#19=FACE_BOUND('',#39,.T.);
#20=FACE_BOUND('',#41,.T.);
#21=FACE_BOUND('',#46,.T.);
#22=FACE_BOUND('',#49,.T.);
#23=PLANE('',#158);
#24=PLANE('',#160);
#25=PLANE('',#170);
#26=PLANE('',#174);
#27=FACE_OUTER_BOUND('',#37,.T.);
#28=FACE_OUTER_BOUND('',#38,.T.);
#29=FACE_OUTER_BOUND('',#40,.T.);
#30=FACE_OUTER_BOUND('',#42,.T.);
#31=FACE_OUTER_BOUND('',#43,.T.);
#32=FACE_OUTER_BOUND('',#44,.T.);
#33=FACE_OUTER_BOUND('',#45,.T.);
#34=FACE_OUTER_BOUND('',#47,.T.);
#35=FACE_OUTER_BOUND('',#48,.T.);
#36=FACE_OUTER_BOUND('',#50,.T.);
#37=EDGE_LOOP('',(#97,#98,#99,#100));
#38=EDGE_LOOP('',(#101));
#39=EDGE_LOOP('',(#102));
#40=EDGE_LOOP('',(#103));
#41=EDGE_LOOP('',(#104));
#42=EDGE_LOOP('',(#105,#106,#107,#108));
#43=EDGE_LOOP('',(#109,#110,#111,#112));
#44=EDGE_LOOP('',(#113,#114,#115,#116));
#45=EDGE_LOOP('',(#117));
#46=EDGE_LOOP('',(#118));
#47=EDGE_LOOP('',(#119,#120,#121,#122));
#48=EDGE_LOOP('',(#123));
#49=EDGE_LOOP('',(#124));
#50=EDGE_LOOP('',(#125,#126,#127,#128));
#51=LINE('',#232,#55);
#52=LINE('',#247,#56);
#53=LINE('',#258,#57);
#54=LINE('',#263,#58);
#55=VECTOR('',#183,2.7645);
#56=VECTOR('',#204,31.1979188058455);
#57=VECTOR('',#219,42.395771339814);
#58=VECTOR('',#226,42.4);
#59=CIRCLE('',#156,2.76435);
#60=CIRCLE('',#157,2.76435);
#61=CIRCLE('',#159,42.4);
#62=CIRCLE('',#161,28.6171535365924);
#63=CIRCLE('',#163,28.7585794205038);
#64=CIRCLE('',#164,0.199999999999983);
#65=CIRCLE('',#166,33.6372581911872);
#66=CIRCLE('',#168,0.199999999999989);
#67=CIRCLE('',#169,33.7786840750986);
#68=CIRCLE('',#171,42.395837611691);
#69=CIRCLE('',#173,42.395837572494);
#70=CIRCLE('',#175,42.4);
#71=VERTEX_POINT('',#229);
#72=VERTEX_POINT('',#231);
#73=VERTEX_POINT('',#235);
#74=VERTEX_POINT('',#238);
#75=VERTEX_POINT('',#241);
#76=VERTEX_POINT('',#245);
#77=VERTEX_POINT('',#249);
#78=VERTEX_POINT('',#253);
#79=VERTEX_POINT('',#256);
#80=VERTEX_POINT('',#260);
#81=EDGE_CURVE('',#71,#71,#59,.T.);
#82=EDGE_CURVE('',#71,#72,#51,.T.);
#83=EDGE_CURVE('',#72,#72,#60,.T.);
#84=EDGE_CURVE('',#73,#73,#61,.T.);
#85=EDGE_CURVE('',#74,#74,#62,.T.);
#86=EDGE_CURVE('',#75,#75,#63,.T.);
#87=EDGE_CURVE('',#75,#74,#64,.T.);
#88=EDGE_CURVE('',#76,#76,#65,.T.);
#89=EDGE_CURVE('',#76,#75,#52,.T.);
#90=EDGE_CURVE('',#76,#77,#66,.T.);
#91=EDGE_CURVE('',#77,#77,#67,.T.);
#92=EDGE_CURVE('',#78,#78,#68,.T.);
#93=EDGE_CURVE('',#79,#79,#69,.T.);
#94=EDGE_CURVE('',#79,#78,#53,.T.);
#95=EDGE_CURVE('',#80,#80,#70,.T.);
#96=EDGE_CURVE('',#80,#73,#54,.T.);
#97=ORIENTED_EDGE('',*,*,#81,.F.);
#98=ORIENTED_EDGE('',*,*,#82,.T.);
#99=ORIENTED_EDGE('',*,*,#83,.F.);
#100=ORIENTED_EDGE('',*,*,#82,.F.);
#101=ORIENTED_EDGE('',*,*,#84,.F.);
#102=ORIENTED_EDGE('',*,*,#81,.T.);
#103=ORIENTED_EDGE('',*,*,#85,.F.);
#104=ORIENTED_EDGE('',*,*,#83,.T.);
#105=ORIENTED_EDGE('',*,*,#86,.F.);
#106=ORIENTED_EDGE('',*,*,#87,.T.);
#107=ORIENTED_EDGE('',*,*,#85,.T.);
#108=ORIENTED_EDGE('',*,*,#87,.F.);
#109=ORIENTED_EDGE('',*,*,#88,.F.);
#110=ORIENTED_EDGE('',*,*,#89,.T.);
#111=ORIENTED_EDGE('',*,*,#86,.T.);
#112=ORIENTED_EDGE('',*,*,#89,.F.);
#113=ORIENTED_EDGE('',*,*,#88,.T.);
#114=ORIENTED_EDGE('',*,*,#90,.T.);
#115=ORIENTED_EDGE('',*,*,#91,.F.);
#116=ORIENTED_EDGE('',*,*,#90,.F.);
#117=ORIENTED_EDGE('',*,*,#92,.F.);
#118=ORIENTED_EDGE('',*,*,#91,.T.);
#119=ORIENTED_EDGE('',*,*,#93,.T.);
#120=ORIENTED_EDGE('',*,*,#94,.T.);
#121=ORIENTED_EDGE('',*,*,#92,.T.);
#122=ORIENTED_EDGE('',*,*,#94,.F.);
#123=ORIENTED_EDGE('',*,*,#95,.T.);
#124=ORIENTED_EDGE('',*,*,#93,.F.);
#125=ORIENTED_EDGE('',*,*,#95,.F.);
#126=ORIENTED_EDGE('',*,*,#96,.T.);
#127=ORIENTED_EDGE('',*,*,#84,.T.);
#128=ORIENTED_EDGE('',*,*,#96,.F.);
#129=CYLINDRICAL_SURFACE('',#155,2.76435);
#130=CYLINDRICAL_SURFACE('',#176,42.4);
#131=ADVANCED_FACE('',(#27),#129,.F.);
#132=ADVANCED_FACE('',(#28,#19),#23,.T.);
#133=ADVANCED_FACE('',(#29,#20),#24,.T.);
#134=ADVANCED_FACE('',(#30),#17,.T.);
#135=ADVANCED_FACE('',(#31),#15,.T.);
#136=ADVANCED_FACE('',(#32),#18,.F.);
#137=ADVANCED_FACE('',(#33,#21),#25,.T.);
#138=ADVANCED_FACE('',(#34),#16,.T.);
#139=ADVANCED_FACE('',(#35,#22),#26,.F.);
#140=ADVANCED_FACE('',(#36),#130,.T.);
#141=CLOSED_SHELL('',(#131,#132,#133,#134,#135,#136,#137,#138,#139,#140));
#142=DERIVED_UNIT_ELEMENT(#144,1.);
#143=DERIVED_UNIT_ELEMENT(#269,-3.);
#144=(
MASS_UNIT()
NAMED_UNIT(*)
SI_UNIT(.KILO.,.GRAM.)
);
#145=DERIVED_UNIT((#142,#143));
#146=MEASURE_REPRESENTATION_ITEM('density measure',
POSITIVE_RATIO_MEASURE(7850.),#145);
#147=PROPERTY_DEFINITION_REPRESENTATION(#152,#149);
#148=PROPERTY_DEFINITION_REPRESENTATION(#153,#150);
#149=REPRESENTATION('material name',(#151),#266);
#150=REPRESENTATION('density',(#146),#266);
#151=DESCRIPTIVE_REPRESENTATION_ITEM('Acciaio','Acciaio');
#152=PROPERTY_DEFINITION('material property','material name',#276);
#153=PROPERTY_DEFINITION('material property','density of part',#276);
#154=AXIS2_PLACEMENT_3D('',#227,#177,#178);
#155=AXIS2_PLACEMENT_3D('',#228,#179,#180);
#156=AXIS2_PLACEMENT_3D('',#230,#181,#182);
#157=AXIS2_PLACEMENT_3D('',#233,#184,#185);
#158=AXIS2_PLACEMENT_3D('',#234,#186,#187);
#159=AXIS2_PLACEMENT_3D('',#236,#188,#189);
#160=AXIS2_PLACEMENT_3D('',#237,#190,#191);
#161=AXIS2_PLACEMENT_3D('',#239,#192,#193);
#162=AXIS2_PLACEMENT_3D('',#240,#194,#195);
#163=AXIS2_PLACEMENT_3D('',#242,#196,#197);
#164=AXIS2_PLACEMENT_3D('',#243,#198,#199);
#165=AXIS2_PLACEMENT_3D('',#244,#200,#201);
#166=AXIS2_PLACEMENT_3D('',#246,#202,#203);
#167=AXIS2_PLACEMENT_3D('',#248,#205,#206);
#168=AXIS2_PLACEMENT_3D('',#250,#207,#208);
#169=AXIS2_PLACEMENT_3D('',#251,#209,#210);
#170=AXIS2_PLACEMENT_3D('',#252,#211,#212);
#171=AXIS2_PLACEMENT_3D('',#254,#213,#214);
#172=AXIS2_PLACEMENT_3D('',#255,#215,#216);
#173=AXIS2_PLACEMENT_3D('',#257,#217,#218);
#174=AXIS2_PLACEMENT_3D('',#259,#220,#221);
#175=AXIS2_PLACEMENT_3D('',#261,#222,#223);
#176=AXIS2_PLACEMENT_3D('',#262,#224,#225);
#177=DIRECTION('axis',(0.,0.,1.));
#178=DIRECTION('refdir',(1.,0.,0.));
#179=DIRECTION('center_axis',(0.,0.,-1.));
#180=DIRECTION('ref_axis',(1.,0.,0.));
#181=DIRECTION('center_axis',(0.,0.,-1.));
#182=DIRECTION('ref_axis',(1.,0.,0.));
#183=DIRECTION('',(0.,0.,-1.));
#184=DIRECTION('center_axis',(0.,0.,1.));
#185=DIRECTION('ref_axis',(1.,0.,0.));
#186=DIRECTION('center_axis',(0.,0.,1.));
#187=DIRECTION('ref_axis',(1.,0.,0.));
#188=DIRECTION('center_axis',(0.,0.,-1.));
#189=DIRECTION('ref_axis',(1.,0.,0.));
#190=DIRECTION('center_axis',(0.,0.,-1.));
#191=DIRECTION('ref_axis',(-1.,0.,0.));
#192=DIRECTION('center_axis',(0.,0.,1.));
#193=DIRECTION('ref_axis',(1.,0.,0.));
#194=DIRECTION('center_axis',(0.,0.,1.));
#195=DIRECTION('ref_axis',(1.,0.,0.));
#196=DIRECTION('center_axis',(0.,0.,1.));
#197=DIRECTION('ref_axis',(1.,0.,0.));
#198=DIRECTION('center_axis',(1.22464679914735E-16,-1.,0.));
#199=DIRECTION('ref_axis',(-1.,-1.22464679914735E-16,0.));
#200=DIRECTION('center_axis',(0.,0.,1.));
#201=DIRECTION('ref_axis',(1.,0.,0.));
#202=DIRECTION('center_axis',(0.,0.,1.));
#203=DIRECTION('ref_axis',(1.,0.,0.));
#204=DIRECTION('',(0.707084142091188,8.65928331339825E-17,-0.707129419557106));
#205=DIRECTION('center_axis',(0.,0.,1.));
#206=DIRECTION('ref_axis',(1.,0.,0.));
#207=DIRECTION('center_axis',(1.22464679914735E-16,-1.,0.));
#208=DIRECTION('ref_axis',(-1.,-1.22464679914735E-16,0.));
#209=DIRECTION('center_axis',(0.,0.,1.));
#210=DIRECTION('ref_axis',(1.,0.,0.));
#211=DIRECTION('center_axis',(0.,0.,-1.));
#212=DIRECTION('ref_axis',(-1.,0.,0.));
#213=DIRECTION('center_axis',(0.,0.,1.));
#214=DIRECTION('ref_axis',(1.,0.,0.));
#215=DIRECTION('center_axis',(0.,0.,-1.));
#216=DIRECTION('ref_axis',(1.,0.,0.));
#217=DIRECTION('center_axis',(0.,0.,-1.));
#218=DIRECTION('ref_axis',(1.,0.,0.));
#219=DIRECTION('',(-1.02009609142922E-5,-1.24925741319152E-21,-0.99999999994797));
#220=DIRECTION('center_axis',(0.,0.,1.));
#221=DIRECTION('ref_axis',(1.,0.,0.));
#222=DIRECTION('center_axis',(0.,0.,-1.));
#223=DIRECTION('ref_axis',(1.,0.,0.));
#224=DIRECTION('center_axis',(0.,0.,-1.));
#225=DIRECTION('ref_axis',(1.,0.,0.));
#226=DIRECTION('',(0.,0.,1.));
#227=CARTESIAN_POINT('',(0.,0.,0.));
#228=CARTESIAN_POINT('Origin',(1.65282485698822E-15,0.,10.0105814716357));
#229=CARTESIAN_POINT('',(-2.76435,3.38535237922299E-16,35.0105814716357));
#230=CARTESIAN_POINT('Origin',(1.65282485698822E-15,0.,35.0105814716357));
#231=CARTESIAN_POINT('',(-2.76435,-3.38535237922299E-16,18.0105814716357));
#232=CARTESIAN_POINT('',(-2.76435,3.38535237922299E-16,10.0105814716357));
#233=CARTESIAN_POINT('Origin',(1.65282485698822E-15,0.,18.0105814716357));
#234=CARTESIAN_POINT('Origin',(0.,0.,35.0105814716357));
#235=CARTESIAN_POINT('',(-42.4,-5.19250242838478E-15,35.0105814716357));
#236=CARTESIAN_POINT('Origin',(0.,0.,35.0105814716357));
#237=CARTESIAN_POINT('Origin',(28.6171535365924,0.,18.0105814716357));
#238=CARTESIAN_POINT('',(-28.6171535365924,-3.50459054792963E-15,18.0105814716357));
#239=CARTESIAN_POINT('Origin',(-1.13607808651547E-18,0.,18.0105814716357));
#240=CARTESIAN_POINT('Origin',(-1.13607808651547E-18,0.,18.2105814716357));
#241=CARTESIAN_POINT('',(-28.7585794205038,-3.5219102235345E-15,18.0691646432175));
#242=CARTESIAN_POINT('Origin',(-1.13607808651547E-18,0.,18.0691646432175));
#243=CARTESIAN_POINT('Origin',(-28.6171535365924,-3.50459054792963E-15,
18.2105814716357));
#244=CARTESIAN_POINT('Origin',(-1.13607808651547E-18,0.,20.5086602293553));
#245=CARTESIAN_POINT('',(-33.6372581911872,-4.11937605759305E-15,22.948155815493));
#246=CARTESIAN_POINT('Origin',(-1.13607808651547E-18,0.,22.948155815493));
#247=CARTESIAN_POINT('',(-31.1979188058455,-3.82064314056377E-15,20.5086602293553));
#248=CARTESIAN_POINT('Origin',(-1.13607808651547E-18,0.,22.8067389870748));
#249=CARTESIAN_POINT('',(-33.7786840750986,-4.13669573319792E-15,23.0067389870748));
#250=CARTESIAN_POINT('Origin',(-33.7786840750986,-4.13669573319792E-15,
22.8067389870748));
#251=CARTESIAN_POINT('Origin',(-1.13607808651547E-18,0.,23.0067389870748));
#252=CARTESIAN_POINT('Origin',(42.395837611691,0.,23.0067389870748));
#253=CARTESIAN_POINT('',(-42.395837611691,-5.19199268283284E-15,23.0067389870748));
#254=CARTESIAN_POINT('Origin',(-1.13607808651547E-18,0.,23.0067389870748));
#255=CARTESIAN_POINT('Origin',(-1.13607808651547E-18,0.,29.5033697990112));
#256=CARTESIAN_POINT('',(-42.395837572494,5.19199267803259E-15,23.0105814716357));
#257=CARTESIAN_POINT('Origin',(-1.13607808651547E-18,0.,23.0105814716357));
#258=CARTESIAN_POINT('',(-42.395771339814,-5.19198456686864E-15,29.5033697990112));
#259=CARTESIAN_POINT('Origin',(0.,0.,23.0105814716357));
#260=CARTESIAN_POINT('',(-42.4,-5.19250242838478E-15,23.0105814716357));
#261=CARTESIAN_POINT('Origin',(0.,0.,23.0105814716357));
#262=CARTESIAN_POINT('Origin',(0.,0.,45.0105814716357));
#263=CARTESIAN_POINT('',(-42.4,5.19250242838478E-15,45.0105814716357));
#264=UNCERTAINTY_MEASURE_WITH_UNIT(LENGTH_MEASURE(0.01),#268,
'DISTANCE_ACCURACY_VALUE',
'Maximum model space distance between geometric entities at asserted c
onnectivities');
#265=UNCERTAINTY_MEASURE_WITH_UNIT(LENGTH_MEASURE(0.01),#268,
'DISTANCE_ACCURACY_VALUE',
'Maximum model space distance between geometric entities at asserted c
onnectivities');
#266=(
GEOMETRIC_REPRESENTATION_CONTEXT(3)
GLOBAL_UNCERTAINTY_ASSIGNED_CONTEXT((#264))
GLOBAL_UNIT_ASSIGNED_CONTEXT((#268,#270,#271))
REPRESENTATION_CONTEXT('','3D')
);
#267=(
GEOMETRIC_REPRESENTATION_CONTEXT(3)
GLOBAL_UNCERTAINTY_ASSIGNED_CONTEXT((#265))
GLOBAL_UNIT_ASSIGNED_CONTEXT((#268,#270,#271))
REPRESENTATION_CONTEXT('','3D')
);
#268=(
LENGTH_UNIT()
NAMED_UNIT(*)
SI_UNIT(.MILLI.,.METRE.)
);
#269=(
LENGTH_UNIT()
NAMED_UNIT(*)
SI_UNIT($,.METRE.)
);
#270=(
NAMED_UNIT(*)
PLANE_ANGLE_UNIT()
SI_UNIT($,.RADIAN.)
);
#271=(
NAMED_UNIT(*)
SI_UNIT($,.STERADIAN.)
SOLID_ANGLE_UNIT()
);
#272=SHAPE_DEFINITION_REPRESENTATION(#273,#274);
#273=PRODUCT_DEFINITION_SHAPE('',$,#276);
#274=SHAPE_REPRESENTATION('',(#154),#266);
#275=PRODUCT_DEFINITION_CONTEXT('part definition',#280,'design');
#276=PRODUCT_DEFINITION('stampo DEF.  BASSI','stampo DEF.  BASSI v48',#277,
#275);
#277=PRODUCT_DEFINITION_FORMATION('',$,#282);
#278=PRODUCT_RELATED_PRODUCT_CATEGORY('stampo DEF.  BASSI v48',
'stampo DEF.  BASSI v48',(#282));
#279=APPLICATION_PROTOCOL_DEFINITION('international standard',
'automotive_design',2009,#280);
#280=APPLICATION_CONTEXT(
'Core Data for Automotive Mechanical Design Process');
#281=PRODUCT_CONTEXT('part definition',#280,'mechanical');
#282=PRODUCT('stampo DEF.  BASSI','stampo DEF.  BASSI v48',$,(#281));
#283=PRESENTATION_STYLE_ASSIGNMENT((#286));
#284=PRESENTATION_STYLE_ASSIGNMENT((#287));
#285=PRESENTATION_STYLE_ASSIGNMENT((#288));
#286=SURFACE_STYLE_USAGE(.BOTH.,#289);
#287=SURFACE_STYLE_USAGE(.BOTH.,#290);
#288=SURFACE_STYLE_USAGE(.BOTH.,#291);
#289=SURFACE_SIDE_STYLE('',(#292));
#290=SURFACE_SIDE_STYLE('',(#293));
#291=SURFACE_SIDE_STYLE('',(#294));
#292=SURFACE_STYLE_FILL_AREA(#295);
#293=SURFACE_STYLE_FILL_AREA(#296);
#294=SURFACE_STYLE_FILL_AREA(#297);
#295=FILL_AREA_STYLE('Acciaio - Satinato',(#298));
#296=FILL_AREA_STYLE('Superficie - Opaco',(#299));
#297=FILL_AREA_STYLE('Superficie - Opaco (1)',(#300));
#298=FILL_AREA_STYLE_COLOUR('Acciaio - Satinato',#301);
#299=FILL_AREA_STYLE_COLOUR('Superficie - Opaco',#302);
#300=FILL_AREA_STYLE_COLOUR('Superficie - Opaco (1)',#303);
#301=COLOUR_RGB('Acciaio - Satinato',0.627450980392157,0.627450980392157,
0.627450980392157);
#302=COLOUR_RGB('Superficie - Opaco',0.603921568627451,0.450980392156863,
0.32156862745098);
#303=COLOUR_RGB('Superficie - Opaco (1)',0.803921568627451,0.423529411764706,
0.113725490196078);
ENDSEC;
END-ISO-10303-21;
