ISO-10303-21;
HEADER;
/* Generated by software containing ST-Developer
 * from STEP Tools, Inc. (www.steptools.com) 
 */

FILE_DESCRIPTION(
/* description */ (''),
/* implementation_level */ '2;1');

FILE_NAME(
/* name */ 'Cam_rev11.step',
/* time_stamp */ '2025-09-13T12:55:01-07:00',
/* author */ (''),
/* organization */ (''),
/* preprocessor_version */ 'ST-DEVELOPER v20.1',
/* originating_system */ 'Autodesk Translation Framework v14.10.0.0',
/* authorisation */ '');

FILE_SCHEMA (('AUTOMOTIVE_DESIGN { 1 0 10303 214 3 1 1 }'));
ENDSEC;

DATA;
#10=MECHANICAL_DESIGN_GEOMETRIC_PRESENTATION_REPRESENTATION('',(#13),#377);
#11=SHAPE_REPRESENTATION_RELATIONSHIP('SRR','None',#384,#12);
#12=ADVANCED_BREP_SHAPE_REPRESENTATION('',(#14),#376);
#13=STYLED_ITEM('',(#393),#14);
#14=MANIFOLD_SOLID_BREP('Body1',#196);
#15=FACE_BOUND('',#40,.T.);
#16=FACE_BOUND('',#44,.T.);
#17=FACE_BOUND('',#46,.T.);
#18=FACE_BOUND('',#50,.T.);
#19=PLANE('',#215);
#20=PLANE('',#216);
#21=PLANE('',#217);
#22=PLANE('',#221);
#23=PLANE('',#225);
#24=PLANE('',#226);
#25=B_SPLINE_CURVE_WITH_KNOTS('',3,(#295,#296,#297,#298,#299,#300,#301,
#302,#303,#304,#305,#306),.UNSPECIFIED.,.F.,.F.,(4,2,2,2,2,4),(0.,0.0264702070634185,
0.052940414126837,0.105880828253674,0.156492434958164,0.207104041662654),
 .UNSPECIFIED.);
#26=B_SPLINE_CURVE_WITH_KNOTS('',3,(#307,#308,#309,#310,#311,#312,#313,
#314,#315,#316,#317,#318,#319,#320,#321,#322,#323,#324,#325,#326,#327,#328,
#329,#330,#331,#332,#333,#334,#335,#336,#337,#338),.UNSPECIFIED.,.F.,.F.,
(4,2,2,2,2,2,2,2,2,2,2,2,2,2,2,4),(0.207104041662654,0.257715621613305,
0.308327201563956,0.361267585682018,0.387737777741049,0.41420796980008,
0.440678161859111,0.467148353918142,0.520088738036205,0.570700317986856,
0.621311897937507,0.671923504641997,0.722535111346487,0.775475525473324,
0.801945732536742,0.828415939600161),.UNSPECIFIED.);
#27=FACE_OUTER_BOUND('',#37,.T.);
#28=FACE_OUTER_BOUND('',#38,.T.);
#29=FACE_OUTER_BOUND('',#39,.T.);
#30=FACE_OUTER_BOUND('',#41,.T.);
#31=FACE_OUTER_BOUND('',#42,.T.);
#32=FACE_OUTER_BOUND('',#43,.T.);
#33=FACE_OUTER_BOUND('',#45,.T.);
#34=FACE_OUTER_BOUND('',#47,.T.);
#35=FACE_OUTER_BOUND('',#48,.T.);
#36=FACE_OUTER_BOUND('',#49,.T.);
#37=EDGE_LOOP('',(#132,#133,#134,#135));
#38=EDGE_LOOP('',(#136,#137,#138,#139,#140));
#39=EDGE_LOOP('',(#141,#142,#143,#144));
#40=EDGE_LOOP('',(#145));
#41=EDGE_LOOP('',(#146,#147,#148,#149));
#42=EDGE_LOOP('',(#150,#151,#152,#153,#154,#155));
#43=EDGE_LOOP('',(#156,#157,#158,#159));
#44=EDGE_LOOP('',(#160,#161));
#45=EDGE_LOOP('',(#162,#163,#164,#165));
#46=EDGE_LOOP('',(#166));
#47=EDGE_LOOP('',(#167,#168,#169,#170));
#48=EDGE_LOOP('',(#171,#172,#173,#174,#175,#176));
#49=EDGE_LOOP('',(#177,#178,#179,#180));
#50=EDGE_LOOP('',(#181));
#51=LINE('',#285,#67);
#52=LINE('',#288,#68);
#53=LINE('',#293,#69);
#54=LINE('',#342,#70);
#55=LINE('',#344,#71);
#56=LINE('',#346,#72);
#57=LINE('',#347,#73);
#58=LINE('',#349,#74);
#59=LINE('',#350,#75);
#60=LINE('',#353,#76);
#61=LINE('',#355,#77);
#62=LINE('',#356,#78);
#63=LINE('',#361,#79);
#64=LINE('',#365,#80);
#65=LINE('',#370,#81);
#66=LINE('',#372,#82);
#67=VECTOR('',#233,10.);
#68=VECTOR('',#236,10.);
#69=VECTOR('',#241,1.2645);
#70=VECTOR('',#244,10.);
#71=VECTOR('',#245,10.);
#72=VECTOR('',#246,10.);
#73=VECTOR('',#247,10.);
#74=VECTOR('',#250,10.);
#75=VECTOR('',#251,10.);
#76=VECTOR('',#254,10.);
#77=VECTOR('',#255,10.);
#78=VECTOR('',#256,10.);
#79=VECTOR('',#261,1.5);
#80=VECTOR('',#266,10.);
#81=VECTOR('',#273,10.);
#82=VECTOR('',#276,10.);
#83=CIRCLE('',#211,0.95);
#84=CIRCLE('',#212,0.95);
#85=CIRCLE('',#214,1.2645);
#86=CIRCLE('',#219,1.5);
#87=CIRCLE('',#220,1.5);
#88=CIRCLE('',#222,3.);
#89=CIRCLE('',#224,3.);
#90=VERTEX_POINT('',#281);
#91=VERTEX_POINT('',#282);
#92=VERTEX_POINT('',#284);
#93=VERTEX_POINT('',#286);
#94=VERTEX_POINT('',#290);
#95=VERTEX_POINT('',#292);
#96=VERTEX_POINT('',#294);
#97=VERTEX_POINT('',#340);
#98=VERTEX_POINT('',#341);
#99=VERTEX_POINT('',#343);
#100=VERTEX_POINT('',#345);
#101=VERTEX_POINT('',#352);
#102=VERTEX_POINT('',#354);
#103=VERTEX_POINT('',#358);
#104=VERTEX_POINT('',#360);
#105=VERTEX_POINT('',#364);
#106=VERTEX_POINT('',#368);
#107=EDGE_CURVE('',#90,#91,#83,.T.);
#108=EDGE_CURVE('',#92,#91,#51,.T.);
#109=EDGE_CURVE('',#92,#93,#84,.T.);
#110=EDGE_CURVE('',#93,#90,#52,.T.);
#111=EDGE_CURVE('',#94,#94,#85,.T.);
#112=EDGE_CURVE('',#94,#95,#53,.T.);
#113=EDGE_CURVE('',#96,#95,#25,.T.);
#114=EDGE_CURVE('',#95,#96,#26,.T.);
#115=EDGE_CURVE('',#97,#98,#54,.T.);
#116=EDGE_CURVE('',#99,#97,#55,.T.);
#117=EDGE_CURVE('',#99,#100,#56,.T.);
#118=EDGE_CURVE('',#98,#100,#57,.T.);
#119=EDGE_CURVE('',#100,#92,#58,.T.);
#120=EDGE_CURVE('',#93,#99,#59,.T.);
#121=EDGE_CURVE('',#101,#91,#60,.T.);
#122=EDGE_CURVE('',#102,#101,#61,.T.);
#123=EDGE_CURVE('',#98,#102,#62,.T.);
#124=EDGE_CURVE('',#103,#103,#86,.T.);
#125=EDGE_CURVE('',#103,#104,#63,.T.);
#126=EDGE_CURVE('',#104,#104,#87,.T.);
#127=EDGE_CURVE('',#90,#105,#64,.T.);
#128=EDGE_CURVE('',#105,#101,#88,.T.);
#129=EDGE_CURVE('',#106,#102,#89,.T.);
#130=EDGE_CURVE('',#106,#105,#65,.T.);
#131=EDGE_CURVE('',#97,#106,#66,.T.);
#132=ORIENTED_EDGE('',*,*,#107,.T.);
#133=ORIENTED_EDGE('',*,*,#108,.F.);
#134=ORIENTED_EDGE('',*,*,#109,.T.);
#135=ORIENTED_EDGE('',*,*,#110,.T.);
#136=ORIENTED_EDGE('',*,*,#111,.F.);
#137=ORIENTED_EDGE('',*,*,#112,.T.);
#138=ORIENTED_EDGE('',*,*,#113,.F.);
#139=ORIENTED_EDGE('',*,*,#114,.F.);
#140=ORIENTED_EDGE('',*,*,#112,.F.);
#141=ORIENTED_EDGE('',*,*,#115,.F.);
#142=ORIENTED_EDGE('',*,*,#116,.F.);
#143=ORIENTED_EDGE('',*,*,#117,.T.);
#144=ORIENTED_EDGE('',*,*,#118,.F.);
#145=ORIENTED_EDGE('',*,*,#111,.T.);
#146=ORIENTED_EDGE('',*,*,#109,.F.);
#147=ORIENTED_EDGE('',*,*,#119,.F.);
#148=ORIENTED_EDGE('',*,*,#117,.F.);
#149=ORIENTED_EDGE('',*,*,#120,.F.);
#150=ORIENTED_EDGE('',*,*,#118,.T.);
#151=ORIENTED_EDGE('',*,*,#119,.T.);
#152=ORIENTED_EDGE('',*,*,#108,.T.);
#153=ORIENTED_EDGE('',*,*,#121,.F.);
#154=ORIENTED_EDGE('',*,*,#122,.F.);
#155=ORIENTED_EDGE('',*,*,#123,.F.);
#156=ORIENTED_EDGE('',*,*,#124,.F.);
#157=ORIENTED_EDGE('',*,*,#125,.T.);
#158=ORIENTED_EDGE('',*,*,#126,.F.);
#159=ORIENTED_EDGE('',*,*,#125,.F.);
#160=ORIENTED_EDGE('',*,*,#113,.T.);
#161=ORIENTED_EDGE('',*,*,#114,.T.);
#162=ORIENTED_EDGE('',*,*,#127,.T.);
#163=ORIENTED_EDGE('',*,*,#128,.T.);
#164=ORIENTED_EDGE('',*,*,#121,.T.);
#165=ORIENTED_EDGE('',*,*,#107,.F.);
#166=ORIENTED_EDGE('',*,*,#124,.T.);
#167=ORIENTED_EDGE('',*,*,#129,.T.);
#168=ORIENTED_EDGE('',*,*,#122,.T.);
#169=ORIENTED_EDGE('',*,*,#128,.F.);
#170=ORIENTED_EDGE('',*,*,#130,.F.);
#171=ORIENTED_EDGE('',*,*,#116,.T.);
#172=ORIENTED_EDGE('',*,*,#131,.T.);
#173=ORIENTED_EDGE('',*,*,#130,.T.);
#174=ORIENTED_EDGE('',*,*,#127,.F.);
#175=ORIENTED_EDGE('',*,*,#110,.F.);
#176=ORIENTED_EDGE('',*,*,#120,.T.);
#177=ORIENTED_EDGE('',*,*,#115,.T.);
#178=ORIENTED_EDGE('',*,*,#123,.T.);
#179=ORIENTED_EDGE('',*,*,#129,.F.);
#180=ORIENTED_EDGE('',*,*,#131,.F.);
#181=ORIENTED_EDGE('',*,*,#126,.T.);
#182=CYLINDRICAL_SURFACE('',#210,0.95);
#183=CYLINDRICAL_SURFACE('',#213,1.2645);
#184=CYLINDRICAL_SURFACE('',#218,1.5);
#185=CYLINDRICAL_SURFACE('',#223,3.);
#186=ADVANCED_FACE('',(#27),#182,.T.);
#187=ADVANCED_FACE('',(#28),#183,.F.);
#188=ADVANCED_FACE('',(#29,#15),#19,.F.);
#189=ADVANCED_FACE('',(#30),#20,.T.);
#190=ADVANCED_FACE('',(#31),#21,.T.);
#191=ADVANCED_FACE('',(#32,#16),#184,.F.);
#192=ADVANCED_FACE('',(#33,#17),#22,.T.);
#193=ADVANCED_FACE('',(#34),#185,.T.);
#194=ADVANCED_FACE('',(#35),#23,.T.);
#195=ADVANCED_FACE('',(#36,#18),#24,.F.);
#196=CLOSED_SHELL('',(#186,#187,#188,#189,#190,#191,#192,#193,#194,#195));
#197=DERIVED_UNIT_ELEMENT(#199,1.);
#198=DERIVED_UNIT_ELEMENT(#379,-3.);
#199=(
MASS_UNIT()
NAMED_UNIT(*)
SI_UNIT(.KILO.,.GRAM.)
);
#200=DERIVED_UNIT((#197,#198));
#201=MEASURE_REPRESENTATION_ITEM('density measure',
POSITIVE_RATIO_MEASURE(7850.),#200);
#202=PROPERTY_DEFINITION_REPRESENTATION(#207,#204);
#203=PROPERTY_DEFINITION_REPRESENTATION(#208,#205);
#204=REPRESENTATION('material name',(#206),#376);
#205=REPRESENTATION('density',(#201),#376);
#206=DESCRIPTIVE_REPRESENTATION_ITEM('Steel','Steel');
#207=PROPERTY_DEFINITION('material property','material name',#386);
#208=PROPERTY_DEFINITION('material property','density of part',#386);
#209=AXIS2_PLACEMENT_3D('',#279,#227,#228);
#210=AXIS2_PLACEMENT_3D('',#280,#229,#230);
#211=AXIS2_PLACEMENT_3D('',#283,#231,#232);
#212=AXIS2_PLACEMENT_3D('',#287,#234,#235);
#213=AXIS2_PLACEMENT_3D('',#289,#237,#238);
#214=AXIS2_PLACEMENT_3D('',#291,#239,#240);
#215=AXIS2_PLACEMENT_3D('',#339,#242,#243);
#216=AXIS2_PLACEMENT_3D('',#348,#248,#249);
#217=AXIS2_PLACEMENT_3D('',#351,#252,#253);
#218=AXIS2_PLACEMENT_3D('',#357,#257,#258);
#219=AXIS2_PLACEMENT_3D('',#359,#259,#260);
#220=AXIS2_PLACEMENT_3D('',#362,#262,#263);
#221=AXIS2_PLACEMENT_3D('',#363,#264,#265);
#222=AXIS2_PLACEMENT_3D('',#366,#267,#268);
#223=AXIS2_PLACEMENT_3D('',#367,#269,#270);
#224=AXIS2_PLACEMENT_3D('',#369,#271,#272);
#225=AXIS2_PLACEMENT_3D('',#371,#274,#275);
#226=AXIS2_PLACEMENT_3D('',#373,#277,#278);
#227=DIRECTION('axis',(0.,0.,1.));
#228=DIRECTION('refdir',(1.,0.,0.));
#229=DIRECTION('center_axis',(0.,0.,1.));
#230=DIRECTION('ref_axis',(1.,0.,0.));
#231=DIRECTION('center_axis',(0.,0.,-1.));
#232=DIRECTION('ref_axis',(1.,0.,0.));
#233=DIRECTION('',(0.,0.,1.));
#234=DIRECTION('center_axis',(0.,0.,1.));
#235=DIRECTION('ref_axis',(1.,0.,0.));
#236=DIRECTION('',(0.,0.,1.));
#237=DIRECTION('center_axis',(0.,1.,0.));
#238=DIRECTION('ref_axis',(0.,0.,-1.));
#239=DIRECTION('center_axis',(0.,1.,0.));
#240=DIRECTION('ref_axis',(0.,0.,-1.));
#241=DIRECTION('',(0.,1.,0.));
#242=DIRECTION('center_axis',(0.,1.,0.));
#243=DIRECTION('ref_axis',(-1.,0.,0.));
#244=DIRECTION('',(-1.,0.,0.));
#245=DIRECTION('',(0.,0.,-1.));
#246=DIRECTION('',(-1.,0.,0.));
#247=DIRECTION('',(0.,0.,1.));
#248=DIRECTION('center_axis',(0.,0.,-1.));
#249=DIRECTION('ref_axis',(1.,0.,0.));
#250=DIRECTION('',(0.5125,-0.85868722477978,0.));
#251=DIRECTION('',(0.5125,0.85868722477978,0.));
#252=DIRECTION('center_axis',(-0.85868722477978,-0.5125,0.));
#253=DIRECTION('ref_axis',(0.5125,-0.85868722477978,0.));
#254=DIRECTION('',(0.5125,-0.85868722477978,0.));
#255=DIRECTION('',(0.,0.,1.));
#256=DIRECTION('',(-0.5125,0.85868722477978,0.));
#257=DIRECTION('center_axis',(0.,0.,-1.));
#258=DIRECTION('ref_axis',(-1.,0.,0.));
#259=DIRECTION('center_axis',(0.,0.,-1.));
#260=DIRECTION('ref_axis',(-1.,0.,0.));
#261=DIRECTION('',(0.,0.,-1.));
#262=DIRECTION('center_axis',(0.,0.,1.));
#263=DIRECTION('ref_axis',(-1.,0.,0.));
#264=DIRECTION('center_axis',(0.,0.,1.));
#265=DIRECTION('ref_axis',(1.,0.,0.));
#266=DIRECTION('',(0.5125,0.85868722477978,0.));
#267=DIRECTION('center_axis',(0.,0.,1.));
#268=DIRECTION('ref_axis',(1.,0.,0.));
#269=DIRECTION('center_axis',(0.,0.,1.));
#270=DIRECTION('ref_axis',(-1.60812264967664E-16,1.,0.));
#271=DIRECTION('center_axis',(0.,0.,1.));
#272=DIRECTION('ref_axis',(1.,0.,0.));
#273=DIRECTION('',(0.,0.,1.));
#274=DIRECTION('center_axis',(0.85868722477978,-0.5125,0.));
#275=DIRECTION('ref_axis',(0.5125,0.85868722477978,0.));
#276=DIRECTION('',(0.5125,0.85868722477978,0.));
#277=DIRECTION('center_axis',(0.,0.,1.));
#278=DIRECTION('ref_axis',(1.,0.,0.));
#279=CARTESIAN_POINT('',(0.,0.,0.));
#280=CARTESIAN_POINT('Origin',(0.,-4.,0.));
#281=CARTESIAN_POINT('',(0.815752863540791,-4.486875,6.));
#282=CARTESIAN_POINT('',(-0.815752863540791,-4.486875,6.));
#283=CARTESIAN_POINT('Origin',(0.,-4.,6.));
#284=CARTESIAN_POINT('',(-0.81575286354079,-4.486875,4.));
#285=CARTESIAN_POINT('',(-0.815752863540791,-4.486875,0.));
#286=CARTESIAN_POINT('',(0.815752863540791,-4.486875,4.));
#287=CARTESIAN_POINT('Origin',(0.,-4.,4.));
#288=CARTESIAN_POINT('',(0.815752863540791,-4.486875,0.));
#289=CARTESIAN_POINT('Origin',(8.91076868819729E-7,-2.,2.));
#290=CARTESIAN_POINT('',(8.91076868974586E-7,-3.5,3.2645));
#291=CARTESIAN_POINT('Origin',(8.91076868819729E-7,-3.5,2.));
#292=CARTESIAN_POINT('',(8.91076868992567E-7,-1.49999999999974,3.2645));
#293=CARTESIAN_POINT('',(8.91076868974586E-7,-2.,3.2645));
#294=CARTESIAN_POINT('',(1.26450089107687,-0.806868946276782,2.));
#295=CARTESIAN_POINT('Ctrl Pts',(1.26450089107687,-0.806868946276782,2.));
#296=CARTESIAN_POINT('Ctrl Pts',(1.26450089107687,-0.806868946276782,2.08823402354473));
#297=CARTESIAN_POINT('Ctrl Pts',(1.2552824442326,-0.821708647968777,2.17428965711306));
#298=CARTESIAN_POINT('Ctrl Pts',(1.22087321982573,-0.87200125985061,2.34000887278467));
#299=CARTESIAN_POINT('Ctrl Pts',(1.19564963369476,-0.907216156904322,2.41973778156888));
#300=CARTESIAN_POINT('Ctrl Pts',(1.09872714216894,-1.02629218191162,2.647257960352));
#301=CARTESIAN_POINT('Ctrl Pts',(1.00462070275818,-1.12235095553994,2.78365322479869));
#302=CARTESIAN_POINT('Ctrl Pts',(0.788514306425585,-1.28279009602463,2.99975964683479));
#303=CARTESIAN_POINT('Ctrl Pts',(0.65237568434873,-1.36064426443514,3.09624005475503));
#304=CARTESIAN_POINT('Ctrl Pts',(0.342649812417836,-1.46953669458226,3.2287908713529));
#305=CARTESIAN_POINT('Ctrl Pts',(0.168706246758473,-1.49999989978011,3.2645));
#306=CARTESIAN_POINT('Ctrl Pts',(8.91076869010549E-7,-1.49999999999974,
3.2645));
#307=CARTESIAN_POINT('Ctrl Pts',(8.91076869010549E-7,-1.49999999999974,
3.2645));
#308=CARTESIAN_POINT('Ctrl Pts',(-0.168704375425271,-1.50000010021931,3.2645));
#309=CARTESIAN_POINT('Ctrl Pts',(-0.342647896740541,-1.46953713113167,3.2287909056598));
#310=CARTESIAN_POINT('Ctrl Pts',(-0.652373745942519,-1.36064518288848,3.0962401444611));
#311=CARTESIAN_POINT('Ctrl Pts',(-0.788512389147892,-1.28279126251922,2.99975975683332));
#312=CARTESIAN_POINT('Ctrl Pts',(-1.00461884013336,-1.12235260709208,2.78365333155129));
#313=CARTESIAN_POINT('Ctrl Pts',(-1.0987253208436,-1.02629411192354,2.64725804018673));
#314=CARTESIAN_POINT('Ctrl Pts',(-1.19564784972791,-0.907218502430578,2.41973779188426));
#315=CARTESIAN_POINT('Ctrl Pts',(-1.22087144428804,-0.872003742188483,2.340008853375));
#316=CARTESIAN_POINT('Ctrl Pts',(-1.25528066990234,-0.821711355429178,2.17428960700323));
#317=CARTESIAN_POINT('Ctrl Pts',(-1.26449910892313,-0.806871739208041,2.0882339735301));
#318=CARTESIAN_POINT('Ctrl Pts',(-1.26449910892313,-0.806871739208041,1.9117660264699));
#319=CARTESIAN_POINT('Ctrl Pts',(-1.25528066990234,-0.821711355429178,1.82571039299677));
#320=CARTESIAN_POINT('Ctrl Pts',(-1.22087144428804,-0.872003742188483,1.659991146625));
#321=CARTESIAN_POINT('Ctrl Pts',(-1.19564784972791,-0.907218502430578,1.58026220811574));
#322=CARTESIAN_POINT('Ctrl Pts',(-1.0987253208436,-1.02629411192354,1.35274195981327));
#323=CARTESIAN_POINT('Ctrl Pts',(-1.00461884013336,-1.12235260709208,1.21634666844871));
#324=CARTESIAN_POINT('Ctrl Pts',(-0.788512389147892,-1.28279126251922,1.00024024316668));
#325=CARTESIAN_POINT('Ctrl Pts',(-0.652373745942519,-1.36064518288848,0.903759855538904));
#326=CARTESIAN_POINT('Ctrl Pts',(-0.342647896740542,-1.46953713113167,0.7712090943402));
#327=CARTESIAN_POINT('Ctrl Pts',(-0.168704375425272,-1.50000010021931,0.7355));
#328=CARTESIAN_POINT('Ctrl Pts',(0.168706246758472,-1.49999989978011,0.7355));
#329=CARTESIAN_POINT('Ctrl Pts',(0.342649812417836,-1.46953669458226,0.771209128647094));
#330=CARTESIAN_POINT('Ctrl Pts',(0.65237568434873,-1.36064426443514,0.903759945244972));
#331=CARTESIAN_POINT('Ctrl Pts',(0.788514306425585,-1.28279009602463,1.00024035316521));
#332=CARTESIAN_POINT('Ctrl Pts',(1.00462070275818,-1.12235095553993,1.21634677520132));
#333=CARTESIAN_POINT('Ctrl Pts',(1.09872714216894,-1.02629218191162,1.352742039648));
#334=CARTESIAN_POINT('Ctrl Pts',(1.19564963369476,-0.907216156904321,1.58026221843113));
#335=CARTESIAN_POINT('Ctrl Pts',(1.22087321982573,-0.87200125985061,1.65999112721534));
#336=CARTESIAN_POINT('Ctrl Pts',(1.2552824442326,-0.821708647968777,1.82571034288694));
#337=CARTESIAN_POINT('Ctrl Pts',(1.26450089107687,-0.806868946276782,1.91176597645527));
#338=CARTESIAN_POINT('Ctrl Pts',(1.26450089107687,-0.806868946276782,2.));
#339=CARTESIAN_POINT('Origin',(1.40476062201735,-3.5,0.));
#340=CARTESIAN_POINT('',(1.40476062201735,-3.5,0.));
#341=CARTESIAN_POINT('',(-1.40476062201735,-3.5,0.));
#342=CARTESIAN_POINT('',(0.702380311008677,-3.5,0.));
#343=CARTESIAN_POINT('',(1.40476062201735,-3.5,4.));
#344=CARTESIAN_POINT('',(1.40476062201735,-3.5,0.));
#345=CARTESIAN_POINT('',(-1.40476062201735,-3.5,4.));
#346=CARTESIAN_POINT('',(1.40476062201735,-3.5,4.));
#347=CARTESIAN_POINT('',(-1.40476062201736,-3.5,0.));
#348=CARTESIAN_POINT('Origin',(0.,-4.225,4.));
#349=CARTESIAN_POINT('',(-1.64639858363636,-3.095138671875,4.));
#350=CARTESIAN_POINT('',(0.766244178237081,-4.569826171875,4.));
#351=CARTESIAN_POINT('Origin',(-2.57606167433934,-1.5375,0.));
#352=CARTESIAN_POINT('',(-2.57606167433934,-1.5375,6.));
#353=CARTESIAN_POINT('',(-0.815752863540791,-4.486875,6.));
#354=CARTESIAN_POINT('',(-2.57606167433934,-1.5375,0.));
#355=CARTESIAN_POINT('',(-2.57606167433934,-1.5375,0.));
#356=CARTESIAN_POINT('',(-0.815752863540791,-4.486875,0.));
#357=CARTESIAN_POINT('Origin',(0.,0.,6.));
#358=CARTESIAN_POINT('',(1.5,1.83697019872103E-16,6.));
#359=CARTESIAN_POINT('Origin',(0.,0.,6.));
#360=CARTESIAN_POINT('',(1.5,1.83697019872103E-16,0.));
#361=CARTESIAN_POINT('',(1.5,-1.83697019872103E-16,6.));
#362=CARTESIAN_POINT('Origin',(0.,0.,0.));
#363=CARTESIAN_POINT('Origin',(0.,-0.974999999999999,6.));
#364=CARTESIAN_POINT('',(2.57606167433934,-1.5375,6.));
#365=CARTESIAN_POINT('',(0.815752863540791,-4.486875,6.));
#366=CARTESIAN_POINT('Origin',(0.,0.,6.));
#367=CARTESIAN_POINT('Origin',(0.,0.,0.));
#368=CARTESIAN_POINT('',(2.57606167433934,-1.5375,0.));
#369=CARTESIAN_POINT('Origin',(0.,0.,0.));
#370=CARTESIAN_POINT('',(2.57606167433934,-1.5375,0.));
#371=CARTESIAN_POINT('Origin',(0.815752863540791,-4.486875,0.));
#372=CARTESIAN_POINT('',(0.815752863540791,-4.486875,0.));
#373=CARTESIAN_POINT('Origin',(0.,-0.974999999999999,0.));
#374=UNCERTAINTY_MEASURE_WITH_UNIT(LENGTH_MEASURE(0.01),#378,
'DISTANCE_ACCURACY_VALUE',
'Maximum model space distance between geometric entities at asserted c
onnectivities');
#375=UNCERTAINTY_MEASURE_WITH_UNIT(LENGTH_MEASURE(0.01),#378,
'DISTANCE_ACCURACY_VALUE',
'Maximum model space distance between geometric entities at asserted c
onnectivities');
#376=(
GEOMETRIC_REPRESENTATION_CONTEXT(3)
GLOBAL_UNCERTAINTY_ASSIGNED_CONTEXT((#374))
GLOBAL_UNIT_ASSIGNED_CONTEXT((#378,#380,#381))
REPRESENTATION_CONTEXT('','3D')
);
#377=(
GEOMETRIC_REPRESENTATION_CONTEXT(3)
GLOBAL_UNCERTAINTY_ASSIGNED_CONTEXT((#375))
GLOBAL_UNIT_ASSIGNED_CONTEXT((#378,#380,#381))
REPRESENTATION_CONTEXT('','3D')
);
#378=(
LENGTH_UNIT()
NAMED_UNIT(*)
SI_UNIT(.MILLI.,.METRE.)
);
#379=(
LENGTH_UNIT()
NAMED_UNIT(*)
SI_UNIT($,.METRE.)
);
#380=(
NAMED_UNIT(*)
PLANE_ANGLE_UNIT()
SI_UNIT($,.RADIAN.)
);
#381=(
NAMED_UNIT(*)
SI_UNIT($,.STERADIAN.)
SOLID_ANGLE_UNIT()
);
#382=SHAPE_DEFINITION_REPRESENTATION(#383,#384);
#383=PRODUCT_DEFINITION_SHAPE('',$,#386);
#384=SHAPE_REPRESENTATION('',(#209),#376);
#385=PRODUCT_DEFINITION_CONTEXT('part definition',#390,'design');
#386=PRODUCT_DEFINITION('Cam_rev11','Cam_rev11 v2',#387,#385);
#387=PRODUCT_DEFINITION_FORMATION('',$,#392);
#388=PRODUCT_RELATED_PRODUCT_CATEGORY('Cam_rev11 v2','Cam_rev11 v2',(#392));
#389=APPLICATION_PROTOCOL_DEFINITION('international standard',
'automotive_design',2009,#390);
#390=APPLICATION_CONTEXT(
'Core Data for Automotive Mechanical Design Process');
#391=PRODUCT_CONTEXT('part definition',#390,'mechanical');
#392=PRODUCT('Cam_rev11','Cam_rev11 v2',$,(#391));
#393=PRESENTATION_STYLE_ASSIGNMENT((#394));
#394=SURFACE_STYLE_USAGE(.BOTH.,#395);
#395=SURFACE_SIDE_STYLE('',(#396));
#396=SURFACE_STYLE_FILL_AREA(#397);
#397=FILL_AREA_STYLE('Steel - Satin',(#398));
#398=FILL_AREA_STYLE_COLOUR('Steel - Satin',#399);
#399=COLOUR_RGB('Steel - Satin',0.627450980392157,0.627450980392157,0.627450980392157);
ENDSEC;
END-ISO-10303-21;
