  0
SECTION
  2
HEADER
  9
$ACADVER
  1
AC1009
  0
ENDSEC
  0
SECTION
  2
TABLES
  0
TABLE
  2
LAYER
  70
2
  0
LAYER
  2
Layer_2
  70
0
  62
1
  6
CONTINUOUS
  0
LAYER
  2
Layer_0
  70
0
  62
7
  6
CONTINUOUS
  0
ENDTAB
  0
ENDSEC
  0
SECTION
  2
ENTITIES
  0
POLYLINE
  5
90
  8
Layer_0
  62
7
  70
1
  66
1
  10
0
  20
0
  30
0
  0
VERTEX
  5
90
  8
Layer_0
  10
-100.10001
  20
223.75
  0
VERTEX
  5
91
  8
Layer_0
  10
-99.100006
  20
222.75
  0
VERTEX
  5
92
  8
Layer_0
  10
-30.900009
  20
222.75
  0
VERTEX
  5
93
  8
Layer_0
  10
-29.900009
  20
223.75
  0
VERTEX
  5
94
  8
Layer_0
  10
-29.900009
  20
234.25
  0
VERTEX
  5
95
  8
Layer_0
  10
-30.900009
  20
235.25
  0
VERTEX
  5
96
  8
Layer_0
  10
-99.100006
  20
235.25
  0
VERTEX
  5
97
  8
Layer_0
  10
-100.10001
  20
234.25
  0
SEQEND
  0
POLYLINE
  5
99
  8
Layer_0
  62
7
  70
1
  66
1
  10
0
  20
0
  30
0
  0
VERTEX
  5
99
  8
Layer_0
  10
-125.82776
  20
-141.01779
  0
VERTEX
  5
9a
  8
Layer_0
  10
-420.82776
  20
-141.01779
  0
VERTEX
  5
9b
  8
Layer_0
  10
-420.82776
  20
253.98221
  0
VERTEX
  5
9c
  8
Layer_0
  10
-125.82776
  20
253.98221
  0
SEQEND
  0
POLYLINE
  5
9e
  8
Layer_0
  62
7
  70
1
  66
1
  10
0
  20
0
  30
0
  0
VERTEX
  5
9e
  8
Layer_0
  10
-327.67236
  20
262.90771
  0
VERTEX
  5
9f
  8
Layer_0
  10
-325.4873
  20
262.90771
  0
VERTEX
  5
a0
  8
Layer_0
  10
-325.4873
  20
274.1626
  0
VERTEX
  5
a1
  8
Layer_0
  10
-322.96045
  20
274.1626
  0
VERTEX
  5
a2
  8
Layer_0
  10
-322.96045
  20
275.87158
  0
VERTEX
  5
a3
  8
Layer_0
  10
-325.4873
  20
275.87158
  42
-0.011282004
  0
VERTEX
  5
a4
  8
Layer_0
  10
-325.48096
  20
277.34912
  42
-0.13572321
  0
VERTEX
  5
a5
  8
Layer_0
  10
-325.16943
  20
278.54834
  42
-0.19521496
  0
VERTEX
  5
a6
  8
Layer_0
  10
-324.32471
  20
279.03418
  42
-0.086212844
  0
VERTEX
  5
a7
  8
Layer_0
  10
-322.3623
  20
278.97217
  0
VERTEX
  5
a8
  8
Layer_0
  10
-322.03271
  20
280.88867
  42
0.07343243
  0
VERTEX
  5
a9
  8
Layer_0
  10
-324.76367
  20
281.0752
  42
0.147668
  0
VERTEX
  5
aa
  8
Layer_0
  10
-326.51563
  20
280.43945
  42
0.21559235
  0
VERTEX
  5
ab
  8
Layer_0
  10
-327.61426
  20
278.38916
  42
0.029264599
  0
VERTEX
  5
ac
  8
Layer_0
  10
-327.67236
  20
277.25098
  0
VERTEX
  5
ad
  8
Layer_0
  10
-327.67236
  20
275.87158
  0
VERTEX
  5
ae
  8
Layer_0
  10
-331.9873
  20
275.87158
  42
-0.011282004
  0
VERTEX
  5
af
  8
Layer_0
  10
-331.98096
  20
277.34912
  42
-0.13572321
  0
VERTEX
  5
b0
  8
Layer_0
  10
-331.66943
  20
278.54834
  42
-0.19521633
  0
VERTEX
  5
b1
  8
Layer_0
  10
-330.82471
  20
279.03418
  42
-0.086212483
  0
VERTEX
  5
b2
  8
Layer_0
  10
-328.8623
  20
278.97217
  0
VERTEX
  5
b3
  8
Layer_0
  10
-328.53271
  20
280.88867
  42
0.073432172
  0
VERTEX
  5
b4
  8
Layer_0
  10
-331.26367
  20
281.0752
  42
0.14766878
  0
VERTEX
  5
b5
  8
Layer_0
  10
-333.01563
  20
280.43945
  42
0.2155921
  0
VERTEX
  5
b6
  8
Layer_0
  10
-334.11426
  20
278.38916
  42
0.029264583
  0
VERTEX
  5
b7
  8
Layer_0
  10
-334.17236
  20
277.25098
  0
VERTEX
  5
b8
  8
Layer_0
  10
-334.17236
  20
275.87158
  0
VERTEX
  5
b9
  8
Layer_0
  10
-336.11328
  20
275.87158
  0
VERTEX
  5
ba
  8
Layer_0
  10
-336.11328
  20
274.1626
  0
VERTEX
  5
bb
  8
Layer_0
  10
-334.17236
  20
274.1626
  0
VERTEX
  5
bc
  8
Layer_0
  10
-334.17236
  20
262.90771
  0
VERTEX
  5
bd
  8
Layer_0
  10
-331.9873
  20
262.90771
  0
VERTEX
  5
be
  8
Layer_0
  10
-331.9873
  20
274.1626
  0
VERTEX
  5
bf
  8
Layer_0
  10
-327.67236
  20
274.1626
  0
SEQEND
  0
POLYLINE
  5
c1
  8
Layer_0
  62
7
  70
1
  66
1
  10
0
  20
0
  30
0
  0
VERTEX
  5
c1
  8
Layer_0
  10
-403.53125
  20
280.87646
  0
VERTEX
  5
c2
  8
Layer_0
  10
-404.94727
  20
280.87646
  0
VERTEX
  5
c3
  8
Layer_0
  10
-405.10352
  20
280.58545
  42
-0.093327697
  0
VERTEX
  5
c4
  8
Layer_0
  10
-407.61914
  20
277.89014
  42
-0.053167195
  0
VERTEX
  5
c5
  8
Layer_0
  10
-410.12305
  20
276.38428
  0
VERTEX
  5
c6
  8
Layer_0
  10
-410.12305
  20
274.26025
  42
0.073788534
  0
VERTEX
  5
c7
  8
Layer_0
  10
-406.15625
  20
276.53076
  0
VERTEX
  5
c8
  8
Layer_0
  10
-405.72852
  20
276.90918
  0
VERTEX
  5
c9
  8
Layer_0
  10
-405.72852
  20
262.90771
  0
VERTEX
  5
ca
  8
Layer_0
  10
-403.53125
  20
262.90771
  0
SEQEND
  0
POLYLINE
  5
cc
  8
Layer_0
  62
7
  70
1
  66
1
  10
0
  20
0
  30
0
  0
VERTEX
  5
cc
  8
Layer_0
  10
-544.70703
  20
278.14209
  0
VERTEX
  5
cd
  8
Layer_0
  10
-539.53125
  20
262.90771
  0
VERTEX
  5
ce
  8
Layer_0
  10
-537.39502
  20
262.90771
  0
VERTEX
  5
cf
  8
Layer_0
  10
-532.19482
  20
277.88574
  0
VERTEX
  5
d0
  8
Layer_0
  10
-532.19482
  20
262.90771
  0
VERTEX
  5
d1
  8
Layer_0
  10
-529.91211
  20
262.90771
  0
VERTEX
  5
d2
  8
Layer_0
  10
-529.91211
  20
280.80322
  0
VERTEX
  5
d3
  8
Layer_0
  10
-533.09814
  20
280.80322
  42
0.0017839239
  0
VERTEX
  5
d4
  8
Layer_0
  10
-537.68506
  20
267.46338
  42
0.0057586074
  0
VERTEX
  5
d5
  8
Layer_0
  10
-538.33496
  20
265.4834
  0
VERTEX
  5
d6
  8
Layer_0
  10
-538.48926
  20
265.97852
  42
0.0030666266
  0
VERTEX
  5
d7
  8
Layer_0
  10
-539.18945
  20
268.13232
  0
VERTEX
  5
d8
  8
Layer_0
  10
-543.42529
  20
280.80322
  0
VERTEX
  5
d9
  8
Layer_0
  10
-546.98975
  20
280.80322
  0
VERTEX
  5
da
  8
Layer_0
  10
-546.98975
  20
262.90771
  0
VERTEX
  5
db
  8
Layer_0
  10
-544.70703
  20
262.90771
  0
SEQEND
  0
POLYLINE
  5
dd
  8
Layer_0
  62
7
  70
1
  66
1
  10
0
  20
0
  30
0
  0
VERTEX
  5
dd
  8
Layer_0
  10
-524.23779
  20
280.80322
  0
VERTEX
  5
de
  8
Layer_0
  10
-526.43506
  20
280.80322
  0
VERTEX
  5
df
  8
Layer_0
  10
-526.43506
  20
278.27637
  0
VERTEX
  5
e0
  8
Layer_0
  10
-524.23779
  20
278.27637
  0
SEQEND
  0
POLYLINE
  5
e2
  8
Layer_0
  62
7
  70
1
  66
1
  10
0
  20
0
  30
0
  0
VERTEX
  5
e2
  8
Layer_0
  10
-430
  20
270
  42
-0.080778111
  0
VERTEX
  5
e3
  8
Layer_0
  10
-429.71973
  20
272.16553
  42
-0.22180691
  0
VERTEX
  5
e4
  8
Layer_0
  10
-427.96924
  20
273.9873
  42
-0.20815138
  0
VERTEX
  5
e5
  8
Layer_0
  10
-425.16846
  20
273.979
  42
-0.21692388
  0
VERTEX
  5
e6
  8
Layer_0
  10
-424.01416
  20
272.54688
  42
-0.072069025
  0
VERTEX
  5
e7
  8
Layer_0
  10
-423.83545
  20
271.12305
  0
VERTEX
  5
e8
  8
Layer_0
  10
-423.83545
  20
262.90771
  0
VERTEX
  5
e9
  8
Layer_0
  10
-421.63818
  20
262.90771
  0
VERTEX
  5
ea
  8
Layer_0
  10
-421.63818
  20
271.12305
  42
0.066373152
  0
VERTEX
  5
eb
  8
Layer_0
  10
-421.89551
  20
273.47119
  42
0.23437138
  0
VERTEX
  5
ec
  8
Layer_0
  10
-423.88721
  20
275.72998
  42
0.20250052
  0
VERTEX
  5
ed
  8
Layer_0
  10
-428.26074
  20
275.71924
  42
0.10834222
  0
VERTEX
  5
ee
  8
Layer_0
  10
-430
  20
274.38232
  0
VERTEX
  5
ef
  8
Layer_0
  10
-430
  20
280.80322
  0
VERTEX
  5
f0
  8
Layer_0
  10
-432.19727
  20
280.80322
  0
VERTEX
  5
f1
  8
Layer_0
  10
-432.19727
  20
262.90771
  0
VERTEX
  5
f2
  8
Layer_0
  10
-430
  20
262.90771
  0
SEQEND
  0
POLYLINE
  5
f4
  8
Layer_0
  62
7
  70
1
  66
1
  10
0
  20
0
  30
0
  0
VERTEX
  5
f4
  8
Layer_0
  10
-442.48779
  20
280.80322
  0
VERTEX
  5
f5
  8
Layer_0
  10
-444.68506
  20
280.80322
  0
VERTEX
  5
f6
  8
Layer_0
  10
-444.68506
  20
278.27637
  0
VERTEX
  5
f7
  8
Layer_0
  10
-442.48779
  20
278.27637
  0
SEQEND
  0
POLYLINE
  5
f9
  8
Layer_0
  62
7
  70
1
  66
1
  10
0
  20
0
  30
0
  0
VERTEX
  5
f9
  8
Layer_0
  10
-290.86426
  20
262.74902
  42
0.035329139
  0
VERTEX
  5
fa
  8
Layer_0
  10
-289.58252
  20
262.93213
  0
VERTEX
  5
fb
  8
Layer_0
  10
-289.8999
  20
264.87305
  0
VERTEX
  5
fc
  8
Layer_0
  10
-290.18457
  20
264.83545
  42
-0.1092841
  0
VERTEX
  5
fd
  8
Layer_0
  10
-291.46973
  20
264.87695
  42
-0.31532284
  0
VERTEX
  5
fe
  8
Layer_0
  10
-292.08057
  20
265.81006
  42
-0.022681469
  0
VERTEX
  5
ff
  8
Layer_0
  10
-292.10938
  20
266.58203
  0
VERTEX
  5
100
  8
Layer_0
  10
-292.10938
  20
274.1626
  0
VERTEX
  5
101
  8
Layer_0
  10
-289.8999
  20
274.1626
  0
VERTEX
  5
102
  8
Layer_0
  10
-289.8999
  20
275.87158
  0
VERTEX
  5
103
  8
Layer_0
  10
-292.10938
  20
275.87158
  0
VERTEX
  5
104
  8
Layer_0
  10
-292.10938
  20
280.40039
  0
VERTEX
  5
105
  8
Layer_0
  10
-294.29443
  20
279.08203
  0
VERTEX
  5
106
  8
Layer_0
  10
-294.29443
  20
275.87158
  0
VERTEX
  5
107
  8
Layer_0
  10
-295.90576
  20
275.87158
  0
VERTEX
  5
108
  8
Layer_0
  10
-295.90576
  20
274.1626
  0
VERTEX
  5
109
  8
Layer_0
  10
-294.29443
  20
274.1626
  0
VERTEX
  5
10a
  8
Layer_0
  10
-294.29443
  20
266.7041
  42
0.047301907
  0
VERTEX
  5
10b
  8
Layer_0
  10
-294.14355
  20
264.50342
  42
0.18615695
  0
VERTEX
  5
10c
  8
Layer_0
  10
-293.40332
  20
263.31934
  42
0.14747635
  0
VERTEX
  5
10d
  8
Layer_0
  10
-291.80713
  20
262.76025
  42
0.036877536
  0
SEQEND
  0
POLYLINE
  5
10f
  8
Layer_0
  62
7
  70
1
  66
1
  10
0
  20
0
  30
0
  0
VERTEX
  5
10f
  8
Layer_0
  10
-435.36426
  20
262.74902
  42
0.035323092
  0
VERTEX
  5
110
  8
Layer_0
  10
-434.08252
  20
262.93213
  0
VERTEX
  5
111
  8
Layer_0
  10
-434.3999
  20
264.87305
  0
VERTEX
  5
112
  8
Layer_0
  10
-434.68457
  20
264.83545
  42
-0.10926917
  0
VERTEX
  5
113
  8
Layer_0
  10
-435.96973
  20
264.87695
  42
-0.31595614
  0
VERTEX
  5
114
  8
Layer_0
  10
-436.58057
  20
265.81006
  42
-0.022684791
  0
VERTEX
  5
115
  8
Layer_0
  10
-436.60938
  20
266.58203
  0
VERTEX
  5
116
  8
Layer_0
  10
-436.60938
  20
274.1626
  0
VERTEX
  5
117
  8
Layer_0
  10
-434.3999
  20
274.1626
  0
VERTEX
  5
118
  8
Layer_0
  10
-434.3999
  20
275.87158
  0
VERTEX
  5
119
  8
Layer_0
  10
-436.60938
  20
275.87158
  0
VERTEX
  5
11a
  8
Layer_0
  10
-436.60938
  20
280.40039
  0
VERTEX
  5
11b
  8
Layer_0
  10
-438.79443
  20
279.08203
  0
VERTEX
  5
11c
  8
Layer_0
  10
-438.79443
  20
275.87158
  0
VERTEX
  5
11d
  8
Layer_0
  10
-440.40576
  20
275.87158
  0
VERTEX
  5
11e
  8
Layer_0
  10
-440.40576
  20
274.1626
  0
VERTEX
  5
11f
  8
Layer_0
  10
-438.79443
  20
274.1626
  0
VERTEX
  5
120
  8
Layer_0
  10
-438.79443
  20
266.7041
  42
0.047345338
  0
VERTEX
  5
121
  8
Layer_0
  10
-438.64355
  20
264.50342
  42
0.18615674
  0
VERTEX
  5
122
  8
Layer_0
  10
-437.90332
  20
263.31934
  42
0.14748061
  0
VERTEX
  5
123
  8
Layer_0
  10
-436.30713
  20
262.76025
  42
0.036876973
  0
SEQEND
  0
POLYLINE
  5
125
  8
Layer_0
  62
7
  70
1
  66
1
  10
0
  20
0
  30
0
  0
VERTEX
  5
125
  8
Layer_0
  10
-395
  20
269.63379
  0
VERTEX
  5
126
  8
Layer_0
  10
-394.99463
  20
270.06348
  42
-0.081754443
  0
VERTEX
  5
127
  8
Layer_0
  10
-394.646
  20
272.34375
  42
-0.31970499
  0
VERTEX
  5
128
  8
Layer_0
  10
-391.78955
  20
274.26025
  42
-0.16762794
  0
VERTEX
  5
129
  8
Layer_0
  10
-390.34326
  20
273.84814
  42
-0.17038752
  0
VERTEX
  5
12a
  8
Layer_0
  10
-389.62891
  20
272.6123
  42
-0.059266626
  0
VERTEX
  5
12b
  8
Layer_0
  10
-389.49463
  20
271.33057
  0
VERTEX
  5
12c
  8
Layer_0
  10
-389.49463
  20
262.90771
  0
VERTEX
  5
12d
  8
Layer_0
  10
-387.29736
  20
262.90771
  0
VERTEX
  5
12e
  8
Layer_0
  10
-387.29736
  20
270.43945
  42
-0.10238774
  0
VERTEX
  5
12f
  8
Layer_0
  10
-386.94434
  20
272.51514
  42
-0.28003642
  0
VERTEX
  5
130
  8
Layer_0
  10
-384.45801
  20
274.24609
  42
-0.16947361
  0
VERTEX
  5
131
  8
Layer_0
  10
-382.80518
  20
273.90625
  42
-0.23262686
  0
VERTEX
  5
132
  8
Layer_0
  10
-381.8999
  20
272.43359
  42
-0.036704468
  0
VERTEX
  5
133
  8
Layer_0
  10
-381.81641
  20
271.07422
  0
VERTEX
  5
134
  8
Layer_0
  10
-381.81641
  20
262.90771
  0
VERTEX
  5
135
  8
Layer_0
  10
-379.63135
  20
262.90771
  0
VERTEX
  5
136
  8
Layer_0
  10
-379.63135
  20
271.80664
  42
0.1032663
  0
VERTEX
  5
137
  8
Layer_0
  10
-380.03662
  20
274.1333
  42
0.24237614
  0
VERTEX
  5
138
  8
Layer_0
  10
-382.31396
  20
276.01416
  42
0.13612284
  0
VERTEX
  5
139
  8
Layer_0
  10
-385.08594
  20
275.94287
  42
0.15690063
  0
VERTEX
  5
13a
  8
Layer_0
  10
-387.44336
  20
274.16895
  0
VERTEX
  5
13b
  8
Layer_0
  10
-387.63916
  20
273.89404
  0
VERTEX
  5
13c
  8
Layer_0
  10
-387.74219
  20
274.15527
  42
0.25868924
  0
VERTEX
  5
13d
  8
Layer_0
  10
-390.29395
  20
276.08057
  42
0.15554875
  0
VERTEX
  5
13e
  8
Layer_0
  10
-393.35059
  20
275.7207
  42
0.13790205
  0
VERTEX
  5
13f
  8
Layer_0
  10
-395.23193
  20
274.05273
  0
VERTEX
  5
140
  8
Layer_0
  10
-395.23193
  20
275.87158
  0
VERTEX
  5
141
  8
Layer_0
  10
-397.19727
  20
275.87158
  0
VERTEX
  5
142
  8
Layer_0
  10
-397.19727
  20
262.90771
  0
VERTEX
  5
143
  8
Layer_0
  10
-395
  20
262.90771
  0
SEQEND
  0
POLYLINE
  5
145
  8
Layer_0
  62
7
  70
1
  66
1
  10
0
  20
0
  30
0
  0
VERTEX
  5
145
  8
Layer_0
  10
-518.77441
  20
269.69482
  42
-0.076156352
  0
VERTEX
  5
146
  8
Layer_0
  10
-518.4082
  20
272.2583
  42
-0.2445002
  0
VERTEX
  5
147
  8
Layer_0
  10
-516.97998
  20
273.78564
  42
-0.15325127
  0
VERTEX
  5
148
  8
Layer_0
  10
-515.49072
  20
273.7749
  42
-0.062362773
  0
VERTEX
  5
149
  8
Layer_0
  10
-514.68506
  20
273.41797
  0
VERTEX
  5
14a
  8
Layer_0
  10
-513.92822
  20
275.45654
  42
0.1404121
  0
VERTEX
  5
14b
  8
Layer_0
  10
-516.18652
  20
276.16455
  42
0.24747156
  0
VERTEX
  5
14c
  8
Layer_0
  10
-518.26611
  20
275.05078
  42
0.037751583
  0
VERTEX
  5
14d
  8
Layer_0
  10
-518.99414
  20
273.90625
  0
VERTEX
  5
14e
  8
Layer_0
  10
-518.99414
  20
275.87158
  0
VERTEX
  5
14f
  8
Layer_0
  10
-520.97168
  20
275.87158
  0
VERTEX
  5
150
  8
Layer_0
  10
-520.97168
  20
262.90771
  0
VERTEX
  5
151
  8
Layer_0
  10
-518.77441
  20
262.90771
  0
SEQEND
  0
POLYLINE
  5
153
  8
Layer_0
  62
7
  70
1
  66
1
  10
0
  20
0
  30
0
  0
VERTEX
  5
153
  8
Layer_0
  10
-374.25
  20
269.63379
  0
VERTEX
  5
154
  8
Layer_0
  10
-374.24463
  20
270.06348
  42
-0.081753851
  0
VERTEX
  5
155
  8
Layer_0
  10
-373.896
  20
272.34375
  42
-0.31970497
  0
VERTEX
  5
156
  8
Layer_0
  10
-371.03955
  20
274.26025
  42
-0.1676291
  0
VERTEX
  5
157
  8
Layer_0
  10
-369.59326
  20
273.84814
  42
-0.17038968
  0
VERTEX
  5
158
  8
Layer_0
  10
-368.87891
  20
272.6123
  42
-0.059263374
  0
VERTEX
  5
159
  8
Layer_0
  10
-368.74463
  20
271.33057
  0
VERTEX
  5
15a
  8
Layer_0
  10
-368.74463
  20
262.90771
  0
VERTEX
  5
15b
  8
Layer_0
  10
-366.54736
  20
262.90771
  0
VERTEX
  5
15c
  8
Layer_0
  10
-366.54736
  20
270.43945
  42
-0.10238534
  0
VERTEX
  5
15d
  8
Layer_0
  10
-366.19434
  20
272.51514
  42
-0.28003755
  0
VERTEX
  5
15e
  8
Layer_0
  10
-363.70801
  20
274.24609
  42
-0.16947361
  0
VERTEX
  5
15f
  8
Layer_0
  10
-362.05518
  20
273.90625
  42
-0.23262491
  0
VERTEX
  5
160
  8
Layer_0
  10
-361.1499
  20
272.43359
  42
-0.036707126
  0
VERTEX
  5
161
  8
Layer_0
  10
-361.06641
  20
271.07422
  0
VERTEX
  5
162
  8
Layer_0
  10
-361.06641
  20
262.90771
  0
VERTEX
  5
163
  8
Layer_0
  10
-358.88135
  20
262.90771
  0
VERTEX
  5
164
  8
Layer_0
  10
-358.88135
  20
271.80664
  42
0.10326609
  0
VERTEX
  5
165
  8
Layer_0
  10
-359.28662
  20
274.1333
  42
0.24237791
  0
VERTEX
  5
166
  8
Layer_0
  10
-361.56396
  20
276.01416
  42
0.13612309
  0
VERTEX
  5
167
  8
Layer_0
  10
-364.33594
  20
275.94287
  42
0.15690093
  0
VERTEX
  5
168
  8
Layer_0
  10
-366.69336
  20
274.16895
  0
VERTEX
  5
169
  8
Layer_0
  10
-366.88916
  20
273.89404
  0
VERTEX
  5
16a
  8
Layer_0
  10
-366.99219
  20
274.15527
  42
0.25868992
  0
VERTEX
  5
16b
  8
Layer_0
  10
-369.54395
  20
276.08057
  42
0.15554945
  0
VERTEX
  5
16c
  8
Layer_0
  10
-372.60059
  20
275.7207
  42
0.13790163
  0
VERTEX
  5
16d
  8
Layer_0
  10
-374.48193
  20
274.05273
  0
VERTEX
  5
16e
  8
Layer_0
  10
-374.48193
  20
275.87158
  0
VERTEX
  5
16f
  8
Layer_0
  10
-376.44727
  20
275.87158
  0
VERTEX
  5
170
  8
Layer_0
  10
-376.44727
  20
262.90771
  0
VERTEX
  5
171
  8
Layer_0
  10
-374.25
  20
262.90771
  0
SEQEND
  0
POLYLINE
  5
173
  8
Layer_0
  62
7
  70
1
  66
1
  10
0
  20
0
  30
0
  0
VERTEX
  5
173
  8
Layer_0
  10
-510.52441
  20
269.69482
  42
-0.076156392
  0
VERTEX
  5
174
  8
Layer_0
  10
-510.1582
  20
272.2583
  42
-0.24450028
  0
VERTEX
  5
175
  8
Layer_0
  10
-508.72998
  20
273.78564
  42
-0.15325127
  0
VERTEX
  5
176
  8
Layer_0
  10
-507.24072
  20
273.7749
  42
-0.062362425
  0
VERTEX
  5
177
  8
Layer_0
  10
-506.43506
  20
273.41797
  0
VERTEX
  5
178
  8
Layer_0
  10
-505.67822
  20
275.45654
  42
0.1404124
  0
VERTEX
  5
179
  8
Layer_0
  10
-507.93652
  20
276.16455
  42
0.24747156
  0
VERTEX
  5
17a
  8
Layer_0
  10
-510.01611
  20
275.05078
  42
0.037752679
  0
VERTEX
  5
17b
  8
Layer_0
  10
-510.74414
  20
273.90625
  0
VERTEX
  5
17c
  8
Layer_0
  10
-510.74414
  20
275.87158
  0
VERTEX
  5
17d
  8
Layer_0
  10
-512.72168
  20
275.87158
  0
VERTEX
  5
17e
  8
Layer_0
  10
-512.72168
  20
262.90771
  0
VERTEX
  5
17f
  8
Layer_0
  10
-510.52441
  20
262.90771
  0
SEQEND
  0
POLYLINE
  5
181
  8
Layer_0
  62
7
  70
1
  66
1
  10
0
  20
0
  30
0
  0
VERTEX
  5
181
  8
Layer_0
  10
-343.01611
  20
262.62695
  42
0.20282271
  0
VERTEX
  5
182
  8
Layer_0
  10
-338.77881
  20
264.65039
  42
0.13354026
  0
VERTEX
  5
183
  8
Layer_0
  10
-337.55664
  20
267.3374
  42
0.090189011
  0
VERTEX
  5
184
  8
Layer_0
  10
-337.53467
  20
271.37256
  42
0.24495443
  0
VERTEX
  5
185
  8
Layer_0
  10
-340.7373
  20
275.61035
  42
0.12857022
  0
VERTEX
  5
186
  8
Layer_0
  10
-344.02588
  20
276.14209
  42
0.1951883
  0
VERTEX
  5
187
  8
Layer_0
  10
-347.98242
  20
274.26172
  42
0.14498751
  0
VERTEX
  5
188
  8
Layer_0
  10
-349.39014
  20
271.07324
  42
0.1133136
  0
VERTEX
  5
189
  8
Layer_0
  10
-349.0957
  20
266.49023
  42
0.31090991
  0
VERTEX
  5
18a
  8
Layer_0
  10
-344.1001
  20
262.64209
  42
0.03506804
  0
SEQEND
  0
POLYLINE
  5
18c
  8
Layer_0
  62
7
  70
1
  66
1
  10
0
  20
0
  30
0
  0
VERTEX
  5
18c
  8
Layer_0
  10
-498.76611
  20
262.62695
  0
VERTEX
  5
18d
  8
Layer_0
  10
-498.354
  20
262.66455
  42
0.20704667
  0
VERTEX
  5
18e
  8
Layer_0
  10
-494.28809
  20
264.95898
  42
0.11476875
  0
VERTEX
  5
18f
  8
Layer_0
  10
-493.30664
  20
267.3374
  42
0.090189011
  0
VERTEX
  5
190
  8
Layer_0
  10
-493.28467
  20
271.37256
  42
0.24494693
  0
VERTEX
  5
191
  8
Layer_0
  10
-496.4873
  20
275.61035
  42
0.12853426
  0
VERTEX
  5
192
  8
Layer_0
  10
-499.77588
  20
276.14209
  42
0.19520113
  0
VERTEX
  5
193
  8
Layer_0
  10
-503.73242
  20
274.26172
  42
0.14498751
  0
VERTEX
  5
194
  8
Layer_0
  10
-505.14014
  20
271.07324
  42
0.11331366
  0
VERTEX
  5
195
  8
Layer_0
  10
-504.8457
  20
266.49023
  42
0.31091408
  0
VERTEX
  5
196
  8
Layer_0
  10
-499.8501
  20
262.64209
  42
0.03506804
  0
SEQEND
  0
POLYLINE
  5
198
  8
Layer_0
  62
7
  70
1
  66
1
  10
0
  20
0
  30
0
  0
VERTEX
  5
198
  8
Layer_0
  10
-302.70117
  20
262.63184
  42
0.12453033
  0
VERTEX
  5
199
  8
Layer_0
  10
-299.91797
  20
263.45605
  42
0.17532545
  0
VERTEX
  5
19a
  8
Layer_0
  10
-297.70068
  20
266.31836
  0
VERTEX
  5
19b
  8
Layer_0
  10
-297.55225
  20
266.80176
  0
VERTEX
  5
19c
  8
Layer_0
  10
-299.82275
  20
267.08252
  0
VERTEX
  5
19d
  8
Layer_0
  10
-299.95361
  20
266.74658
  42
-0.1363637
  0
VERTEX
  5
19e
  8
Layer_0
  10
-301.17773
  20
265.05615
  42
-0.18607202
  0
VERTEX
  5
19f
  8
Layer_0
  10
-303.63818
  20
264.43896
  42
-0.26920066
  0
VERTEX
  5
1a0
  8
Layer_0
  10
-306.62988
  20
266.54883
  42
-0.096275392
  0
VERTEX
  5
1a1
  8
Layer_0
  10
-307.15918
  20
268.82813
  0
VERTEX
  5
1a2
  8
Layer_0
  10
-297.49121
  20
268.82813
  42
0.10301713
  0
VERTEX
  5
1a3
  8
Layer_0
  10
-298.00049
  20
272.56982
  42
0.32204799
  0
VERTEX
  5
1a4
  8
Layer_0
  10
-303.375
  20
276.16455
  42
0.17222605
  0
VERTEX
  5
1a5
  8
Layer_0
  10
-307.07813
  20
274.97168
  42
0.17551837
  0
VERTEX
  5
1a6
  8
Layer_0
  10
-309.19287
  20
271.52734
  42
0.12934004
  0
VERTEX
  5
1a7
  8
Layer_0
  10
-309.01318
  20
266.4707
  42
0.29912232
  0
VERTEX
  5
1a8
  8
Layer_0
  10
-304.27832
  20
262.67627
  42
0.046170038
  0
SEQEND
  0
POLYLINE
  5
1aa
  8
Layer_0
  62
7
  70
1
  66
1
  10
0
  20
0
  30
0
  0
VERTEX
  5
1aa
  8
Layer_0
  10
-316.15771
  20
262.62305
  42
0.14063294
  0
VERTEX
  5
1ab
  8
Layer_0
  10
-312.97314
  20
263.60596
  42
0.35803871
  0
VERTEX
  5
1ac
  8
Layer_0
  10
-311.60498
  20
268.19482
  42
0.20021377
  0
VERTEX
  5
1ad
  8
Layer_0
  10
-313.5332
  20
269.85254
  42
0.0242306
  0
VERTEX
  5
1ae
  8
Layer_0
  10
-316.91699
  20
270.87402
  0
VERTEX
  5
1af
  8
Layer_0
  10
-317.5625
  20
271.0542
  42
-0.055850668
  0
VERTEX
  5
1b0
  8
Layer_0
  10
-318.74268
  20
271.4541
  42
-0.23958876
  0
VERTEX
  5
1b1
  8
Layer_0
  10
-319.56934
  20
272.47705
  42
-0.28610181
  0
VERTEX
  5
1b2
  8
Layer_0
  10
-318.93896
  20
273.85742
  42
-0.12150589
  0
VERTEX
  5
1b3
  8
Layer_0
  10
-317.7915
  20
274.2876
  42
-0.1018611
  0
VERTEX
  5
1b4
  8
Layer_0
  10
-315.6416
  20
274.21729
  42
-0.31321855
  0
VERTEX
  5
1b5
  8
Layer_0
  10
-313.94629
  20
272.23389
  0
VERTEX
  5
1b6
  8
Layer_0
  10
-311.79785
  20
272.52686
  42
0.11685558
  0
VERTEX
  5
1b7
  8
Layer_0
  10
-312.55469
  20
274.53467
  42
0.14536983
  0
VERTEX
  5
1b8
  8
Layer_0
  10
-314.25732
  20
275.7251
  42
0.16884257
  0
VERTEX
  5
1b9
  8
Layer_0
  10
-319.25439
  20
275.76367
  42
0.28789754
  0
VERTEX
  5
1ba
  8
Layer_0
  10
-321.68506
  20
272.85449
  42
0.35476979
  0
VERTEX
  5
1bb
  8
Layer_0
  10
-319.55518
  20
269.34277
  42
0.033381196
  0
VERTEX
  5
1bc
  8
Layer_0
  10
-316.0332
  20
268.29053
  0
VERTEX
  5
1bd
  8
Layer_0
  10
-315.64746
  20
268.18506
  42
-0.061640177
  0
VERTEX
  5
1be
  8
Layer_0
  10
-314.21484
  20
267.65625
  42
-0.3356657
  0
VERTEX
  5
1bf
  8
Layer_0
  10
-313.61377
  20
266.08252
  42
-0.24384439
  0
VERTEX
  5
1c0
  8
Layer_0
  10
-314.95947
  20
264.66211
  42
-0.16267043
  0
VERTEX
  5
1c1
  8
Layer_0
  10
-318.16357
  20
264.69336
  42
-0.23607749
  0
VERTEX
  5
1c2
  8
Layer_0
  10
-319.771
  20
266.50439
  42
-0.037501969
  0
VERTEX
  5
1c3
  8
Layer_0
  10
-319.90332
  20
267.11914
  0
VERTEX
  5
1c4
  8
Layer_0
  10
-322.07617
  20
266.77734
  42
0.10650644
  0
VERTEX
  5
1c5
  8
Layer_0
  10
-321.24414
  20
264.59424
  42
0.1867904
  0
VERTEX
  5
1c6
  8
Layer_0
  10
-318.76025
  20
262.87695
  42
0.07252088
  0
SEQEND
  0
POLYLINE
  5
1c8
  8
Layer_0
  62
7
  70
1
  66
1
  10
0
  20
0
  30
0
  0
VERTEX
  5
1c8
  8
Layer_0
  10
-488.27441
  20
269.69482
  42
-0.0761612
  0
VERTEX
  5
1c9
  8
Layer_0
  10
-487.9082
  20
272.2583
  42
-0.24450116
  0
VERTEX
  5
1ca
  8
Layer_0
  10
-486.47998
  20
273.78564
  42
-0.15325425
  0
VERTEX
  5
1cb
  8
Layer_0
  10
-484.99072
  20
273.7749
  42
-0.062359377
  0
VERTEX
  5
1cc
  8
Layer_0
  10
-484.18506
  20
273.41797
  0
VERTEX
  5
1cd
  8
Layer_0
  10
-483.42822
  20
275.45654
  42
0.14041268
  0
VERTEX
  5
1ce
  8
Layer_0
  10
-485.68652
  20
276.16455
  42
0.24747186
  0
VERTEX
  5
1cf
  8
Layer_0
  10
-487.76611
  20
275.05078
  42
0.037752316
  0
VERTEX
  5
1d0
  8
Layer_0
  10
-488.49414
  20
273.90625
  0
VERTEX
  5
1d1
  8
Layer_0
  10
-488.49414
  20
275.87158
  0
VERTEX
  5
1d2
  8
Layer_0
  10
-490.47168
  20
275.87158
  0
VERTEX
  5
1d3
  8
Layer_0
  10
-490.47168
  20
262.90771
  0
VERTEX
  5
1d4
  8
Layer_0
  10
-488.27441
  20
262.90771
  0
SEQEND
  0
POLYLINE
  5
1d6
  8
Layer_0
  62
7
  70
1
  66
1
  10
0
  20
0
  30
0
  0
VERTEX
  5
1d6
  8
Layer_0
  10
-477.15771
  20
262.62305
  42
0.050199295
  0
VERTEX
  5
1d7
  8
Layer_0
  10
-475.75098
  20
262.82227
  42
0.14857592
  0
VERTEX
  5
1d8
  8
Layer_0
  10
-473.30615
  20
264.18945
  42
0.31512431
  0
VERTEX
  5
1d9
  8
Layer_0
  10
-472.71143
  20
268.40137
  42
0.17866794
  0
VERTEX
  5
1da
  8
Layer_0
  10
-474.5332
  20
269.85254
  42
0.024229295
  0
VERTEX
  5
1db
  8
Layer_0
  10
-477.91699
  20
270.87402
  0
VERTEX
  5
1dc
  8
Layer_0
  10
-478.5625
  20
271.0542
  42
-0.055843886
  0
VERTEX
  5
1dd
  8
Layer_0
  10
-479.74268
  20
271.4541
  42
-0.23967107
  0
VERTEX
  5
1de
  8
Layer_0
  10
-480.56934
  20
272.47705
  42
-0.28609907
  0
VERTEX
  5
1df
  8
Layer_0
  10
-479.93896
  20
273.85742
  42
-0.1215101
  0
VERTEX
  5
1e0
  8
Layer_0
  10
-478.7915
  20
274.2876
  42
-0.10186141
  0
VERTEX
  5
1e1
  8
Layer_0
  10
-476.6416
  20
274.21729
  42
-0.31320582
  0
VERTEX
  5
1e2
  8
Layer_0
  10
-474.94629
  20
272.23389
  0
VERTEX
  5
1e3
  8
Layer_0
  10
-472.79785
  20
272.52686
  42
0.11685439
  0
VERTEX
  5
1e4
  8
Layer_0
  10
-473.55469
  20
274.53467
  42
0.14548248
  0
VERTEX
  5
1e5
  8
Layer_0
  10
-475.25781
  20
275.7251
  42
0.16887257
  0
VERTEX
  5
1e6
  8
Layer_0
  10
-480.25439
  20
275.76367
  42
0.28791349
  0
VERTEX
  5
1e7
  8
Layer_0
  10
-482.68506
  20
272.85449
  42
0.35488197
  0
VERTEX
  5
1e8
  8
Layer_0
  10
-480.55518
  20
269.34277
  42
0.033381113
  0
VERTEX
  5
1e9
  8
Layer_0
  10
-477.0332
  20
268.29053
  0
VERTEX
  5
1ea
  8
Layer_0
  10
-476.64746
  20
268.18506
  42
-0.061618442
  0
VERTEX
  5
1eb
  8
Layer_0
  10
-475.21484
  20
267.65625
  42
-0.33565219
  0
VERTEX
  5
1ec
  8
Layer_0
  10
-474.61377
  20
266.08252
  42
-0.24385351
  0
VERTEX
  5
1ed
  8
Layer_0
  10
-475.95947
  20
264.66211
  42
-0.16267283
  0
VERTEX
  5
1ee
  8
Layer_0
  10
-479.16357
  20
264.69336
  42
-0.23609755
  0
VERTEX
  5
1ef
  8
Layer_0
  10
-480.771
  20
266.50439
  42
-0.037521142
  0
VERTEX
  5
1f0
  8
Layer_0
  10
-480.90332
  20
267.11914
  0
VERTEX
  5
1f1
  8
Layer_0
  10
-483.07617
  20
266.77734
  42
0.10651554
  0
VERTEX
  5
1f2
  8
Layer_0
  10
-482.24414
  20
264.59424
  42
0.18680919
  0
VERTEX
  5
1f3
  8
Layer_0
  10
-479.76025
  20
262.87695
  42
0.072524381
  0
SEQEND
  0
POLYLINE
  5
1f5
  8
Layer_0
  62
7
  70
1
  66
1
  10
0
  20
0
  30
0
  0
VERTEX
  5
1f5
  8
Layer_0
  10
-524.23779
  20
275.87158
  0
VERTEX
  5
1f6
  8
Layer_0
  10
-526.43506
  20
275.87158
  0
VERTEX
  5
1f7
  8
Layer_0
  10
-526.43506
  20
262.90771
  0
VERTEX
  5
1f8
  8
Layer_0
  10
-524.23779
  20
262.90771
  0
SEQEND
  0
POLYLINE
  5
1fa
  8
Layer_0
  62
7
  70
1
  66
1
  10
0
  20
0
  30
0
  0
VERTEX
  5
1fa
  8
Layer_0
  10
-455.38525
  20
272.88086
  0
VERTEX
  5
1fb
  8
Layer_0
  10
-454.88477
  20
270.67139
  0
VERTEX
  5
1fc
  8
Layer_0
  10
-452.82178
  20
262.90771
  0
VERTEX
  5
1fd
  8
Layer_0
  10
-450.53906
  20
262.90771
  0
VERTEX
  5
1fe
  8
Layer_0
  10
-446.48633
  20
275.87158
  0
VERTEX
  5
1ff
  8
Layer_0
  10
-448.62256
  20
275.87158
  0
VERTEX
  5
200
  8
Layer_0
  10
-450.84424
  20
268.37646
  0
VERTEX
  5
201
  8
Layer_0
  10
-451.58887
  20
265.87402
  42
-0.0014003054
  0
VERTEX
  5
202
  8
Layer_0
  10
-454.17676
  20
275.87158
  0
VERTEX
  5
203
  8
Layer_0
  10
-456.43506
  20
275.87158
  0
VERTEX
  5
204
  8
Layer_0
  10
-458.49805
  20
268.27881
  42
0.0012564801
  0
VERTEX
  5
205
  8
Layer_0
  10
-459.16943
  20
265.60547
  0
VERTEX
  5
206
  8
Layer_0
  10
-459.93848
  20
268.38867
  0
VERTEX
  5
207
  8
Layer_0
  10
-462.00146
  20
275.87158
  0
VERTEX
  5
208
  8
Layer_0
  10
-464.27197
  20
275.87158
  0
VERTEX
  5
209
  8
Layer_0
  10
-460.30469
  20
262.90771
  0
VERTEX
  5
20a
  8
Layer_0
  10
-458.00977
  20
262.90771
  0
SEQEND
  0
POLYLINE
  5
20c
  8
Layer_0
  62
7
  70
1
  66
1
  10
0
  20
0
  30
0
  0
VERTEX
  5
20c
  8
Layer_0
  10
-442.48779
  20
275.87158
  0
VERTEX
  5
20d
  8
Layer_0
  10
-444.68506
  20
275.87158
  0
VERTEX
  5
20e
  8
Layer_0
  10
-444.68506
  20
262.90771
  0
VERTEX
  5
20f
  8
Layer_0
  10
-442.48779
  20
262.90771
  0
SEQEND
  0
POLYLINE
  5
211
  8
Layer_0
  62
7
  70
1
  66
1
  10
0
  20
0
  30
0
  0
VERTEX
  5
211
  8
Layer_0
  10
-307.03711
  20
270.63477
  0
VERTEX
  5
212
  8
Layer_0
  10
-306.99512
  20
271.04834
  42
-0.22197673
  0
VERTEX
  5
213
  8
Layer_0
  10
-305.3501
  20
273.78809
  42
-0.31030664
  0
VERTEX
  5
214
  8
Layer_0
  10
-301.19238
  20
273.64355
  42
-0.17354438
  0
VERTEX
  5
215
  8
Layer_0
  10
-299.98389
  20
271.74658
  42
-0.040883861
  0
VERTEX
  5
216
  8
Layer_0
  10
-299.79834
  20
270.63477
  0
SEQEND
  0
POLYLINE
  5
218
  8
Layer_0
  62
7
  70
1
  66
1
  10
0
  20
0
  30
0
  0
VERTEX
  5
218
  8
Layer_0
  10
-499.58936
  20
264.44092
  42
-0.25454994
  0
VERTEX
  5
219
  8
Layer_0
  10
-502.39551
  20
266.35791
  42
-0.10436509
  0
VERTEX
  5
21a
  8
Layer_0
  10
-502.98975
  20
268.78662
  42
-0.08440596
  0
VERTEX
  5
21b
  8
Layer_0
  10
-502.73535
  20
271.56543
  42
-0.19504494
  0
VERTEX
  5
21c
  8
Layer_0
  10
-501.02686
  20
273.86426
  42
-0.29668595
  0
VERTEX
  5
21d
  8
Layer_0
  10
-497.04932
  20
273.64893
  42
-0.16407723
  0
VERTEX
  5
21e
  8
Layer_0
  10
-495.65039
  20
271.57617
  42
-0.083931898
  0
VERTEX
  5
21f
  8
Layer_0
  10
-495.39453
  20
268.8457
  42
-0.078802544
  0
VERTEX
  5
220
  8
Layer_0
  10
-495.80176
  20
266.78418
  42
-0.25558376
  0
VERTEX
  5
221
  8
Layer_0
  10
-498.40234
  20
264.49902
  42
-0.073976211
  0
SEQEND
  0
POLYLINE
  5
223
  8
Layer_0
  62
7
  70
1
  66
1
  10
0
  20
0
  30
0
  0
VERTEX
  5
223
  8
Layer_0
  10
-343.83936
  20
264.44092
  0
VERTEX
  5
224
  8
Layer_0
  10
-344.2251
  20
264.49902
  42
-0.25352586
  0
VERTEX
  5
225
  8
Layer_0
  10
-346.83252
  20
266.76563
  42
-0.092209055
  0
VERTEX
  5
226
  8
Layer_0
  10
-347.25684
  20
269.38965
  42
-0.070528218
  0
VERTEX
  5
227
  8
Layer_0
  10
-346.98535
  20
271.56543
  42
-0.19504526
  0
VERTEX
  5
228
  8
Layer_0
  10
-345.27686
  20
273.86426
  42
-0.29667912
  0
VERTEX
  5
229
  8
Layer_0
  10
-341.29932
  20
273.64893
  42
-0.1641091
  0
VERTEX
  5
22a
  8
Layer_0
  10
-339.90039
  20
271.57617
  42
-0.083931841
  0
VERTEX
  5
22b
  8
Layer_0
  10
-339.64453
  20
268.8457
  42
-0.078802791
  0
VERTEX
  5
22c
  8
Layer_0
  10
-340.05176
  20
266.78418
  42
-0.25558376
  0
VERTEX
  5
22d
  8
Layer_0
  10
-342.65234
  20
264.49902
  42
-0.07397681
  0
SEQEND
  0
POLYLINE
  5
22f
  8
Layer_2
  62
1
  70
1
  66
1
  10
0
  20
0
  30
0
  0
VERTEX
  5
22f
  8
Layer_2
  10
-402.74463
  20
163.61768
  0
VERTEX
  5
230
  8
Layer_2
  10
-393.79297
  20
151.29688
  0
VERTEX
  5
231
  8
Layer_2
  10
-381.40039
  20
134.24805
  0
VERTEX
  5
232
  8
Layer_2
  10
-365.43213
  20
112.28662
  0
VERTEX
  5
233
  8
Layer_2
  10
-364.62793
  20
112.54443
  0
VERTEX
  5
234
  8
Layer_2
  10
-361.42188
  20
113.58057
  0
VERTEX
  5
235
  8
Layer_2
  10
-355.37061
  20
115.54199
  0
VERTEX
  5
236
  8
Layer_2
  10
-345.57373
  20
118.72217
  0
VERTEX
  5
237
  8
Layer_2
  10
-331.13232
  20
123.41455
  0
VERTEX
  5
238
  8
Layer_2
  10
-311.14502
  20
129.91309
  0
VERTEX
  5
239
  8
Layer_2
  10
-285.40039
  20
138.28857
  0
VERTEX
  5
23a
  8
Layer_2
  10
-285.39697
  20
139.12646
  0
VERTEX
  5
23b
  8
Layer_2
  10
-285.39209
  20
142.50586
  0
VERTEX
  5
23c
  8
Layer_2
  10
-285.38672
  20
148.88232
  0
VERTEX
  5
23d
  8
Layer_2
  10
-285.38379
  20
159.20703
  0
VERTEX
  5
23e
  8
Layer_2
  10
-285.38379
  20
174.42822
  0
VERTEX
  5
23f
  8
Layer_2
  10
-285.38867
  20
195.49561
  0
VERTEX
  5
240
  8
Layer_2
  10
-285.39941
  20
222.63525
  0
VERTEX
  5
241
  8
Layer_2
  10
-286.19775
  20
222.89795
  0
VERTEX
  5
242
  8
Layer_2
  10
-286.19775
  20
222.89844
  0
VERTEX
  5
243
  8
Layer_2
  10
-289.40625
  20
223.9458
  0
VERTEX
  5
244
  8
Layer_2
  10
-295.46387
  20
225.91846
  0
VERTEX
  5
245
  8
Layer_2
  10
-295.46387
  20
225.91797
  0
VERTEX
  5
246
  8
Layer_2
  10
-305.27344
  20
229.1084
  0
VERTEX
  5
247
  8
Layer_2
  10
-319.73682
  20
233.80811
  0
VERTEX
  5
248
  8
Layer_2
  10
-339.75732
  20
240.30811
  0
VERTEX
  5
249
  8
Layer_2
  10
-365.54688
  20
248.67725
  0
VERTEX
  5
24a
  8
Layer_2
  10
-366.04053
  20
248.00195
  0
VERTEX
  5
24b
  8
Layer_2
  10
-368.02637
  20
245.27637
  0
VERTEX
  5
24c
  8
Layer_2
  10
-371.77197
  20
240.12842
  0
VERTEX
  5
24d
  8
Layer_2
  10
-377.83252
  20
231.79297
  0
VERTEX
  5
24e
  8
Layer_2
  10
-386.76416
  20
219.49951
  0
VERTEX
  5
24f
  8
Layer_2
  10
-399.12207
  20
202.48242
  0
VERTEX
  5
250
  8
Layer_2
  10
-415.03711
  20
180.55957
  0
VERTEX
  5
251
  8
Layer_2
  10
-412.56152
  20
177.14063
  0
VERTEX
  5
252
  8
Layer_2
  10
-408.81445
  20
171.97607
  0
SEQEND
  0
POLYLINE
  5
254
  8
Layer_2
  62
1
  70
1
  66
1
  10
0
  20
0
  30
0
  0
VERTEX
  5
254
  8
Layer_2
  10
-230.62793
  20
112.54443
  0
VERTEX
  5
255
  8
Layer_2
  10
-227.42188
  20
113.58057
  0
VERTEX
  5
256
  8
Layer_2
  10
-221.37061
  20
115.54199
  0
VERTEX
  5
257
  8
Layer_2
  10
-211.57373
  20
118.72217
  0
VERTEX
  5
258
  8
Layer_2
  10
-197.13232
  20
123.41455
  0
VERTEX
  5
259
  8
Layer_2
  10
-177.14502
  20
129.91309
  0
VERTEX
  5
25a
  8
Layer_2
  10
-151.40039
  20
138.28857
  0
VERTEX
  5
25b
  8
Layer_2
  10
-151.39697
  20
139.12646
  0
VERTEX
  5
25c
  8
Layer_2
  10
-151.39209
  20
142.50586
  0
VERTEX
  5
25d
  8
Layer_2
  10
-151.38672
  20
148.88232
  0
VERTEX
  5
25e
  8
Layer_2
  10
-151.38379
  20
159.20703
  0
VERTEX
  5
25f
  8
Layer_2
  10
-151.38379
  20
174.42822
  0
VERTEX
  5
260
  8
Layer_2
  10
-151.38867
  20
195.49561
  0
VERTEX
  5
261
  8
Layer_2
  10
-151.39941
  20
222.63525
  0
VERTEX
  5
262
  8
Layer_2
  10
-152.19775
  20
222.89795
  0
VERTEX
  5
263
  8
Layer_2
  10
-152.19775
  20
222.89844
  0
VERTEX
  5
264
  8
Layer_2
  10
-155.40625
  20
223.9458
  0
VERTEX
  5
265
  8
Layer_2
  10
-161.46387
  20
225.91846
  0
VERTEX
  5
266
  8
Layer_2
  10
-161.46387
  20
225.91797
  0
VERTEX
  5
267
  8
Layer_2
  10
-171.27344
  20
229.1084
  0
VERTEX
  5
268
  8
Layer_2
  10
-185.73682
  20
233.80811
  0
VERTEX
  5
269
  8
Layer_2
  10
-205.75732
  20
240.30811
  0
VERTEX
  5
26a
  8
Layer_2
  10
-231.54688
  20
248.67725
  0
VERTEX
  5
26b
  8
Layer_2
  10
-232.04053
  20
248.00195
  0
VERTEX
  5
26c
  8
Layer_2
  10
-234.02637
  20
245.27637
  0
VERTEX
  5
26d
  8
Layer_2
  10
-237.77197
  20
240.12842
  0
VERTEX
  5
26e
  8
Layer_2
  10
-243.83252
  20
231.79297
  0
VERTEX
  5
26f
  8
Layer_2
  10
-252.76416
  20
219.49951
  0
VERTEX
  5
270
  8
Layer_2
  10
-265.12207
  20
202.48242
  0
VERTEX
  5
271
  8
Layer_2
  10
-281.03711
  20
180.56006
  0
VERTEX
  5
272
  8
Layer_2
  10
-278.56152
  20
177.14063
  0
VERTEX
  5
273
  8
Layer_2
  10
-274.81445
  20
171.97607
  0
VERTEX
  5
274
  8
Layer_2
  10
-268.74463
  20
163.61816
  0
VERTEX
  5
275
  8
Layer_2
  10
-259.79297
  20
151.29736
  0
VERTEX
  5
276
  8
Layer_2
  10
-247.3999
  20
134.24805
  0
VERTEX
  5
277
  8
Layer_2
  10
-231.43164
  20
112.28662
  0
SEQEND
  0
POLYLINE
  5
279
  8
Layer_2
  62
1
  70
1
  66
1
  10
0
  20
0
  30
0
  0
VERTEX
  5
279
  8
Layer_2
  10
-400.74463
  20
-85.382324
  0
VERTEX
  5
27a
  8
Layer_2
  10
-391.79297
  20
-97.703125
  0
VERTEX
  5
27b
  8
Layer_2
  10
-379.40039
  20
-114.75195
  0
VERTEX
  5
27c
  8
Layer_2
  10
-363.43213
  20
-136.71338
  0
VERTEX
  5
27d
  8
Layer_2
  10
-362.62793
  20
-136.45557
  0
VERTEX
  5
27e
  8
Layer_2
  10
-359.42188
  20
-135.41943
  0
VERTEX
  5
27f
  8
Layer_2
  10
-353.37061
  20
-133.45801
  0
VERTEX
  5
280
  8
Layer_2
  10
-343.57373
  20
-130.27783
  0
VERTEX
  5
281
  8
Layer_2
  10
-329.13232
  20
-125.58545
  0
VERTEX
  5
282
  8
Layer_2
  10
-309.14502
  20
-119.08691
  0
VERTEX
  5
283
  8
Layer_2
  10
-283.40039
  20
-110.71143
  0
VERTEX
  5
284
  8
Layer_2
  10
-283.39697
  20
-109.87354
  0
VERTEX
  5
285
  8
Layer_2
  10
-283.39209
  20
-106.49414
  0
VERTEX
  5
286
  8
Layer_2
  10
-283.38672
  20
-100.11768
  0
VERTEX
  5
287
  8
Layer_2
  10
-283.38379
  20
-89.792969
  0
VERTEX
  5
288
  8
Layer_2
  10
-283.38379
  20
-74.571777
  0
VERTEX
  5
289
  8
Layer_2
  10
-283.38867
  20
-53.504395
  0
VERTEX
  5
28a
  8
Layer_2
  10
-283.39941
  20
-26.364746
  0
VERTEX
  5
28b
  8
Layer_2
  10
-284.19775
  20
-26.102051
  0
VERTEX
  5
28c
  8
Layer_2
  10
-284.19775
  20
-26.101563
  0
VERTEX
  5
28d
  8
Layer_2
  10
-287.40625
  20
-25.054199
  0
VERTEX
  5
28e
  8
Layer_2
  10
-293.46387
  20
-23.081543
  0
VERTEX
  5
28f
  8
Layer_2
  10
-293.46387
  20
-23.082031
  0
VERTEX
  5
290
  8
Layer_2
  10
-303.27344
  20
-19.891602
  0
VERTEX
  5
291
  8
Layer_2
  10
-317.73682
  20
-15.191895
  0
VERTEX
  5
292
  8
Layer_2
  10
-337.75732
  20
-8.6918945
  0
VERTEX
  5
293
  8
Layer_2
  10
-363.54688
  20
-0.32275391
  0
VERTEX
  5
294
  8
Layer_2
  10
-364.04053
  20
-0.99804688
  0
VERTEX
  5
295
  8
Layer_2
  10
-366.02637
  20
-3.7236328
  0
VERTEX
  5
296
  8
Layer_2
  10
-369.77197
  20
-8.871582
  0
VERTEX
  5
297
  8
Layer_2
  10
-375.83252
  20
-17.207031
  0
VERTEX
  5
298
  8
Layer_2
  10
-384.76416
  20
-29.500488
  0
VERTEX
  5
299
  8
Layer_2
  10
-397.12207
  20
-46.517578
  0
VERTEX
  5
29a
  8
Layer_2
  10
-413.03711
  20
-68.44043
  0
VERTEX
  5
29b
  8
Layer_2
  10
-410.56152
  20
-71.859375
  0
VERTEX
  5
29c
  8
Layer_2
  10
-406.81445
  20
-77.023926
  0
SEQEND
  0
POLYLINE
  5
29e
  8
Layer_2
  62
1
  70
1
  66
1
  10
0
  20
0
  30
0
  0
VERTEX
  5
29e
  8
Layer_2
  10
-266.74463
  20
-85.382324
  0
VERTEX
  5
29f
  8
Layer_2
  10
-257.79297
  20
-97.703125
  0
VERTEX
  5
2a0
  8
Layer_2
  10
-245.40039
  20
-114.75195
  0
VERTEX
  5
2a1
  8
Layer_2
  10
-229.43213
  20
-136.71338
  0
VERTEX
  5
2a2
  8
Layer_2
  10
-228.62793
  20
-136.45557
  0
VERTEX
  5
2a3
  8
Layer_2
  10
-225.42188
  20
-135.41943
  0
VERTEX
  5
2a4
  8
Layer_2
  10
-219.37061
  20
-133.45801
  0
VERTEX
  5
2a5
  8
Layer_2
  10
-209.57373
  20
-130.27783
  0
VERTEX
  5
2a6
  8
Layer_2
  10
-195.13232
  20
-125.58545
  0
VERTEX
  5
2a7
  8
Layer_2
  10
-175.14502
  20
-119.08691
  0
VERTEX
  5
2a8
  8
Layer_2
  10
-149.40039
  20
-110.71143
  0
VERTEX
  5
2a9
  8
Layer_2
  10
-149.39697
  20
-109.87354
  0
VERTEX
  5
2aa
  8
Layer_2
  10
-149.39209
  20
-106.49414
  0
VERTEX
  5
2ab
  8
Layer_2
  10
-149.38672
  20
-100.11768
  0
VERTEX
  5
2ac
  8
Layer_2
  10
-149.38379
  20
-89.792969
  0
VERTEX
  5
2ad
  8
Layer_2
  10
-149.38379
  20
-74.571777
  0
VERTEX
  5
2ae
  8
Layer_2
  10
-149.38867
  20
-53.504395
  0
VERTEX
  5
2af
  8
Layer_2
  10
-149.39941
  20
-26.364746
  0
VERTEX
  5
2b0
  8
Layer_2
  10
-150.19775
  20
-26.102051
  0
VERTEX
  5
2b1
  8
Layer_2
  10
-150.19775
  20
-26.101563
  0
VERTEX
  5
2b2
  8
Layer_2
  10
-153.40625
  20
-25.054199
  0
VERTEX
  5
2b3
  8
Layer_2
  10
-159.46387
  20
-23.081543
  0
VERTEX
  5
2b4
  8
Layer_2
  10
-159.46387
  20
-23.082031
  0
VERTEX
  5
2b5
  8
Layer_2
  10
-169.27344
  20
-19.891602
  0
VERTEX
  5
2b6
  8
Layer_2
  10
-183.73682
  20
-15.191895
  0
VERTEX
  5
2b7
  8
Layer_2
  10
-203.75732
  20
-8.6918945
  0
VERTEX
  5
2b8
  8
Layer_2
  10
-229.54688
  20
-0.32275391
  0
VERTEX
  5
2b9
  8
Layer_2
  10
-230.04053
  20
-0.99804688
  0
VERTEX
  5
2ba
  8
Layer_2
  10
-232.02637
  20
-3.7236328
  0
VERTEX
  5
2bb
  8
Layer_2
  10
-235.77197
  20
-8.871582
  0
VERTEX
  5
2bc
  8
Layer_2
  10
-241.83252
  20
-17.207031
  0
VERTEX
  5
2bd
  8
Layer_2
  10
-250.76416
  20
-29.500488
  0
VERTEX
  5
2be
  8
Layer_2
  10
-263.12207
  20
-46.517578
  0
VERTEX
  5
2bf
  8
Layer_2
  10
-279.03711
  20
-68.44043
  0
VERTEX
  5
2c0
  8
Layer_2
  10
-276.56152
  20
-71.859375
  0
VERTEX
  5
2c1
  8
Layer_2
  10
-272.81445
  20
-77.023926
  0
SEQEND
  0
POLYLINE
  5
2c3
  8
Layer_0
  62
7
  70
1
  66
1
  10
0
  20
0
  30
0
  0
VERTEX
  5
2c3
  8
Layer_0
  10
-429.5
  20
-140.86166
  0
VERTEX
  5
2c4
  8
Layer_0
  10
-724.5
  20
-140.86166
  0
VERTEX
  5
2c5
  8
Layer_0
  10
-724.5
  20
254.13834
  0
VERTEX
  5
2c6
  8
Layer_0
  10
-429.5
  20
254.13834
  0
SEQEND
  0
POLYLINE
  5
2c8
  8
Layer_2
  62
1
  70
1
  66
1
  10
0
  20
0
  30
0
  0
VERTEX
  5
2c8
  8
Layer_2
  10
-706.41687
  20
163.7738
  0
VERTEX
  5
2c9
  8
Layer_2
  10
-697.46521
  20
151.453
  0
VERTEX
  5
2ca
  8
Layer_2
  10
-685.07263
  20
134.40417
  0
VERTEX
  5
2cb
  8
Layer_2
  10
-669.10437
  20
112.44275
  0
VERTEX
  5
2cc
  8
Layer_2
  10
-668.30017
  20
112.70056
  0
VERTEX
  5
2cd
  8
Layer_2
  10
-665.09412
  20
113.73669
  0
VERTEX
  5
2ce
  8
Layer_2
  10
-659.04285
  20
115.69812
  0
VERTEX
  5
2cf
  8
Layer_2
  10
-649.24597
  20
118.8783
  0
VERTEX
  5
2d0
  8
Layer_2
  10
-634.80457
  20
123.57068
  0
VERTEX
  5
2d1
  8
Layer_2
  10
-614.81726
  20
130.06921
  0
VERTEX
  5
2d2
  8
Layer_2
  10
-589.07263
  20
138.4447
  0
VERTEX
  5
2d3
  8
Layer_2
  10
-589.06921
  20
139.28259
  0
VERTEX
  5
2d4
  8
Layer_2
  10
-589.06433
  20
142.66199
  0
VERTEX
  5
2d5
  8
Layer_2
  10
-589.05896
  20
149.03845
  0
VERTEX
  5
2d6
  8
Layer_2
  10
-589.05603
  20
159.36316
  0
VERTEX
  5
2d7
  8
Layer_2
  10
-589.05603
  20
174.58435
  0
VERTEX
  5
2d8
  8
Layer_2
  10
-589.06091
  20
195.65173
  0
VERTEX
  5
2d9
  8
Layer_2
  10
-589.07166
  20
222.79138
  0
VERTEX
  5
2da
  8
Layer_2
  10
-589.87
  20
223.05408
  0
VERTEX
  5
2db
  8
Layer_2
  10
-589.87
  20
223.05457
  0
VERTEX
  5
2dc
  8
Layer_2
  10
-593.07849
  20
224.10193
  0
VERTEX
  5
2dd
  8
Layer_2
  10
-599.13611
  20
226.07458
  0
VERTEX
  5
2de
  8
Layer_2
  10
-599.13611
  20
226.0741
  0
VERTEX
  5
2df
  8
Layer_2
  10
-608.94568
  20
229.26453
  0
VERTEX
  5
2e0
  8
Layer_2
  10
-623.40906
  20
233.96423
  0
VERTEX
  5
2e1
  8
Layer_2
  10
-643.42957
  20
240.46423
  0
VERTEX
  5
2e2
  8
Layer_2
  10
-669.21912
  20
248.83337
  0
VERTEX
  5
2e3
  8
Layer_2
  10
-669.71277
  20
248.15808
  0
VERTEX
  5
2e4
  8
Layer_2
  10
-671.69861
  20
245.4325
  0
VERTEX
  5
2e5
  8
Layer_2
  10
-675.44421
  20
240.28455
  0
VERTEX
  5
2e6
  8
Layer_2
  10
-681.50476
  20
231.9491
  0
VERTEX
  5
2e7
  8
Layer_2
  10
-690.4364
  20
219.65564
  0
VERTEX
  5
2e8
  8
Layer_2
  10
-702.79431
  20
202.63855
  0
VERTEX
  5
2e9
  8
Layer_2
  10
-718.70935
  20
180.7157
  0
VERTEX
  5
2ea
  8
Layer_2
  10
-716.23376
  20
177.29675
  0
VERTEX
  5
2eb
  8
Layer_2
  10
-712.48669
  20
172.1322
  0
SEQEND
  0
POLYLINE
  5
2ed
  8
Layer_2
  62
1
  70
1
  66
1
  10
0
  20
0
  30
0
  0
VERTEX
  5
2ed
  8
Layer_2
  10
-534.30017
  20
112.70056
  0
VERTEX
  5
2ee
  8
Layer_2
  10
-531.09412
  20
113.73669
  0
VERTEX
  5
2ef
  8
Layer_2
  10
-525.04285
  20
115.69812
  0
VERTEX
  5
2f0
  8
Layer_2
  10
-515.24597
  20
118.8783
  0
VERTEX
  5
2f1
  8
Layer_2
  10
-500.80457
  20
123.57068
  0
VERTEX
  5
2f2
  8
Layer_2
  10
-480.81726
  20
130.06921
  0
VERTEX
  5
2f3
  8
Layer_2
  10
-455.07263
  20
138.4447
  0
VERTEX
  5
2f4
  8
Layer_2
  10
-455.06921
  20
139.28259
  0
VERTEX
  5
2f5
  8
Layer_2
  10
-455.06433
  20
142.66199
  0
VERTEX
  5
2f6
  8
Layer_2
  10
-455.05896
  20
149.03845
  0
VERTEX
  5
2f7
  8
Layer_2
  10
-455.05603
  20
159.36316
  0
VERTEX
  5
2f8
  8
Layer_2
  10
-455.05603
  20
174.58435
  0
VERTEX
  5
2f9
  8
Layer_2
  10
-455.06091
  20
195.65173
  0
VERTEX
  5
2fa
  8
Layer_2
  10
-455.07166
  20
222.79138
  0
VERTEX
  5
2fb
  8
Layer_2
  10
-455.87
  20
223.05408
  0
VERTEX
  5
2fc
  8
Layer_2
  10
-455.87
  20
223.05457
  0
VERTEX
  5
2fd
  8
Layer_2
  10
-459.07849
  20
224.10193
  0
VERTEX
  5
2fe
  8
Layer_2
  10
-465.13611
  20
226.07458
  0
VERTEX
  5
2ff
  8
Layer_2
  10
-465.13611
  20
226.0741
  0
VERTEX
  5
300
  8
Layer_2
  10
-474.94568
  20
229.26453
  0
VERTEX
  5
301
  8
Layer_2
  10
-489.40906
  20
233.96423
  0
VERTEX
  5
302
  8
Layer_2
  10
-509.42957
  20
240.46423
  0
VERTEX
  5
303
  8
Layer_2
  10
-535.21912
  20
248.83337
  0
VERTEX
  5
304
  8
Layer_2
  10
-535.71277
  20
248.15808
  0
VERTEX
  5
305
  8
Layer_2
  10
-537.69861
  20
245.4325
  0
VERTEX
  5
306
  8
Layer_2
  10
-541.44421
  20
240.28455
  0
VERTEX
  5
307
  8
Layer_2
  10
-547.50476
  20
231.9491
  0
VERTEX
  5
308
  8
Layer_2
  10
-556.4364
  20
219.65564
  0
VERTEX
  5
309
  8
Layer_2
  10
-568.79431
  20
202.63855
  0
VERTEX
  5
30a
  8
Layer_2
  10
-584.70935
  20
180.71619
  0
VERTEX
  5
30b
  8
Layer_2
  10
-582.23376
  20
177.29675
  0
VERTEX
  5
30c
  8
Layer_2
  10
-578.48669
  20
172.1322
  0
VERTEX
  5
30d
  8
Layer_2
  10
-572.41687
  20
163.77429
  0
VERTEX
  5
30e
  8
Layer_2
  10
-563.46521
  20
151.45349
  0
VERTEX
  5
30f
  8
Layer_2
  10
-551.07214
  20
134.40417
  0
VERTEX
  5
310
  8
Layer_2
  10
-535.10388
  20
112.44275
  0
SEQEND
  0
POLYLINE
  5
312
  8
Layer_2
  62
1
  70
1
  66
1
  10
0
  20
0
  30
0
  0
VERTEX
  5
312
  8
Layer_2
  10
-617.28796
  20
-11.882446
  0
VERTEX
  5
313
  8
Layer_2
  10
-615.30115
  20
-9.1558838
  0
VERTEX
  5
314
  8
Layer_2
  10
-611.55554
  20
-4.0079346
  0
VERTEX
  5
315
  8
Layer_2
  10
-605.495
  20
4.3275146
  0
VERTEX
  5
316
  8
Layer_2
  10
-596.56384
  20
16.620972
  0
VERTEX
  5
317
  8
Layer_2
  10
-584.20544
  20
33.638062
  0
VERTEX
  5
318
  8
Layer_2
  10
-568.28992
  20
55.560913
  0
VERTEX
  5
319
  8
Layer_2
  10
-568.7821
  20
56.241577
  0
VERTEX
  5
31a
  8
Layer_2
  10
-574.51355
  20
64.144409
  0
VERTEX
  5
31b
  8
Layer_2
  10
-580.5824
  20
72.502319
  0
VERTEX
  5
31c
  8
Layer_2
  10
-589.53357
  20
84.822632
  0
VERTEX
  5
31d
  8
Layer_2
  10
-601.92712
  20
101.87292
  0
VERTEX
  5
31e
  8
Layer_2
  10
-617.89539
  20
123.83385
  0
VERTEX
  5
31f
  8
Layer_2
  10
-618.69958
  20
123.57605
  0
VERTEX
  5
320
  8
Layer_2
  10
-621.90613
  20
122.53992
  0
VERTEX
  5
321
  8
Layer_2
  10
-627.95691
  20
120.57849
  0
VERTEX
  5
322
  8
Layer_2
  10
-637.75378
  20
117.39832
  0
VERTEX
  5
323
  8
Layer_2
  10
-652.19568
  20
112.70592
  0
VERTEX
  5
324
  8
Layer_2
  10
-672.18298
  20
106.2074
  0
VERTEX
  5
325
  8
Layer_2
  10
-697.92761
  20
97.831909
  0
VERTEX
  5
326
  8
Layer_2
  10
-697.93054
  20
96.991089
  0
VERTEX
  5
327
  8
Layer_2
  10
-697.93591
  20
93.613647
  0
VERTEX
  5
328
  8
Layer_2
  10
-697.9408
  20
87.238159
  0
VERTEX
  5
329
  8
Layer_2
  10
-697.94373
  20
76.913452
  0
VERTEX
  5
32a
  8
Layer_2
  10
-697.94373
  20
61.692261
  0
VERTEX
  5
32b
  8
Layer_2
  10
-697.93884
  20
40.624878
  0
VERTEX
  5
32c
  8
Layer_2
  10
-697.9281
  20
13.485229
  0
VERTEX
  5
32d
  8
Layer_2
  10
-697.12976
  20
13.222534
  0
VERTEX
  5
32e
  8
Layer_2
  10
-697.12976
  20
13.222046
  0
VERTEX
  5
32f
  8
Layer_2
  10
-693.92175
  20
12.174683
  0
VERTEX
  5
330
  8
Layer_2
  10
-687.86414
  20
10.202026
  0
VERTEX
  5
331
  8
Layer_2
  10
-687.86414
  20
10.202515
  0
VERTEX
  5
332
  8
Layer_2
  10
-678.05408
  20
7.012085
  0
VERTEX
  5
333
  8
Layer_2
  10
-663.5907
  20
2.3123779
  0
VERTEX
  5
334
  8
Layer_2
  10
-643.57068
  20
-4.1876221
  0
VERTEX
  5
335
  8
Layer_2
  10
-617.78064
  20
-12.556763
  0
SEQEND
  0
POLYLINE
  5
337
  8
Layer_2
  62
1
  70
1
  66
1
  10
0
  20
0
  30
0
  0
VERTEX
  5
337
  8
Layer_2
  10
-704.41687
  20
-85.226196
  0
VERTEX
  5
338
  8
Layer_2
  10
-695.46521
  20
-97.546997
  0
VERTEX
  5
339
  8
Layer_2
  10
-683.07263
  20
-114.59583
  0
VERTEX
  5
33a
  8
Layer_2
  10
-667.10437
  20
-136.55725
  0
VERTEX
  5
33b
  8
Layer_2
  10
-666.30017
  20
-136.29944
  0
VERTEX
  5
33c
  8
Layer_2
  10
-663.09412
  20
-135.26331
  0
VERTEX
  5
33d
  8
Layer_2
  10
-657.04285
  20
-133.30188
  0
VERTEX
  5
33e
  8
Layer_2
  10
-647.24597
  20
-130.1217
  0
VERTEX
  5
33f
  8
Layer_2
  10
-632.80457
  20
-125.42932
  0
VERTEX
  5
340
  8
Layer_2
  10
-612.81726
  20
-118.93078
  0
VERTEX
  5
341
  8
Layer_2
  10
-587.07263
  20
-110.55531
  0
VERTEX
  5
342
  8
Layer_2
  10
-587.06921
  20
-109.71741
  0
VERTEX
  5
343
  8
Layer_2
  10
-587.06433
  20
-106.33801
  0
VERTEX
  5
344
  8
Layer_2
  10
-587.05896
  20
-99.961555
  0
VERTEX
  5
345
  8
Layer_2
  10
-587.05603
  20
-89.636841
  0
VERTEX
  5
346
  8
Layer_2
  10
-587.05603
  20
-74.415649
  0
VERTEX
  5
347
  8
Layer_2
  10
-587.06091
  20
-53.348267
  0
VERTEX
  5
348
  8
Layer_2
  10
-587.07166
  20
-26.208618
  0
VERTEX
  5
349
  8
Layer_2
  10
-587.87
  20
-25.945923
  0
VERTEX
  5
34a
  8
Layer_2
  10
-587.87
  20
-25.945435
  0
VERTEX
  5
34b
  8
Layer_2
  10
-591.07849
  20
-24.898071
  0
VERTEX
  5
34c
  8
Layer_2
  10
-597.13611
  20
-22.925415
  0
VERTEX
  5
34d
  8
Layer_2
  10
-597.13611
  20
-22.925903
  0
VERTEX
  5
34e
  8
Layer_2
  10
-606.94568
  20
-19.735474
  0
VERTEX
  5
34f
  8
Layer_2
  10
-621.40906
  20
-15.035767
  0
VERTEX
  5
350
  8
Layer_2
  10
-641.42957
  20
-8.5357666
  0
VERTEX
  5
351
  8
Layer_2
  10
-667.21912
  20
-0.16662598
  0
VERTEX
  5
352
  8
Layer_2
  10
-667.71277
  20
-0.84191895
  0
VERTEX
  5
353
  8
Layer_2
  10
-669.69861
  20
-3.5675049
  0
VERTEX
  5
354
  8
Layer_2
  10
-673.44421
  20
-8.7154541
  0
VERTEX
  5
355
  8
Layer_2
  10
-679.50476
  20
-17.050903
  0
VERTEX
  5
356
  8
Layer_2
  10
-688.4364
  20
-29.34436
  0
VERTEX
  5
357
  8
Layer_2
  10
-700.79431
  20
-46.36145
  0
VERTEX
  5
358
  8
Layer_2
  10
-716.70935
  20
-68.284302
  0
VERTEX
  5
359
  8
Layer_2
  10
-714.23376
  20
-71.703247
  0
VERTEX
  5
35a
  8
Layer_2
  10
-710.48669
  20
-76.867798
  0
SEQEND
  0
POLYLINE
  5
35c
  8
Layer_2
  62
1
  70
1
  66
1
  10
0
  20
0
  30
0
  0
VERTEX
  5
35c
  8
Layer_2
  10
-570.41687
  20
-85.226196
  0
VERTEX
  5
35d
  8
Layer_2
  10
-561.46521
  20
-97.546997
  0
VERTEX
  5
35e
  8
Layer_2
  10
-549.07263
  20
-114.59583
  0
VERTEX
  5
35f
  8
Layer_2
  10
-533.10437
  20
-136.55725
  0
VERTEX
  5
360
  8
Layer_2
  10
-532.30017
  20
-136.29944
  0
VERTEX
  5
361
  8
Layer_2
  10
-529.09412
  20
-135.26331
  0
VERTEX
  5
362
  8
Layer_2
  10
-523.04285
  20
-133.30188
  0
VERTEX
  5
363
  8
Layer_2
  10
-513.24597
  20
-130.1217
  0
VERTEX
  5
364
  8
Layer_2
  10
-498.80457
  20
-125.42932
  0
VERTEX
  5
365
  8
Layer_2
  10
-478.81726
  20
-118.93078
  0
VERTEX
  5
366
  8
Layer_2
  10
-453.07263
  20
-110.55531
  0
VERTEX
  5
367
  8
Layer_2
  10
-453.06921
  20
-109.71741
  0
VERTEX
  5
368
  8
Layer_2
  10
-453.06433
  20
-106.33801
  0
VERTEX
  5
369
  8
Layer_2
  10
-453.05896
  20
-99.961555
  0
VERTEX
  5
36a
  8
Layer_2
  10
-453.05603
  20
-89.636841
  0
VERTEX
  5
36b
  8
Layer_2
  10
-453.05603
  20
-74.415649
  0
VERTEX
  5
36c
  8
Layer_2
  10
-453.06091
  20
-53.348267
  0
VERTEX
  5
36d
  8
Layer_2
  10
-453.07166
  20
-26.208618
  0
VERTEX
  5
36e
  8
Layer_2
  10
-453.87
  20
-25.945923
  0
VERTEX
  5
36f
  8
Layer_2
  10
-453.87
  20
-25.945435
  0
VERTEX
  5
370
  8
Layer_2
  10
-457.07849
  20
-24.898071
  0
VERTEX
  5
371
  8
Layer_2
  10
-463.13611
  20
-22.925415
  0
VERTEX
  5
372
  8
Layer_2
  10
-463.13611
  20
-22.925903
  0
VERTEX
  5
373
  8
Layer_2
  10
-472.94568
  20
-19.735474
  0
VERTEX
  5
374
  8
Layer_2
  10
-487.40906
  20
-15.035767
  0
VERTEX
  5
375
  8
Layer_2
  10
-507.42957
  20
-8.5357666
  0
VERTEX
  5
376
  8
Layer_2
  10
-533.21912
  20
-0.16662598
  0
VERTEX
  5
377
  8
Layer_2
  10
-533.71277
  20
-0.84191895
  0
VERTEX
  5
378
  8
Layer_2
  10
-535.69861
  20
-3.5675049
  0
VERTEX
  5
379
  8
Layer_2
  10
-539.44421
  20
-8.7154541
  0
VERTEX
  5
37a
  8
Layer_2
  10
-545.50476
  20
-17.050903
  0
VERTEX
  5
37b
  8
Layer_2
  10
-554.4364
  20
-29.34436
  0
VERTEX
  5
37c
  8
Layer_2
  10
-566.79431
  20
-46.36145
  0
VERTEX
  5
37d
  8
Layer_2
  10
-582.70935
  20
-68.284302
  0
VERTEX
  5
37e
  8
Layer_2
  10
-580.23376
  20
-71.703247
  0
VERTEX
  5
37f
  8
Layer_2
  10
-576.48669
  20
-76.867798
  0
SEQEND
  0
POLYLINE
  5
381
  8
Layer_2
  62
1
  70
1
  66
1
  10
0
  20
0
  30
0
  0
VERTEX
  5
381
  8
Layer_2
  10
-180.61572
  20
-11.038574
  0
VERTEX
  5
382
  8
Layer_2
  10
-178.62891
  20
-8.3120117
  0
VERTEX
  5
383
  8
Layer_2
  10
-174.8833
  20
-3.1640625
  0
VERTEX
  5
384
  8
Layer_2
  10
-168.82275
  20
5.1713867
  0
VERTEX
  5
385
  8
Layer_2
  10
-159.8916
  20
17.464844
  0
VERTEX
  5
386
  8
Layer_2
  10
-147.5332
  20
34.481934
  0
VERTEX
  5
387
  8
Layer_2
  10
-134.61963
  20
52.269775
  0
VERTEX
  5
388
  8
Layer_2
  10
-134.64551
  20
52.269775
  0
VERTEX
  5
389
  8
Layer_2
  10
-134.64551
  20
60.581787
  0
VERTEX
  5
38a
  8
Layer_2
  10
-137.84131
  20
64.988281
  0
VERTEX
  5
38b
  8
Layer_2
  10
-143.91016
  20
73.346191
  0
VERTEX
  5
38c
  8
Layer_2
  10
-152.86133
  20
85.666504
  0
VERTEX
  5
38d
  8
Layer_2
  10
-165.25488
  20
102.7168
  0
VERTEX
  5
38e
  8
Layer_2
  10
-181.22314
  20
124.67822
  0
VERTEX
  5
38f
  8
Layer_2
  10
-182.02783
  20
124.41992
  0
VERTEX
  5
390
  8
Layer_2
  10
-185.23389
  20
123.38379
  0
VERTEX
  5
391
  8
Layer_2
  10
-191.28516
  20
121.42236
  0
VERTEX
  5
392
  8
Layer_2
  10
-201.08154
  20
118.24219
  0
VERTEX
  5
393
  8
Layer_2
  10
-215.52344
  20
113.5498
  0
VERTEX
  5
394
  8
Layer_2
  10
-235.51074
  20
107.05127
  0
VERTEX
  5
395
  8
Layer_2
  10
-261.25537
  20
98.675781
  0
VERTEX
  5
396
  8
Layer_2
  10
-261.2583
  20
97.834961
  0
VERTEX
  5
397
  8
Layer_2
  10
-261.26367
  20
94.45752
  0
VERTEX
  5
398
  8
Layer_2
  10
-261.26855
  20
88.082031
  0
VERTEX
  5
399
  8
Layer_2
  10
-261.27148
  20
77.757324
  0
VERTEX
  5
39a
  8
Layer_2
  10
-261.27148
  20
62.536133
  0
VERTEX
  5
39b
  8
Layer_2
  10
-261.2666
  20
41.46875
  0
VERTEX
  5
39c
  8
Layer_2
  10
-261.25586
  20
14.329102
  0
VERTEX
  5
39d
  8
Layer_2
  10
-260.45752
  20
14.065918
  0
VERTEX
  5
39e
  8
Layer_2
  10
-257.24951
  20
13.018555
  0
VERTEX
  5
39f
  8
Layer_2
  10
-251.19189
  20
11.046387
  0
VERTEX
  5
3a0
  8
Layer_2
  10
-241.38184
  20
7.855957
  0
VERTEX
  5
3a1
  8
Layer_2
  10
-226.91846
  20
3.15625
  0
VERTEX
  5
3a2
  8
Layer_2
  10
-206.89844
  20
-3.34375
  0
VERTEX
  5
3a3
  8
Layer_2
  10
-181.1084
  20
-11.712891
  0
SEQEND
  0
POLYLINE
  5
3a5
  8
Layer_2
  62
1
  70
1
  66
1
  10
0
  20
0
  30
0
  0
VERTEX
  5
3a5
  8
Layer_2
  10
-313.61572
  20
-12.038574
  0
VERTEX
  5
3a6
  8
Layer_2
  10
-311.62891
  20
-9.3120117
  0
VERTEX
  5
3a7
  8
Layer_2
  10
-307.8833
  20
-4.1640625
  0
VERTEX
  5
3a8
  8
Layer_2
  10
-301.82275
  20
4.1713867
  0
VERTEX
  5
3a9
  8
Layer_2
  10
-292.8916
  20
16.464844
  0
VERTEX
  5
3aa
  8
Layer_2
  10
-280.5332
  20
33.481934
  0
VERTEX
  5
3ab
  8
Layer_2
  10
-267.61938
  20
51.27002
  0
VERTEX
  5
3ac
  8
Layer_2
  10
-267.61938
  20
59.545654
  0
VERTEX
  5
3ad
  8
Layer_2
  10
-270.84131
  20
63.988281
  0
VERTEX
  5
3ae
  8
Layer_2
  10
-276.91016
  20
72.346191
  0
VERTEX
  5
3af
  8
Layer_2
  10
-285.86133
  20
84.666504
  0
VERTEX
  5
3b0
  8
Layer_2
  10
-298.25488
  20
101.7168
  0
VERTEX
  5
3b1
  8
Layer_2
  10
-314.22314
  20
123.67773
  0
VERTEX
  5
3b2
  8
Layer_2
  10
-315.02734
  20
123.41992
  0
VERTEX
  5
3b3
  8
Layer_2
  10
-318.23389
  20
122.38379
  0
VERTEX
  5
3b4
  8
Layer_2
  10
-324.28467
  20
120.42236
  0
VERTEX
  5
3b5
  8
Layer_2
  10
-334.08154
  20
117.24219
  0
VERTEX
  5
3b6
  8
Layer_2
  10
-348.52344
  20
112.5498
  0
VERTEX
  5
3b7
  8
Layer_2
  10
-368.51074
  20
106.05127
  0
VERTEX
  5
3b8
  8
Layer_2
  10
-394.25537
  20
97.675781
  0
VERTEX
  5
3b9
  8
Layer_2
  10
-394.2583
  20
96.834961
  0
VERTEX
  5
3ba
  8
Layer_2
  10
-394.26367
  20
93.45752
  0
VERTEX
  5
3bb
  8
Layer_2
  10
-394.26855
  20
87.082031
  0
VERTEX
  5
3bc
  8
Layer_2
  10
-394.27148
  20
76.757324
  0
VERTEX
  5
3bd
  8
Layer_2
  10
-394.27148
  20
61.536133
  0
VERTEX
  5
3be
  8
Layer_2
  10
-394.2666
  20
40.46875
  0
VERTEX
  5
3bf
  8
Layer_2
  10
-394.25586
  20
13.329102
  0
VERTEX
  5
3c0
  8
Layer_2
  10
-393.45752
  20
13.065918
  0
VERTEX
  5
3c1
  8
Layer_2
  10
-390.24951
  20
12.018555
  0
VERTEX
  5
3c2
  8
Layer_2
  10
-384.19189
  20
10.046387
  0
VERTEX
  5
3c3
  8
Layer_2
  10
-374.38184
  20
6.855957
  0
VERTEX
  5
3c4
  8
Layer_2
  10
-359.91846
  20
2.15625
  0
VERTEX
  5
3c5
  8
Layer_2
  10
-339.89844
  20
-4.34375
  0
VERTEX
  5
3c6
  8
Layer_2
  10
-314.1084
  20
-12.712891
  0
SEQEND
  0
POLYLINE
  5
3c8
  8
Layer_2
  62
1
  70
1
  66
1
  10
0
  20
0
  30
0
  0
VERTEX
  5
3c8
  8
Layer_2
  10
-484.28809
  20
-10.882568
  0
VERTEX
  5
3c9
  8
Layer_2
  10
-482.30127
  20
-8.1560059
  0
VERTEX
  5
3ca
  8
Layer_2
  10
-478.55566
  20
-3.0080566
  0
VERTEX
  5
3cb
  8
Layer_2
  10
-472.49512
  20
5.3276367
  0
VERTEX
  5
3cc
  8
Layer_2
  10
-463.56396
  20
17.621094
  0
VERTEX
  5
3cd
  8
Layer_2
  10
-451.20557
  20
34.638184
  0
VERTEX
  5
3ce
  8
Layer_2
  10
-438.29688
  20
52.419189
  0
VERTEX
  5
3cf
  8
Layer_2
  10
-438.29688
  20
60.708984
  0
VERTEX
  5
3d0
  8
Layer_2
  10
-441.51367
  20
65.144531
  0
VERTEX
  5
3d1
  8
Layer_2
  10
-447.58252
  20
73.502441
  0
VERTEX
  5
3d2
  8
Layer_2
  10
-456.53369
  20
85.822754
  0
VERTEX
  5
3d3
  8
Layer_2
  10
-468.92725
  20
102.87305
  0
VERTEX
  5
3d4
  8
Layer_2
  10
-484.89551
  20
124.83447
  0
VERTEX
  5
3d5
  8
Layer_2
  10
-485.7002
  20
124.57617
  0
VERTEX
  5
3d6
  8
Layer_2
  10
-488.90625
  20
123.54004
  0
VERTEX
  5
3d7
  8
Layer_2
  10
-494.95752
  20
121.57861
  0
VERTEX
  5
3d8
  8
Layer_2
  10
-504.75391
  20
118.39844
  0
VERTEX
  5
3d9
  8
Layer_2
  10
-519.1958
  20
113.70581
  0
VERTEX
  5
3da
  8
Layer_2
  10
-539.18311
  20
107.20752
  0
VERTEX
  5
3db
  8
Layer_2
  10
-564.92773
  20
98.832031
  0
VERTEX
  5
3dc
  8
Layer_2
  10
-564.93066
  20
97.991211
  0
VERTEX
  5
3dd
  8
Layer_2
  10
-564.93604
  20
94.61377
  0
VERTEX
  5
3de
  8
Layer_2
  10
-564.94092
  20
88.238281
  0
VERTEX
  5
3df
  8
Layer_2
  10
-564.94385
  20
77.913574
  0
VERTEX
  5
3e0
  8
Layer_2
  10
-564.94385
  20
62.692383
  0
VERTEX
  5
3e1
  8
Layer_2
  10
-564.93896
  20
41.625
  0
VERTEX
  5
3e2
  8
Layer_2
  10
-564.92822
  20
14.485352
  0
VERTEX
  5
3e3
  8
Layer_2
  10
-564.12988
  20
14.222168
  0
VERTEX
  5
3e4
  8
Layer_2
  10
-560.92188
  20
13.174805
  0
VERTEX
  5
3e5
  8
Layer_2
  10
-554.86426
  20
11.202637
  0
VERTEX
  5
3e6
  8
Layer_2
  10
-545.0542
  20
8.012207
  0
VERTEX
  5
3e7
  8
Layer_2
  10
-530.59082
  20
3.3125
  0
VERTEX
  5
3e8
  8
Layer_2
  10
-510.5708
  20
-3.1877441
  0
VERTEX
  5
3e9
  8
Layer_2
  10
-484.78076
  20
-11.556885
  0
SEQEND
  0
POLYLINE
  5
3eb
  8
Layer_2
  62
1
  70
1
  66
1
  10
0
  20
0
  30
0
  0
VERTEX
  5
3eb
  8
Layer_2
  10
-100.22852
  20
241.24232
  0
VERTEX
  5
3ec
  8
Layer_2
  10
-99.976563
  20
241.27357
  42
0.19834568
  0
VERTEX
  5
3ed
  8
Layer_2
  10
-98.460663
  20
242.17703
  42
0.1983454
  0
VERTEX
  5
3ee
  8
Layer_2
  10
-98.025879
  20
243.88734
  42
0.32908308
  0
VERTEX
  5
3ef
  8
Layer_2
  10
-99.383789
  20
245.36342
  0
VERTEX
  5
3f0
  8
Layer_2
  10
-99.147461
  20
245.4894
  42
0.38617851
  0
VERTEX
  5
3f1
  8
Layer_2
  10
-98.517578
  20
247.58461
  42
0.23972481
  0
VERTEX
  5
3f2
  8
Layer_2
  10
-99.946777
  20
248.71498
  42
0.21084153
  0
VERTEX
  5
3f3
  8
Layer_2
  10
-101.84229
  20
248.39613
  42
0.20174762
  0
VERTEX
  5
3f4
  8
Layer_2
  10
-102.75
  20
246.86537
  0
VERTEX
  5
3f5
  8
Layer_2
  10
-101.84277
  20
246.70375
  0
VERTEX
  5
3f6
  8
Layer_2
  10
-101.77686
  20
247.01576
  42
-0.2504606
  0
VERTEX
  5
3f7
  8
Layer_2
  10
-100.99268
  20
247.95131
  42
-0.28076237
  0
VERTEX
  5
3f8
  8
Layer_2
  10
-99.635742
  20
247.70668
  42
-0.38019029
  0
VERTEX
  5
3f9
  8
Layer_2
  10
-99.559082
  20
246.11977
  42
-0.21874233
  0
VERTEX
  5
3fa
  8
Layer_2
  10
-100.95117
  20
245.6559
  0
VERTEX
  5
3fb
  8
Layer_2
  10
-101.05176
  20
244.85951
  0
VERTEX
  5
3fc
  8
Layer_2
  10
-100.86816
  20
244.90395
  42
-0.31984554
  0
VERTEX
  5
3fd
  8
Layer_2
  10
-99.195313
  20
244.33852
  42
-0.34503993
  0
VERTEX
  5
3fe
  8
Layer_2
  10
-99.406738
  20
242.42592
  42
-0.39307916
  0
VERTEX
  5
3ff
  8
Layer_2
  10
-101.40186
  20
242.3224
  42
-0.12739791
  0
VERTEX
  5
400
  8
Layer_2
  10
-101.8418
  20
243.07484
  0
VERTEX
  5
401
  8
Layer_2
  10
-101.93359
  20
243.43373
  0
VERTEX
  5
402
  8
Layer_2
  10
-102.84082
  20
243.31264
  42
0.35040488
  0
VERTEX
  5
403
  8
Layer_2
  10
-100.95801
  20
241.26772
  42
0.059321887
  0
SEQEND
  0
POLYLINE
  5
405
  8
Layer_2
  62
1
  70
1
  66
1
  10
0
  20
0
  30
0
  0
VERTEX
  5
405
  8
Layer_2
  10
-94.459473
  20
241.2433
  0
VERTEX
  5
406
  8
Layer_2
  10
-94.269531
  20
241.26381
  42
0.22774562
  0
VERTEX
  5
407
  8
Layer_2
  10
-92.849609
  20
242.19887
  42
0.11707168
  0
VERTEX
  5
408
  8
Layer_2
  10
-92.286621
  20
244.10121
  42
0.073223999
  0
VERTEX
  5
409
  8
Layer_2
  10
-92.415527
  20
246.7516
  42
0.14112695
  0
VERTEX
  5
40a
  8
Layer_2
  10
-93.205566
  20
248.24818
  42
0.21187044
  0
VERTEX
  5
40b
  8
Layer_2
  10
-94.85498
  20
248.77309
  42
0.24984554
  0
VERTEX
  5
40c
  8
Layer_2
  10
-96.461914
  20
247.82191
  42
0.11780434
  0
VERTEX
  5
40d
  8
Layer_2
  10
-97.028809
  20
245.91664
  42
0.075679157
  0
VERTEX
  5
40e
  8
Layer_2
  10
-96.883789
  20
243.21449
  42
0.14152818
  0
VERTEX
  5
40f
  8
Layer_2
  10
-96.17627
  20
241.82289
  42
0.22383493
  0
SEQEND
  0
POLYLINE
  5
411
  8
Layer_2
  62
1
  70
1
  66
1
  10
0
  20
0
  30
0
  0
VERTEX
  5
411
  8
Layer_2
  10
-78.294434
  20
242.23451
  0
VERTEX
  5
412
  8
Layer_2
  10
-81.932617
  20
242.23451
  0
VERTEX
  5
413
  8
Layer_2
  10
-81.932617
  20
248.74965
  0
VERTEX
  5
414
  8
Layer_2
  10
-82.910156
  20
248.74965
  0
VERTEX
  5
415
  8
Layer_2
  10
-82.910156
  20
241.36244
  0
VERTEX
  5
416
  8
Layer_2
  10
-78.294434
  20
241.36244
  0
SEQEND
  0
POLYLINE
  5
418
  8
Layer_2
  62
1
  70
1
  66
1
  10
0
  20
0
  30
0
  0
VERTEX
  5
418
  8
Layer_2
  10
-71.558105
  20
242.23451
  0
VERTEX
  5
419
  8
Layer_2
  10
-76.093262
  20
242.23451
  0
VERTEX
  5
41a
  8
Layer_2
  10
-76.093262
  20
244.74867
  0
VERTEX
  5
41b
  8
Layer_2
  10
-72.006348
  20
244.74867
  0
VERTEX
  5
41c
  8
Layer_2
  10
-72.006348
  20
245.61537
  0
VERTEX
  5
41d
  8
Layer_2
  10
-76.093262
  20
245.61537
  0
VERTEX
  5
41e
  8
Layer_2
  10
-76.093262
  20
247.87807
  0
VERTEX
  5
41f
  8
Layer_2
  10
-71.729492
  20
247.87807
  0
VERTEX
  5
420
  8
Layer_2
  10
-71.729492
  20
248.74965
  0
VERTEX
  5
421
  8
Layer_2
  10
-77.070801
  20
248.74965
  0
VERTEX
  5
422
  8
Layer_2
  10
-77.070801
  20
241.36244
  0
VERTEX
  5
423
  8
Layer_2
  10
-71.558105
  20
241.36244
  0
SEQEND
  0
POLYLINE
  5
425
  8
Layer_2
  62
1
  70
1
  66
1
  10
0
  20
0
  30
0
  0
VERTEX
  5
425
  8
Layer_2
  10
-67.185547
  20
241.37025
  42
0.13640941
  0
VERTEX
  5
426
  8
Layer_2
  10
-65.442383
  20
241.85902
  42
0.17584484
  0
VERTEX
  5
427
  8
Layer_2
  10
-64.265625
  20
243.60512
  42
0.14992747
  0
VERTEX
  5
428
  8
Layer_2
  10
-64.358887
  20
246.85268
  42
0.19054682
  0
VERTEX
  5
429
  8
Layer_2
  10
-65.728516
  20
248.43861
  42
0.10676383
  0
VERTEX
  5
42a
  8
Layer_2
  10
-67.226563
  20
248.7433
  42
0.0078262583
  0
VERTEX
  5
42b
  8
Layer_2
  10
-70.176758
  20
248.74965
  0
VERTEX
  5
42c
  8
Layer_2
  10
-70.176758
  20
241.36244
  0
VERTEX
  5
42d
  8
Layer_2
  10
-67.510742
  20
241.36244
  0
SEQEND
  0
POLYLINE
  5
42f
  8
Layer_2
  62
1
  70
1
  66
1
  10
0
  20
0
  30
0
  0
VERTEX
  5
42f
  8
Layer_2
  10
-59.06543
  20
244.29018
  0
VERTEX
  5
430
  8
Layer_2
  10
-59.056152
  20
244.58803
  42
-0.12430006
  0
VERTEX
  5
431
  8
Layer_2
  10
-58.826172
  20
245.4474
  42
-0.38376855
  0
VERTEX
  5
432
  8
Layer_2
  10
-56.978516
  20
245.87953
  42
-0.18406023
  0
VERTEX
  5
433
  8
Layer_2
  10
-56.594727
  20
245.34145
  42
-0.071484358
  0
VERTEX
  5
434
  8
Layer_2
  10
-56.520996
  20
244.75404
  0
VERTEX
  5
435
  8
Layer_2
  10
-56.520996
  20
241.36244
  0
VERTEX
  5
436
  8
Layer_2
  10
-55.61377
  20
241.36244
  0
VERTEX
  5
437
  8
Layer_2
  10
-55.61377
  20
244.75404
  42
0.10242275
  0
VERTEX
  5
438
  8
Layer_2
  10
-55.802734
  20
245.95326
  42
0.23686957
  0
VERTEX
  5
439
  8
Layer_2
  10
-56.907715
  20
246.7765
  42
0.22450634
  0
VERTEX
  5
43a
  8
Layer_2
  10
-58.727539
  20
246.42104
  42
0.051509873
  0
VERTEX
  5
43b
  8
Layer_2
  10
-59.06543
  20
246.09926
  0
VERTEX
  5
43c
  8
Layer_2
  10
-59.06543
  20
248.74965
  0
VERTEX
  5
43d
  8
Layer_2
  10
-59.972656
  20
248.74965
  0
VERTEX
  5
43e
  8
Layer_2
  10
-59.972656
  20
241.36244
  0
VERTEX
  5
43f
  8
Layer_2
  10
-59.06543
  20
241.36244
  0
SEQEND
  0
POLYLINE
  5
441
  8
Layer_2
  62
1
  70
1
  66
1
  10
0
  20
0
  30
0
  0
VERTEX
  5
441
  8
Layer_2
  10
-47.527344
  20
248.74965
  0
VERTEX
  5
442
  8
Layer_2
  10
-48.43457
  20
248.74965
  0
VERTEX
  5
443
  8
Layer_2
  10
-48.43457
  20
241.36244
  0
VERTEX
  5
444
  8
Layer_2
  10
-47.527344
  20
241.36244
  0
SEQEND
  0
POLYLINE
  5
446
  8
Layer_2
  62
1
  70
1
  66
1
  10
0
  20
0
  30
0
  0
VERTEX
  5
446
  8
Layer_2
  10
-43.929199
  20
241.25404
  42
0.23832202
  0
VERTEX
  5
447
  8
Layer_2
  10
-42.671875
  20
242.03773
  0
VERTEX
  5
448
  8
Layer_2
  10
-42.671875
  20
241.36244
  0
VERTEX
  5
449
  8
Layer_2
  10
-41.830566
  20
241.36244
  0
VERTEX
  5
44a
  8
Layer_2
  10
-41.830566
  20
248.74965
  0
VERTEX
  5
44b
  8
Layer_2
  10
-42.732422
  20
248.74965
  0
VERTEX
  5
44c
  8
Layer_2
  10
-42.732422
  20
246.09926
  0
VERTEX
  5
44d
  8
Layer_2
  10
-42.859863
  20
246.25551
  42
0.25569385
  0
VERTEX
  5
44e
  8
Layer_2
  10
-44.53125
  20
246.81313
  42
0.27567393
  0
VERTEX
  5
44f
  8
Layer_2
  10
-46.20459
  20
245.48695
  42
0.19500811
  0
VERTEX
  5
450
  8
Layer_2
  10
-46.176758
  20
242.57973
  42
0.32948356
  0
SEQEND
  0
POLYLINE
  5
452
  8
Layer_2
  62
1
  70
1
  66
1
  10
0
  20
0
  30
0
  0
VERTEX
  5
452
  8
Layer_2
  10
-94.811035
  20
241.99184
  42
-0.28106112
  0
VERTEX
  5
453
  8
Layer_2
  10
-95.89502
  20
242.96156
  42
-0.078630685
  0
VERTEX
  5
454
  8
Layer_2
  10
-96.134277
  20
245.006
  42
-0.082953406
  0
VERTEX
  5
455
  8
Layer_2
  10
-95.870605
  20
247.09096
  42
-0.2279549
  0
VERTEX
  5
456
  8
Layer_2
  10
-95.101074
  20
247.95473
  42
-0.35602256
  0
VERTEX
  5
457
  8
Layer_2
  10
-93.607422
  20
247.42934
  42
-0.11398969
  0
VERTEX
  5
458
  8
Layer_2
  10
-93.241211
  20
246.2018
  42
-0.075889506
  0
VERTEX
  5
459
  8
Layer_2
  10
-93.347656
  20
243.21059
  42
-0.24199268
  0
VERTEX
  5
45a
  8
Layer_2
  10
-94.217285
  20
242.06752
  42
-0.12929519
  0
SEQEND
  0
POLYLINE
  5
45c
  8
Layer_2
  62
1
  70
1
  66
1
  10
0
  20
0
  30
0
  0
VERTEX
  5
45c
  8
Layer_2
  10
-69.199219
  20
242.23451
  0
VERTEX
  5
45d
  8
Layer_2
  10
-69.199219
  20
247.87807
  42
-0.016140405
  0
VERTEX
  5
45e
  8
Layer_2
  10
-67.241211
  20
247.86879
  42
-0.13145974
  0
VERTEX
  5
45f
  8
Layer_2
  10
-66.120117
  20
247.59535
  42
-0.22011669
  0
VERTEX
  5
460
  8
Layer_2
  10
-65.130859
  20
245.90541
  42
-0.10624857
  0
VERTEX
  5
461
  8
Layer_2
  10
-65.270996
  20
243.68813
  42
-0.15185998
  0
VERTEX
  5
462
  8
Layer_2
  10
-65.946777
  20
242.63686
  42
-0.15444202
  0
VERTEX
  5
463
  8
Layer_2
  10
-67.276367
  20
242.24281
  42
-0.012022073
  0
SEQEND
  0
POLYLINE
  5
465
  8
Layer_2
  62
1
  70
1
  66
1
  10
0
  20
0
  30
0
  0
VERTEX
  5
465
  8
Layer_2
  10
-51.678223
  20
241.26234
  42
0.27135198
  0
VERTEX
  5
466
  8
Layer_2
  10
-49.754395
  20
242.64369
  42
0.18170096
  0
VERTEX
  5
467
  8
Layer_2
  10
-49.791016
  20
245.49184
  42
0.29940474
  0
VERTEX
  5
468
  8
Layer_2
  10
-52.021484
  20
246.8351
  42
0.39366492
  0
VERTEX
  5
469
  8
Layer_2
  10
-54.479492
  20
244.73354
  42
0.14023846
  0
VERTEX
  5
46a
  8
Layer_2
  10
-54.260254
  20
242.59193
  42
0.27946727
  0
VERTEX
  5
46b
  8
Layer_2
  10
-52.295898
  20
241.25307
  42
0.050329859
  0
SEQEND
  0
POLYLINE
  5
46d
  8
Layer_2
  62
1
  70
1
  66
1
  10
0
  20
0
  30
0
  0
VERTEX
  5
46d
  8
Layer_2
  10
-37.889648
  20
241.24867
  42
0.34497478
  0
VERTEX
  5
46e
  8
Layer_2
  10
-35.76416
  20
242.96986
  0
VERTEX
  5
46f
  8
Layer_2
  10
-36.70166
  20
243.08607
  0
VERTEX
  5
470
  8
Layer_2
  10
-36.813965
  20
242.81801
  42
-0.36130222
  0
VERTEX
  5
471
  8
Layer_2
  10
-38.433594
  20
242.01674
  42
-0.29307591
  0
VERTEX
  5
472
  8
Layer_2
  10
-39.63623
  20
243.20326
  42
-0.050938396
  0
VERTEX
  5
473
  8
Layer_2
  10
-39.72998
  20
243.80629
  0
VERTEX
  5
474
  8
Layer_2
  10
-35.739258
  20
243.80629
  42
0.14477005
  0
VERTEX
  5
475
  8
Layer_2
  10
-36.116699
  20
245.7018
  42
0.27605131
  0
VERTEX
  5
476
  8
Layer_2
  10
-38.167969
  20
246.8351
  42
0.36815333
  0
VERTEX
  5
477
  8
Layer_2
  10
-40.569336
  20
244.92055
  42
0.15345755
  0
VERTEX
  5
478
  8
Layer_2
  10
-40.398438
  20
242.589
  42
0.28228284
  0
VERTEX
  5
479
  8
Layer_2
  10
-38.40332
  20
241.25307
  42
0.034645351
  0
SEQEND
  0
POLYLINE
  5
47b
  8
Layer_2
  62
1
  70
1
  66
1
  10
0
  20
0
  30
0
  0
VERTEX
  5
47b
  8
Layer_2
  10
-33.688965
  20
244.1642
  0
VERTEX
  5
47c
  8
Layer_2
  10
-33.679199
  20
244.44594
  42
-0.082009143
  0
VERTEX
  5
47d
  8
Layer_2
  10
-33.478516
  20
245.3727
  42
-0.38797129
  0
VERTEX
  5
47e
  8
Layer_2
  10
-32.333496
  20
245.84877
  42
-0.061342081
  0
VERTEX
  5
47f
  8
Layer_2
  10
-32.000488
  20
245.70131
  0
VERTEX
  5
480
  8
Layer_2
  10
-31.688477
  20
246.54262
  42
0.17716267
  0
VERTEX
  5
481
  8
Layer_2
  10
-32.775879
  20
246.82338
  42
0.20756373
  0
VERTEX
  5
482
  8
Layer_2
  10
-33.479004
  20
246.37514
  42
0.038494834
  0
VERTEX
  5
483
  8
Layer_2
  10
-33.779297
  20
245.90297
  0
VERTEX
  5
484
  8
Layer_2
  10
-33.779297
  20
246.714
  0
VERTEX
  5
485
  8
Layer_2
  10
-34.595703
  20
246.714
  0
VERTEX
  5
486
  8
Layer_2
  10
-34.595703
  20
241.36244
  0
VERTEX
  5
487
  8
Layer_2
  10
-33.688965
  20
241.36244
  0
SEQEND
  0
POLYLINE
  5
489
  8
Layer_2
  62
1
  70
1
  66
1
  10
0
  20
0
  30
0
  0
VERTEX
  5
489
  8
Layer_2
  10
-89.135742
  20
243.47377
  42
0.0027297715
  0
VERTEX
  5
48a
  8
Layer_2
  10
-87.745117
  20
241.36244
  0
VERTEX
  5
48b
  8
Layer_2
  10
-86.631348
  20
241.36244
  0
VERTEX
  5
48c
  8
Layer_2
  10
-88.621582
  20
244.19447
  0
VERTEX
  5
48d
  8
Layer_2
  10
-86.772461
  20
246.714
  0
VERTEX
  5
48e
  8
Layer_2
  10
-87.855957
  20
246.714
  42
0.011506432
  0
VERTEX
  5
48f
  8
Layer_2
  10
-89.166016
  20
244.85951
  0
VERTEX
  5
490
  8
Layer_2
  10
-89.242188
  20
244.98793
  42
0.0089006005
  0
VERTEX
  5
491
  8
Layer_2
  10
-90.360352
  20
246.714
  0
VERTEX
  5
492
  8
Layer_2
  10
-91.494141
  20
246.714
  0
VERTEX
  5
493
  8
Layer_2
  10
-89.685059
  20
244.14418
  0
VERTEX
  5
494
  8
Layer_2
  10
-91.640137
  20
241.36244
  0
VERTEX
  5
495
  8
Layer_2
  10
-90.541504
  20
241.36244
  0
SEQEND
  0
POLYLINE
  5
497
  8
Layer_2
  62
1
  70
1
  66
1
  10
0
  20
0
  30
0
  0
VERTEX
  5
497
  8
Layer_2
  10
-39.679688
  20
244.55238
  0
VERTEX
  5
498
  8
Layer_2
  10
-39.633301
  20
244.8849
  42
-0.39516105
  0
VERTEX
  5
499
  8
Layer_2
  10
-37.989258
  20
246.08119
  42
-0.34877663
  0
VERTEX
  5
49a
  8
Layer_2
  10
-36.735352
  20
244.86879
  0
VERTEX
  5
49b
  8
Layer_2
  10
-36.691406
  20
244.55238
  0
SEQEND
  0
POLYLINE
  5
49d
  8
Layer_2
  62
1
  70
1
  66
1
  10
0
  20
0
  30
0
  0
VERTEX
  5
49d
  8
Layer_2
  10
-52.187988
  20
241.99525
  42
-0.054351985
  0
VERTEX
  5
49e
  8
Layer_2
  10
-52.499023
  20
242.05922
  42
-0.27992545
  0
VERTEX
  5
49f
  8
Layer_2
  10
-53.535645
  20
243.33998
  42
-0.15763266
  0
VERTEX
  5
4a0
  8
Layer_2
  10
-53.34668
  20
245.28822
  42
-0.36806881
  0
VERTEX
  5
4a1
  8
Layer_2
  10
-51.549805
  20
246.01234
  42
-0.2748064
  0
VERTEX
  5
4a2
  8
Layer_2
  10
-50.512695
  20
244.74525
  42
-0.15557305
  0
VERTEX
  5
4a3
  8
Layer_2
  10
-50.70166
  20
242.79213
  42
-0.31577228
  0
SEQEND
  0
POLYLINE
  5
4a5
  8
Layer_2
  62
1
  70
1
  66
1
  10
0
  20
0
  30
0
  0
VERTEX
  5
4a5
  8
Layer_2
  10
-44.228027
  20
241.99525
  0
VERTEX
  5
4a6
  8
Layer_2
  10
-44.368164
  20
242.01918
  42
-0.27209373
  0
VERTEX
  5
4a7
  8
Layer_2
  10
-45.431152
  20
243.1349
  42
-0.15501839
  0
VERTEX
  5
4a8
  8
Layer_2
  10
-45.311035
  20
245.30775
  42
-0.39209468
  0
VERTEX
  5
4a9
  8
Layer_2
  10
-43.686035
  20
246.01186
  42
-0.2515521
  0
VERTEX
  5
4aa
  8
Layer_2
  10
-42.762695
  20
244.91029
  42
-0.13837848
  0
VERTEX
  5
4ab
  8
Layer_2
  10
-42.819336
  20
242.91029
  42
-0.34930236
  0
SEQEND
  0
POLYLINE
  5
4ad
  8
Layer_0
  62
7
  66
1
  10
0
  20
0
  30
0
  0
VERTEX
  5
4ad
  8
Layer_0
  10
18.900757
  20
121.08109
  0
VERTEX
  5
4ae
  8
Layer_0
  10
12.630371
  20
116.52536
  0
VERTEX
  5
4af
  8
Layer_0
  10
14.922729
  20
113.37021
  42
-0.41408202
  0
VERTEX
  5
4b0
  8
Layer_0
  10
14.900574
  20
113.23053
  0
VERTEX
  5
4b1
  8
Layer_0
  10
8.4284668
  20
108.52823
  42
-0.4140821
  0
VERTEX
  5
4b2
  8
Layer_0
  10
8.2887573
  20
108.55035
  0
VERTEX
  5
4b3
  8
Layer_0
  10
5.9963989
  20
111.70554
  0
VERTEX
  5
4b4
  8
Layer_0
  10
-0.31390381
  20
107.12079
  0
VERTEX
  5
4b5
  8
Layer_0
  10
1.9784546
  20
103.96564
  42
-0.41408202
  0
VERTEX
  5
4b6
  8
Layer_0
  10
1.9562988
  20
103.82596
  0
VERTEX
  5
4b7
  8
Layer_0
  10
-4.5158081
  20
99.123688
  42
-0.41421356
  0
VERTEX
  5
4b8
  8
Layer_0
  10
-4.6555176
  20
99.145782
  0
VERTEX
  5
4b9
  8
Layer_0
  10
-6.947876
  20
102.30096
  0
VERTEX
  5
4ba
  8
Layer_0
  10
-13.258179
  20
97.716248
  0
VERTEX
  5
4bb
  8
Layer_0
  10
-10.96582
  20
94.561066
  42
-0.41434503
  0
VERTEX
  5
4bc
  8
Layer_0
  10
-10.987976
  20
94.421387
  0
VERTEX
  5
4bd
  8
Layer_0
  10
-17.460083
  20
89.719116
  42
-0.41421356
  0
VERTEX
  5
4be
  8
Layer_0
  10
-17.599792
  20
89.741241
  0
VERTEX
  5
4bf
  8
Layer_0
  10
-19.892151
  20
92.896393
  0
VERTEX
  5
4c0
  8
Layer_0
  10
-26.202454
  20
88.311676
  0
VERTEX
  5
4c1
  8
Layer_0
  10
-23.910095
  20
85.156494
  42
-0.41414147
  0
VERTEX
  5
4c2
  8
Layer_0
  10
-23.932251
  20
85.016815
  0
VERTEX
  5
4c3
  8
Layer_0
  10
-30.404358
  20
80.314545
  42
-0.4140821
  0
VERTEX
  5
4c4
  8
Layer_0
  10
-30.544067
  20
80.33667
  0
VERTEX
  5
4c5
  8
Layer_0
  10
-32.836426
  20
83.491852
  0
VERTEX
  5
4c6
  8
Layer_0
  10
-39.146729
  20
78.907104
  0
VERTEX
  5
4c7
  8
Layer_0
  10
-36.85437
  20
75.751953
  42
-0.41405832
  0
VERTEX
  5
4c8
  8
Layer_0
  10
-36.876465
  20
75.612274
  0
VERTEX
  5
4c9
  8
Layer_0
  10
-43.348633
  20
70.909973
  42
-0.41434512
  0
VERTEX
  5
4ca
  8
Layer_0
  10
-43.488281
  20
70.932098
  0
VERTEX
  5
4cb
  8
Layer_0
  10
-45.744202
  20
74.089722
  0
VERTEX
  5
4cc
  8
Layer_0
  10
-52.014648
  20
78.645447
  0
VERTEX
  5
4cd
  8
Layer_0
  10
-54.307007
  20
75.490295
  42
-0.41434512
  0
VERTEX
  5
4ce
  8
Layer_0
  10
-54.446655
  20
75.46817
  0
VERTEX
  5
4cf
  8
Layer_0
  10
-60.918823
  20
80.170441
  42
-0.41421356
  0
VERTEX
  5
4d0
  8
Layer_0
  10
-60.940918
  20
80.31012
  0
VERTEX
  5
4d1
  8
Layer_0
  10
-58.64856
  20
83.465302
  0
VERTEX
  5
4d2
  8
Layer_0
  10
-64.958862
  20
88.050018
  0
VERTEX
  5
4d3
  8
Layer_0
  10
-67.251282
  20
84.894867
  42
-0.4144766
  0
VERTEX
  5
4d4
  8
Layer_0
  10
-67.39093
  20
84.872742
  0
VERTEX
  5
4d5
  8
Layer_0
  10
-73.863098
  20
89.575012
  42
-0.41434503
  0
VERTEX
  5
4d6
  8
Layer_0
  10
-73.885193
  20
89.714691
  0
VERTEX
  5
4d7
  8
Layer_0
  10
-71.592834
  20
92.869873
  0
VERTEX
  5
4d8
  8
Layer_0
  10
-77.903137
  20
97.45459
  0
VERTEX
  5
4d9
  8
Layer_0
  10
-80.195557
  20
94.299408
  42
-0.4144766
  0
VERTEX
  5
4da
  8
Layer_0
  10
-80.335205
  20
94.277313
  0
VERTEX
  5
4db
  8
Layer_0
  10
-86.807373
  20
98.979584
  42
-0.41434503
  0
VERTEX
  5
4dc
  8
Layer_0
  10
-86.829468
  20
99.119263
  0
VERTEX
  5
4dd
  8
Layer_0
  10
-84.537109
  20
102.27441
  0
VERTEX
  5
4de
  8
Layer_0
  10
-90.847412
  20
106.85916
  0
VERTEX
  5
4df
  8
Layer_0
  10
-93.139771
  20
103.70398
  42
-0.4140821
  0
VERTEX
  5
4e0
  8
Layer_0
  10
-93.27948
  20
103.68185
  0
VERTEX
  5
4e1
  8
Layer_0
  10
-99.751587
  20
108.38416
  42
-0.41453593
  0
VERTEX
  5
4e2
  8
Layer_0
  10
-99.773743
  20
108.52383
  0
VERTEX
  5
4e3
  8
Layer_0
  10
-97.481384
  20
111.67899
  0
VERTEX
  5
4e4
  8
Layer_0
  10
-103.79169
  20
116.26373
  0
VERTEX
  5
4e5
  8
Layer_0
  10
-106.08411
  20
113.10855
  42
-0.41434512
  0
VERTEX
  5
4e6
  8
Layer_0
  10
-106.22375
  20
113.08643
  0
VERTEX
  5
4e7
  8
Layer_0
  10
-112.69592
  20
117.78873
  42
-0.41415382
  0
VERTEX
  5
4e8
  8
Layer_0
  10
-112.71802
  20
117.92838
  0
VERTEX
  5
4e9
  8
Layer_0
  10
-110.42169
  20
121.06522
  0
VERTEX
  5
4ea
  8
Layer_0
  10
-108.02661
  20
128.43658
  0
VERTEX
  5
4eb
  8
Layer_0
  10
-111.73572
  20
129.64175
  42
-0.4143681
  0
VERTEX
  5
4ec
  8
Layer_0
  10
-111.79993
  20
129.76776
  0
VERTEX
  5
4ed
  8
Layer_0
  10
-109.32782
  20
137.37622
  42
-0.41405904
  0
VERTEX
  5
4ee
  8
Layer_0
  10
-109.20178
  20
137.44043
  0
VERTEX
  5
4ef
  8
Layer_0
  10
-105.49268
  20
136.23526
  0
VERTEX
  5
4f0
  8
Layer_0
  10
-103.08234
  20
143.6535
  0
VERTEX
  5
4f1
  8
Layer_0
  10
-106.79144
  20
144.85867
  42
-0.41447243
  0
VERTEX
  5
4f2
  8
Layer_0
  10
-106.85565
  20
144.98468
  0
VERTEX
  5
4f3
  8
Layer_0
  10
-104.38354
  20
152.59311
  42
-0.41405904
  0
VERTEX
  5
4f4
  8
Layer_0
  10
-104.25751
  20
152.65732
  0
VERTEX
  5
4f5
  8
Layer_0
  10
-100.5484
  20
151.45215
  0
VERTEX
  5
4f6
  8
Layer_0
  10
-98.138062
  20
158.87039
  0
VERTEX
  5
4f7
  8
Layer_0
  10
-101.84717
  20
160.07556
  42
-0.4143681
  0
VERTEX
  5
4f8
  8
Layer_0
  10
-101.91138
  20
160.20157
  0
VERTEX
  5
4f9
  8
Layer_0
  10
-99.43927
  20
167.81003
  42
-0.41390448
  0
VERTEX
  5
4fa
  8
Layer_0
  10
-99.313232
  20
167.87424
  0
VERTEX
  5
4fb
  8
Layer_0
  10
-95.604126
  20
166.66907
  0
VERTEX
  5
4fc
  8
Layer_0
  10
-93.193787
  20
174.08731
  0
VERTEX
  5
4fd
  8
Layer_0
  10
-96.902893
  20
175.29248
  42
-0.4143681
  0
VERTEX
  5
4fe
  8
Layer_0
  10
-96.967102
  20
175.41849
  0
VERTEX
  5
4ff
  8
Layer_0
  10
-94.494995
  20
183.02692
  42
-0.41405904
  0
VERTEX
  5
500
  8
Layer_0
  10
-94.368958
  20
183.09113
  0
VERTEX
  5
501
  8
Layer_0
  10
-90.659851
  20
181.88596
  0
VERTEX
  5
502
  8
Layer_0
  10
-88.249512
  20
189.3042
  0
VERTEX
  5
503
  8
Layer_0
  10
-91.958618
  20
190.50937
  42
-0.41446847
  0
VERTEX
  5
504
  8
Layer_0
  10
-92.022827
  20
190.63538
  0
VERTEX
  5
505
  8
Layer_0
  10
-89.55072
  20
198.24384
  42
-0.41405904
  0
VERTEX
  5
506
  8
Layer_0
  10
-89.424683
  20
198.30804
  0
VERTEX
  5
507
  8
Layer_0
  10
-85.690308
  20
197.10776
  0
VERTEX
  5
508
  8
Layer_0
  10
-77.939575
  20
197.10776
  0
VERTEX
  5
509
  8
Layer_0
  10
-77.939575
  20
201.00775
  42
-0.41421356
  0
VERTEX
  5
50a
  8
Layer_0
  10
-77.8396
  20
201.10776
  0
VERTEX
  5
50b
  8
Layer_0
  10
-69.8396
  20
201.10776
  42
-0.41421356
  0
VERTEX
  5
50c
  8
Layer_0
  10
-69.739563
  20
201.00775
  0
VERTEX
  5
50d
  8
Layer_0
  10
-69.739563
  20
197.10776
  0
VERTEX
  5
50e
  8
Layer_0
  10
-61.939575
  20
197.10776
  0
VERTEX
  5
50f
  8
Layer_0
  10
-61.939575
  20
201.00775
  42
-0.41421356
  0
VERTEX
  5
510
  8
Layer_0
  10
-61.8396
  20
201.10776
  0
VERTEX
  5
511
  8
Layer_0
  10
-53.8396
  20
201.10776
  42
-0.41421356
  0
VERTEX
  5
512
  8
Layer_0
  10
-53.739563
  20
201.00775
  0
VERTEX
  5
513
  8
Layer_0
  10
-53.739563
  20
197.10776
  0
VERTEX
  5
514
  8
Layer_0
  10
-45.939575
  20
197.10776
  0
VERTEX
  5
515
  8
Layer_0
  10
-45.939575
  20
201.00775
  42
-0.41421356
  0
VERTEX
  5
516
  8
Layer_0
  10
-45.8396
  20
201.10776
  0
VERTEX
  5
517
  8
Layer_0
  10
-37.8396
  20
201.10776
  42
-0.41421356
  0
VERTEX
  5
518
  8
Layer_0
  10
-37.739563
  20
201.00775
  0
VERTEX
  5
519
  8
Layer_0
  10
-37.739563
  20
197.10776
  0
VERTEX
  5
51a
  8
Layer_0
  10
-29.939575
  20
197.10776
  0
VERTEX
  5
51b
  8
Layer_0
  10
-29.939575
  20
201.00775
  42
-0.41421356
  0
VERTEX
  5
51c
  8
Layer_0
  10
-29.8396
  20
201.10776
  0
VERTEX
  5
51d
  8
Layer_0
  10
-21.8396
  20
201.10776
  42
-0.41421356
  0
VERTEX
  5
51e
  8
Layer_0
  10
-21.739563
  20
201.00775
  0
VERTEX
  5
51f
  8
Layer_0
  10
-21.739563
  20
197.10776
  0
VERTEX
  5
520
  8
Layer_0
  10
-13.939575
  20
197.10776
  0
VERTEX
  5
521
  8
Layer_0
  10
-13.939575
  20
201.00775
  42
-0.41421356
  0
VERTEX
  5
522
  8
Layer_0
  10
-13.8396
  20
201.10776
  0
VERTEX
  5
523
  8
Layer_0
  10
-5.8395996
  20
201.10776
  42
-0.41421356
  0
VERTEX
  5
524
  8
Layer_0
  10
-5.739563
  20
201.00775
  0
VERTEX
  5
525
  8
Layer_0
  10
-5.739563
  20
197.10776
  0
VERTEX
  5
526
  8
Layer_0
  10
-3.3485718
  20
189.77499
  0
VERTEX
  5
527
  8
Layer_0
  10
0.36053467
  20
190.98016
  42
-0.41405904
  0
VERTEX
  5
528
  8
Layer_0
  10
0.48657227
  20
190.91599
  0
VERTEX
  5
529
  8
Layer_0
  10
2.9586792
  20
183.30753
  42
-0.4143681
  0
VERTEX
  5
52a
  8
Layer_0
  10
2.8944702
  20
183.18152
  0
VERTEX
  5
52b
  8
Layer_0
  10
-0.81463623
  20
181.97635
  0
VERTEX
  5
52c
  8
Layer_0
  10
1.5957031
  20
174.55811
  0
VERTEX
  5
52d
  8
Layer_0
  10
5.3048096
  20
175.76328
  42
-0.41405904
  0
VERTEX
  5
52e
  8
Layer_0
  10
5.4308472
  20
175.69907
  0
VERTEX
  5
52f
  8
Layer_0
  10
7.9029541
  20
168.09061
  42
-0.41405898
  0
VERTEX
  5
530
  8
Layer_0
  10
7.8387451
  20
167.9646
  0
VERTEX
  5
531
  8
Layer_0
  10
4.1296387
  20
166.75943
  0
VERTEX
  5
532
  8
Layer_0
  10
6.539978
  20
159.34122
  0
VERTEX
  5
533
  8
Layer_0
  10
10.249084
  20
160.54636
  42
-0.41436816
  0
VERTEX
  5
534
  8
Layer_0
  10
10.375061
  20
160.48218
  0
VERTEX
  5
535
  8
Layer_0
  10
12.847229
  20
152.87372
  42
-0.41405898
  0
VERTEX
  5
536
  8
Layer_0
  10
12.78302
  20
152.74771
  0
VERTEX
  5
537
  8
Layer_0
  10
9.0739136
  20
151.54254
  0
VERTEX
  5
538
  8
Layer_0
  10
11.484253
  20
144.1243
  0
VERTEX
  5
539
  8
Layer_0
  10
15.193359
  20
145.32947
  42
-0.41436816
  0
VERTEX
  5
53a
  8
Layer_0
  10
15.319336
  20
145.26526
  0
VERTEX
  5
53b
  8
Layer_0
  10
17.791504
  20
137.6568
  42
-0.41405898
  0
VERTEX
  5
53c
  8
Layer_0
  10
17.727295
  20
137.53079
  0
VERTEX
  5
53d
  8
Layer_0
  10
14.018188
  20
136.32562
  0
VERTEX
  5
53e
  8
Layer_0
  10
16.428528
  20
128.90738
  0
VERTEX
  5
53f
  8
Layer_0
  10
20.137634
  20
130.11255
  42
-0.41436816
  0
VERTEX
  5
540
  8
Layer_0
  10
20.263611
  20
130.04837
  0
VERTEX
  5
541
  8
Layer_0
  10
22.735779
  20
122.43991
  42
-0.41405898
  0
VERTEX
  5
542
  8
Layer_0
  10
22.67157
  20
122.3139
  0
VERTEX
  5
543
  8
Layer_0
  10
18.962463
  20
121.10873
  0
SEQEND
  0
POLYLINE
  5
545
  8
Layer_0
  62
7
  70
1
  66
1
  10
0
  20
0
  30
0
  0
VERTEX
  5
545
  8
Layer_0
  10
-45.619598
  20
84.039246
  0
VERTEX
  5
546
  8
Layer_0
  10
-45.433075
  20
84.060242
  0
VERTEX
  5
547
  8
Layer_0
  10
-45.238739
  20
84.098328
  0
VERTEX
  5
548
  8
Layer_0
  10
-45.049774
  20
84.151062
  0
VERTEX
  5
549
  8
Layer_0
  10
-44.86911
  20
84.21698
  0
VERTEX
  5
54a
  8
Layer_0
  10
-44.687469
  20
84.299988
  0
VERTEX
  5
54b
  8
Layer_0
  10
-44.51413
  20
84.396179
  0
VERTEX
  5
54c
  8
Layer_0
  10
-44.334442
  20
84.515808
  0
VERTEX
  5
54d
  8
Layer_0
  10
-43.402802
  20
85.191589
  0
VERTEX
  5
54e
  8
Layer_0
  10
-35.049774
  20
91.256531
  0
VERTEX
  5
54f
  8
Layer_0
  10
-22.731415
  20
100.20721
  0
VERTEX
  5
550
  8
Layer_0
  10
-5.6816101
  20
112.60028
  0
VERTEX
  5
551
  8
Layer_0
  10
8.6430969
  20
123.01532
  0
VERTEX
  5
552
  8
Layer_0
  10
8.8110657
  20
123.14813
  0
VERTEX
  5
553
  8
Layer_0
  10
8.9551086
  20
123.28192
  0
VERTEX
  5
554
  8
Layer_0
  10
9.089386
  20
123.42889
  0
VERTEX
  5
555
  8
Layer_0
  10
9.2114563
  20
123.58466
  0
VERTEX
  5
556
  8
Layer_0
  10
9.3188782
  20
123.74628
  0
VERTEX
  5
557
  8
Layer_0
  10
9.4116516
  20
123.91278
  0
VERTEX
  5
558
  8
Layer_0
  10
9.4941711
  20
124.09296
  0
VERTEX
  5
559
  8
Layer_0
  10
9.5600891
  20
124.27216
  0
VERTEX
  5
55a
  8
Layer_0
  10
9.6118469
  20
124.45526
  0
VERTEX
  5
55b
  8
Layer_0
  10
9.6513977
  20
124.65106
  0
VERTEX
  5
55c
  8
Layer_0
  10
9.6738586
  20
124.83759
  0
VERTEX
  5
55d
  8
Layer_0
  10
9.6826477
  20
125.0368
  0
VERTEX
  5
55e
  8
Layer_0
  10
9.6758118
  20
125.22968
  0
VERTEX
  5
55f
  8
Layer_0
  10
9.6538391
  20
125.42255
  0
VERTEX
  5
560
  8
Layer_0
  10
9.6152649
  20
125.6203
  0
VERTEX
  5
561
  8
Layer_0
  10
9.5571594
  20
125.82684
  0
VERTEX
  5
562
  8
Layer_0
  10
6.0322571
  20
136.68866
  0
VERTEX
  5
563
  8
Layer_0
  10
1.3403625
  20
151.12811
  0
VERTEX
  5
564
  8
Layer_0
  10
-5.1576843
  20
171.11346
  0
VERTEX
  5
565
  8
Layer_0
  10
-10.613739
  20
187.88446
  0
VERTEX
  5
566
  8
Layer_0
  10
-10.686493
  20
188.08026
  0
VERTEX
  5
567
  8
Layer_0
  10
-10.770966
  20
188.26288
  0
VERTEX
  5
568
  8
Layer_0
  10
-10.868134
  20
188.43475
  0
VERTEX
  5
569
  8
Layer_0
  10
-10.976532
  20
188.59637
  0
VERTEX
  5
56a
  8
Layer_0
  10
-11.098602
  20
188.74921
  0
VERTEX
  5
56b
  8
Layer_0
  10
-11.228973
  20
188.88983
  0
VERTEX
  5
56c
  8
Layer_0
  10
-11.373016
  20
189.02264
  0
VERTEX
  5
56d
  8
Layer_0
  10
-11.524872
  20
189.14227
  0
VERTEX
  5
56e
  8
Layer_0
  10
-11.685028
  20
189.24921
  0
VERTEX
  5
56f
  8
Layer_0
  10
-11.853973
  20
189.34442
  0
VERTEX
  5
570
  8
Layer_0
  10
-12.023407
  20
189.42352
  0
VERTEX
  5
571
  8
Layer_0
  10
-12.215302
  20
189.49481
  0
VERTEX
  5
572
  8
Layer_0
  10
-12.396942
  20
189.54706
  0
VERTEX
  5
573
  8
Layer_0
  10
-12.591766
  20
189.58661
  0
VERTEX
  5
574
  8
Layer_0
  10
-12.793915
  20
189.61102
  0
VERTEX
  5
575
  8
Layer_0
  10
-12.999481
  20
189.61932
  0
VERTEX
  5
576
  8
Layer_0
  10
-24.469696
  20
189.62372
  0
VERTEX
  5
577
  8
Layer_0
  10
-39.685516
  20
189.62323
  0
VERTEX
  5
578
  8
Layer_0
  10
-60.751434
  20
189.61884
  0
VERTEX
  5
579
  8
Layer_0
  10
-78.454071
  20
189.612
  0
VERTEX
  5
57a
  8
Layer_0
  10
-78.659637
  20
189.6037
  0
VERTEX
  5
57b
  8
Layer_0
  10
-78.861786
  20
189.57928
  0
VERTEX
  5
57c
  8
Layer_0
  10
-79.05661
  20
189.53973
  0
VERTEX
  5
57d
  8
Layer_0
  10
-79.239716
  20
189.487
  0
VERTEX
  5
57e
  8
Layer_0
  10
-79.428192
  20
189.41718
  0
VERTEX
  5
57f
  8
Layer_0
  10
-79.598602
  20
189.33759
  0
VERTEX
  5
580
  8
Layer_0
  10
-79.767548
  20
189.24286
  0
VERTEX
  5
581
  8
Layer_0
  10
-79.931122
  20
189.13348
  0
VERTEX
  5
582
  8
Layer_0
  10
-80.080536
  20
189.01581
  0
VERTEX
  5
583
  8
Layer_0
  10
-80.225067
  20
188.88251
  0
VERTEX
  5
584
  8
Layer_0
  10
-80.355438
  20
188.74237
  0
VERTEX
  5
585
  8
Layer_0
  10
-80.477509
  20
188.58954
  0
VERTEX
  5
586
  8
Layer_0
  10
-80.585907
  20
188.42792
  0
VERTEX
  5
587
  8
Layer_0
  10
-80.683563
  20
188.25507
  0
VERTEX
  5
588
  8
Layer_0
  10
-80.768036
  20
188.07343
  0
VERTEX
  5
589
  8
Layer_0
  10
-80.839325
  20
187.88104
  0
VERTEX
  5
58a
  8
Layer_0
  10
-84.383759
  20
176.98602
  0
VERTEX
  5
58b
  8
Layer_0
  10
-89.081512
  20
162.52606
  0
VERTEX
  5
58c
  8
Layer_0
  10
-95.581024
  20
142.508
  0
VERTEX
  5
58d
  8
Layer_0
  10
-101.03757
  20
125.69403
  0
VERTEX
  5
58e
  8
Layer_0
  10
-101.09274
  20
125.49725
  0
VERTEX
  5
58f
  8
Layer_0
  10
-101.13278
  20
125.29462
  0
VERTEX
  5
590
  8
Layer_0
  10
-101.15427
  20
125.1037
  0
VERTEX
  5
591
  8
Layer_0
  10
-101.1611
  20
124.91034
  0
VERTEX
  5
592
  8
Layer_0
  10
-101.1528
  20
124.71552
  0
VERTEX
  5
593
  8
Layer_0
  10
-101.12888
  20
124.51874
  0
VERTEX
  5
594
  8
Layer_0
  10
-101.0903
  20
124.32684
  0
VERTEX
  5
595
  8
Layer_0
  10
-101.04001
  20
124.14862
  0
VERTEX
  5
596
  8
Layer_0
  10
-100.97116
  20
123.9621
  0
VERTEX
  5
597
  8
Layer_0
  10
-100.89108
  20
123.7868
  0
VERTEX
  5
598
  8
Layer_0
  10
-100.79929
  20
123.62128
  0
VERTEX
  5
599
  8
Layer_0
  10
-100.68845
  20
123.45477
  0
VERTEX
  5
59a
  8
Layer_0
  10
-100.56979
  20
123.30194
  0
VERTEX
  5
59b
  8
Layer_0
  10
-100.43503
  20
123.15546
  0
VERTEX
  5
59c
  8
Layer_0
  10
-100.2905
  20
123.02118
  0
VERTEX
  5
59d
  8
Layer_0
  10
-100.12253
  20
122.88837
  0
VERTEX
  5
59e
  8
Layer_0
  10
-90.881317
  20
116.16962
  0
VERTEX
  5
59f
  8
Layer_0
  10
-78.589813
  20
107.23944
  0
VERTEX
  5
5a0
  8
Layer_0
  10
-61.5737
  20
94.882507
  0
VERTEX
  5
5a1
  8
Layer_0
  10
-47.295868
  20
84.517761
  0
VERTEX
  5
5a2
  8
Layer_0
  10
-47.114227
  20
84.396667
  0
VERTEX
  5
5a3
  8
Layer_0
  10
-46.937958
  20
84.298523
  0
VERTEX
  5
5a4
  8
Layer_0
  10
-46.763641
  20
84.218933
  0
VERTEX
  5
5a5
  8
Layer_0
  10
-46.574677
  20
84.150085
  0
VERTEX
  5
5a6
  8
Layer_0
  10
-46.388641
  20
84.098328
  0
VERTEX
  5
5a7
  8
Layer_0
  10
-46.200653
  20
84.061707
  0
VERTEX
  5
5a8
  8
Layer_0
  10
-46.006317
  20
84.038757
  0
VERTEX
  5
5a9
  8
Layer_0
  10
-45.814423
  20
84.031433
  0
SEQEND
  0
POLYLINE
  5
5ab
  8
Layer_2
  62
1
  70
1
  66
1
  10
0
  20
0
  30
0
  0
VERTEX
  5
5ab
  8
Layer_2
  10
-62.403172
  20
210.88496
  0
VERTEX
  5
5ac
  8
Layer_2
  10
-61.360203
  20
210.88496
  0
VERTEX
  5
5ad
  8
Layer_2
  10
-61.360203
  20
211.59053
  0
VERTEX
  5
5ae
  8
Layer_2
  10
-62.403172
  20
211.59053
  42
-0.024108367
  0
VERTEX
  5
5af
  8
Layer_2
  10
-62.392429
  20
212.30684
  42
-0.25740134
  0
VERTEX
  5
5b0
  8
Layer_2
  10
-62.131199
  20
212.82149
  42
-0.15302127
  0
VERTEX
  5
5b1
  8
Layer_2
  10
-61.113132
  20
212.87032
  0
VERTEX
  5
5b2
  8
Layer_2
  10
-60.976902
  20
213.66133
  42
0.10489984
  0
VERTEX
  5
5b3
  8
Layer_2
  10
-62.351902
  20
213.69746
  42
0.33538991
  0
VERTEX
  5
5b4
  8
Layer_2
  10
-63.281101
  20
212.62959
  42
0.027001621
  0
VERTEX
  5
5b5
  8
Layer_2
  10
-63.305027
  20
211.59053
  0
VERTEX
  5
5b6
  8
Layer_2
  10
-64.106293
  20
211.59053
  0
VERTEX
  5
5b7
  8
Layer_2
  10
-64.106293
  20
210.88496
  0
VERTEX
  5
5b8
  8
Layer_2
  10
-63.305027
  20
210.88496
  0
VERTEX
  5
5b9
  8
Layer_2
  10
-63.305027
  20
206.23897
  0
VERTEX
  5
5ba
  8
Layer_2
  10
-62.403172
  20
206.23897
  0
SEQEND
  0
POLYLINE
  5
5bc
  8
Layer_2
  62
1
  70
1
  66
1
  10
0
  20
0
  30
0
  0
VERTEX
  5
5bc
  8
Layer_2
  10
-79.965179
  20
213.65645
  0
VERTEX
  5
5bd
  8
Layer_2
  10
-80.549652
  20
213.65645
  0
VERTEX
  5
5be
  8
Layer_2
  10
-80.688812
  20
213.41524
  42
-0.13050961
  0
VERTEX
  5
5bf
  8
Layer_2
  10
-82.686371
  20
211.80196
  0
VERTEX
  5
5c0
  8
Layer_2
  10
-82.686371
  20
210.92549
  42
0.08782943
  0
VERTEX
  5
5c1
  8
Layer_2
  10
-80.871918
  20
212.01875
  0
VERTEX
  5
5c2
  8
Layer_2
  10
-80.871918
  20
206.23897
  0
VERTEX
  5
5c3
  8
Layer_2
  10
-79.965179
  20
206.23897
  0
SEQEND
  0
POLYLINE
  5
5c5
  8
Layer_2
  62
1
  70
1
  66
1
  10
0
  20
0
  30
0
  0
VERTEX
  5
5c5
  8
Layer_2
  10
-72.835297
  20
207.11104
  0
VERTEX
  5
5c6
  8
Layer_2
  10
-76.458344
  20
207.11104
  42
-0.078071416
  0
VERTEX
  5
5c7
  8
Layer_2
  10
-75.557465
  20
208.07979
  42
-0.0027127874
  0
VERTEX
  5
5c8
  8
Layer_2
  10
-74.79184
  20
208.73311
  0
VERTEX
  5
5c9
  8
Layer_2
  10
-74.573578
  20
208.92305
  42
0.061829192
  0
VERTEX
  5
5ca
  8
Layer_2
  10
-73.268402
  20
210.29414
  42
0.31304716
  0
VERTEX
  5
5cb
  8
Layer_2
  10
-73.194183
  20
212.75459
  42
0.23281296
  0
VERTEX
  5
5cc
  8
Layer_2
  10
-74.889496
  20
213.64717
  42
0.17254364
  0
VERTEX
  5
5cd
  8
Layer_2
  10
-76.663422
  20
213.23799
  42
0.20763077
  0
VERTEX
  5
5ce
  8
Layer_2
  10
-77.514984
  20
211.77315
  0
VERTEX
  5
5cf
  8
Layer_2
  10
-77.546722
  20
211.52022
  0
VERTEX
  5
5d0
  8
Layer_2
  10
-76.614594
  20
211.42403
  0
VERTEX
  5
5d1
  8
Layer_2
  10
-76.587738
  20
211.75313
  42
-0.33761299
  0
VERTEX
  5
5d2
  8
Layer_2
  10
-75.479828
  20
212.88106
  42
-0.17938341
  0
VERTEX
  5
5d3
  8
Layer_2
  10
-74.370453
  20
212.69746
  42
-0.37227029
  0
VERTEX
  5
5d4
  8
Layer_2
  10
-73.883636
  20
211.0959
  42
-0.10504109
  0
VERTEX
  5
5d5
  8
Layer_2
  10
-74.819672
  20
209.85518
  42
-0.0086218341
  0
VERTEX
  5
5d6
  8
Layer_2
  10
-76.513519
  20
208.37325
  0
VERTEX
  5
5d7
  8
Layer_2
  10
-76.786957
  20
208.10274
  42
0.12232796
  0
VERTEX
  5
5d8
  8
Layer_2
  10
-77.662445
  20
206.71602
  42
0.076432301
  0
VERTEX
  5
5d9
  8
Layer_2
  10
-77.718109
  20
206.23897
  0
VERTEX
  5
5da
  8
Layer_2
  10
-72.835297
  20
206.23897
  0
SEQEND
  0
POLYLINE
  5
5dc
  8
Layer_2
  62
1
  70
1
  66
1
  10
0
  20
0
  30
0
  0
VERTEX
  5
5dc
  8
Layer_2
  10
-59.735203
  20
209.04073
  0
VERTEX
  5
5dd
  8
Layer_2
  10
-59.725925
  20
209.32246
  42
-0.082007056
  0
VERTEX
  5
5de
  8
Layer_2
  10
-59.525242
  20
210.24922
  42
-0.38771546
  0
VERTEX
  5
5df
  8
Layer_2
  10
-58.379734
  20
210.7253
  42
-0.060860449
  0
VERTEX
  5
5e0
  8
Layer_2
  10
-58.047215
  20
210.57784
  0
VERTEX
  5
5e1
  8
Layer_2
  10
-57.734715
  20
211.41914
  42
0.17704813
  0
VERTEX
  5
5e2
  8
Layer_2
  10
-58.822605
  20
211.69991
  42
0.20693906
  0
VERTEX
  5
5e3
  8
Layer_2
  10
-59.52573
  20
211.25166
  42
0.037017902
  0
VERTEX
  5
5e4
  8
Layer_2
  10
-59.826023
  20
210.7795
  0
VERTEX
  5
5e5
  8
Layer_2
  10
-59.826023
  20
211.59053
  0
VERTEX
  5
5e6
  8
Layer_2
  10
-60.642429
  20
211.59053
  0
VERTEX
  5
5e7
  8
Layer_2
  10
-60.642429
  20
206.23897
  0
VERTEX
  5
5e8
  8
Layer_2
  10
-59.735203
  20
206.23897
  0
SEQEND
  0
POLYLINE
  5
5ea
  8
Layer_2
  62
1
  70
1
  66
1
  10
0
  20
0
  30
0
  0
VERTEX
  5
5ea
  8
Layer_2
  10
-55.442234
  20
206.1291
  42
0.16519794
  0
VERTEX
  5
5eb
  8
Layer_2
  10
-53.734715
  20
206.89912
  0
VERTEX
  5
5ec
  8
Layer_2
  10
-53.708347
  20
206.71602
  42
0.071273238
  0
VERTEX
  5
5ed
  8
Layer_2
  10
-53.553074
  20
206.23897
  0
VERTEX
  5
5ee
  8
Layer_2
  10
-52.605808
  20
206.23897
  42
-0.1325452
  0
VERTEX
  5
5ef
  8
Layer_2
  10
-52.878757
  20
207.44893
  42
-0.0025799519
  0
VERTEX
  5
5f0
  8
Layer_2
  10
-52.904636
  20
210.20235
  0
VERTEX
  5
5f1
  8
Layer_2
  10
-52.918797
  20
210.38789
  42
0.31602891
  0
VERTEX
  5
5f2
  8
Layer_2
  10
-53.850437
  20
211.55
  42
0.1780052
  0
VERTEX
  5
5f3
  8
Layer_2
  10
-56.425144
  20
211.41817
  42
0.22085495
  0
VERTEX
  5
5f4
  8
Layer_2
  10
-57.307468
  20
210.33467
  0
VERTEX
  5
5f5
  8
Layer_2
  10
-57.377781
  20
210.06367
  0
VERTEX
  5
5f6
  8
Layer_2
  10
-56.491062
  20
209.94258
  0
VERTEX
  5
5f7
  8
Layer_2
  10
-56.408054
  20
210.20576
  42
-0.28135006
  0
VERTEX
  5
5f8
  8
Layer_2
  10
-55.651218
  20
210.9045
  42
-0.16583607
  0
VERTEX
  5
5f9
  8
Layer_2
  10
-54.257175
  20
210.7878
  42
-0.27184749
  0
VERTEX
  5
5fa
  8
Layer_2
  10
-53.82114
  20
210.1291
  42
-0.042691157
  0
VERTEX
  5
5fb
  8
Layer_2
  10
-53.810398
  20
209.63545
  42
-0.051014176
  0
VERTEX
  5
5fc
  8
Layer_2
  10
-55.680515
  20
209.28975
  0
VERTEX
  5
5fd
  8
Layer_2
  10
-55.898777
  20
209.25606
  42
0.20518144
  0
VERTEX
  5
5fe
  8
Layer_2
  10
-57.25864
  20
208.52266
  42
0.376953
  0
VERTEX
  5
5ff
  8
Layer_2
  10
-57.060398
  20
206.54903
  42
0.18890557
  0
VERTEX
  5
600
  8
Layer_2
  10
-55.704929
  20
206.11836
  0
SEQEND
  0
POLYLINE
  5
602
  8
Layer_2
  62
1
  70
1
  66
1
  10
0
  20
0
  30
0
  0
VERTEX
  5
602
  8
Layer_2
  10
-50.540379
  20
209.01582
  0
VERTEX
  5
603
  8
Layer_2
  10
-50.53159
  20
209.35957
  42
-0.11342437
  0
VERTEX
  5
604
  8
Layer_2
  10
-50.30991
  20
210.3166
  42
-0.35973834
  0
VERTEX
  5
605
  8
Layer_2
  10
-48.782078
  20
210.84981
  42
-0.25313717
  0
VERTEX
  5
606
  8
Layer_2
  10
-48.323582
  20
210.24532
  42
-0.060663918
  0
VERTEX
  5
607
  8
Layer_2
  10
-48.267918
  20
209.71602
  0
VERTEX
  5
608
  8
Layer_2
  10
-48.267918
  20
206.23897
  0
VERTEX
  5
609
  8
Layer_2
  10
-47.360691
  20
206.23897
  0
VERTEX
  5
60a
  8
Layer_2
  10
-47.360691
  20
209.34834
  42
-0.16456656
  0
VERTEX
  5
60b
  8
Layer_2
  10
-47.075535
  20
210.44893
  42
-0.36509271
  0
VERTEX
  5
60c
  8
Layer_2
  10
-45.506687
  20
210.7795
  42
-0.25563441
  0
VERTEX
  5
60d
  8
Layer_2
  10
-45.120457
  20
210.07832
  42
-0.027971231
  0
VERTEX
  5
60e
  8
Layer_2
  10
-45.098484
  20
209.61006
  0
VERTEX
  5
60f
  8
Layer_2
  10
-45.098484
  20
206.23897
  0
VERTEX
  5
610
  8
Layer_2
  10
-44.196629
  20
206.23897
  0
VERTEX
  5
611
  8
Layer_2
  10
-44.196629
  20
209.9128
  42
0.16386449
  0
VERTEX
  5
612
  8
Layer_2
  10
-44.524265
  20
211.15303
  42
0.22167106
  0
VERTEX
  5
613
  8
Layer_2
  10
-45.656101
  20
211.70479
  42
0.28878696
  0
VERTEX
  5
614
  8
Layer_2
  10
-47.501804
  20
210.77412
  0
VERTEX
  5
615
  8
Layer_2
  10
-47.59409
  20
210.9836
  42
0.25541798
  0
VERTEX
  5
616
  8
Layer_2
  10
-48.729832
  20
211.696
  42
0.29608429
  0
VERTEX
  5
617
  8
Layer_2
  10
-50.636082
  20
210.83955
  0
VERTEX
  5
618
  8
Layer_2
  10
-50.636082
  20
211.59053
  0
VERTEX
  5
619
  8
Layer_2
  10
-51.447605
  20
211.59053
  0
VERTEX
  5
61a
  8
Layer_2
  10
-51.447605
  20
206.23897
  0
VERTEX
  5
61b
  8
Layer_2
  10
-50.540379
  20
206.23897
  0
SEQEND
  0
POLYLINE
  5
61d
  8
Layer_2
  62
1
  70
1
  66
1
  10
0
  20
0
  30
0
  0
VERTEX
  5
61d
  8
Layer_2
  10
-40.40659
  20
206.1252
  42
0.34500414
  0
VERTEX
  5
61e
  8
Layer_2
  10
-38.28159
  20
207.84639
  0
VERTEX
  5
61f
  8
Layer_2
  10
-39.218601
  20
207.9626
  0
VERTEX
  5
620
  8
Layer_2
  10
-39.330906
  20
207.69453
  42
-0.36115345
  0
VERTEX
  5
621
  8
Layer_2
  10
-40.951023
  20
206.89326
  42
-0.293323
  0
VERTEX
  5
622
  8
Layer_2
  10
-42.153172
  20
208.07979
  42
-0.052693404
  0
VERTEX
  5
623
  8
Layer_2
  10
-42.246922
  20
208.68282
  0
VERTEX
  5
624
  8
Layer_2
  10
-38.256199
  20
208.68282
  42
0.14424237
  0
VERTEX
  5
625
  8
Layer_2
  10
-38.63364
  20
210.57832
  42
0.27586216
  0
VERTEX
  5
626
  8
Layer_2
  10
-40.68491
  20
211.71162
  42
0.36807671
  0
VERTEX
  5
627
  8
Layer_2
  10
-43.086765
  20
209.79707
  42
0.15345691
  0
VERTEX
  5
628
  8
Layer_2
  10
-42.915867
  20
207.46553
  42
0.2822295
  0
VERTEX
  5
629
  8
Layer_2
  10
-40.92075
  20
206.12959
  42
0.034610202
  0
SEQEND
  0
POLYLINE
  5
62b
  8
Layer_2
  62
1
  70
1
  66
1
  10
0
  20
0
  30
0
  0
VERTEX
  5
62b
  8
Layer_2
  10
-69.671722
  20
208.3503
  42
0.0028326934
  0
VERTEX
  5
62c
  8
Layer_2
  10
-68.280609
  20
206.23897
  0
VERTEX
  5
62d
  8
Layer_2
  10
-67.167328
  20
206.23897
  0
VERTEX
  5
62e
  8
Layer_2
  10
-69.157562
  20
209.071
  0
VERTEX
  5
62f
  8
Layer_2
  10
-67.308441
  20
211.59053
  0
VERTEX
  5
630
  8
Layer_2
  10
-68.391449
  20
211.59053
  42
0.011612835
  0
VERTEX
  5
631
  8
Layer_2
  10
-69.701996
  20
209.73604
  0
VERTEX
  5
632
  8
Layer_2
  10
-69.778168
  20
209.86446
  42
0.0092232127
  0
VERTEX
  5
633
  8
Layer_2
  10
-70.895844
  20
211.59053
  0
VERTEX
  5
634
  8
Layer_2
  10
-72.029633
  20
211.59053
  0
VERTEX
  5
635
  8
Layer_2
  10
-70.221039
  20
209.02071
  0
VERTEX
  5
636
  8
Layer_2
  10
-72.176117
  20
206.23897
  0
VERTEX
  5
637
  8
Layer_2
  10
-71.077484
  20
206.23897
  0
SEQEND
  0
POLYLINE
  5
639
  8
Layer_2
  62
1
  70
1
  66
1
  10
0
  20
0
  30
0
  0
VERTEX
  5
639
  8
Layer_2
  10
-42.196629
  20
209.42891
  0
VERTEX
  5
63a
  8
Layer_2
  10
-42.150242
  20
209.76143
  42
-0.39541248
  0
VERTEX
  5
63b
  8
Layer_2
  10
-40.506199
  20
210.95772
  42
-0.34872662
  0
VERTEX
  5
63c
  8
Layer_2
  10
-39.252781
  20
209.74532
  0
VERTEX
  5
63d
  8
Layer_2
  10
-39.208836
  20
209.42891
  0
SEQEND
  0
POLYLINE
  5
63f
  8
Layer_2
  62
1
  70
1
  66
1
  10
0
  20
0
  30
0
  0
VERTEX
  5
63f
  8
Layer_2
  10
-55.736668
  20
206.84395
  42
-0.15536993
  0
VERTEX
  5
640
  8
Layer_2
  10
-56.291843
  20
207.07051
  42
-0.37251679
  0
VERTEX
  5
641
  8
Layer_2
  10
-56.440769
  20
208.10616
  42
-0.21039135
  0
VERTEX
  5
642
  8
Layer_2
  10
-55.768894
  20
208.49678
  42
-0.020115267
  0
VERTEX
  5
643
  8
Layer_2
  10
-54.828953
  20
208.65645
  0
VERTEX
  5
644
  8
Layer_2
  10
-54.427586
  20
208.73848
  42
0.039507334
  0
VERTEX
  5
645
  8
Layer_2
  10
-53.810398
  20
208.925
  42
-0.072170003
  0
VERTEX
  5
646
  8
Layer_2
  10
-53.892429
  20
207.85713
  42
-0.26514727
  0
VERTEX
  5
647
  8
Layer_2
  10
-54.993015
  20
206.88594
  42
-0.088348879
  0
SEQEND
  0
ENDSEC
  0
EOF
