  0
SECTION
  2
HEADER
  9
$ACADVER
  1
AC1009
  0
ENDSEC
  0
SECTION
  2
ENTITIES
  0
POLYLINE
  5
90
  8
Layer_0
  62
0
  70
1
  66
1
  10
0
  20
0
  30
0
  0
VERTEX
  5
90
  8
Layer_0
  10
137
  20
125.5
  0
VERTEX
  5
91
  8
Layer_0
  10
137
  20
145.5
  0
VERTEX
  5
92
  8
Layer_0
  10
116.99999
  20
145.5
  0
VERTEX
  5
93
  8
Layer_0
  10
116.99999
  20
125.5
  0
VERTEX
  5
94
  8
Layer_0
  10
137
  20
125.5
  0
SEQEND
  0
POLYLINE
  5
96
  8
Layer_0
  62
0
  70
1
  66
1
  10
0
  20
0
  30
0
  0
VERTEX
  5
96
  8
Layer_0
  10
161
  20
166.5
  0
VERTEX
  5
97
  8
Layer_0
  10
161
  20
186.5
  0
VERTEX
  5
98
  8
Layer_0
  10
141
  20
186.5
  0
VERTEX
  5
99
  8
Layer_0
  10
141
  20
166.5
  0
VERTEX
  5
9a
  8
Layer_0
  10
161
  20
166.5
  0
SEQEND
  0
POLYLINE
  5
9c
  8
Layer_0
  62
0
  70
1
  66
1
  10
0
  20
0
  30
0
  0
VERTEX
  5
9c
  8
Layer_0
  10
161
  20
146
  0
VERTEX
  5
9d
  8
Layer_0
  10
161
  20
166
  0
VERTEX
  5
9e
  8
Layer_0
  10
141
  20
166
  0
VERTEX
  5
9f
  8
Layer_0
  10
141
  20
146
  0
VERTEX
  5
a0
  8
Layer_0
  10
161
  20
146
  0
SEQEND
  0
POLYLINE
  5
a2
  8
Layer_0
  62
0
  70
1
  66
1
  10
0
  20
0
  30
0
  0
VERTEX
  5
a2
  8
Layer_0
  10
160.99997
  20
125.5
  0
VERTEX
  5
a3
  8
Layer_0
  10
161
  20
145.5
  0
VERTEX
  5
a4
  8
Layer_0
  10
141
  20
145.5
  0
VERTEX
  5
a5
  8
Layer_0
  10
140.99997
  20
125.5
  0
VERTEX
  5
a6
  8
Layer_0
  10
160.99997
  20
125.5
  0
SEQEND
  0
POLYLINE
  5
a8
  8
Layer_0
  62
0
  70
1
  66
1
  10
0
  20
0
  30
0
  0
VERTEX
  5
a8
  8
Layer_0
  10
117.00001
  20
166.5
  0
VERTEX
  5
a9
  8
Layer_0
  10
137
  20
166.5
  0
VERTEX
  5
aa
  8
Layer_0
  10
137
  20
186.5
  0
VERTEX
  5
ab
  8
Layer_0
  10
117.00001
  20
186.5
  0
VERTEX
  5
ac
  8
Layer_0
  10
117.00001
  20
166.5
  0
SEQEND
  0
POLYLINE
  5
ae
  8
Layer_0
  62
0
  70
1
  66
1
  10
0
  20
0
  30
0
  0
VERTEX
  5
ae
  8
Layer_0
  10
117.00001
  20
166
  0
VERTEX
  5
af
  8
Layer_0
  10
116.99999
  20
146
  0
VERTEX
  5
b0
  8
Layer_0
  10
137
  20
146
  0
VERTEX
  5
b1
  8
Layer_0
  10
137
  20
166
  0
VERTEX
  5
b2
  8
Layer_0
  10
117.00001
  20
166
  0
SEQEND
  0
POLYLINE
  5
b4
  8
Layer_0
  62
0
  70
1
  66
1
  10
0
  20
0
  30
0
  0
VERTEX
  5
b4
  8
Layer_0
  10
122.31379
  20
181.5
  0
VERTEX
  5
b5
  8
Layer_0
  10
122.31379
  20
171.5
  0
VERTEX
  5
b6
  8
Layer_0
  10
128.56207
  20
171.5
  0
VERTEX
  5
b7
  8
Layer_0
  10
128.56207
  20
172.68005
  0
VERTEX
  5
b8
  8
Layer_0
  10
123.63711
  20
172.68005
  0
VERTEX
  5
b9
  8
Layer_0
  10
123.63711
  20
181.5
  0
VERTEX
  5
ba
  8
Layer_0
  10
122.31379
  20
181.5
  0
SEQEND
  0
POLYLINE
  5
bc
  8
Layer_0
  62
0
  70
1
  66
1
  10
0
  20
0
  30
0
  0
VERTEX
  5
bc
  8
Layer_0
  10
130.36288
  20
181.5
  0
VERTEX
  5
bd
  8
Layer_0
  10
130.36288
  20
171.5
  0
VERTEX
  5
be
  8
Layer_0
  10
131.68622
  20
171.5
  0
VERTEX
  5
bf
  8
Layer_0
  10
131.68622
  20
181.5
  0
VERTEX
  5
c0
  8
Layer_0
  10
130.36288
  20
181.5
  0
SEQEND
  0
POLYLINE
  5
c2
  8
Layer_0
  62
0
  70
1
  66
1
  10
0
  20
0
  30
0
  0
VERTEX
  5
c2
  8
Layer_0
  10
118.89973
  20
161
  0
VERTEX
  5
c3
  8
Layer_0
  10
118.89971
  20
151
  0
VERTEX
  5
c4
  8
Layer_0
  10
120.16848
  20
151
  0
VERTEX
  5
c5
  8
Layer_0
  10
120.16848
  20
158.85815
  0
VERTEX
  5
c6
  8
Layer_0
  10
125.42086
  20
151
  0
VERTEX
  5
c7
  8
Layer_0
  10
126.7783
  20
151
  0
VERTEX
  5
c8
  8
Layer_0
  10
126.77831
  20
161
  0
VERTEX
  5
c9
  8
Layer_0
  10
125.50956
  20
161
  0
VERTEX
  5
ca
  8
Layer_0
  10
125.50954
  20
153.14868
  0
VERTEX
  5
cb
  8
Layer_0
  10
120.25716
  20
161
  0
VERTEX
  5
cc
  8
Layer_0
  10
118.89973
  20
161
  0
SEQEND
  0
POLYLINE
  5
ce
  8
Layer_0
  62
0
  70
1
  66
1
  10
0
  20
0
  30
0
  0
VERTEX
  5
ce
  8
Layer_0
  10
133.81787
  20
151
  0
VERTEX
  5
cf
  8
Layer_0
  10
135.10025
  20
151
  0
VERTEX
  5
d0
  8
Layer_0
  10
135.06265
  20
151.06958
  0
VERTEX
  5
d1
  8
Layer_0
  10
134.9939
  20
151.21039
  0
VERTEX
  5
d2
  8
Layer_0
  10
134.93362
  20
151.35327
  0
VERTEX
  5
d3
  8
Layer_0
  10
134.88193
  20
151.49817
  0
VERTEX
  5
d4
  8
Layer_0
  10
134.83871
  20
151.64526
  0
VERTEX
  5
d5
  8
Layer_0
  10
134.80405
  20
151.79437
  0
VERTEX
  5
d6
  8
Layer_0
  10
134.77737
  20
151.95404
  0
VERTEX
  5
d7
  8
Layer_0
  10
134.76062
  20
152.11334
  0
VERTEX
  5
d8
  8
Layer_0
  10
134.7421
  20
152.3869
  0
VERTEX
  5
d9
  8
Layer_0
  10
134.72507
  20
152.82715
  0
VERTEX
  5
da
  8
Layer_0
  10
134.71362
  20
153.49969
  0
VERTEX
  5
db
  8
Layer_0
  10
134.71146
  20
155.67255
  0
VERTEX
  5
dc
  8
Layer_0
  10
134.70975
  20
155.9314
  0
VERTEX
  5
dd
  8
Layer_0
  10
134.69611
  20
156.36493
  0
VERTEX
  5
de
  8
Layer_0
  10
134.67691
  20
156.61646
  0
VERTEX
  5
df
  8
Layer_0
  10
134.65509
  20
156.77789
  0
VERTEX
  5
e0
  8
Layer_0
  10
134.63074
  20
156.88782
  0
VERTEX
  5
e1
  8
Layer_0
  10
134.59747
  20
157.00769
  0
VERTEX
  5
e2
  8
Layer_0
  10
134.55911
  20
157.12207
  0
VERTEX
  5
e3
  8
Layer_0
  10
134.51563
  20
157.23108
  0
VERTEX
  5
e4
  8
Layer_0
  10
134.46704
  20
157.33459
  0
VERTEX
  5
e5
  8
Layer_0
  10
134.41333
  20
157.43274
  0
VERTEX
  5
e6
  8
Layer_0
  10
134.35449
  20
157.52539
  0
VERTEX
  5
e7
  8
Layer_0
  10
134.29056
  20
157.61267
  0
VERTEX
  5
e8
  8
Layer_0
  10
134.22046
  20
157.69482
  0
VERTEX
  5
e9
  8
Layer_0
  10
134.16861
  20
157.74768
  0
VERTEX
  5
ea
  8
Layer_0
  10
134.11246
  20
157.79889
  0
VERTEX
  5
eb
  8
Layer_0
  10
134.05206
  20
157.84851
  0
VERTEX
  5
ec
  8
Layer_0
  10
133.9874
  20
157.89667
  0
VERTEX
  5
ed
  8
Layer_0
  10
133.91849
  20
157.94318
  0
VERTEX
  5
ee
  8
Layer_0
  10
133.84531
  20
157.98816
  0
VERTEX
  5
ef
  8
Layer_0
  10
133.76788
  20
158.03162
  0
VERTEX
  5
f0
  8
Layer_0
  10
133.68613
  20
158.07349
  0
VERTEX
  5
f1
  8
Layer_0
  10
133.60016
  20
158.11377
  0
VERTEX
  5
f2
  8
Layer_0
  10
133.50995
  20
158.15247
  0
VERTEX
  5
f3
  8
Layer_0
  10
133.41541
  20
158.18964
  0
VERTEX
  5
f4
  8
Layer_0
  10
133.31638
  20
158.22449
  0
VERTEX
  5
f5
  8
Layer_0
  10
133.21249
  20
158.25635
  0
VERTEX
  5
f6
  8
Layer_0
  10
133.10376
  20
158.28516
  0
VERTEX
  5
f7
  8
Layer_0
  10
132.9902
  20
158.31091
  0
VERTEX
  5
f8
  8
Layer_0
  10
132.87183
  20
158.33362
  0
VERTEX
  5
f9
  8
Layer_0
  10
132.74863
  20
158.35333
  0
VERTEX
  5
fa
  8
Layer_0
  10
132.62057
  20
158.37
  0
VERTEX
  5
fb
  8
Layer_0
  10
132.48773
  20
158.38367
  0
VERTEX
  5
fc
  8
Layer_0
  10
132.35004
  20
158.39429
  0
VERTEX
  5
fd
  8
Layer_0
  10
132.20746
  20
158.40186
  0
VERTEX
  5
fe
  8
Layer_0
  10
132.06012
  20
158.40643
  0
VERTEX
  5
ff
  8
Layer_0
  10
131.9079
  20
158.4079
  0
VERTEX
  5
100
  8
Layer_0
  10
131.75369
  20
158.40613
  0
VERTEX
  5
101
  8
Layer_0
  10
131.60266
  20
158.40082
  0
VERTEX
  5
102
  8
Layer_0
  10
131.45474
  20
158.39197
  0
VERTEX
  5
103
  8
Layer_0
  10
131.30991
  20
158.37952
  0
VERTEX
  5
104
  8
Layer_0
  10
131.16824
  20
158.36353
  0
VERTEX
  5
105
  8
Layer_0
  10
131.02966
  20
158.34399
  0
VERTEX
  5
106
  8
Layer_0
  10
130.89423
  20
158.32086
  0
VERTEX
  5
107
  8
Layer_0
  10
130.76196
  20
158.29425
  0
VERTEX
  5
108
  8
Layer_0
  10
130.63275
  20
158.26404
  0
VERTEX
  5
109
  8
Layer_0
  10
130.50671
  20
158.23029
  0
VERTEX
  5
10a
  8
Layer_0
  10
130.38376
  20
158.19299
  0
VERTEX
  5
10b
  8
Layer_0
  10
130.26398
  20
158.1521
  0
VERTEX
  5
10c
  8
Layer_0
  10
130.14804
  20
158.10797
  0
VERTEX
  5
10d
  8
Layer_0
  10
130.0368
  20
158.06079
  0
VERTEX
  5
10e
  8
Layer_0
  10
129.93015
  20
158.01056
  0
VERTEX
  5
10f
  8
Layer_0
  10
129.82816
  20
157.95734
  0
VERTEX
  5
110
  8
Layer_0
  10
129.73083
  20
157.90106
  0
VERTEX
  5
111
  8
Layer_0
  10
129.63812
  20
157.84174
  0
VERTEX
  5
112
  8
Layer_0
  10
129.55008
  20
157.77942
  0
VERTEX
  5
113
  8
Layer_0
  10
129.46667
  20
157.71405
  0
VERTEX
  5
114
  8
Layer_0
  10
129.38785
  20
157.64563
  0
VERTEX
  5
115
  8
Layer_0
  10
129.31372
  20
157.57422
  0
VERTEX
  5
116
  8
Layer_0
  10
129.24423
  20
157.49976
  0
VERTEX
  5
117
  8
Layer_0
  10
129.17938
  20
157.42224
  0
VERTEX
  5
118
  8
Layer_0
  10
129.11832
  20
157.34119
  0
VERTEX
  5
119
  8
Layer_0
  10
129.06021
  20
157.25598
  0
VERTEX
  5
11a
  8
Layer_0
  10
129.00504
  20
157.16663
  0
VERTEX
  5
11b
  8
Layer_0
  10
128.95279
  20
157.07324
  0
VERTEX
  5
11c
  8
Layer_0
  10
128.90344
  20
156.97565
  0
VERTEX
  5
11d
  8
Layer_0
  10
128.85709
  20
156.87396
  0
VERTEX
  5
11e
  8
Layer_0
  10
128.81366
  20
156.76819
  0
VERTEX
  5
11f
  8
Layer_0
  10
128.77316
  20
156.65826
  0
VERTEX
  5
120
  8
Layer_0
  10
128.7356
  20
156.54419
  0
VERTEX
  5
121
  8
Layer_0
  10
128.70096
  20
156.42603
  0
VERTEX
  5
122
  8
Layer_0
  10
128.66928
  20
156.30377
  0
VERTEX
  5
123
  8
Layer_0
  10
128.6405
  20
156.17737
  0
VERTEX
  5
124
  8
Layer_0
  10
129.84106
  20
156.01367
  0
VERTEX
  5
125
  8
Layer_0
  10
129.87552
  20
156.13885
  0
VERTEX
  5
126
  8
Layer_0
  10
129.91296
  20
156.25757
  0
VERTEX
  5
127
  8
Layer_0
  10
129.9534
  20
156.36987
  0
VERTEX
  5
128
  8
Layer_0
  10
129.9968
  20
156.47559
  0
VERTEX
  5
129
  8
Layer_0
  10
130.04321
  20
156.57483
  0
VERTEX
  5
12a
  8
Layer_0
  10
130.09259
  20
156.6676
  0
VERTEX
  5
12b
  8
Layer_0
  10
130.14496
  20
156.75391
  0
VERTEX
  5
12c
  8
Layer_0
  10
130.20032
  20
156.83374
  0
VERTEX
  5
12d
  8
Layer_0
  10
130.25864
  20
156.90704
  0
VERTEX
  5
12e
  8
Layer_0
  10
130.31995
  20
156.97382
  0
VERTEX
  5
12f
  8
Layer_0
  10
130.38428
  20
157.03418
  0
VERTEX
  5
130
  8
Layer_0
  10
130.45157
  20
157.08801
  0
VERTEX
  5
131
  8
Layer_0
  10
130.5235
  20
157.13647
  0
VERTEX
  5
132
  8
Layer_0
  10
130.60175
  20
157.18079
  0
VERTEX
  5
133
  8
Layer_0
  10
130.68625
  20
157.22083
  0
VERTEX
  5
134
  8
Layer_0
  10
130.7771
  20
157.25659
  0
VERTEX
  5
135
  8
Layer_0
  10
130.87421
  20
157.28821
  0
VERTEX
  5
136
  8
Layer_0
  10
130.97766
  20
157.31567
  0
VERTEX
  5
137
  8
Layer_0
  10
131.0874
  20
157.33887
  0
VERTEX
  5
138
  8
Layer_0
  10
131.20343
  20
157.35785
  0
VERTEX
  5
139
  8
Layer_0
  10
131.32578
  20
157.37256
  0
VERTEX
  5
13a
  8
Layer_0
  10
131.45438
  20
157.38312
  0
VERTEX
  5
13b
  8
Layer_0
  10
131.58932
  20
157.3894
  0
VERTEX
  5
13c
  8
Layer_0
  10
131.73056
  20
157.39154
  0
VERTEX
  5
13d
  8
Layer_0
  10
131.88199
  20
157.38867
  0
VERTEX
  5
13e
  8
Layer_0
  10
132.0271
  20
157.38
  0
VERTEX
  5
13f
  8
Layer_0
  10
132.16583
  20
157.36554
  0
VERTEX
  5
140
  8
Layer_0
  10
132.29825
  20
157.34534
  0
VERTEX
  5
141
  8
Layer_0
  10
132.42429
  20
157.31934
  0
VERTEX
  5
142
  8
Layer_0
  10
132.54401
  20
157.28754
  0
VERTEX
  5
143
  8
Layer_0
  10
132.65735
  20
157.24994
  0
VERTEX
  5
144
  8
Layer_0
  10
132.76437
  20
157.2066
  0
VERTEX
  5
145
  8
Layer_0
  10
132.86502
  20
157.15747
  0
VERTEX
  5
146
  8
Layer_0
  10
132.91299
  20
157.13074
  0
VERTEX
  5
147
  8
Layer_0
  10
132.95932
  20
157.1026
  0
VERTEX
  5
148
  8
Layer_0
  10
133.00412
  20
157.07294
  0
VERTEX
  5
149
  8
Layer_0
  10
133.0473
  20
157.04187
  0
VERTEX
  5
14a
  8
Layer_0
  10
133.08896
  20
157.0094
  0
VERTEX
  5
14b
  8
Layer_0
  10
133.12891
  20
156.97546
  0
VERTEX
  5
14c
  8
Layer_0
  10
133.18448
  20
156.9212
  0
VERTEX
  5
14d
  8
Layer_0
  10
133.23523
  20
156.86078
  0
VERTEX
  5
14e
  8
Layer_0
  10
133.28113
  20
156.79425
  0
VERTEX
  5
14f
  8
Layer_0
  10
133.32217
  20
156.7215
  0
VERTEX
  5
150
  8
Layer_0
  10
133.35843
  20
156.6427
  0
VERTEX
  5
151
  8
Layer_0
  10
133.38983
  20
156.55762
  0
VERTEX
  5
152
  8
Layer_0
  10
133.41641
  20
156.46643
  0
VERTEX
  5
153
  8
Layer_0
  10
133.43817
  20
156.36908
  0
VERTEX
  5
154
  8
Layer_0
  10
133.45505
  20
156.26563
  0
VERTEX
  5
155
  8
Layer_0
  10
133.46713
  20
156.15594
  0
VERTEX
  5
156
  8
Layer_0
  10
133.4744
  20
156.0401
  0
VERTEX
  5
157
  8
Layer_0
  10
133.47681
  20
155.91815
  0
VERTEX
  5
158
  8
Layer_0
  10
133.46997
  20
155.59753
  0
VERTEX
  5
159
  8
Layer_0
  10
133.34741
  20
155.55707
  0
VERTEX
  5
15a
  8
Layer_0
  10
133.21399
  20
155.51758
  0
VERTEX
  5
15b
  8
Layer_0
  10
132.99341
  20
155.46008
  0
VERTEX
  5
15c
  8
Layer_0
  10
132.74829
  20
155.40472
  0
VERTEX
  5
15d
  8
Layer_0
  10
132.47873
  20
155.35156
  0
VERTEX
  5
15e
  8
Layer_0
  10
132.18457
  20
155.30048
  0
VERTEX
  5
15f
  8
Layer_0
  10
131.75421
  20
155.23566
  0
VERTEX
  5
160
  8
Layer_0
  10
131.0473
  20
155.1449
  0
VERTEX
  5
161
  8
Layer_0
  10
130.73608
  20
155.09955
  0
VERTEX
  5
162
  8
Layer_0
  10
130.47092
  20
155.05334
  0
VERTEX
  5
163
  8
Layer_0
  10
130.31967
  20
155.02209
  0
VERTEX
  5
164
  8
Layer_0
  10
130.18893
  20
154.99048
  0
VERTEX
  5
165
  8
Layer_0
  10
130.10779
  20
154.9668
  0
VERTEX
  5
166
  8
Layer_0
  10
129.94955
  20
154.91412
  0
VERTEX
  5
167
  8
Layer_0
  10
129.79684
  20
154.85425
  0
VERTEX
  5
168
  8
Layer_0
  10
129.6496
  20
154.78717
  0
VERTEX
  5
169
  8
Layer_0
  10
129.50787
  20
154.71289
  0
VERTEX
  5
16a
  8
Layer_0
  10
129.37164
  20
154.63147
  0
VERTEX
  5
16b
  8
Layer_0
  10
129.24124
  20
154.54248
  0
VERTEX
  5
16c
  8
Layer_0
  10
129.14868
  20
154.4696
  0
VERTEX
  5
16d
  8
Layer_0
  10
129.06079
  20
154.3913
  0
VERTEX
  5
16e
  8
Layer_0
  10
128.97757
  20
154.30762
  0
VERTEX
  5
16f
  8
Layer_0
  10
128.89905
  20
154.21844
  0
VERTEX
  5
170
  8
Layer_0
  10
128.82526
  20
154.12384
  0
VERTEX
  5
171
  8
Layer_0
  10
128.75607
  20
154.0238
  0
VERTEX
  5
172
  8
Layer_0
  10
128.69171
  20
153.9184
  0
VERTEX
  5
173
  8
Layer_0
  10
128.63254
  20
153.80798
  0
VERTEX
  5
174
  8
Layer_0
  10
128.59723
  20
153.73279
  0
VERTEX
  5
175
  8
Layer_0
  10
128.56528
  20
153.65625
  0
VERTEX
  5
176
  8
Layer_0
  10
128.53668
  20
153.57843
  0
VERTEX
  5
177
  8
Layer_0
  10
128.51144
  20
153.49939
  0
VERTEX
  5
178
  8
Layer_0
  10
128.48959
  20
153.41901
  0
VERTEX
  5
179
  8
Layer_0
  10
128.4711
  20
153.33734
  0
VERTEX
  5
17a
  8
Layer_0
  10
128.45599
  20
153.25446
  0
VERTEX
  5
17b
  8
Layer_0
  10
128.44418
  20
153.17023
  0
VERTEX
  5
17c
  8
Layer_0
  10
128.43579
  20
153.08478
  0
VERTEX
  5
17d
  8
Layer_0
  10
128.43076
  20
152.99799
  0
VERTEX
  5
17e
  8
Layer_0
  10
128.42905
  20
152.90997
  0
VERTEX
  5
17f
  8
Layer_0
  10
128.43018
  20
152.8349
  0
VERTEX
  5
180
  8
Layer_0
  10
128.4335
  20
152.76099
  0
VERTEX
  5
181
  8
Layer_0
  10
128.43909
  20
152.68823
  0
VERTEX
  5
182
  8
Layer_0
  10
128.44687
  20
152.61658
  0
VERTEX
  5
183
  8
Layer_0
  10
128.45688
  20
152.54602
  0
VERTEX
  5
184
  8
Layer_0
  10
128.46912
  20
152.47656
  0
VERTEX
  5
185
  8
Layer_0
  10
128.48361
  20
152.40833
  0
VERTEX
  5
186
  8
Layer_0
  10
128.50031
  20
152.34113
  0
VERTEX
  5
187
  8
Layer_0
  10
128.51923
  20
152.27509
  0
VERTEX
  5
188
  8
Layer_0
  10
128.54037
  20
152.21021
  0
VERTEX
  5
189
  8
Layer_0
  10
128.56375
  20
152.14636
  0
VERTEX
  5
18a
  8
Layer_0
  10
128.58936
  20
152.08374
  0
VERTEX
  5
18b
  8
Layer_0
  10
128.61722
  20
152.02222
  0
VERTEX
  5
18c
  8
Layer_0
  10
128.64725
  20
151.96179
  0
VERTEX
  5
18d
  8
Layer_0
  10
128.67953
  20
151.90247
  0
VERTEX
  5
18e
  8
Layer_0
  10
128.71408
  20
151.84436
  0
VERTEX
  5
18f
  8
Layer_0
  10
128.75076
  20
151.78729
  0
VERTEX
  5
190
  8
Layer_0
  10
128.7897
  20
151.73138
  0
VERTEX
  5
191
  8
Layer_0
  10
128.83093
  20
151.67664
  0
VERTEX
  5
192
  8
Layer_0
  10
128.87433
  20
151.62292
  0
VERTEX
  5
193
  8
Layer_0
  10
128.91995
  20
151.57037
  0
VERTEX
  5
194
  8
Layer_0
  10
128.96783
  20
151.51898
  0
VERTEX
  5
195
  8
Layer_0
  10
129.01797
  20
151.46869
  0
VERTEX
  5
196
  8
Layer_0
  10
129.07025
  20
151.41949
  0
VERTEX
  5
197
  8
Layer_0
  10
129.12463
  20
151.37195
  0
VERTEX
  5
198
  8
Layer_0
  10
129.18094
  20
151.32635
  0
VERTEX
  5
199
  8
Layer_0
  10
129.2392
  20
151.28284
  0
VERTEX
  5
19a
  8
Layer_0
  10
129.29932
  20
151.24133
  0
VERTEX
  5
19b
  8
Layer_0
  10
129.36139
  20
151.20178
  0
VERTEX
  5
19c
  8
Layer_0
  10
129.42538
  20
151.16437
  0
VERTEX
  5
19d
  8
Layer_0
  10
129.49127
  20
151.12891
  0
VERTEX
  5
19e
  8
Layer_0
  10
129.55911
  20
151.09546
  0
VERTEX
  5
19f
  8
Layer_0
  10
129.62885
  20
151.06409
  0
VERTEX
  5
1a0
  8
Layer_0
  10
129.7005
  20
151.03473
  0
VERTEX
  5
1a1
  8
Layer_0
  10
129.77408
  20
151.00739
  0
VERTEX
  5
1a2
  8
Layer_0
  10
129.84958
  20
150.98206
  0
VERTEX
  5
1a3
  8
Layer_0
  10
129.92703
  20
150.9588
  0
VERTEX
  5
1a4
  8
Layer_0
  10
130.00635
  20
150.93756
  0
VERTEX
  5
1a5
  8
Layer_0
  10
130.08759
  20
150.91833
  0
VERTEX
  5
1a6
  8
Layer_0
  10
130.17078
  20
150.90112
  0
VERTEX
  5
1a7
  8
Layer_0
  10
130.25583
  20
150.88593
  0
VERTEX
  5
1a8
  8
Layer_0
  10
130.34286
  20
150.87274
  0
VERTEX
  5
1a9
  8
Layer_0
  10
130.43179
  20
150.86163
  0
VERTEX
  5
1aa
  8
Layer_0
  10
130.52261
  20
150.85248
  0
VERTEX
  5
1ab
  8
Layer_0
  10
130.61539
  20
150.8454
  0
VERTEX
  5
1ac
  8
Layer_0
  10
130.71008
  20
150.84033
  0
VERTEX
  5
1ad
  8
Layer_0
  10
130.90518
  20
150.8363
  0
VERTEX
  5
1ae
  8
Layer_0
  10
131.02505
  20
150.83795
  0
VERTEX
  5
1af
  8
Layer_0
  10
131.14365
  20
150.8429
  0
VERTEX
  5
1b0
  8
Layer_0
  10
131.26096
  20
150.8512
  0
VERTEX
  5
1b1
  8
Layer_0
  10
131.37698
  20
150.86279
  0
VERTEX
  5
1b2
  8
Layer_0
  10
131.49173
  20
150.87775
  0
VERTEX
  5
1b3
  8
Layer_0
  10
131.60522
  20
150.896
  0
VERTEX
  5
1b4
  8
Layer_0
  10
131.71741
  20
150.91754
  0
VERTEX
  5
1b5
  8
Layer_0
  10
131.82834
  20
150.94238
  0
VERTEX
  5
1b6
  8
Layer_0
  10
131.93796
  20
150.97058
  0
VERTEX
  5
1b7
  8
Layer_0
  10
132.0463
  20
151.00208
  0
VERTEX
  5
1b8
  8
Layer_0
  10
132.15338
  20
151.03687
  0
VERTEX
  5
1b9
  8
Layer_0
  10
132.25919
  20
151.07501
  0
VERTEX
  5
1ba
  8
Layer_0
  10
132.36472
  20
151.11719
  0
VERTEX
  5
1bb
  8
Layer_0
  10
132.47095
  20
151.16406
  0
VERTEX
  5
1bc
  8
Layer_0
  10
132.57788
  20
151.2157
  0
VERTEX
  5
1bd
  8
Layer_0
  10
132.68555
  20
151.27209
  0
VERTEX
  5
1be
  8
Layer_0
  10
132.79388
  20
151.33319
  0
VERTEX
  5
1bf
  8
Layer_0
  10
132.90295
  20
151.39905
  0
VERTEX
  5
1c0
  8
Layer_0
  10
133.01276
  20
151.4696
  0
VERTEX
  5
1c1
  8
Layer_0
  10
133.12326
  20
151.54492
  0
VERTEX
  5
1c2
  8
Layer_0
  10
133.23444
  20
151.625
  0
VERTEX
  5
1c3
  8
Layer_0
  10
133.34634
  20
151.70978
  0
VERTEX
  5
1c4
  8
Layer_0
  10
133.45895
  20
151.79932
  0
VERTEX
  5
1c5
  8
Layer_0
  10
133.5723
  20
151.89355
  0
VERTEX
  5
1c6
  8
Layer_0
  10
133.5943
  20
151.72662
  0
VERTEX
  5
1c7
  8
Layer_0
  10
133.62384
  20
151.56689
  0
VERTEX
  5
1c8
  8
Layer_0
  10
133.66098
  20
151.41437
  0
VERTEX
  5
1c9
  8
Layer_0
  10
133.70572
  20
151.26904
  0
VERTEX
  5
1ca
  8
Layer_0
  10
133.758
  20
151.13092
  0
VERTEX
  5
1cb
  8
Layer_0
  10
133.81787
  20
151
  0
SEQEND
  0
POLYLINE
  5
1cd
  8
Layer_0
  62
0
  70
1
  66
1
  10
0
  20
0
  30
0
  0
VERTEX
  5
1cd
  8
Layer_0
  10
133.46997
  20
154.18555
  0
VERTEX
  5
1ce
  8
Layer_0
  10
133.4686
  20
154.05298
  0
VERTEX
  5
1cf
  8
Layer_0
  10
133.46448
  20
153.92596
  0
VERTEX
  5
1d0
  8
Layer_0
  10
133.45761
  20
153.80438
  0
VERTEX
  5
1d1
  8
Layer_0
  10
133.448
  20
153.68835
  0
VERTEX
  5
1d2
  8
Layer_0
  10
133.43564
  20
153.57776
  0
VERTEX
  5
1d3
  8
Layer_0
  10
133.42053
  20
153.47272
  0
VERTEX
  5
1d4
  8
Layer_0
  10
133.40265
  20
153.37311
  0
VERTEX
  5
1d5
  8
Layer_0
  10
133.38208
  20
153.27905
  0
VERTEX
  5
1d6
  8
Layer_0
  10
133.3587
  20
153.19049
  0
VERTEX
  5
1d7
  8
Layer_0
  10
133.33261
  20
153.10736
  0
VERTEX
  5
1d8
  8
Layer_0
  10
133.30377
  20
153.02979
  0
VERTEX
  5
1d9
  8
Layer_0
  10
133.27216
  20
152.9577
  0
VERTEX
  5
1da
  8
Layer_0
  10
133.22693
  20
152.86945
  0
VERTEX
  5
1db
  8
Layer_0
  10
133.17764
  20
152.78442
  0
VERTEX
  5
1dc
  8
Layer_0
  10
133.12424
  20
152.70251
  0
VERTEX
  5
1dd
  8
Layer_0
  10
133.06677
  20
152.62384
  0
VERTEX
  5
1de
  8
Layer_0
  10
133.00522
  20
152.54828
  0
VERTEX
  5
1df
  8
Layer_0
  10
132.93961
  20
152.47595
  0
VERTEX
  5
1e0
  8
Layer_0
  10
132.86993
  20
152.40674
  0
VERTEX
  5
1e1
  8
Layer_0
  10
132.7962
  20
152.34076
  0
VERTEX
  5
1e2
  8
Layer_0
  10
132.71835
  20
152.27795
  0
VERTEX
  5
1e3
  8
Layer_0
  10
132.63644
  20
152.21826
  0
VERTEX
  5
1e4
  8
Layer_0
  10
132.55048
  20
152.16174
  0
VERTEX
  5
1e5
  8
Layer_0
  10
132.46042
  20
152.10846
  0
VERTEX
  5
1e6
  8
Layer_0
  10
132.36725
  20
152.0589
  0
VERTEX
  5
1e7
  8
Layer_0
  10
132.27191
  20
152.01367
  0
VERTEX
  5
1e8
  8
Layer_0
  10
132.17438
  20
151.97266
  0
VERTEX
  5
1e9
  8
Layer_0
  10
132.07465
  20
151.93604
  0
VERTEX
  5
1ea
  8
Layer_0
  10
131.97275
  20
151.90369
  0
VERTEX
  5
1eb
  8
Layer_0
  10
131.86868
  20
151.87567
  0
VERTEX
  5
1ec
  8
Layer_0
  10
131.76242
  20
151.85199
  0
VERTEX
  5
1ed
  8
Layer_0
  10
131.65402
  20
151.83258
  0
VERTEX
  5
1ee
  8
Layer_0
  10
131.5434
  20
151.8175
  0
VERTEX
  5
1ef
  8
Layer_0
  10
131.4306
  20
151.8067
  0
VERTEX
  5
1f0
  8
Layer_0
  10
131.31564
  20
151.80023
  0
VERTEX
  5
1f1
  8
Layer_0
  10
131.19849
  20
151.7981
  0
VERTEX
  5
1f2
  8
Layer_0
  10
131.1394
  20
151.79865
  0
VERTEX
  5
1f3
  8
Layer_0
  10
131.02481
  20
151.80322
  0
VERTEX
  5
1f4
  8
Layer_0
  10
130.91501
  20
151.81232
  0
VERTEX
  5
1f5
  8
Layer_0
  10
130.81
  20
151.82593
  0
VERTEX
  5
1f6
  8
Layer_0
  10
130.70978
  20
151.84412
  0
VERTEX
  5
1f7
  8
Layer_0
  10
130.61432
  20
151.86688
  0
VERTEX
  5
1f8
  8
Layer_0
  10
130.52368
  20
151.89417
  0
VERTEX
  5
1f9
  8
Layer_0
  10
130.43774
  20
151.92603
  0
VERTEX
  5
1fa
  8
Layer_0
  10
130.35666
  20
151.9624
  0
VERTEX
  5
1fb
  8
Layer_0
  10
130.2804
  20
152.0033
  0
VERTEX
  5
1fc
  8
Layer_0
  10
130.20883
  20
152.04877
  0
VERTEX
  5
1fd
  8
Layer_0
  10
130.14212
  20
152.09882
  0
VERTEX
  5
1fe
  8
Layer_0
  10
130.08017
  20
152.15308
  0
VERTEX
  5
1ff
  8
Layer_0
  10
130.02338
  20
152.20996
  0
VERTEX
  5
200
  8
Layer_0
  10
129.97174
  20
152.26904
  0
VERTEX
  5
201
  8
Layer_0
  10
129.92526
  20
152.33044
  0
VERTEX
  5
202
  8
Layer_0
  10
129.88394
  20
152.3941
  0
VERTEX
  5
203
  8
Layer_0
  10
129.84781
  20
152.46002
  0
VERTEX
  5
204
  8
Layer_0
  10
129.81689
  20
152.52826
  0
VERTEX
  5
205
  8
Layer_0
  10
129.79102
  20
152.59875
  0
VERTEX
  5
206
  8
Layer_0
  10
129.77036
  20
152.67151
  0
VERTEX
  5
207
  8
Layer_0
  10
129.75491
  20
152.74658
  0
VERTEX
  5
208
  8
Layer_0
  10
129.74454
  20
152.82385
  0
VERTEX
  5
209
  8
Layer_0
  10
129.73941
  20
152.90344
  0
VERTEX
  5
20a
  8
Layer_0
  10
129.7399
  20
152.99707
  0
VERTEX
  5
20b
  8
Layer_0
  10
129.74939
  20
153.10071
  0
VERTEX
  5
20c
  8
Layer_0
  10
129.76834
  20
153.20117
  0
VERTEX
  5
20d
  8
Layer_0
  10
129.79678
  20
153.29834
  0
VERTEX
  5
20e
  8
Layer_0
  10
129.83466
  20
153.39233
  0
VERTEX
  5
20f
  8
Layer_0
  10
129.88202
  20
153.48315
  0
VERTEX
  5
210
  8
Layer_0
  10
129.93866
  20
153.57019
  0
VERTEX
  5
211
  8
Layer_0
  10
130.00348
  20
153.6507
  0
VERTEX
  5
212
  8
Layer_0
  10
130.07626
  20
153.72424
  0
VERTEX
  5
213
  8
Layer_0
  10
130.15698
  20
153.79077
  0
VERTEX
  5
214
  8
Layer_0
  10
130.24564
  20
153.85022
  0
VERTEX
  5
215
  8
Layer_0
  10
130.34229
  20
153.90271
  0
VERTEX
  5
216
  8
Layer_0
  10
130.44894
  20
153.94885
  0
VERTEX
  5
217
  8
Layer_0
  10
130.5105
  20
153.97107
  0
VERTEX
  5
218
  8
Layer_0
  10
130.57819
  20
153.9928
  0
VERTEX
  5
219
  8
Layer_0
  10
130.65204
  20
154.01428
  0
VERTEX
  5
21a
  8
Layer_0
  10
130.81821
  20
154.05591
  0
VERTEX
  5
21b
  8
Layer_0
  10
131.00903
  20
154.09613
  0
VERTEX
  5
21c
  8
Layer_0
  10
131.22446
  20
154.13477
  0
VERTEX
  5
21d
  8
Layer_0
  10
131.57477
  20
154.18793
  0
VERTEX
  5
21e
  8
Layer_0
  10
131.99258
  20
154.255
  0
VERTEX
  5
21f
  8
Layer_0
  10
132.28156
  20
154.30835
  0
VERTEX
  5
220
  8
Layer_0
  10
132.54965
  20
154.36414
  0
VERTEX
  5
221
  8
Layer_0
  10
132.79684
  20
154.42255
  0
VERTEX
  5
222
  8
Layer_0
  10
133.02316
  20
154.48352
  0
VERTEX
  5
223
  8
Layer_0
  10
133.22858
  20
154.54706
  0
VERTEX
  5
224
  8
Layer_0
  10
133.35394
  20
154.59082
  0
VERTEX
  5
225
  8
Layer_0
  10
133.46997
  20
154.63574
  0
VERTEX
  5
226
  8
Layer_0
  10
133.46997
  20
154.18555
  0
SEQEND
  0
POLYLINE
  5
228
  8
Layer_0
  62
0
  70
1
  66
1
  10
0
  20
0
  30
0
  0
VERTEX
  5
228
  8
Layer_0
  10
122.86629
  20
140.5
  0
VERTEX
  5
229
  8
Layer_0
  10
122.86629
  20
130.5
  0
VERTEX
  5
22a
  8
Layer_0
  10
124.18963
  20
130.5
  0
VERTEX
  5
22b
  8
Layer_0
  10
124.18963
  20
133.96521
  0
VERTEX
  5
22c
  8
Layer_0
  10
125.82673
  20
135.5614
  0
VERTEX
  5
22d
  8
Layer_0
  10
129.38745
  20
130.5
  0
VERTEX
  5
22e
  8
Layer_0
  10
131.1337
  20
130.5
  0
VERTEX
  5
22f
  8
Layer_0
  10
126.75443
  20
136.44812
  0
VERTEX
  5
230
  8
Layer_0
  10
130.94952
  20
140.5
  0
VERTEX
  5
231
  8
Layer_0
  10
129.15552
  20
140.5
  0
VERTEX
  5
232
  8
Layer_0
  10
124.18963
  20
135.54089
  0
VERTEX
  5
233
  8
Layer_0
  10
124.18963
  20
140.5
  0
VERTEX
  5
234
  8
Layer_0
  10
122.86629
  20
140.5
  0
SEQEND
  0
POLYLINE
  5
236
  8
Layer_0
  62
0
  70
1
  66
1
  10
0
  20
0
  30
0
  0
VERTEX
  5
236
  8
Layer_0
  10
151.71965
  20
171.5
  0
VERTEX
  5
237
  8
Layer_0
  10
150.05524
  20
171.5
  0
VERTEX
  5
238
  8
Layer_0
  10
148.7319
  20
173.58044
  0
VERTEX
  5
239
  8
Layer_0
  10
148.54434
  20
173.8689
  0
VERTEX
  5
23a
  8
Layer_0
  10
148.36816
  20
174.13379
  0
VERTEX
  5
23b
  8
Layer_0
  10
148.20328
  20
174.37512
  0
VERTEX
  5
23c
  8
Layer_0
  10
148.01321
  20
174.64386
  0
VERTEX
  5
23d
  8
Layer_0
  10
147.77695
  20
174.95837
  0
VERTEX
  5
23e
  8
Layer_0
  10
147.62408
  20
175.1449
  0
VERTEX
  5
23f
  8
Layer_0
  10
147.47794
  20
175.30652
  0
VERTEX
  5
240
  8
Layer_0
  10
147.36594
  20
175.41797
  0
VERTEX
  5
241
  8
Layer_0
  10
147.2583
  20
175.51343
  0
VERTEX
  5
242
  8
Layer_0
  10
147.15506
  20
175.59302
  0
VERTEX
  5
243
  8
Layer_0
  10
147.05551
  20
175.6579
  0
VERTEX
  5
244
  8
Layer_0
  10
146.90613
  20
175.74133
  0
VERTEX
  5
245
  8
Layer_0
  10
146.75537
  20
175.81024
  0
VERTEX
  5
246
  8
Layer_0
  10
146.60339
  20
175.86469
  0
VERTEX
  5
247
  8
Layer_0
  10
146.48215
  20
175.89685
  0
VERTEX
  5
248
  8
Layer_0
  10
146.31949
  20
175.91943
  0
VERTEX
  5
249
  8
Layer_0
  10
146.03873
  20
175.93658
  0
VERTEX
  5
24a
  8
Layer_0
  10
144.22987
  20
175.94067
  0
VERTEX
  5
24b
  8
Layer_0
  10
144.22986
  20
171.5
  0
VERTEX
  5
24c
  8
Layer_0
  10
142.90656
  20
171.5
  0
VERTEX
  5
24d
  8
Layer_0
  10
142.90657
  20
181.5
  0
VERTEX
  5
24e
  8
Layer_0
  10
147.45071
  20
181.49951
  0
VERTEX
  5
24f
  8
Layer_0
  10
147.76822
  20
181.49249
  0
VERTEX
  5
250
  8
Layer_0
  10
147.96878
  20
181.48315
  0
VERTEX
  5
251
  8
Layer_0
  10
148.16049
  20
181.47009
  0
VERTEX
  5
252
  8
Layer_0
  10
148.3432
  20
181.45325
  0
VERTEX
  5
253
  8
Layer_0
  10
148.51704
  20
181.43262
  0
VERTEX
  5
254
  8
Layer_0
  10
148.68201
  20
181.40833
  0
VERTEX
  5
255
  8
Layer_0
  10
148.83804
  20
181.38025
  0
VERTEX
  5
256
  8
Layer_0
  10
148.98517
  20
181.34845
  0
VERTEX
  5
257
  8
Layer_0
  10
149.12341
  20
181.31287
  0
VERTEX
  5
258
  8
Layer_0
  10
149.25272
  20
181.27356
  0
VERTEX
  5
259
  8
Layer_0
  10
149.37314
  20
181.23059
  0
VERTEX
  5
25a
  8
Layer_0
  10
149.48715
  20
181.1828
  0
VERTEX
  5
25b
  8
Layer_0
  10
149.59729
  20
181.12927
  0
VERTEX
  5
25c
  8
Layer_0
  10
149.70355
  20
181.07007
  0
VERTEX
  5
25d
  8
Layer_0
  10
149.80592
  20
181.00513
  0
VERTEX
  5
25e
  8
Layer_0
  10
149.90439
  20
180.93433
  0
VERTEX
  5
25f
  8
Layer_0
  10
149.99899
  20
180.85791
  0
VERTEX
  5
260
  8
Layer_0
  10
150.08969
  20
180.77576
  0
VERTEX
  5
261
  8
Layer_0
  10
150.17654
  20
180.68787
  0
VERTEX
  5
262
  8
Layer_0
  10
150.25946
  20
180.59424
  0
VERTEX
  5
263
  8
Layer_0
  10
150.33853
  20
180.49487
  0
VERTEX
  5
264
  8
Layer_0
  10
150.4137
  20
180.38977
  0
VERTEX
  5
265
  8
Layer_0
  10
150.48502
  20
180.27899
  0
VERTEX
  5
266
  8
Layer_0
  10
150.55148
  20
180.16431
  0
VERTEX
  5
267
  8
Layer_0
  10
150.61215
  20
180.04761
  0
VERTEX
  5
268
  8
Layer_0
  10
150.66705
  20
179.92896
  0
VERTEX
  5
269
  8
Layer_0
  10
150.71619
  20
179.80835
  0
VERTEX
  5
26a
  8
Layer_0
  10
150.75952
  20
179.68567
  0
VERTEX
  5
26b
  8
Layer_0
  10
150.79706
  20
179.56104
  0
VERTEX
  5
26c
  8
Layer_0
  10
150.82886
  20
179.43445
  0
VERTEX
  5
26d
  8
Layer_0
  10
150.85486
  20
179.30579
  0
VERTEX
  5
26e
  8
Layer_0
  10
150.87509
  20
179.17517
  0
VERTEX
  5
26f
  8
Layer_0
  10
150.88956
  20
179.0426
  0
VERTEX
  5
270
  8
Layer_0
  10
150.89822
  20
178.90808
  0
VERTEX
  5
271
  8
Layer_0
  10
150.90109
  20
178.77148
  0
VERTEX
  5
272
  8
Layer_0
  10
150.89993
  20
178.68341
  0
VERTEX
  5
273
  8
Layer_0
  10
150.89633
  20
178.59644
  0
VERTEX
  5
274
  8
Layer_0
  10
150.89032
  20
178.51068
  0
VERTEX
  5
275
  8
Layer_0
  10
150.88196
  20
178.42603
  0
VERTEX
  5
276
  8
Layer_0
  10
150.87122
  20
178.34265
  0
VERTEX
  5
277
  8
Layer_0
  10
150.85803
  20
178.26031
  0
VERTEX
  5
278
  8
Layer_0
  10
150.8425
  20
178.1792
  0
VERTEX
  5
279
  8
Layer_0
  10
150.82458
  20
178.09924
  0
VERTEX
  5
27a
  8
Layer_0
  10
150.80421
  20
178.02039
  0
VERTEX
  5
27b
  8
Layer_0
  10
150.78149
  20
177.94275
  0
VERTEX
  5
27c
  8
Layer_0
  10
150.75641
  20
177.86627
  0
VERTEX
  5
27d
  8
Layer_0
  10
150.72885
  20
177.79089
  0
VERTEX
  5
27e
  8
Layer_0
  10
150.69894
  20
177.7168
  0
VERTEX
  5
27f
  8
Layer_0
  10
150.66666
  20
177.64374
  0
VERTEX
  5
280
  8
Layer_0
  10
150.63199
  20
177.5719
  0
VERTEX
  5
281
  8
Layer_0
  10
150.59488
  20
177.50122
  0
VERTEX
  5
282
  8
Layer_0
  10
150.55542
  20
177.43164
  0
VERTEX
  5
283
  8
Layer_0
  10
150.51355
  20
177.36328
  0
VERTEX
  5
284
  8
Layer_0
  10
150.4693
  20
177.29614
  0
VERTEX
  5
285
  8
Layer_0
  10
150.42267
  20
177.2301
  0
VERTEX
  5
286
  8
Layer_0
  10
150.37363
  20
177.16516
  0
VERTEX
  5
287
  8
Layer_0
  10
150.32217
  20
177.10144
  0
VERTEX
  5
288
  8
Layer_0
  10
150.26837
  20
177.03888
  0
VERTEX
  5
289
  8
Layer_0
  10
150.21216
  20
176.97748
  0
VERTEX
  5
28a
  8
Layer_0
  10
150.15347
  20
176.9176
  0
VERTEX
  5
28b
  8
Layer_0
  10
150.09213
  20
176.8595
  0
VERTEX
  5
28c
  8
Layer_0
  10
150.02817
  20
176.80334
  0
VERTEX
  5
28d
  8
Layer_0
  10
149.96167
  20
176.74896
  0
VERTEX
  5
28e
  8
Layer_0
  10
149.89255
  20
176.69647
  0
VERTEX
  5
28f
  8
Layer_0
  10
149.82077
  20
176.64581
  0
VERTEX
  5
290
  8
Layer_0
  10
149.74641
  20
176.59698
  0
VERTEX
  5
291
  8
Layer_0
  10
149.66953
  20
176.55005
  0
VERTEX
  5
292
  8
Layer_0
  10
149.58994
  20
176.50488
  0
VERTEX
  5
293
  8
Layer_0
  10
149.50775
  20
176.46161
  0
VERTEX
  5
294
  8
Layer_0
  10
149.42305
  20
176.42023
  0
VERTEX
  5
295
  8
Layer_0
  10
149.33563
  20
176.38062
  0
VERTEX
  5
296
  8
Layer_0
  10
149.24564
  20
176.3429
  0
VERTEX
  5
297
  8
Layer_0
  10
149.15306
  20
176.30701
  0
VERTEX
  5
298
  8
Layer_0
  10
149.05786
  20
176.27295
  0
VERTEX
  5
299
  8
Layer_0
  10
148.96008
  20
176.24078
  0
VERTEX
  5
29a
  8
Layer_0
  10
148.85968
  20
176.21045
  0
VERTEX
  5
29b
  8
Layer_0
  10
148.75665
  20
176.18195
  0
VERTEX
  5
29c
  8
Layer_0
  10
148.65103
  20
176.15527
  0
VERTEX
  5
29d
  8
Layer_0
  10
148.54285
  20
176.13049
  0
VERTEX
  5
29e
  8
Layer_0
  10
148.43201
  20
176.10754
  0
VERTEX
  5
29f
  8
Layer_0
  10
148.31857
  20
176.08643
  0
VERTEX
  5
2a0
  8
Layer_0
  10
148.20256
  20
176.0672
  0
VERTEX
  5
2a1
  8
Layer_0
  10
148.08392
  20
176.0498
  0
VERTEX
  5
2a2
  8
Layer_0
  10
148.25198
  20
175.96582
  0
VERTEX
  5
2a3
  8
Layer_0
  10
148.44235
  20
175.86145
  0
VERTEX
  5
2a4
  8
Layer_0
  10
148.61079
  20
175.75769
  0
VERTEX
  5
2a5
  8
Layer_0
  10
148.75737
  20
175.65442
  0
VERTEX
  5
2a6
  8
Layer_0
  10
148.85883
  20
175.57233
  0
VERTEX
  5
2a7
  8
Layer_0
  10
148.97821
  20
175.4613
  0
VERTEX
  5
2a8
  8
Layer_0
  10
149.07355
  20
175.36707
  0
VERTEX
  5
2a9
  8
Layer_0
  10
149.16806
  20
175.26917
  0
VERTEX
  5
2aa
  8
Layer_0
  10
149.26175
  20
175.1676
  0
VERTEX
  5
2ab
  8
Layer_0
  10
149.35452
  20
175.06226
  0
VERTEX
  5
2ac
  8
Layer_0
  10
149.44647
  20
174.95325
  0
VERTEX
  5
2ad
  8
Layer_0
  10
149.53757
  20
174.84058
  0
VERTEX
  5
2ae
  8
Layer_0
  10
149.62781
  20
174.72418
  0
VERTEX
  5
2af
  8
Layer_0
  10
149.71719
  20
174.60413
  0
VERTEX
  5
2b0
  8
Layer_0
  10
149.80574
  20
174.48035
  0
VERTEX
  5
2b1
  8
Layer_0
  10
149.8934
  20
174.35284
  0
VERTEX
  5
2b2
  8
Layer_0
  10
149.98024
  20
174.22168
  0
VERTEX
  5
2b3
  8
Layer_0
  10
151.71965
  20
171.5
  0
SEQEND
  0
POLYLINE
  5
2b5
  8
Layer_0
  62
0
  70
1
  66
1
  10
0
  20
0
  30
0
  0
VERTEX
  5
2b5
  8
Layer_0
  10
144.22987
  20
180.39496
  0
VERTEX
  5
2b6
  8
Layer_0
  10
147.48657
  20
180.39417
  0
VERTEX
  5
2b7
  8
Layer_0
  10
147.6636
  20
180.38782
  0
VERTEX
  5
2b8
  8
Layer_0
  10
147.83234
  20
180.37512
  0
VERTEX
  5
2b9
  8
Layer_0
  10
147.99277
  20
180.35608
  0
VERTEX
  5
2ba
  8
Layer_0
  10
148.14493
  20
180.33069
  0
VERTEX
  5
2bb
  8
Layer_0
  10
148.28879
  20
180.29895
  0
VERTEX
  5
2bc
  8
Layer_0
  10
148.35762
  20
180.2807
  0
VERTEX
  5
2bd
  8
Layer_0
  10
148.42441
  20
180.26086
  0
VERTEX
  5
2be
  8
Layer_0
  10
148.48904
  20
180.23944
  0
VERTEX
  5
2bf
  8
Layer_0
  10
148.55164
  20
180.21643
  0
VERTEX
  5
2c0
  8
Layer_0
  10
148.61224
  20
180.19183
  0
VERTEX
  5
2c1
  8
Layer_0
  10
148.67065
  20
180.16565
  0
VERTEX
  5
2c2
  8
Layer_0
  10
148.72702
  20
180.13788
  0
VERTEX
  5
2c3
  8
Layer_0
  10
148.78137
  20
180.10852
  0
VERTEX
  5
2c4
  8
Layer_0
  10
148.83359
  20
180.07758
  0
VERTEX
  5
2c5
  8
Layer_0
  10
148.88376
  20
180.04504
  0
VERTEX
  5
2c6
  8
Layer_0
  10
148.93188
  20
180.01093
  0
VERTEX
  5
2c7
  8
Layer_0
  10
148.97794
  20
179.97522
  0
VERTEX
  5
2c8
  8
Layer_0
  10
149.02185
  20
179.93793
  0
VERTEX
  5
2c9
  8
Layer_0
  10
149.10411
  20
179.85999
  0
VERTEX
  5
2ca
  8
Layer_0
  10
149.17921
  20
179.77856
  0
VERTEX
  5
2cb
  8
Layer_0
  10
149.24716
  20
179.6936
  0
VERTEX
  5
2cc
  8
Layer_0
  10
149.30795
  20
179.60522
  0
VERTEX
  5
2cd
  8
Layer_0
  10
149.3616
  20
179.51324
  0
VERTEX
  5
2ce
  8
Layer_0
  10
149.38574
  20
179.46594
  0
VERTEX
  5
2cf
  8
Layer_0
  10
149.42871
  20
179.36877
  0
VERTEX
  5
2d0
  8
Layer_0
  10
149.44742
  20
179.31885
  0
VERTEX
  5
2d1
  8
Layer_0
  10
149.47964
  20
179.21643
  0
VERTEX
  5
2d2
  8
Layer_0
  10
149.50464
  20
179.11041
  0
VERTEX
  5
2d3
  8
Layer_0
  10
149.52252
  20
179.00098
  0
VERTEX
  5
2d4
  8
Layer_0
  10
149.53326
  20
178.88794
  0
VERTEX
  5
2d5
  8
Layer_0
  10
149.53685
  20
178.77148
  0
VERTEX
  5
2d6
  8
Layer_0
  10
149.53268
  20
178.65149
  0
VERTEX
  5
2d7
  8
Layer_0
  10
149.5202
  20
178.53381
  0
VERTEX
  5
2d8
  8
Layer_0
  10
149.49942
  20
178.41833
  0
VERTEX
  5
2d9
  8
Layer_0
  10
149.47034
  20
178.30505
  0
VERTEX
  5
2da
  8
Layer_0
  10
149.43292
  20
178.19409
  0
VERTEX
  5
2db
  8
Layer_0
  10
149.38721
  20
178.08533
  0
VERTEX
  5
2dc
  8
Layer_0
  10
149.33316
  20
177.97876
  0
VERTEX
  5
2dd
  8
Layer_0
  10
149.27081
  20
177.87451
  0
VERTEX
  5
2de
  8
Layer_0
  10
149.22476
  20
177.80725
  0
VERTEX
  5
2df
  8
Layer_0
  10
149.17532
  20
177.74316
  0
VERTEX
  5
2e0
  8
Layer_0
  10
149.12244
  20
177.68219
  0
VERTEX
  5
2e1
  8
Layer_0
  10
149.06616
  20
177.62439
  0
VERTEX
  5
2e2
  8
Layer_0
  10
149.00647
  20
177.56964
  0
VERTEX
  5
2e3
  8
Layer_0
  10
148.94339
  20
177.51807
  0
VERTEX
  5
2e4
  8
Layer_0
  10
148.87686
  20
177.4696
  0
VERTEX
  5
2e5
  8
Layer_0
  10
148.80701
  20
177.42432
  0
VERTEX
  5
2e6
  8
Layer_0
  10
148.73364
  20
177.38208
  0
VERTEX
  5
2e7
  8
Layer_0
  10
148.65689
  20
177.34302
  0
VERTEX
  5
2e8
  8
Layer_0
  10
148.57675
  20
177.30701
  0
VERTEX
  5
2e9
  8
Layer_0
  10
148.49319
  20
177.27417
  0
VERTEX
  5
2ea
  8
Layer_0
  10
148.40518
  20
177.24426
  0
VERTEX
  5
2eb
  8
Layer_0
  10
148.31168
  20
177.21692
  0
VERTEX
  5
2ec
  8
Layer_0
  10
148.21265
  20
177.19214
  0
VERTEX
  5
2ed
  8
Layer_0
  10
148.10815
  20
177.16998
  0
VERTEX
  5
2ee
  8
Layer_0
  10
147.99817
  20
177.15045
  0
VERTEX
  5
2ef
  8
Layer_0
  10
147.88269
  20
177.13354
  0
VERTEX
  5
2f0
  8
Layer_0
  10
147.7617
  20
177.1192
  0
VERTEX
  5
2f1
  8
Layer_0
  10
147.63525
  20
177.10748
  0
VERTEX
  5
2f2
  8
Layer_0
  10
147.50325
  20
177.09833
  0
VERTEX
  5
2f3
  8
Layer_0
  10
147.36578
  20
177.0918
  0
VERTEX
  5
2f4
  8
Layer_0
  10
147.22282
  20
177.08789
  0
VERTEX
  5
2f5
  8
Layer_0
  10
147.07437
  20
177.08661
  0
VERTEX
  5
2f6
  8
Layer_0
  10
144.22987
  20
177.08667
  0
VERTEX
  5
2f7
  8
Layer_0
  10
144.22987
  20
180.39496
  0
SEQEND
  0
POLYLINE
  5
2f9
  8
Layer_0
  62
0
  70
1
  66
1
  10
0
  20
0
  30
0
  0
VERTEX
  5
2f9
  8
Layer_0
  10
153.95021
  20
172.40723
  0
VERTEX
  5
2fa
  8
Layer_0
  10
153.95021
  20
171.5
  0
VERTEX
  5
2fb
  8
Layer_0
  10
152.81105
  20
171.5
  0
VERTEX
  5
2fc
  8
Layer_0
  10
152.81107
  20
181.5
  0
VERTEX
  5
2fd
  8
Layer_0
  10
154.03888
  20
181.5
  0
VERTEX
  5
2fe
  8
Layer_0
  10
154.03888
  20
177.9325
  0
VERTEX
  5
2ff
  8
Layer_0
  10
154.10446
  20
178.01208
  0
VERTEX
  5
300
  8
Layer_0
  10
154.17148
  20
178.08826
  0
VERTEX
  5
301
  8
Layer_0
  10
154.23999
  20
178.16107
  0
VERTEX
  5
302
  8
Layer_0
  10
154.31003
  20
178.23053
  0
VERTEX
  5
303
  8
Layer_0
  10
154.38159
  20
178.29657
  0
VERTEX
  5
304
  8
Layer_0
  10
154.45456
  20
178.35925
  0
VERTEX
  5
305
  8
Layer_0
  10
154.52908
  20
178.41846
  0
VERTEX
  5
306
  8
Layer_0
  10
154.60507
  20
178.47437
  0
VERTEX
  5
307
  8
Layer_0
  10
154.68256
  20
178.52686
  0
VERTEX
  5
308
  8
Layer_0
  10
154.76152
  20
178.57599
  0
VERTEX
  5
309
  8
Layer_0
  10
154.84204
  20
178.6217
  0
VERTEX
  5
30a
  8
Layer_0
  10
154.92395
  20
178.66406
  0
VERTEX
  5
30b
  8
Layer_0
  10
155.00742
  20
178.703
  0
VERTEX
  5
30c
  8
Layer_0
  10
155.09235
  20
178.73853
  0
VERTEX
  5
30d
  8
Layer_0
  10
155.1788
  20
178.77075
  0
VERTEX
  5
30e
  8
Layer_0
  10
155.26672
  20
178.7995
  0
VERTEX
  5
30f
  8
Layer_0
  10
155.35614
  20
178.82495
  0
VERTEX
  5
310
  8
Layer_0
  10
155.44705
  20
178.84692
  0
VERTEX
  5
311
  8
Layer_0
  10
155.53946
  20
178.8656
  0
VERTEX
  5
312
  8
Layer_0
  10
155.63336
  20
178.88086
  0
VERTEX
  5
313
  8
Layer_0
  10
155.72876
  20
178.8927
  0
VERTEX
  5
314
  8
Layer_0
  10
155.82565
  20
178.90112
  0
VERTEX
  5
315
  8
Layer_0
  10
155.92401
  20
178.90619
  0
VERTEX
  5
316
  8
Layer_0
  10
156.0239
  20
178.9079
  0
VERTEX
  5
317
  8
Layer_0
  10
156.13483
  20
178.90601
  0
VERTEX
  5
318
  8
Layer_0
  10
156.24472
  20
178.90039
  0
VERTEX
  5
319
  8
Layer_0
  10
156.35367
  20
178.89105
  0
VERTEX
  5
31a
  8
Layer_0
  10
156.46161
  20
178.87799
  0
VERTEX
  5
31b
  8
Layer_0
  10
156.56851
  20
178.86115
  0
VERTEX
  5
31c
  8
Layer_0
  10
156.67447
  20
178.84058
  0
VERTEX
  5
31d
  8
Layer_0
  10
156.7794
  20
178.81622
  0
VERTEX
  5
31e
  8
Layer_0
  10
156.88336
  20
178.78815
  0
VERTEX
  5
31f
  8
Layer_0
  10
156.98633
  20
178.75635
  0
VERTEX
  5
320
  8
Layer_0
  10
157.08829
  20
178.72083
  0
VERTEX
  5
321
  8
Layer_0
  10
157.18924
  20
178.68152
  0
VERTEX
  5
322
  8
Layer_0
  10
157.28923
  20
178.63843
  0
VERTEX
  5
323
  8
Layer_0
  10
157.38724
  20
178.59204
  0
VERTEX
  5
324
  8
Layer_0
  10
157.4823
  20
178.5426
  0
VERTEX
  5
325
  8
Layer_0
  10
157.57443
  20
178.49011
  0
VERTEX
  5
326
  8
Layer_0
  10
157.66367
  20
178.43457
  0
VERTEX
  5
327
  8
Layer_0
  10
157.74988
  20
178.37604
  0
VERTEX
  5
328
  8
Layer_0
  10
157.83322
  20
178.31445
  0
VERTEX
  5
329
  8
Layer_0
  10
157.91362
  20
178.24988
  0
VERTEX
  5
32a
  8
Layer_0
  10
157.99106
  20
178.18219
  0
VERTEX
  5
32b
  8
Layer_0
  10
158.06555
  20
178.11151
  0
VERTEX
  5
32c
  8
Layer_0
  10
158.13715
  20
178.03784
  0
VERTEX
  5
32d
  8
Layer_0
  10
158.20578
  20
177.96106
  0
VERTEX
  5
32e
  8
Layer_0
  10
158.27148
  20
177.88129
  0
VERTEX
  5
32f
  8
Layer_0
  10
158.33456
  20
177.79858
  0
VERTEX
  5
330
  8
Layer_0
  10
158.39532
  20
177.71313
  0
VERTEX
  5
331
  8
Layer_0
  10
158.45377
  20
177.62488
  0
VERTEX
  5
332
  8
Layer_0
  10
158.50989
  20
177.53381
  0
VERTEX
  5
333
  8
Layer_0
  10
158.56364
  20
177.43994
  0
VERTEX
  5
334
  8
Layer_0
  10
158.61511
  20
177.34326
  0
VERTEX
  5
335
  8
Layer_0
  10
158.66426
  20
177.24384
  0
VERTEX
  5
336
  8
Layer_0
  10
158.71109
  20
177.1416
  0
VERTEX
  5
337
  8
Layer_0
  10
158.7556
  20
177.0365
  0
VERTEX
  5
338
  8
Layer_0
  10
158.79779
  20
176.92871
  0
VERTEX
  5
339
  8
Layer_0
  10
158.83765
  20
176.81805
  0
VERTEX
  5
33a
  8
Layer_0
  10
158.87518
  20
176.70459
  0
VERTEX
  5
33b
  8
Layer_0
  10
158.91006
  20
176.58911
  0
VERTEX
  5
33c
  8
Layer_0
  10
158.94186
  20
176.47229
  0
VERTEX
  5
33d
  8
Layer_0
  10
158.97067
  20
176.35419
  0
VERTEX
  5
33e
  8
Layer_0
  10
158.99646
  20
176.23474
  0
VERTEX
  5
33f
  8
Layer_0
  10
159.01918
  20
176.11389
  0
VERTEX
  5
340
  8
Layer_0
  10
159.03888
  20
175.99182
  0
VERTEX
  5
341
  8
Layer_0
  10
159.05554
  20
175.86835
  0
VERTEX
  5
342
  8
Layer_0
  10
159.06918
  20
175.74359
  0
VERTEX
  5
343
  8
Layer_0
  10
159.0798
  20
175.61749
  0
VERTEX
  5
344
  8
Layer_0
  10
159.0874
  20
175.49005
  0
VERTEX
  5
345
  8
Layer_0
  10
159.09192
  20
175.36133
  0
VERTEX
  5
346
  8
Layer_0
  10
159.09346
  20
175.2312
  0
VERTEX
  5
347
  8
Layer_0
  10
159.09189
  20
175.07751
  0
VERTEX
  5
348
  8
Layer_0
  10
159.08707
  20
174.92676
  0
VERTEX
  5
349
  8
Layer_0
  10
159.07907
  20
174.77893
  0
VERTEX
  5
34a
  8
Layer_0
  10
159.06787
  20
174.63403
  0
VERTEX
  5
34b
  8
Layer_0
  10
159.0535
  20
174.49207
  0
VERTEX
  5
34c
  8
Layer_0
  10
159.0359
  20
174.35303
  0
VERTEX
  5
34d
  8
Layer_0
  10
159.01511
  20
174.21692
  0
VERTEX
  5
34e
  8
Layer_0
  10
158.99118
  20
174.08374
  0
VERTEX
  5
34f
  8
Layer_0
  10
158.96393
  20
173.95349
  0
VERTEX
  5
350
  8
Layer_0
  10
158.93356
  20
173.82623
  0
VERTEX
  5
351
  8
Layer_0
  10
158.90005
  20
173.7019
  0
VERTEX
  5
352
  8
Layer_0
  10
158.86322
  20
173.58044
  0
VERTEX
  5
353
  8
Layer_0
  10
158.82324
  20
173.46204
  0
VERTEX
  5
354
  8
Layer_0
  10
158.78009
  20
173.34644
  0
VERTEX
  5
355
  8
Layer_0
  10
158.73373
  20
173.23389
  0
VERTEX
  5
356
  8
Layer_0
  10
158.68417
  20
173.12421
  0
VERTEX
  5
357
  8
Layer_0
  10
158.63139
  20
173.01746
  0
VERTEX
  5
358
  8
Layer_0
  10
158.57544
  20
172.9137
  0
VERTEX
  5
359
  8
Layer_0
  10
158.5163
  20
172.81287
  0
VERTEX
  5
35a
  8
Layer_0
  10
158.45395
  20
172.71497
  0
VERTEX
  5
35b
  8
Layer_0
  10
158.3884
  20
172.62
  0
VERTEX
  5
35c
  8
Layer_0
  10
158.31964
  20
172.52795
  0
VERTEX
  5
35d
  8
Layer_0
  10
158.24771
  20
172.43884
  0
VERTEX
  5
35e
  8
Layer_0
  10
158.17258
  20
172.35266
  0
VERTEX
  5
35f
  8
Layer_0
  10
158.09525
  20
172.26978
  0
VERTEX
  5
360
  8
Layer_0
  10
158.01654
  20
172.19031
  0
VERTEX
  5
361
  8
Layer_0
  10
157.93661
  20
172.11444
  0
VERTEX
  5
362
  8
Layer_0
  10
157.85538
  20
172.04211
  0
VERTEX
  5
363
  8
Layer_0
  10
157.7729
  20
171.97327
  0
VERTEX
  5
364
  8
Layer_0
  10
157.68912
  20
171.90796
  0
VERTEX
  5
365
  8
Layer_0
  10
157.60406
  20
171.84619
  0
VERTEX
  5
366
  8
Layer_0
  10
157.51776
  20
171.78802
  0
VERTEX
  5
367
  8
Layer_0
  10
157.43011
  20
171.73328
  0
VERTEX
  5
368
  8
Layer_0
  10
157.34122
  20
171.68213
  0
VERTEX
  5
369
  8
Layer_0
  10
157.2511
  20
171.63452
  0
VERTEX
  5
36a
  8
Layer_0
  10
157.15961
  20
171.59033
  0
VERTEX
  5
36b
  8
Layer_0
  10
157.06689
  20
171.5498
  0
VERTEX
  5
36c
  8
Layer_0
  10
156.97287
  20
171.5127
  0
VERTEX
  5
36d
  8
Layer_0
  10
156.87759
  20
171.47925
  0
VERTEX
  5
36e
  8
Layer_0
  10
156.78104
  20
171.44922
  0
VERTEX
  5
36f
  8
Layer_0
  10
156.6832
  20
171.42273
  0
VERTEX
  5
370
  8
Layer_0
  10
156.58408
  20
171.39978
  0
VERTEX
  5
371
  8
Layer_0
  10
156.48367
  20
171.38037
  0
VERTEX
  5
372
  8
Layer_0
  10
156.38199
  20
171.3645
  0
VERTEX
  5
373
  8
Layer_0
  10
156.27902
  20
171.35217
  0
VERTEX
  5
374
  8
Layer_0
  10
156.17477
  20
171.34332
  0
VERTEX
  5
375
  8
Layer_0
  10
156.06927
  20
171.33801
  0
VERTEX
  5
376
  8
Layer_0
  10
155.96246
  20
171.3363
  0
VERTEX
  5
377
  8
Layer_0
  10
155.8566
  20
171.33813
  0
VERTEX
  5
378
  8
Layer_0
  10
155.75256
  20
171.34375
  0
VERTEX
  5
379
  8
Layer_0
  10
155.65051
  20
171.35303
  0
VERTEX
  5
37a
  8
Layer_0
  10
155.55035
  20
171.36603
  0
VERTEX
  5
37b
  8
Layer_0
  10
155.45215
  20
171.38281
  0
VERTEX
  5
37c
  8
Layer_0
  10
155.3558
  20
171.4032
  0
VERTEX
  5
37d
  8
Layer_0
  10
155.26141
  20
171.42737
  0
VERTEX
  5
37e
  8
Layer_0
  10
155.16896
  20
171.45532
  0
VERTEX
  5
37f
  8
Layer_0
  10
155.07837
  20
171.48688
  0
VERTEX
  5
380
  8
Layer_0
  10
154.98975
  20
171.52222
  0
VERTEX
  5
381
  8
Layer_0
  10
154.90308
  20
171.56128
  0
VERTEX
  5
382
  8
Layer_0
  10
154.81821
  20
171.604
  0
VERTEX
  5
383
  8
Layer_0
  10
154.73532
  20
171.65051
  0
VERTEX
  5
384
  8
Layer_0
  10
154.65436
  20
171.70068
  0
VERTEX
  5
385
  8
Layer_0
  10
154.57532
  20
171.75464
  0
VERTEX
  5
386
  8
Layer_0
  10
154.49817
  20
171.81226
  0
VERTEX
  5
387
  8
Layer_0
  10
154.42297
  20
171.8736
  0
VERTEX
  5
388
  8
Layer_0
  10
154.34967
  20
171.93872
  0
VERTEX
  5
389
  8
Layer_0
  10
154.27829
  20
172.00745
  0
VERTEX
  5
38a
  8
Layer_0
  10
154.20883
  20
172.07996
  0
VERTEX
  5
38b
  8
Layer_0
  10
154.1413
  20
172.15625
  0
VERTEX
  5
38c
  8
Layer_0
  10
154.07568
  20
172.23621
  0
VERTEX
  5
38d
  8
Layer_0
  10
154.01199
  20
172.31982
  0
VERTEX
  5
38e
  8
Layer_0
  10
153.95021
  20
172.40723
  0
SEQEND
  0
POLYLINE
  5
390
  8
Layer_0
  62
0
  70
1
  66
1
  10
0
  20
0
  30
0
  0
VERTEX
  5
390
  8
Layer_0
  10
155.86017
  20
172.34583
  0
VERTEX
  5
391
  8
Layer_0
  10
155.92688
  20
172.34705
  0
VERTEX
  5
392
  8
Layer_0
  10
155.9928
  20
172.35071
  0
VERTEX
  5
393
  8
Layer_0
  10
156.05798
  20
172.35675
  0
VERTEX
  5
394
  8
Layer_0
  10
156.12241
  20
172.36523
  0
VERTEX
  5
395
  8
Layer_0
  10
156.1861
  20
172.37622
  0
VERTEX
  5
396
  8
Layer_0
  10
156.24896
  20
172.38953
  0
VERTEX
  5
397
  8
Layer_0
  10
156.31113
  20
172.40527
  0
VERTEX
  5
398
  8
Layer_0
  10
156.37253
  20
172.42352
  0
VERTEX
  5
399
  8
Layer_0
  10
156.43317
  20
172.44415
  0
VERTEX
  5
39a
  8
Layer_0
  10
156.49301
  20
172.46722
  0
VERTEX
  5
39b
  8
Layer_0
  10
156.5522
  20
172.49274
  0
VERTEX
  5
39c
  8
Layer_0
  10
156.6105
  20
172.52063
  0
VERTEX
  5
39d
  8
Layer_0
  10
156.66809
  20
172.55096
  0
VERTEX
  5
39e
  8
Layer_0
  10
156.72495
  20
172.58374
  0
VERTEX
  5
39f
  8
Layer_0
  10
156.78104
  20
172.61896
  0
VERTEX
  5
3a0
  8
Layer_0
  10
156.83636
  20
172.65662
  0
VERTEX
  5
3a1
  8
Layer_0
  10
156.89093
  20
172.69666
  0
VERTEX
  5
3a2
  8
Layer_0
  10
156.94473
  20
172.73914
  0
VERTEX
  5
3a3
  8
Layer_0
  10
156.9978
  20
172.78406
  0
VERTEX
  5
3a4
  8
Layer_0
  10
157.05011
  20
172.83136
  0
VERTEX
  5
3a5
  8
Layer_0
  10
157.10162
  20
172.8811
  0
VERTEX
  5
3a6
  8
Layer_0
  10
157.1524
  20
172.93335
  0
VERTEX
  5
3a7
  8
Layer_0
  10
157.20245
  20
172.98798
  0
VERTEX
  5
3a8
  8
Layer_0
  10
157.25169
  20
173.04504
  0
VERTEX
  5
3a9
  8
Layer_0
  10
157.29959
  20
173.10449
  0
VERTEX
  5
3aa
  8
Layer_0
  10
157.3454
  20
173.16632
  0
VERTEX
  5
3ab
  8
Layer_0
  10
157.38919
  20
173.23053
  0
VERTEX
  5
3ac
  8
Layer_0
  10
157.43094
  20
173.29712
  0
VERTEX
  5
3ad
  8
Layer_0
  10
157.4707
  20
173.36609
  0
VERTEX
  5
3ae
  8
Layer_0
  10
157.50836
  20
173.43744
  0
VERTEX
  5
3af
  8
Layer_0
  10
157.54401
  20
173.51123
  0
VERTEX
  5
3b0
  8
Layer_0
  10
157.57764
  20
173.58728
  0
VERTEX
  5
3b1
  8
Layer_0
  10
157.60919
  20
173.66577
  0
VERTEX
  5
3b2
  8
Layer_0
  10
157.63873
  20
173.7467
  0
VERTEX
  5
3b3
  8
Layer_0
  10
157.66626
  20
173.82996
  0
VERTEX
  5
3b4
  8
Layer_0
  10
157.69165
  20
173.91559
  0
VERTEX
  5
3b5
  8
Layer_0
  10
157.71509
  20
174.0036
  0
VERTEX
  5
3b6
  8
Layer_0
  10
157.73648
  20
174.09399
  0
VERTEX
  5
3b7
  8
Layer_0
  10
157.75583
  20
174.18677
  0
VERTEX
  5
3b8
  8
Layer_0
  10
157.77316
  20
174.28192
  0
VERTEX
  5
3b9
  8
Layer_0
  10
157.78842
  20
174.37952
  0
VERTEX
  5
3ba
  8
Layer_0
  10
157.80167
  20
174.47937
  0
VERTEX
  5
3bb
  8
Layer_0
  10
157.81287
  20
174.58167
  0
VERTEX
  5
3bc
  8
Layer_0
  10
157.82205
  20
174.6864
  0
VERTEX
  5
3bd
  8
Layer_0
  10
157.82916
  20
174.79346
  0
VERTEX
  5
3be
  8
Layer_0
  10
157.83426
  20
174.90289
  0
VERTEX
  5
3bf
  8
Layer_0
  10
157.83731
  20
175.01471
  0
VERTEX
  5
3c0
  8
Layer_0
  10
157.8374
  20
175.24585
  0
VERTEX
  5
3c1
  8
Layer_0
  10
157.83444
  20
175.36023
  0
VERTEX
  5
3c2
  8
Layer_0
  10
157.82953
  20
175.47205
  0
VERTEX
  5
3c3
  8
Layer_0
  10
157.82269
  20
175.58118
  0
VERTEX
  5
3c4
  8
Layer_0
  10
157.81396
  20
175.68787
  0
VERTEX
  5
3c5
  8
Layer_0
  10
157.80319
  20
175.79187
  0
VERTEX
  5
3c6
  8
Layer_0
  10
157.79047
  20
175.89331
  0
VERTEX
  5
3c7
  8
Layer_0
  10
157.77585
  20
175.99219
  0
VERTEX
  5
3c8
  8
Layer_0
  10
157.75922
  20
176.0885
  0
VERTEX
  5
3c9
  8
Layer_0
  10
157.74063
  20
176.18219
  0
VERTEX
  5
3ca
  8
Layer_0
  10
157.72015
  20
176.27332
  0
VERTEX
  5
3cb
  8
Layer_0
  10
157.69766
  20
176.36188
  0
VERTEX
  5
3cc
  8
Layer_0
  10
157.67322
  20
176.44781
  0
VERTEX
  5
3cd
  8
Layer_0
  10
157.64685
  20
176.53125
  0
VERTEX
  5
3ce
  8
Layer_0
  10
157.6185
  20
176.612
  0
VERTEX
  5
3cf
  8
Layer_0
  10
157.58823
  20
176.69025
  0
VERTEX
  5
3d0
  8
Layer_0
  10
157.55597
  20
176.76587
  0
VERTEX
  5
3d1
  8
Layer_0
  10
157.52179
  20
176.83893
  0
VERTEX
  5
3d2
  8
Layer_0
  10
157.48566
  20
176.90942
  0
VERTEX
  5
3d3
  8
Layer_0
  10
157.44754
  20
176.97729
  0
VERTEX
  5
3d4
  8
Layer_0
  10
157.40747
  20
177.0426
  0
VERTEX
  5
3d5
  8
Layer_0
  10
157.36545
  20
177.10535
  0
VERTEX
  5
3d6
  8
Layer_0
  10
157.3215
  20
177.16547
  0
VERTEX
  5
3d7
  8
Layer_0
  10
157.27557
  20
177.22302
  0
VERTEX
  5
3d8
  8
Layer_0
  10
157.2283
  20
177.2782
  0
VERTEX
  5
3d9
  8
Layer_0
  10
157.18018
  20
177.33093
  0
VERTEX
  5
3da
  8
Layer_0
  10
157.13123
  20
177.38135
  0
VERTEX
  5
3db
  8
Layer_0
  10
157.08145
  20
177.42938
  0
VERTEX
  5
3dc
  8
Layer_0
  10
157.03091
  20
177.4751
  0
VERTEX
  5
3dd
  8
Layer_0
  10
156.97952
  20
177.51849
  0
VERTEX
  5
3de
  8
Layer_0
  10
156.92728
  20
177.55957
  0
VERTEX
  5
3df
  8
Layer_0
  10
156.8743
  20
177.59827
  0
VERTEX
  5
3e0
  8
Layer_0
  10
156.8204
  20
177.63452
  0
VERTEX
  5
3e1
  8
Layer_0
  10
156.76578
  20
177.66858
  0
VERTEX
  5
3e2
  8
Layer_0
  10
156.71033
  20
177.7002
  0
VERTEX
  5
3e3
  8
Layer_0
  10
156.65399
  20
177.72949
  0
VERTEX
  5
3e4
  8
Layer_0
  10
156.59689
  20
177.75647
  0
VERTEX
  5
3e5
  8
Layer_0
  10
156.53894
  20
177.78113
  0
VERTEX
  5
3e6
  8
Layer_0
  10
156.48022
  20
177.80341
  0
VERTEX
  5
3e7
  8
Layer_0
  10
156.42065
  20
177.8233
  0
VERTEX
  5
3e8
  8
Layer_0
  10
156.36029
  20
177.84094
  0
VERTEX
  5
3e9
  8
Layer_0
  10
156.29907
  20
177.85614
  0
VERTEX
  5
3ea
  8
Layer_0
  10
156.23706
  20
177.86902
  0
VERTEX
  5
3eb
  8
Layer_0
  10
156.17424
  20
177.87964
  0
VERTEX
  5
3ec
  8
Layer_0
  10
156.1106
  20
177.88782
  0
VERTEX
  5
3ed
  8
Layer_0
  10
156.04611
  20
177.89368
  0
VERTEX
  5
3ee
  8
Layer_0
  10
155.98085
  20
177.89722
  0
VERTEX
  5
3ef
  8
Layer_0
  10
155.91473
  20
177.89832
  0
VERTEX
  5
3f0
  8
Layer_0
  10
155.84808
  20
177.89716
  0
VERTEX
  5
3f1
  8
Layer_0
  10
155.78212
  20
177.89349
  0
VERTEX
  5
3f2
  8
Layer_0
  10
155.71692
  20
177.88745
  0
VERTEX
  5
3f3
  8
Layer_0
  10
155.6525
  20
177.87891
  0
VERTEX
  5
3f4
  8
Layer_0
  10
155.58887
  20
177.86804
  0
VERTEX
  5
3f5
  8
Layer_0
  10
155.52594
  20
177.85461
  0
VERTEX
  5
3f6
  8
Layer_0
  10
155.46379
  20
177.83887
  0
VERTEX
  5
3f7
  8
Layer_0
  10
155.40244
  20
177.82068
  0
VERTEX
  5
3f8
  8
Layer_0
  10
155.34174
  20
177.80005
  0
VERTEX
  5
3f9
  8
Layer_0
  10
155.28189
  20
177.77698
  0
VERTEX
  5
3fa
  8
Layer_0
  10
155.22279
  20
177.75146
  0
VERTEX
  5
3fb
  8
Layer_0
  10
155.1644
  20
177.72357
  0
VERTEX
  5
3fc
  8
Layer_0
  10
155.10678
  20
177.69324
  0
VERTEX
  5
3fd
  8
Layer_0
  10
155.04996
  20
177.6604
  0
VERTEX
  5
3fe
  8
Layer_0
  10
154.99387
  20
177.62524
  0
VERTEX
  5
3ff
  8
Layer_0
  10
154.93854
  20
177.58765
  0
VERTEX
  5
400
  8
Layer_0
  10
154.88397
  20
177.54755
  0
VERTEX
  5
401
  8
Layer_0
  10
154.83015
  20
177.50507
  0
VERTEX
  5
402
  8
Layer_0
  10
154.7771
  20
177.46014
  0
VERTEX
  5
403
  8
Layer_0
  10
154.72479
  20
177.41284
  0
VERTEX
  5
404
  8
Layer_0
  10
154.67326
  20
177.36304
  0
VERTEX
  5
405
  8
Layer_0
  10
154.62247
  20
177.31085
  0
VERTEX
  5
406
  8
Layer_0
  10
154.57246
  20
177.25623
  0
VERTEX
  5
407
  8
Layer_0
  10
154.52319
  20
177.19916
  0
VERTEX
  5
408
  8
Layer_0
  10
154.47537
  20
177.13983
  0
VERTEX
  5
409
  8
Layer_0
  10
154.4295
  20
177.07831
  0
VERTEX
  5
40a
  8
Layer_0
  10
154.38571
  20
177.01465
  0
VERTEX
  5
40b
  8
Layer_0
  10
154.34396
  20
176.94873
  0
VERTEX
  5
40c
  8
Layer_0
  10
154.30426
  20
176.88074
  0
VERTEX
  5
40d
  8
Layer_0
  10
154.26654
  20
176.81055
  0
VERTEX
  5
40e
  8
Layer_0
  10
154.2309
  20
176.73822
  0
VERTEX
  5
40f
  8
Layer_0
  10
154.19733
  20
176.6637
  0
VERTEX
  5
410
  8
Layer_0
  10
154.16571
  20
176.58704
  0
VERTEX
  5
411
  8
Layer_0
  10
154.13617
  20
176.50818
  0
VERTEX
  5
412
  8
Layer_0
  10
154.10873
  20
176.42719
  0
VERTEX
  5
413
  8
Layer_0
  10
154.08322
  20
176.34399
  0
VERTEX
  5
414
  8
Layer_0
  10
154.05978
  20
176.25861
  0
VERTEX
  5
415
  8
Layer_0
  10
154.03839
  20
176.17108
  0
VERTEX
  5
416
  8
Layer_0
  10
154.01907
  20
176.08142
  0
VERTEX
  5
417
  8
Layer_0
  10
154.00174
  20
175.9895
  0
VERTEX
  5
418
  8
Layer_0
  10
153.98645
  20
175.89551
  0
VERTEX
  5
419
  8
Layer_0
  10
153.97324
  20
175.79932
  0
VERTEX
  5
41a
  8
Layer_0
  10
153.96204
  20
175.70093
  0
VERTEX
  5
41b
  8
Layer_0
  10
153.95285
  20
175.60046
  0
VERTEX
  5
41c
  8
Layer_0
  10
153.94574
  20
175.49774
  0
VERTEX
  5
41d
  8
Layer_0
  10
153.94064
  20
175.39288
  0
VERTEX
  5
41e
  8
Layer_0
  10
153.93759
  20
175.28589
  0
VERTEX
  5
41f
  8
Layer_0
  10
153.93655
  20
175.17664
  0
VERTEX
  5
420
  8
Layer_0
  10
153.93903
  20
174.96454
  0
VERTEX
  5
421
  8
Layer_0
  10
153.94641
  20
174.76245
  0
VERTEX
  5
422
  8
Layer_0
  10
153.95874
  20
174.57043
  0
VERTEX
  5
423
  8
Layer_0
  10
153.97601
  20
174.38843
  0
VERTEX
  5
424
  8
Layer_0
  10
153.99814
  20
174.21649
  0
VERTEX
  5
425
  8
Layer_0
  10
154.02524
  20
174.05457
  0
VERTEX
  5
426
  8
Layer_0
  10
154.05725
  20
173.90271
  0
VERTEX
  5
427
  8
Layer_0
  10
154.09421
  20
173.76086
  0
VERTEX
  5
428
  8
Layer_0
  10
154.13608
  20
173.62909
  0
VERTEX
  5
429
  8
Layer_0
  10
154.15887
  20
173.56696
  0
VERTEX
  5
42a
  8
Layer_0
  10
154.18289
  20
173.50732
  0
VERTEX
  5
42b
  8
Layer_0
  10
154.20813
  20
173.4502
  0
VERTEX
  5
42c
  8
Layer_0
  10
154.2346
  20
173.39563
  0
VERTEX
  5
42d
  8
Layer_0
  10
154.26231
  20
173.34357
  0
VERTEX
  5
42e
  8
Layer_0
  10
154.29126
  20
173.29401
  0
VERTEX
  5
42f
  8
Layer_0
  10
154.34033
  20
173.21667
  0
VERTEX
  5
430
  8
Layer_0
  10
154.39075
  20
173.14258
  0
VERTEX
  5
431
  8
Layer_0
  10
154.44263
  20
173.07178
  0
VERTEX
  5
432
  8
Layer_0
  10
154.49591
  20
173.00427
  0
VERTEX
  5
433
  8
Layer_0
  10
154.55066
  20
172.94006
  0
VERTEX
  5
434
  8
Layer_0
  10
154.60675
  20
172.87915
  0
VERTEX
  5
435
  8
Layer_0
  10
154.66431
  20
172.82153
  0
VERTEX
  5
436
  8
Layer_0
  10
154.7233
  20
172.76727
  0
VERTEX
  5
437
  8
Layer_0
  10
154.78366
  20
172.71619
  0
VERTEX
  5
438
  8
Layer_0
  10
154.84549
  20
172.66846
  0
VERTEX
  5
439
  8
Layer_0
  10
154.90878
  20
172.62402
  0
VERTEX
  5
43a
  8
Layer_0
  10
154.97339
  20
172.58289
  0
VERTEX
  5
43b
  8
Layer_0
  10
155.03946
  20
172.54504
  0
VERTEX
  5
43c
  8
Layer_0
  10
155.10699
  20
172.51044
  0
VERTEX
  5
43d
  8
Layer_0
  10
155.1759
  20
172.47919
  0
VERTEX
  5
43e
  8
Layer_0
  10
155.24625
  20
172.45117
  0
VERTEX
  5
43f
  8
Layer_0
  10
155.31802
  20
172.42651
  0
VERTEX
  5
440
  8
Layer_0
  10
155.3912
  20
172.40509
  0
VERTEX
  5
441
  8
Layer_0
  10
155.46582
  20
172.38696
  0
VERTEX
  5
442
  8
Layer_0
  10
155.54184
  20
172.37219
  0
VERTEX
  5
443
  8
Layer_0
  10
155.61929
  20
172.36066
  0
VERTEX
  5
444
  8
Layer_0
  10
155.69815
  20
172.35242
  0
VERTEX
  5
445
  8
Layer_0
  10
155.77844
  20
172.34747
  0
VERTEX
  5
446
  8
Layer_0
  10
155.86017
  20
172.34583
  0
SEQEND
  0
POLYLINE
  5
448
  8
Layer_0
  62
0
  70
1
  66
1
  10
0
  20
0
  30
0
  0
VERTEX
  5
448
  8
Layer_0
  10
144.88472
  20
140.5
  0
VERTEX
  5
449
  8
Layer_0
  10
144.88472
  20
130.5
  0
VERTEX
  5
44a
  8
Layer_0
  10
146.20804
  20
130.5
  0
VERTEX
  5
44b
  8
Layer_0
  10
146.20804
  20
135.04297
  0
VERTEX
  5
44c
  8
Layer_0
  10
150.90109
  20
135.04297
  0
VERTEX
  5
44d
  8
Layer_0
  10
150.90109
  20
136.22302
  0
VERTEX
  5
44e
  8
Layer_0
  10
146.20804
  20
136.22302
  0
VERTEX
  5
44f
  8
Layer_0
  10
146.20804
  20
139.31995
  0
VERTEX
  5
450
  8
Layer_0
  10
151.63095
  20
139.31995
  0
VERTEX
  5
451
  8
Layer_0
  10
151.63095
  20
140.5
  0
VERTEX
  5
452
  8
Layer_0
  10
144.88472
  20
140.5
  0
SEQEND
  0
POLYLINE
  5
454
  8
Layer_0
  62
0
  70
1
  66
1
  10
0
  20
0
  30
0
  0
VERTEX
  5
454
  8
Layer_0
  10
157.11528
  20
137.51227
  0
VERTEX
  5
455
  8
Layer_0
  10
156.69235
  20
136.37311
  0
VERTEX
  5
456
  8
Layer_0
  10
156.61731
  20
136.41559
  0
VERTEX
  5
457
  8
Layer_0
  10
156.50479
  20
136.47241
  0
VERTEX
  5
458
  8
Layer_0
  10
156.39224
  20
136.52094
  0
VERTEX
  5
459
  8
Layer_0
  10
156.27969
  20
136.5611
  0
VERTEX
  5
45a
  8
Layer_0
  10
156.16711
  20
136.59296
  0
VERTEX
  5
45b
  8
Layer_0
  10
156.05457
  20
136.61652
  0
VERTEX
  5
45c
  8
Layer_0
  10
155.94202
  20
136.63171
  0
VERTEX
  5
45d
  8
Layer_0
  10
155.82947
  20
136.63867
  0
VERTEX
  5
45e
  8
Layer_0
  10
155.72543
  20
136.63745
  0
VERTEX
  5
45f
  8
Layer_0
  10
155.62784
  20
136.62866
  0
VERTEX
  5
460
  8
Layer_0
  10
155.53276
  20
136.61224
  0
VERTEX
  5
461
  8
Layer_0
  10
155.44028
  20
136.58826
  0
VERTEX
  5
462
  8
Layer_0
  10
155.35028
  20
136.55676
  0
VERTEX
  5
463
  8
Layer_0
  10
155.26288
  20
136.51764
  0
VERTEX
  5
464
  8
Layer_0
  10
155.17802
  20
136.47095
  0
VERTEX
  5
465
  8
Layer_0
  10
155.09573
  20
136.41675
  0
VERTEX
  5
466
  8
Layer_0
  10
155.01675
  20
136.35535
  0
VERTEX
  5
467
  8
Layer_0
  10
154.94331
  20
136.28796
  0
VERTEX
  5
468
  8
Layer_0
  10
154.87564
  20
136.21472
  0
VERTEX
  5
469
  8
Layer_0
  10
154.81375
  20
136.13562
  0
VERTEX
  5
46a
  8
Layer_0
  10
154.75754
  20
136.05066
  0
VERTEX
  5
46b
  8
Layer_0
  10
154.70712
  20
135.95984
  0
VERTEX
  5
46c
  8
Layer_0
  10
154.66246
  20
135.86316
  0
VERTEX
  5
46d
  8
Layer_0
  10
154.62354
  20
135.76062
  0
VERTEX
  5
46e
  8
Layer_0
  10
154.57916
  20
135.61511
  0
VERTEX
  5
46f
  8
Layer_0
  10
154.54932
  20
135.50342
  0
VERTEX
  5
470
  8
Layer_0
  10
154.52232
  20
135.39001
  0
VERTEX
  5
471
  8
Layer_0
  10
154.49818
  20
135.2749
  0
VERTEX
  5
472
  8
Layer_0
  10
154.47687
  20
135.15808
  0
VERTEX
  5
473
  8
Layer_0
  10
154.45837
  20
135.03955
  0
VERTEX
  5
474
  8
Layer_0
  10
154.44273
  20
134.91931
  0
VERTEX
  5
475
  8
Layer_0
  10
154.42996
  20
134.79736
  0
VERTEX
  5
476
  8
Layer_0
  10
154.42001
  20
134.67377
  0
VERTEX
  5
477
  8
Layer_0
  10
154.41293
  20
134.54846
  0
VERTEX
  5
478
  8
Layer_0
  10
154.40863
  20
134.42139
  0
VERTEX
  5
479
  8
Layer_0
  10
154.40723
  20
134.2926
  0
VERTEX
  5
47a
  8
Layer_0
  10
154.40723
  20
130.5
  0
VERTEX
  5
47b
  8
Layer_0
  10
153.17938
  20
130.5
  0
VERTEX
  5
47c
  8
Layer_0
  10
153.17938
  20
137.7442
  0
VERTEX
  5
47d
  8
Layer_0
  10
154.28442
  20
137.7442
  0
VERTEX
  5
47e
  8
Layer_0
  10
154.28442
  20
136.646
  0
VERTEX
  5
47f
  8
Layer_0
  10
154.35446
  20
136.77075
  0
VERTEX
  5
480
  8
Layer_0
  10
154.45789
  20
136.94434
  0
VERTEX
  5
481
  8
Layer_0
  10
154.5592
  20
137.1015
  0
VERTEX
  5
482
  8
Layer_0
  10
154.65855
  20
137.24219
  0
VERTEX
  5
483
  8
Layer_0
  10
154.7558
  20
137.36652
  0
VERTEX
  5
484
  8
Layer_0
  10
154.81952
  20
137.44031
  0
VERTEX
  5
485
  8
Layer_0
  10
154.88235
  20
137.50671
  0
VERTEX
  5
486
  8
Layer_0
  10
154.94431
  20
137.56592
  0
VERTEX
  5
487
  8
Layer_0
  10
155.00534
  20
137.6178
  0
VERTEX
  5
488
  8
Layer_0
  10
155.06546
  20
137.66235
  0
VERTEX
  5
489
  8
Layer_0
  10
155.15613
  20
137.71985
  0
VERTEX
  5
48a
  8
Layer_0
  10
155.24899
  20
137.76978
  0
VERTEX
  5
48b
  8
Layer_0
  10
155.34415
  20
137.81201
  0
VERTEX
  5
48c
  8
Layer_0
  10
155.4415
  20
137.84656
  0
VERTEX
  5
48d
  8
Layer_0
  10
155.54111
  20
137.87341
  0
VERTEX
  5
48e
  8
Layer_0
  10
155.64294
  20
137.89258
  0
VERTEX
  5
48f
  8
Layer_0
  10
155.74704
  20
137.90405
  0
VERTEX
  5
490
  8
Layer_0
  10
155.85333
  20
137.9079
  0
VERTEX
  5
491
  8
Layer_0
  10
155.95694
  20
137.90515
  0
VERTEX
  5
492
  8
Layer_0
  10
156.06082
  20
137.89691
  0
VERTEX
  5
493
  8
Layer_0
  10
156.16498
  20
137.88318
  0
VERTEX
  5
494
  8
Layer_0
  10
156.26947
  20
137.86395
  0
VERTEX
  5
495
  8
Layer_0
  10
156.37416
  20
137.83923
  0
VERTEX
  5
496
  8
Layer_0
  10
156.47919
  20
137.80896
  0
VERTEX
  5
497
  8
Layer_0
  10
156.58447
  20
137.77332
  0
VERTEX
  5
498
  8
Layer_0
  10
156.69009
  20
137.73206
  0
VERTEX
  5
499
  8
Layer_0
  10
156.79594
  20
137.68536
  0
VERTEX
  5
49a
  8
Layer_0
  10
156.9021
  20
137.63318
  0
VERTEX
  5
49b
  8
Layer_0
  10
157.00854
  20
137.57544
  0
VERTEX
  5
49c
  8
Layer_0
  10
157.11528
  20
137.51227
  0
SEQEND
  0
POLYLINE
  5
49e
  8
Layer_0
  62
0
  70
1
  66
1
  10
0
  20
0
  30
0
  0
VERTEX
  5
49e
  8
Layer_0
  10
150.44746
  20
157.95087
  0
VERTEX
  5
49f
  8
Layer_0
  10
150.41797
  20
158.04083
  0
VERTEX
  5
4a0
  8
Layer_0
  10
150.35559
  20
158.21448
  0
VERTEX
  5
4a1
  8
Layer_0
  10
150.28891
  20
158.37988
  0
VERTEX
  5
4a2
  8
Layer_0
  10
150.21783
  20
158.53705
  0
VERTEX
  5
4a3
  8
Layer_0
  10
150.14244
  20
158.68597
  0
VERTEX
  5
4a4
  8
Layer_0
  10
150.06271
  20
158.82666
  0
VERTEX
  5
4a5
  8
Layer_0
  10
149.97853
  20
158.95911
  0
VERTEX
  5
4a6
  8
Layer_0
  10
149.93484
  20
159.02222
  0
VERTEX
  5
4a7
  8
Layer_0
  10
149.89005
  20
159.08331
  0
VERTEX
  5
4a8
  8
Layer_0
  10
149.84418
  20
159.14233
  0
VERTEX
  5
4a9
  8
Layer_0
  10
149.79721
  20
159.19928
  0
VERTEX
  5
4aa
  8
Layer_0
  10
149.74915
  20
159.25415
  0
VERTEX
  5
4ab
  8
Layer_0
  10
149.70001
  20
159.30701
  0
VERTEX
  5
4ac
  8
Layer_0
  10
149.64975
  20
159.35779
  0
VERTEX
  5
4ad
  8
Layer_0
  10
149.59842
  20
159.40649
  0
VERTEX
  5
4ae
  8
Layer_0
  10
149.54602
  20
159.45313
  0
VERTEX
  5
4af
  8
Layer_0
  10
149.49249
  20
159.49768
  0
VERTEX
  5
4b0
  8
Layer_0
  10
149.43793
  20
159.54022
  0
VERTEX
  5
4b1
  8
Layer_0
  10
149.38223
  20
159.58087
  0
VERTEX
  5
4b2
  8
Layer_0
  10
149.26718
  20
159.65698
  0
VERTEX
  5
4b3
  8
Layer_0
  10
149.14746
  20
159.72614
  0
VERTEX
  5
4b4
  8
Layer_0
  10
149.02293
  20
159.78833
  0
VERTEX
  5
4b5
  8
Layer_0
  10
148.95895
  20
159.81689
  0
VERTEX
  5
4b6
  8
Layer_0
  10
148.89371
  20
159.84369
  0
VERTEX
  5
4b7
  8
Layer_0
  10
148.7598
  20
159.89209
  0
VERTEX
  5
4b8
  8
Layer_0
  10
148.69099
  20
159.9137
  0
VERTEX
  5
4b9
  8
Layer_0
  10
148.54993
  20
159.95178
  0
VERTEX
  5
4ba
  8
Layer_0
  10
148.40411
  20
159.98285
  0
VERTEX
  5
4bb
  8
Layer_0
  10
148.25357
  20
160.00708
  0
VERTEX
  5
4bc
  8
Layer_0
  10
148.0983
  20
160.02435
  0
VERTEX
  5
4bd
  8
Layer_0
  10
147.93829
  20
160.03473
  0
VERTEX
  5
4be
  8
Layer_0
  10
147.77351
  20
160.03821
  0
VERTEX
  5
4bf
  8
Layer_0
  10
147.58403
  20
160.03436
  0
VERTEX
  5
4c0
  8
Layer_0
  10
147.49124
  20
160.02954
  0
VERTEX
  5
4c1
  8
Layer_0
  10
147.30963
  20
160.01422
  0
VERTEX
  5
4c2
  8
Layer_0
  10
147.22079
  20
160.00366
  0
VERTEX
  5
4c3
  8
Layer_0
  10
147.13327
  20
159.99121
  0
VERTEX
  5
4c4
  8
Layer_0
  10
147.04709
  20
159.97681
  0
VERTEX
  5
4c5
  8
Layer_0
  10
146.96217
  20
159.96051
  0
VERTEX
  5
4c6
  8
Layer_0
  10
146.8786
  20
159.94226
  0
VERTEX
  5
4c7
  8
Layer_0
  10
146.79639
  20
159.92212
  0
VERTEX
  5
4c8
  8
Layer_0
  10
146.71539
  20
159.90002
  0
VERTEX
  5
4c9
  8
Layer_0
  10
146.63574
  20
159.8761
  0
VERTEX
  5
4ca
  8
Layer_0
  10
146.55743
  20
159.85022
  0
VERTEX
  5
4cb
  8
Layer_0
  10
146.48041
  20
159.82239
  0
VERTEX
  5
4cc
  8
Layer_0
  10
146.40472
  20
159.7926
  0
VERTEX
  5
4cd
  8
Layer_0
  10
146.33035
  20
159.76099
  0
VERTEX
  5
4ce
  8
Layer_0
  10
146.25729
  20
159.72742
  0
VERTEX
  5
4cf
  8
Layer_0
  10
146.18555
  20
159.69189
  0
VERTEX
  5
4d0
  8
Layer_0
  10
146.11511
  20
159.65448
  0
VERTEX
  5
4d1
  8
Layer_0
  10
146.04599
  20
159.61517
  0
VERTEX
  5
4d2
  8
Layer_0
  10
145.97818
  20
159.57391
  0
VERTEX
  5
4d3
  8
Layer_0
  10
145.91171
  20
159.53076
  0
VERTEX
  5
4d4
  8
Layer_0
  10
145.84653
  20
159.48566
  0
VERTEX
  5
4d5
  8
Layer_0
  10
145.78284
  20
159.43896
  0
VERTEX
  5
4d6
  8
Layer_0
  10
145.66016
  20
159.34161
  0
VERTEX
  5
4d7
  8
Layer_0
  10
145.60123
  20
159.29095
  0
VERTEX
  5
4d8
  8
Layer_0
  10
145.54396
  20
159.23901
  0
VERTEX
  5
4d9
  8
Layer_0
  10
145.48819
  20
159.18573
  0
VERTEX
  5
4da
  8
Layer_0
  10
145.43405
  20
159.13116
  0
VERTEX
  5
4db
  8
Layer_0
  10
145.3306
  20
159.01807
  0
VERTEX
  5
4dc
  8
Layer_0
  10
145.28128
  20
158.95947
  0
VERTEX
  5
4dd
  8
Layer_0
  10
145.18741
  20
158.8385
  0
VERTEX
  5
4de
  8
Layer_0
  10
145.09995
  20
158.71228
  0
VERTEX
  5
4df
  8
Layer_0
  10
145.01886
  20
158.58069
  0
VERTEX
  5
4e0
  8
Layer_0
  10
144.98074
  20
158.513
  0
VERTEX
  5
4e1
  8
Layer_0
  10
144.94418
  20
158.44397
  0
VERTEX
  5
4e2
  8
Layer_0
  10
144.87592
  20
158.30188
  0
VERTEX
  5
4e3
  8
Layer_0
  10
144.81401
  20
158.1546
  0
VERTEX
  5
4e4
  8
Layer_0
  10
144.75851
  20
158.00208
  0
VERTEX
  5
4e5
  8
Layer_0
  10
144.7084
  20
157.84644
  0
VERTEX
  5
4e6
  8
Layer_0
  10
144.66264
  20
157.69006
  0
VERTEX
  5
4e7
  8
Layer_0
  10
144.62125
  20
157.53284
  0
VERTEX
  5
4e8
  8
Layer_0
  10
144.58423
  20
157.37488
  0
VERTEX
  5
4e9
  8
Layer_0
  10
144.55151
  20
157.21606
  0
VERTEX
  5
4ea
  8
Layer_0
  10
144.52319
  20
157.05646
  0
VERTEX
  5
4eb
  8
Layer_0
  10
144.49921
  20
156.896
  0
VERTEX
  5
4ec
  8
Layer_0
  10
144.47961
  20
156.7348
  0
VERTEX
  5
4ed
  8
Layer_0
  10
144.46436
  20
156.57275
  0
VERTEX
  5
4ee
  8
Layer_0
  10
144.45346
  20
156.40991
  0
VERTEX
  5
4ef
  8
Layer_0
  10
144.44693
  20
156.24634
  0
VERTEX
  5
4f0
  8
Layer_0
  10
144.44473
  20
156.08185
  0
VERTEX
  5
4f1
  8
Layer_0
  10
144.44543
  20
155.97614
  0
VERTEX
  5
4f2
  8
Layer_0
  10
144.45056
  20
155.76801
  0
VERTEX
  5
4f3
  8
Layer_0
  10
144.46091
  20
155.56445
  0
VERTEX
  5
4f4
  8
Layer_0
  10
144.47636
  20
155.36536
  0
VERTEX
  5
4f5
  8
Layer_0
  10
144.49701
  20
155.17072
  0
VERTEX
  5
4f6
  8
Layer_0
  10
144.52289
  20
154.98065
  0
VERTEX
  5
4f7
  8
Layer_0
  10
144.55383
  20
154.79504
  0
VERTEX
  5
4f8
  8
Layer_0
  10
144.58997
  20
154.61395
  0
VERTEX
  5
4f9
  8
Layer_0
  10
144.63126
  20
154.43738
  0
VERTEX
  5
4fa
  8
Layer_0
  10
144.67773
  20
154.26526
  0
VERTEX
  5
4fb
  8
Layer_0
  10
144.72937
  20
154.09766
  0
VERTEX
  5
4fc
  8
Layer_0
  10
144.78616
  20
153.93457
  0
VERTEX
  5
4fd
  8
Layer_0
  10
144.84824
  20
153.77625
  0
VERTEX
  5
4fe
  8
Layer_0
  10
144.91589
  20
153.62433
  0
VERTEX
  5
4ff
  8
Layer_0
  10
144.95187
  20
153.5509
  0
VERTEX
  5
500
  8
Layer_0
  10
145.02817
  20
153.40894
  0
VERTEX
  5
501
  8
Layer_0
  10
145.06848
  20
153.34052
  0
VERTEX
  5
502
  8
Layer_0
  10
145.15335
  20
153.20862
  0
VERTEX
  5
503
  8
Layer_0
  10
145.19797
  20
153.1452
  0
VERTEX
  5
504
  8
Layer_0
  10
145.29144
  20
153.02332
  0
VERTEX
  5
505
  8
Layer_0
  10
145.34033
  20
152.96497
  0
VERTEX
  5
506
  8
Layer_0
  10
145.39066
  20
152.9082
  0
VERTEX
  5
507
  8
Layer_0
  10
145.44241
  20
152.85309
  0
VERTEX
  5
508
  8
Layer_0
  10
145.49561
  20
152.79968
  0
VERTEX
  5
509
  8
Layer_0
  10
145.55023
  20
152.74792
  0
VERTEX
  5
50a
  8
Layer_0
  10
145.60629
  20
152.69788
  0
VERTEX
  5
50b
  8
Layer_0
  10
145.66376
  20
152.64941
  0
VERTEX
  5
50c
  8
Layer_0
  10
145.72269
  20
152.60272
  0
VERTEX
  5
50d
  8
Layer_0
  10
145.78305
  20
152.55762
  0
VERTEX
  5
50e
  8
Layer_0
  10
145.84483
  20
152.51428
  0
VERTEX
  5
50f
  8
Layer_0
  10
145.90805
  20
152.47253
  0
VERTEX
  5
510
  8
Layer_0
  10
146.03833
  20
152.39404
  0
VERTEX
  5
511
  8
Layer_0
  10
146.17084
  20
152.32214
  0
VERTEX
  5
512
  8
Layer_0
  10
146.30524
  20
152.25677
  0
VERTEX
  5
513
  8
Layer_0
  10
146.44135
  20
152.19794
  0
VERTEX
  5
514
  8
Layer_0
  10
146.57928
  20
152.14563
  0
VERTEX
  5
515
  8
Layer_0
  10
146.71907
  20
152.09991
  0
VERTEX
  5
516
  8
Layer_0
  10
146.86057
  20
152.06067
  0
VERTEX
  5
517
  8
Layer_0
  10
147.00391
  20
152.02795
  0
VERTEX
  5
518
  8
Layer_0
  10
147.14905
  20
152.00183
  0
VERTEX
  5
519
  8
Layer_0
  10
147.29599
  20
151.98224
  0
VERTEX
  5
51a
  8
Layer_0
  10
147.44473
  20
151.96912
  0
VERTEX
  5
51b
  8
Layer_0
  10
147.59528
  20
151.96265
  0
VERTEX
  5
51c
  8
Layer_0
  10
147.76332
  20
151.96289
  0
VERTEX
  5
51d
  8
Layer_0
  10
147.85416
  20
151.96625
  0
VERTEX
  5
51e
  8
Layer_0
  10
147.94385
  20
151.9718
  0
VERTEX
  5
51f
  8
Layer_0
  10
148.03235
  20
151.97961
  0
VERTEX
  5
520
  8
Layer_0
  10
148.11972
  20
151.98962
  0
VERTEX
  5
521
  8
Layer_0
  10
148.20584
  20
152.00183
  0
VERTEX
  5
522
  8
Layer_0
  10
148.2908
  20
152.01636
  0
VERTEX
  5
523
  8
Layer_0
  10
148.37457
  20
152.03308
  0
VERTEX
  5
524
  8
Layer_0
  10
148.45715
  20
152.052
  0
VERTEX
  5
525
  8
Layer_0
  10
148.53854
  20
152.07312
  0
VERTEX
  5
526
  8
Layer_0
  10
148.61884
  20
152.0965
  0
VERTEX
  5
527
  8
Layer_0
  10
148.69781
  20
152.12207
  0
VERTEX
  5
528
  8
Layer_0
  10
148.77568
  20
152.1499
  0
VERTEX
  5
529
  8
Layer_0
  10
148.85234
  20
152.17999
  0
VERTEX
  5
52a
  8
Layer_0
  10
148.92783
  20
152.21228
  0
VERTEX
  5
52b
  8
Layer_0
  10
149.00214
  20
152.24677
  0
VERTEX
  5
52c
  8
Layer_0
  10
149.07523
  20
152.28351
  0
VERTEX
  5
52d
  8
Layer_0
  10
149.14719
  20
152.32251
  0
VERTEX
  5
52e
  8
Layer_0
  10
149.21793
  20
152.36365
  0
VERTEX
  5
52f
  8
Layer_0
  10
149.28749
  20
152.4071
  0
VERTEX
  5
530
  8
Layer_0
  10
149.35587
  20
152.45276
  0
VERTEX
  5
531
  8
Layer_0
  10
149.42305
  20
152.50061
  0
VERTEX
  5
532
  8
Layer_0
  10
149.48904
  20
152.55066
  0
VERTEX
  5
533
  8
Layer_0
  10
149.55389
  20
152.60303
  0
VERTEX
  5
534
  8
Layer_0
  10
149.61729
  20
152.65753
  0
VERTEX
  5
535
  8
Layer_0
  10
149.67889
  20
152.71417
  0
VERTEX
  5
536
  8
Layer_0
  10
149.7388
  20
152.77301
  0
VERTEX
  5
537
  8
Layer_0
  10
149.797
  20
152.83398
  0
VERTEX
  5
538
  8
Layer_0
  10
149.85347
  20
152.89709
  0
VERTEX
  5
539
  8
Layer_0
  10
149.90817
  20
152.9624
  0
VERTEX
  5
53a
  8
Layer_0
  10
149.96115
  20
153.02985
  0
VERTEX
  5
53b
  8
Layer_0
  10
150.01245
  20
153.09949
  0
VERTEX
  5
53c
  8
Layer_0
  10
150.06195
  20
153.1712
  0
VERTEX
  5
53d
  8
Layer_0
  10
150.10977
  20
153.24512
  0
VERTEX
  5
53e
  8
Layer_0
  10
150.15588
  20
153.32117
  0
VERTEX
  5
53f
  8
Layer_0
  10
150.2002
  20
153.39941
  0
VERTEX
  5
540
  8
Layer_0
  10
150.24283
  20
153.47974
  0
VERTEX
  5
541
  8
Layer_0
  10
150.28372
  20
153.56226
  0
VERTEX
  5
542
  8
Layer_0
  10
150.32288
  20
153.64697
  0
VERTEX
  5
543
  8
Layer_0
  10
150.36032
  20
153.73383
  0
VERTEX
  5
544
  8
Layer_0
  10
150.39603
  20
153.82281
  0
VERTEX
  5
545
  8
Layer_0
  10
150.42999
  20
153.91394
  0
VERTEX
  5
546
  8
Layer_0
  10
150.46225
  20
154.00726
  0
VERTEX
  5
547
  8
Layer_0
  10
150.49277
  20
154.10272
  0
VERTEX
  5
548
  8
Layer_0
  10
150.52156
  20
154.20032
  0
VERTEX
  5
549
  8
Layer_0
  10
150.54861
  20
154.30011
  0
VERTEX
  5
54a
  8
Layer_0
  10
150.57394
  20
154.40204
  0
VERTEX
  5
54b
  8
Layer_0
  10
150.59753
  20
154.5061
  0
VERTEX
  5
54c
  8
Layer_0
  10
151.92087
  20
154.17188
  0
VERTEX
  5
54d
  8
Layer_0
  10
151.88507
  20
154.03735
  0
VERTEX
  5
54e
  8
Layer_0
  10
151.84689
  20
153.90552
  0
VERTEX
  5
54f
  8
Layer_0
  10
151.80646
  20
153.77643
  0
VERTEX
  5
550
  8
Layer_0
  10
151.7637
  20
153.64996
  0
VERTEX
  5
551
  8
Layer_0
  10
151.71866
  20
153.52625
  0
VERTEX
  5
552
  8
Layer_0
  10
151.67123
  20
153.40515
  0
VERTEX
  5
553
  8
Layer_0
  10
151.62155
  20
153.28674
  0
VERTEX
  5
554
  8
Layer_0
  10
151.56958
  20
153.17108
  0
VERTEX
  5
555
  8
Layer_0
  10
151.51524
  20
153.05804
  0
VERTEX
  5
556
  8
Layer_0
  10
151.45863
  20
152.94775
  0
VERTEX
  5
557
  8
Layer_0
  10
151.39978
  20
152.84009
  0
VERTEX
  5
558
  8
Layer_0
  10
151.3385
  20
152.73517
  0
VERTEX
  5
559
  8
Layer_0
  10
151.27496
  20
152.63293
  0
VERTEX
  5
55a
  8
Layer_0
  10
151.20911
  20
152.53333
  0
VERTEX
  5
55b
  8
Layer_0
  10
151.14093
  20
152.43646
  0
VERTEX
  5
55c
  8
Layer_0
  10
151.0705
  20
152.34229
  0
VERTEX
  5
55d
  8
Layer_0
  10
150.99771
  20
152.25073
  0
VERTEX
  5
55e
  8
Layer_0
  10
150.92261
  20
152.16199
  0
VERTEX
  5
55f
  8
Layer_0
  10
150.84521
  20
152.07581
  0
VERTEX
  5
560
  8
Layer_0
  10
150.7655
  20
151.99243
  0
VERTEX
  5
561
  8
Layer_0
  10
150.6835
  20
151.91162
  0
VERTEX
  5
562
  8
Layer_0
  10
150.59918
  20
151.83362
  0
VERTEX
  5
563
  8
Layer_0
  10
150.51254
  20
151.75818
  0
VERTEX
  5
564
  8
Layer_0
  10
150.42358
  20
151.68555
  0
VERTEX
  5
565
  8
Layer_0
  10
150.3327
  20
151.61572
  0
VERTEX
  5
566
  8
Layer_0
  10
150.24005
  20
151.54883
  0
VERTEX
  5
567
  8
Layer_0
  10
150.14578
  20
151.48486
  0
VERTEX
  5
568
  8
Layer_0
  10
150.04985
  20
151.42395
  0
VERTEX
  5
569
  8
Layer_0
  10
149.95227
  20
151.36597
  0
VERTEX
  5
56a
  8
Layer_0
  10
149.85294
  20
151.31104
  0
VERTEX
  5
56b
  8
Layer_0
  10
149.75201
  20
151.25897
  0
VERTEX
  5
56c
  8
Layer_0
  10
149.64941
  20
151.20996
  0
VERTEX
  5
56d
  8
Layer_0
  10
149.54507
  20
151.16388
  0
VERTEX
  5
56e
  8
Layer_0
  10
149.43912
  20
151.12073
  0
VERTEX
  5
56f
  8
Layer_0
  10
149.33154
  20
151.08069
  0
VERTEX
  5
570
  8
Layer_0
  10
149.2222
  20
151.04346
  0
VERTEX
  5
571
  8
Layer_0
  10
149.11124
  20
151.00928
  0
VERTEX
  5
572
  8
Layer_0
  10
148.99857
  20
150.97809
  0
VERTEX
  5
573
  8
Layer_0
  10
148.88428
  20
150.94983
  0
VERTEX
  5
574
  8
Layer_0
  10
148.76828
  20
150.92456
  0
VERTEX
  5
575
  8
Layer_0
  10
148.65065
  20
150.90228
  0
VERTEX
  5
576
  8
Layer_0
  10
148.53134
  20
150.88293
  0
VERTEX
  5
577
  8
Layer_0
  10
148.41032
  20
150.86658
  0
VERTEX
  5
578
  8
Layer_0
  10
148.28767
  20
150.85327
  0
VERTEX
  5
579
  8
Layer_0
  10
148.16336
  20
150.84283
  0
VERTEX
  5
57a
  8
Layer_0
  10
148.03735
  20
150.83539
  0
VERTEX
  5
57b
  8
Layer_0
  10
147.90967
  20
150.83093
  0
VERTEX
  5
57c
  8
Layer_0
  10
147.78033
  20
150.82947
  0
VERTEX
  5
57d
  8
Layer_0
  10
147.6467
  20
150.83063
  0
VERTEX
  5
57e
  8
Layer_0
  10
147.51511
  20
150.83405
  0
VERTEX
  5
57f
  8
Layer_0
  10
147.38562
  20
150.83972
  0
VERTEX
  5
580
  8
Layer_0
  10
147.25824
  20
150.84778
  0
VERTEX
  5
581
  8
Layer_0
  10
147.13298
  20
150.85803
  0
VERTEX
  5
582
  8
Layer_0
  10
147.00977
  20
150.87061
  0
VERTEX
  5
583
  8
Layer_0
  10
146.88867
  20
150.88544
  0
VERTEX
  5
584
  8
Layer_0
  10
146.76968
  20
150.90259
  0
VERTEX
  5
585
  8
Layer_0
  10
146.65274
  20
150.922
  0
VERTEX
  5
586
  8
Layer_0
  10
146.53793
  20
150.94373
  0
VERTEX
  5
587
  8
Layer_0
  10
146.42529
  20
150.96777
  0
VERTEX
  5
588
  8
Layer_0
  10
146.31464
  20
150.99402
  0
VERTEX
  5
589
  8
Layer_0
  10
146.20612
  20
151.02258
  0
VERTEX
  5
58a
  8
Layer_0
  10
146.09967
  20
151.05347
  0
VERTEX
  5
58b
  8
Layer_0
  10
145.99536
  20
151.08655
  0
VERTEX
  5
58c
  8
Layer_0
  10
145.89313
  20
151.12201
  0
VERTEX
  5
58d
  8
Layer_0
  10
145.79298
  20
151.15973
  0
VERTEX
  5
58e
  8
Layer_0
  10
145.69498
  20
151.19971
  0
VERTEX
  5
58f
  8
Layer_0
  10
145.59901
  20
151.242
  0
VERTEX
  5
590
  8
Layer_0
  10
145.50516
  20
151.28662
  0
VERTEX
  5
591
  8
Layer_0
  10
145.41342
  20
151.33344
  0
VERTEX
  5
592
  8
Layer_0
  10
145.32376
  20
151.38257
  0
VERTEX
  5
593
  8
Layer_0
  10
145.23621
  20
151.43402
  0
VERTEX
  5
594
  8
Layer_0
  10
145.15076
  20
151.48773
  0
VERTEX
  5
595
  8
Layer_0
  10
145.06723
  20
151.54358
  0
VERTEX
  5
596
  8
Layer_0
  10
144.98529
  20
151.60156
  0
VERTEX
  5
597
  8
Layer_0
  10
144.90506
  20
151.6615
  0
VERTEX
  5
598
  8
Layer_0
  10
144.82654
  20
151.72351
  0
VERTEX
  5
599
  8
Layer_0
  10
144.74974
  20
151.7876
  0
VERTEX
  5
59a
  8
Layer_0
  10
144.67453
  20
151.85376
  0
VERTEX
  5
59b
  8
Layer_0
  10
144.60104
  20
151.92188
  0
VERTEX
  5
59c
  8
Layer_0
  10
144.52927
  20
151.99213
  0
VERTEX
  5
59d
  8
Layer_0
  10
144.45914
  20
152.06439
  0
VERTEX
  5
59e
  8
Layer_0
  10
144.39069
  20
152.13867
  0
VERTEX
  5
59f
  8
Layer_0
  10
144.32399
  20
152.21509
  0
VERTEX
  5
5a0
  8
Layer_0
  10
144.25885
  20
152.29346
  0
VERTEX
  5
5a1
  8
Layer_0
  10
144.19548
  20
152.37396
  0
VERTEX
  5
5a2
  8
Layer_0
  10
144.13376
  20
152.45648
  0
VERTEX
  5
5a3
  8
Layer_0
  10
144.07373
  20
152.54102
  0
VERTEX
  5
5a4
  8
Layer_0
  10
144.01538
  20
152.62762
  0
VERTEX
  5
5a5
  8
Layer_0
  10
143.95869
  20
152.71631
  0
VERTEX
  5
5a6
  8
Layer_0
  10
143.90372
  20
152.80701
  0
VERTEX
  5
5a7
  8
Layer_0
  10
143.85043
  20
152.89978
  0
VERTEX
  5
5a8
  8
Layer_0
  10
143.79883
  20
152.99457
  0
VERTEX
  5
5a9
  8
Layer_0
  10
143.74887
  20
153.09143
  0
VERTEX
  5
5aa
  8
Layer_0
  10
143.70059
  20
153.19031
  0
VERTEX
  5
5ab
  8
Layer_0
  10
143.65402
  20
153.29126
  0
VERTEX
  5
5ac
  8
Layer_0
  10
143.60913
  20
153.39429
  0
VERTEX
  5
5ad
  8
Layer_0
  10
143.5247
  20
153.60364
  0
VERTEX
  5
5ae
  8
Layer_0
  10
143.4476
  20
153.81549
  0
VERTEX
  5
5af
  8
Layer_0
  10
143.41187
  20
153.92242
  0
VERTEX
  5
5b0
  8
Layer_0
  10
143.34573
  20
154.13812
  0
VERTEX
  5
5b1
  8
Layer_0
  10
143.28699
  20
154.35638
  0
VERTEX
  5
5b2
  8
Layer_0
  10
143.23563
  20
154.57727
  0
VERTEX
  5
5b3
  8
Layer_0
  10
143.19154
  20
154.80066
  0
VERTEX
  5
5b4
  8
Layer_0
  10
143.15482
  20
155.02661
  0
VERTEX
  5
5b5
  8
Layer_0
  10
143.12546
  20
155.25513
  0
VERTEX
  5
5b6
  8
Layer_0
  10
143.10342
  20
155.48615
  0
VERTEX
  5
5b7
  8
Layer_0
  10
143.08876
  20
155.71979
  0
VERTEX
  5
5b8
  8
Layer_0
  10
143.08139
  20
155.95599
  0
VERTEX
  5
5b9
  8
Layer_0
  10
143.08157
  20
156.20453
  0
VERTEX
  5
5ba
  8
Layer_0
  10
143.08464
  20
156.33264
  0
VERTEX
  5
5bb
  8
Layer_0
  10
143.08981
  20
156.45935
  0
VERTEX
  5
5bc
  8
Layer_0
  10
143.09708
  20
156.58466
  0
VERTEX
  5
5bd
  8
Layer_0
  10
143.10643
  20
156.70862
  0
VERTEX
  5
5be
  8
Layer_0
  10
143.11777
  20
156.83112
  0
VERTEX
  5
5bf
  8
Layer_0
  10
143.13126
  20
156.95227
  0
VERTEX
  5
5c0
  8
Layer_0
  10
143.14685
  20
157.07208
  0
VERTEX
  5
5c1
  8
Layer_0
  10
143.16441
  20
157.19049
  0
VERTEX
  5
5c2
  8
Layer_0
  10
143.18411
  20
157.3075
  0
VERTEX
  5
5c3
  8
Layer_0
  10
143.2059
  20
157.4231
  0
VERTEX
  5
5c4
  8
Layer_0
  10
143.22971
  20
157.53735
  0
VERTEX
  5
5c5
  8
Layer_0
  10
143.2556
  20
157.65021
  0
VERTEX
  5
5c6
  8
Layer_0
  10
143.2836
  20
157.76166
  0
VERTEX
  5
5c7
  8
Layer_0
  10
143.31361
  20
157.87177
  0
VERTEX
  5
5c8
  8
Layer_0
  10
143.34576
  20
157.98047
  0
VERTEX
  5
5c9
  8
Layer_0
  10
143.37994
  20
158.08777
  0
VERTEX
  5
5ca
  8
Layer_0
  10
143.41621
  20
158.19366
  0
VERTEX
  5
5cb
  8
Layer_0
  10
143.45456
  20
158.29822
  0
VERTEX
  5
5cc
  8
Layer_0
  10
143.49498
  20
158.40137
  0
VERTEX
  5
5cd
  8
Layer_0
  10
143.53748
  20
158.50317
  0
VERTEX
  5
5ce
  8
Layer_0
  10
143.582
  20
158.60352
  0
VERTEX
  5
5cf
  8
Layer_0
  10
143.62863
  20
158.70251
  0
VERTEX
  5
5d0
  8
Layer_0
  10
143.67734
  20
158.80017
  0
VERTEX
  5
5d1
  8
Layer_0
  10
143.728
  20
158.89612
  0
VERTEX
  5
5d2
  8
Layer_0
  10
143.78033
  20
158.99011
  0
VERTEX
  5
5d3
  8
Layer_0
  10
143.83444
  20
159.08215
  0
VERTEX
  5
5d4
  8
Layer_0
  10
143.89032
  20
159.17224
  0
VERTEX
  5
5d5
  8
Layer_0
  10
143.948
  20
159.2605
  0
VERTEX
  5
5d6
  8
Layer_0
  10
144.00732
  20
159.34668
  0
VERTEX
  5
5d7
  8
Layer_0
  10
144.06845
  20
159.43097
  0
VERTEX
  5
5d8
  8
Layer_0
  10
144.13138
  20
159.51337
  0
VERTEX
  5
5d9
  8
Layer_0
  10
144.19598
  20
159.59375
  0
VERTEX
  5
5da
  8
Layer_0
  10
144.26234
  20
159.67224
  0
VERTEX
  5
5db
  8
Layer_0
  10
144.33057
  20
159.74878
  0
VERTEX
  5
5dc
  8
Layer_0
  10
144.40039
  20
159.82336
  0
VERTEX
  5
5dd
  8
Layer_0
  10
144.47205
  20
159.896
  0
VERTEX
  5
5de
  8
Layer_0
  10
144.54544
  20
159.96667
  0
VERTEX
  5
5df
  8
Layer_0
  10
144.62061
  20
160.0354
  0
VERTEX
  5
5e0
  8
Layer_0
  10
144.69751
  20
160.10223
  0
VERTEX
  5
5e1
  8
Layer_0
  10
144.77615
  20
160.16711
  0
VERTEX
  5
5e2
  8
Layer_0
  10
144.85657
  20
160.23004
  0
VERTEX
  5
5e3
  8
Layer_0
  10
144.93875
  20
160.29102
  0
VERTEX
  5
5e4
  8
Layer_0
  10
145.02267
  20
160.3501
  0
VERTEX
  5
5e5
  8
Layer_0
  10
145.10834
  20
160.40717
  0
VERTEX
  5
5e6
  8
Layer_0
  10
145.19574
  20
160.46234
  0
VERTEX
  5
5e7
  8
Layer_0
  10
145.28491
  20
160.51556
  0
VERTEX
  5
5e8
  8
Layer_0
  10
145.37585
  20
160.56683
  0
VERTEX
  5
5e9
  8
Layer_0
  10
145.46806
  20
160.61609
  0
VERTEX
  5
5ea
  8
Layer_0
  10
145.561
  20
160.66327
  0
VERTEX
  5
5eb
  8
Layer_0
  10
145.65472
  20
160.70831
  0
VERTEX
  5
5ec
  8
Layer_0
  10
145.74921
  20
160.75128
  0
VERTEX
  5
5ed
  8
Layer_0
  10
145.84451
  20
160.79224
  0
VERTEX
  5
5ee
  8
Layer_0
  10
145.94052
  20
160.83093
  0
VERTEX
  5
5ef
  8
Layer_0
  10
146.03732
  20
160.86768
  0
VERTEX
  5
5f0
  8
Layer_0
  10
146.13493
  20
160.90222
  0
VERTEX
  5
5f1
  8
Layer_0
  10
146.23325
  20
160.93469
  0
VERTEX
  5
5f2
  8
Layer_0
  10
146.33237
  20
160.96509
  0
VERTEX
  5
5f3
  8
Layer_0
  10
146.43231
  20
160.99341
  0
VERTEX
  5
5f4
  8
Layer_0
  10
146.5329
  20
161.01959
  0
VERTEX
  5
5f5
  8
Layer_0
  10
146.63434
  20
161.0437
  0
VERTEX
  5
5f6
  8
Layer_0
  10
146.73654
  20
161.06573
  0
VERTEX
  5
5f7
  8
Layer_0
  10
146.83951
  20
161.08563
  0
VERTEX
  5
5f8
  8
Layer_0
  10
146.94324
  20
161.10345
  0
VERTEX
  5
5f9
  8
Layer_0
  10
147.04771
  20
161.11914
  0
VERTEX
  5
5fa
  8
Layer_0
  10
147.15302
  20
161.13281
  0
VERTEX
  5
5fb
  8
Layer_0
  10
147.25906
  20
161.14429
  0
VERTEX
  5
5fc
  8
Layer_0
  10
147.36586
  20
161.15375
  0
VERTEX
  5
5fd
  8
Layer_0
  10
147.47343
  20
161.16113
  0
VERTEX
  5
5fe
  8
Layer_0
  10
147.58179
  20
161.16632
  0
VERTEX
  5
5ff
  8
Layer_0
  10
147.69092
  20
161.16949
  0
VERTEX
  5
600
  8
Layer_0
  10
147.80081
  20
161.17053
  0
VERTEX
  5
601
  8
Layer_0
  10
147.92506
  20
161.16919
  0
VERTEX
  5
602
  8
Layer_0
  10
148.04761
  20
161.16522
  0
VERTEX
  5
603
  8
Layer_0
  10
148.16852
  20
161.15857
  0
VERTEX
  5
604
  8
Layer_0
  10
148.28778
  20
161.14929
  0
VERTEX
  5
605
  8
Layer_0
  10
148.40541
  20
161.13739
  0
VERTEX
  5
606
  8
Layer_0
  10
148.5213
  20
161.1228
  0
VERTEX
  5
607
  8
Layer_0
  10
148.63559
  20
161.10553
  0
VERTEX
  5
608
  8
Layer_0
  10
148.74823
  20
161.08569
  0
VERTEX
  5
609
  8
Layer_0
  10
148.85916
  20
161.06311
  0
VERTEX
  5
60a
  8
Layer_0
  10
148.96849
  20
161.0379
  0
VERTEX
  5
60b
  8
Layer_0
  10
149.07617
  20
161.01007
  0
VERTEX
  5
60c
  8
Layer_0
  10
149.18211
  20
160.97949
  0
VERTEX
  5
60d
  8
Layer_0
  10
149.28644
  20
160.94635
  0
VERTEX
  5
60e
  8
Layer_0
  10
149.38911
  20
160.91052
  0
VERTEX
  5
60f
  8
Layer_0
  10
149.49014
  20
160.87207
  0
VERTEX
  5
610
  8
Layer_0
  10
149.58951
  20
160.83093
  0
VERTEX
  5
611
  8
Layer_0
  10
149.68721
  20
160.78723
  0
VERTEX
  5
612
  8
Layer_0
  10
149.78323
  20
160.74078
  0
VERTEX
  5
613
  8
Layer_0
  10
149.87764
  20
160.69171
  0
VERTEX
  5
614
  8
Layer_0
  10
149.97037
  20
160.64001
  0
VERTEX
  5
615
  8
Layer_0
  10
150.06143
  20
160.58557
  0
VERTEX
  5
616
  8
Layer_0
  10
150.15082
  20
160.52856
  0
VERTEX
  5
617
  8
Layer_0
  10
150.23859
  20
160.46887
  0
VERTEX
  5
618
  8
Layer_0
  10
150.32468
  20
160.40656
  0
VERTEX
  5
619
  8
Layer_0
  10
150.40892
  20
160.3418
  0
VERTEX
  5
61a
  8
Layer_0
  10
150.49091
  20
160.2749
  0
VERTEX
  5
61b
  8
Layer_0
  10
150.57077
  20
160.20581
  0
VERTEX
  5
61c
  8
Layer_0
  10
150.6485
  20
160.13464
  0
VERTEX
  5
61d
  8
Layer_0
  10
150.72409
  20
160.06128
  0
VERTEX
  5
61e
  8
Layer_0
  10
150.79749
  20
159.98572
  0
VERTEX
  5
61f
  8
Layer_0
  10
150.86874
  20
159.90808
  0
VERTEX
  5
620
  8
Layer_0
  10
150.93787
  20
159.82825
  0
VERTEX
  5
621
  8
Layer_0
  10
151.00479
  20
159.74622
  0
VERTEX
  5
622
  8
Layer_0
  10
151.06958
  20
159.66211
  0
VERTEX
  5
623
  8
Layer_0
  10
151.13226
  20
159.57581
  0
VERTEX
  5
624
  8
Layer_0
  10
151.19269
  20
159.48737
  0
VERTEX
  5
625
  8
Layer_0
  10
151.25101
  20
159.39673
  0
VERTEX
  5
626
  8
Layer_0
  10
151.30719
  20
159.30402
  0
VERTEX
  5
627
  8
Layer_0
  10
151.36121
  20
159.20911
  0
VERTEX
  5
628
  8
Layer_0
  10
151.41306
  20
159.112
  0
VERTEX
  5
629
  8
Layer_0
  10
151.46277
  20
159.01282
  0
VERTEX
  5
62a
  8
Layer_0
  10
151.51031
  20
158.91138
  0
VERTEX
  5
62b
  8
Layer_0
  10
151.55569
  20
158.80786
  0
VERTEX
  5
62c
  8
Layer_0
  10
151.59894
  20
158.70215
  0
VERTEX
  5
62d
  8
Layer_0
  10
151.64003
  20
158.5943
  0
VERTEX
  5
62e
  8
Layer_0
  10
151.67894
  20
158.48431
  0
VERTEX
  5
62f
  8
Layer_0
  10
151.71571
  20
158.37219
  0
VERTEX
  5
630
  8
Layer_0
  10
151.75034
  20
158.25781
  0
VERTEX
  5
631
  8
Layer_0
  10
150.44746
  20
157.95087
  0
SEQEND
  0
POLYLINE
  5
633
  8
Layer_0
  62
0
  70
1
  66
1
  10
0
  20
0
  30
0
  0
VERTEX
  5
633
  8
Layer_0
  10
157.44611
  20
156.21143
  0
VERTEX
  5
634
  8
Layer_0
  10
157.4303
  20
156.30298
  0
VERTEX
  5
635
  8
Layer_0
  10
157.41019
  20
156.39111
  0
VERTEX
  5
636
  8
Layer_0
  10
157.38577
  20
156.47577
  0
VERTEX
  5
637
  8
Layer_0
  10
157.35709
  20
156.55707
  0
VERTEX
  5
638
  8
Layer_0
  10
157.32402
  20
156.63495
  0
VERTEX
  5
639
  8
Layer_0
  10
157.28665
  20
156.70941
  0
VERTEX
  5
63a
  8
Layer_0
  10
157.245
  20
156.78046
  0
VERTEX
  5
63b
  8
Layer_0
  10
157.19904
  20
156.84814
  0
VERTEX
  5
63c
  8
Layer_0
  10
157.14874
  20
156.91235
  0
VERTEX
  5
63d
  8
Layer_0
  10
157.09415
  20
156.97314
  0
VERTEX
  5
63e
  8
Layer_0
  10
157.03525
  20
157.03058
  0
VERTEX
  5
63f
  8
Layer_0
  10
156.97203
  20
157.08459
  0
VERTEX
  5
640
  8
Layer_0
  10
156.9044
  20
157.1347
  0
VERTEX
  5
641
  8
Layer_0
  10
156.83229
  20
157.18042
  0
VERTEX
  5
642
  8
Layer_0
  10
156.75565
  20
157.22186
  0
VERTEX
  5
643
  8
Layer_0
  10
156.67456
  20
157.25891
  0
VERTEX
  5
644
  8
Layer_0
  10
156.58893
  20
157.29163
  0
VERTEX
  5
645
  8
Layer_0
  10
156.49881
  20
157.31995
  0
VERTEX
  5
646
  8
Layer_0
  10
156.40417
  20
157.34387
  0
VERTEX
  5
647
  8
Layer_0
  10
156.30505
  20
157.36353
  0
VERTEX
  5
648
  8
Layer_0
  10
156.20142
  20
157.37878
  0
VERTEX
  5
649
  8
Layer_0
  10
156.09332
  20
157.38965
  0
VERTEX
  5
64a
  8
Layer_0
  10
155.98068
  20
157.39618
  0
VERTEX
  5
64b
  8
Layer_0
  10
155.86356
  20
157.39832
  0
VERTEX
  5
64c
  8
Layer_0
  10
155.79395
  20
157.39789
  0
VERTEX
  5
64d
  8
Layer_0
  10
155.65967
  20
157.39398
  0
VERTEX
  5
64e
  8
Layer_0
  10
155.5322
  20
157.38623
  0
VERTEX
  5
64f
  8
Layer_0
  10
155.41138
  20
157.37457
  0
VERTEX
  5
650
  8
Layer_0
  10
155.2973
  20
157.35901
  0
VERTEX
  5
651
  8
Layer_0
  10
155.19
  20
157.3396
  0
VERTEX
  5
652
  8
Layer_0
  10
155.08932
  20
157.31628
  0
VERTEX
  5
653
  8
Layer_0
  10
154.99545
  20
157.28912
  0
VERTEX
  5
654
  8
Layer_0
  10
154.90829
  20
157.25806
  0
VERTEX
  5
655
  8
Layer_0
  10
154.82785
  20
157.22308
  0
VERTEX
  5
656
  8
Layer_0
  10
154.75415
  20
157.1842
  0
VERTEX
  5
657
  8
Layer_0
  10
154.68716
  20
157.14148
  0
VERTEX
  5
658
  8
Layer_0
  10
154.62672
  20
157.09521
  0
VERTEX
  5
659
  8
Layer_0
  10
154.57147
  20
157.04724
  0
VERTEX
  5
65a
  8
Layer_0
  10
154.5213
  20
156.99805
  0
VERTEX
  5
65b
  8
Layer_0
  10
154.47607
  20
156.94739
  0
VERTEX
  5
65c
  8
Layer_0
  10
154.43591
  20
156.89551
  0
VERTEX
  5
65d
  8
Layer_0
  10
154.40079
  20
156.84229
  0
VERTEX
  5
65e
  8
Layer_0
  10
154.37062
  20
156.78772
  0
VERTEX
  5
65f
  8
Layer_0
  10
154.34552
  20
156.73181
  0
VERTEX
  5
660
  8
Layer_0
  10
154.32542
  20
156.67456
  0
VERTEX
  5
661
  8
Layer_0
  10
154.31036
  20
156.61603
  0
VERTEX
  5
662
  8
Layer_0
  10
154.30032
  20
156.55615
  0
VERTEX
  5
663
  8
Layer_0
  10
154.29529
  20
156.49493
  0
VERTEX
  5
664
  8
Layer_0
  10
154.29495
  20
156.44403
  0
VERTEX
  5
665
  8
Layer_0
  10
154.30121
  20
156.36646
  0
VERTEX
  5
666
  8
Layer_0
  10
154.31578
  20
156.2915
  0
VERTEX
  5
667
  8
Layer_0
  10
154.33871
  20
156.21924
  0
VERTEX
  5
668
  8
Layer_0
  10
154.36996
  20
156.14954
  0
VERTEX
  5
669
  8
Layer_0
  10
154.40958
  20
156.08258
  0
VERTEX
  5
66a
  8
Layer_0
  10
154.47095
  20
156.00159
  0
VERTEX
  5
66b
  8
Layer_0
  10
154.53043
  20
155.93945
  0
VERTEX
  5
66c
  8
Layer_0
  10
154.59943
  20
155.8811
  0
VERTEX
  5
66d
  8
Layer_0
  10
154.67786
  20
155.82654
  0
VERTEX
  5
66e
  8
Layer_0
  10
154.78925
  20
155.76367
  0
VERTEX
  5
66f
  8
Layer_0
  10
154.91542
  20
155.70667
  0
VERTEX
  5
670
  8
Layer_0
  10
154.9967
  20
155.67902
  0
VERTEX
  5
671
  8
Layer_0
  10
155.1178
  20
155.64148
  0
VERTEX
  5
672
  8
Layer_0
  10
155.47929
  20
155.53687
  0
VERTEX
  5
673
  8
Layer_0
  10
156.10722
  20
155.36414
  0
VERTEX
  5
674
  8
Layer_0
  10
156.78107
  20
155.17505
  0
VERTEX
  5
675
  8
Layer_0
  10
157.25192
  20
155.02997
  0
VERTEX
  5
676
  8
Layer_0
  10
157.56909
  20
154.92114
  0
VERTEX
  5
677
  8
Layer_0
  10
157.77359
  20
154.84204
  0
VERTEX
  5
678
  8
Layer_0
  10
157.90216
  20
154.78497
  0
VERTEX
  5
679
  8
Layer_0
  10
157.98337
  20
154.74384
  0
VERTEX
  5
67a
  8
Layer_0
  10
158.06152
  20
154.69989
  0
VERTEX
  5
67b
  8
Layer_0
  10
158.1366
  20
154.6532
  0
VERTEX
  5
67c
  8
Layer_0
  10
158.20856
  20
154.60364
  0
VERTEX
  5
67d
  8
Layer_0
  10
158.27747
  20
154.55133
  0
VERTEX
  5
67e
  8
Layer_0
  10
158.34326
  20
154.49622
  0
VERTEX
  5
67f
  8
Layer_0
  10
158.40601
  20
154.43829
  0
VERTEX
  5
680
  8
Layer_0
  10
158.46567
  20
154.37756
  0
VERTEX
  5
681
  8
Layer_0
  10
158.52225
  20
154.31409
  0
VERTEX
  5
682
  8
Layer_0
  10
158.57578
  20
154.2478
  0
VERTEX
  5
683
  8
Layer_0
  10
158.62619
  20
154.17871
  0
VERTEX
  5
684
  8
Layer_0
  10
158.67305
  20
154.10681
  0
VERTEX
  5
685
  8
Layer_0
  10
158.71582
  20
154.03204
  0
VERTEX
  5
686
  8
Layer_0
  10
158.75452
  20
153.95447
  0
VERTEX
  5
687
  8
Layer_0
  10
158.78918
  20
153.87402
  0
VERTEX
  5
688
  8
Layer_0
  10
158.8197
  20
153.79077
  0
VERTEX
  5
689
  8
Layer_0
  10
158.84616
  20
153.70459
  0
VERTEX
  5
68a
  8
Layer_0
  10
158.86859
  20
153.61566
  0
VERTEX
  5
68b
  8
Layer_0
  10
158.8869
  20
153.52386
  0
VERTEX
  5
68c
  8
Layer_0
  10
158.90118
  20
153.4292
  0
VERTEX
  5
68d
  8
Layer_0
  10
158.91138
  20
153.33173
  0
VERTEX
  5
68e
  8
Layer_0
  10
158.91745
  20
153.23145
  0
VERTEX
  5
68f
  8
Layer_0
  10
158.91951
  20
153.12823
  0
VERTEX
  5
690
  8
Layer_0
  10
158.91702
  20
153.02643
  0
VERTEX
  5
691
  8
Layer_0
  10
158.90955
  20
152.9256
  0
VERTEX
  5
692
  8
Layer_0
  10
158.89713
  20
152.82574
  0
VERTEX
  5
693
  8
Layer_0
  10
158.87976
  20
152.72693
  0
VERTEX
  5
694
  8
Layer_0
  10
158.85733
  20
152.62909
  0
VERTEX
  5
695
  8
Layer_0
  10
158.82999
  20
152.53223
  0
VERTEX
  5
696
  8
Layer_0
  10
158.79764
  20
152.4364
  0
VERTEX
  5
697
  8
Layer_0
  10
158.76035
  20
152.34155
  0
VERTEX
  5
698
  8
Layer_0
  10
158.71806
  20
152.24768
  0
VERTEX
  5
699
  8
Layer_0
  10
158.67081
  20
152.15479
  0
VERTEX
  5
69a
  8
Layer_0
  10
158.61856
  20
152.06287
  0
VERTEX
  5
69b
  8
Layer_0
  10
158.56137
  20
151.97205
  0
VERTEX
  5
69c
  8
Layer_0
  10
158.49951
  20
151.88336
  0
VERTEX
  5
69d
  8
Layer_0
  10
158.4332
  20
151.7981
  0
VERTEX
  5
69e
  8
Layer_0
  10
158.36252
  20
151.71619
  0
VERTEX
  5
69f
  8
Layer_0
  10
158.28743
  20
151.63782
  0
VERTEX
  5
6a0
  8
Layer_0
  10
158.20789
  20
151.56274
  0
VERTEX
  5
6a1
  8
Layer_0
  10
158.12396
  20
151.49109
  0
VERTEX
  5
6a2
  8
Layer_0
  10
158.03568
  20
151.42291
  0
VERTEX
  5
6a3
  8
Layer_0
  10
157.94293
  20
151.35809
  0
VERTEX
  5
6a4
  8
Layer_0
  10
157.84579
  20
151.29675
  0
VERTEX
  5
6a5
  8
Layer_0
  10
157.74426
  20
151.23877
  0
VERTEX
  5
6a6
  8
Layer_0
  10
157.63831
  20
151.18414
  0
VERTEX
  5
6a7
  8
Layer_0
  10
157.52795
  20
151.133
  0
VERTEX
  5
6a8
  8
Layer_0
  10
157.41418
  20
151.08557
  0
VERTEX
  5
6a9
  8
Layer_0
  10
157.29794
  20
151.04236
  0
VERTEX
  5
6aa
  8
Layer_0
  10
157.17921
  20
151.00317
  0
VERTEX
  5
6ab
  8
Layer_0
  10
157.05809
  20
150.96814
  0
VERTEX
  5
6ac
  8
Layer_0
  10
156.93442
  20
150.93726
  0
VERTEX
  5
6ad
  8
Layer_0
  10
156.8083
  20
150.91046
  0
VERTEX
  5
6ae
  8
Layer_0
  10
156.67975
  20
150.88782
  0
VERTEX
  5
6af
  8
Layer_0
  10
156.54874
  20
150.86926
  0
VERTEX
  5
6b0
  8
Layer_0
  10
156.41525
  20
150.85486
  0
VERTEX
  5
6b1
  8
Layer_0
  10
156.2793
  20
150.84454
  0
VERTEX
  5
6b2
  8
Layer_0
  10
156.14087
  20
150.83838
  0
VERTEX
  5
6b3
  8
Layer_0
  10
156
  20
150.8363
  0
VERTEX
  5
6b4
  8
Layer_0
  10
155.88351
  20
150.83728
  0
VERTEX
  5
6b5
  8
Layer_0
  10
155.76935
  20
150.84033
  0
VERTEX
  5
6b6
  8
Layer_0
  10
155.6575
  20
150.84546
  0
VERTEX
  5
6b7
  8
Layer_0
  10
155.548
  20
150.85254
  0
VERTEX
  5
6b8
  8
Layer_0
  10
155.44086
  20
150.86176
  0
VERTEX
  5
6b9
  8
Layer_0
  10
155.33597
  20
150.87292
  0
VERTEX
  5
6ba
  8
Layer_0
  10
155.23346
  20
150.88617
  0
VERTEX
  5
6bb
  8
Layer_0
  10
155.13333
  20
150.90149
  0
VERTEX
  5
6bc
  8
Layer_0
  10
155.03549
  20
150.91876
  0
VERTEX
  5
6bd
  8
Layer_0
  10
154.93997
  20
150.93811
  0
VERTEX
  5
6be
  8
Layer_0
  10
154.84686
  20
150.95953
  0
VERTEX
  5
6bf
  8
Layer_0
  10
154.75598
  20
150.98291
  0
VERTEX
  5
6c0
  8
Layer_0
  10
154.66745
  20
151.00842
  0
VERTEX
  5
6c1
  8
Layer_0
  10
154.58128
  20
151.03589
  0
VERTEX
  5
6c2
  8
Layer_0
  10
154.49747
  20
151.06543
  0
VERTEX
  5
6c3
  8
Layer_0
  10
154.41595
  20
151.09705
  0
VERTEX
  5
6c4
  8
Layer_0
  10
154.33676
  20
151.13062
  0
VERTEX
  5
6c5
  8
Layer_0
  10
154.25992
  20
151.16626
  0
VERTEX
  5
6c6
  8
Layer_0
  10
154.18542
  20
151.20398
  0
VERTEX
  5
6c7
  8
Layer_0
  10
154.11325
  20
151.24365
  0
VERTEX
  5
6c8
  8
Layer_0
  10
154.0434
  20
151.2854
  0
VERTEX
  5
6c9
  8
Layer_0
  10
153.97589
  20
151.32922
  0
VERTEX
  5
6ca
  8
Layer_0
  10
153.91074
  20
151.37506
  0
VERTEX
  5
6cb
  8
Layer_0
  10
153.84787
  20
151.42291
  0
VERTEX
  5
6cc
  8
Layer_0
  10
153.78717
  20
151.47278
  0
VERTEX
  5
6cd
  8
Layer_0
  10
153.72824
  20
151.52466
  0
VERTEX
  5
6ce
  8
Layer_0
  10
153.6712
  20
151.57843
  0
VERTEX
  5
6cf
  8
Layer_0
  10
153.61606
  20
151.63416
  0
VERTEX
  5
6d0
  8
Layer_0
  10
153.56277
  20
151.69189
  0
VERTEX
  5
6d1
  8
Layer_0
  10
153.51129
  20
151.75159
  0
VERTEX
  5
6d2
  8
Layer_0
  10
153.4617
  20
151.81329
  0
VERTEX
  5
6d3
  8
Layer_0
  10
153.414
  20
151.87695
  0
VERTEX
  5
6d4
  8
Layer_0
  10
153.3681
  20
151.9425
  0
VERTEX
  5
6d5
  8
Layer_0
  10
153.3241
  20
152.01007
  0
VERTEX
  5
6d6
  8
Layer_0
  10
153.28198
  20
152.07959
  0
VERTEX
  5
6d7
  8
Layer_0
  10
153.24164
  20
152.15112
  0
VERTEX
  5
6d8
  8
Layer_0
  10
153.20322
  20
152.22455
  0
VERTEX
  5
6d9
  8
Layer_0
  10
153.16663
  20
152.29993
  0
VERTEX
  5
6da
  8
Layer_0
  10
153.13193
  20
152.37732
  0
VERTEX
  5
6db
  8
Layer_0
  10
153.09906
  20
152.45673
  0
VERTEX
  5
6dc
  8
Layer_0
  10
153.06805
  20
152.53802
  0
VERTEX
  5
6dd
  8
Layer_0
  10
153.03891
  20
152.62134
  0
VERTEX
  5
6de
  8
Layer_0
  10
153.01163
  20
152.70654
  0
VERTEX
  5
6df
  8
Layer_0
  10
152.98624
  20
152.79382
  0
VERTEX
  5
6e0
  8
Layer_0
  10
152.96265
  20
152.883
  0
VERTEX
  5
6e1
  8
Layer_0
  10
152.94095
  20
152.97412
  0
VERTEX
  5
6e2
  8
Layer_0
  10
152.92111
  20
153.06726
  0
VERTEX
  5
6e3
  8
Layer_0
  10
152.90314
  20
153.16235
  0
VERTEX
  5
6e4
  8
Layer_0
  10
154.11731
  20
153.35333
  0
VERTEX
  5
6e5
  8
Layer_0
  10
154.13693
  20
153.23407
  0
VERTEX
  5
6e6
  8
Layer_0
  10
154.16156
  20
153.11951
  0
VERTEX
  5
6e7
  8
Layer_0
  10
154.19128
  20
153.0097
  0
VERTEX
  5
6e8
  8
Layer_0
  10
154.22612
  20
152.90466
  0
VERTEX
  5
6e9
  8
Layer_0
  10
154.26596
  20
152.80432
  0
VERTEX
  5
6ea
  8
Layer_0
  10
154.31088
  20
152.70874
  0
VERTEX
  5
6eb
  8
Layer_0
  10
154.3609
  20
152.61786
  0
VERTEX
  5
6ec
  8
Layer_0
  10
154.41595
  20
152.53174
  0
VERTEX
  5
6ed
  8
Layer_0
  10
154.47607
  20
152.45038
  0
VERTEX
  5
6ee
  8
Layer_0
  10
154.54129
  20
152.37372
  0
VERTEX
  5
6ef
  8
Layer_0
  10
154.61154
  20
152.30182
  0
VERTEX
  5
6f0
  8
Layer_0
  10
154.68689
  20
152.23462
  0
VERTEX
  5
6f1
  8
Layer_0
  10
154.76736
  20
152.17255
  0
VERTEX
  5
6f2
  8
Layer_0
  10
154.85297
  20
152.11584
  0
VERTEX
  5
6f3
  8
Layer_0
  10
154.94376
  20
152.06458
  0
VERTEX
  5
6f4
  8
Layer_0
  10
155.03973
  20
152.01868
  0
VERTEX
  5
6f5
  8
Layer_0
  10
155.14081
  20
151.97815
  0
VERTEX
  5
6f6
  8
Layer_0
  10
155.2471
  20
151.94299
  0
VERTEX
  5
6f7
  8
Layer_0
  10
155.35852
  20
151.91333
  0
VERTEX
  5
6f8
  8
Layer_0
  10
155.47513
  20
151.88904
  0
VERTEX
  5
6f9
  8
Layer_0
  10
155.59689
  20
151.87012
  0
VERTEX
  5
6fa
  8
Layer_0
  10
155.72385
  20
151.85663
  0
VERTEX
  5
6fb
  8
Layer_0
  10
155.85593
  20
151.84851
  0
VERTEX
  5
6fc
  8
Layer_0
  10
155.99316
  20
151.84583
  0
VERTEX
  5
6fd
  8
Layer_0
  10
156.1311
  20
151.84827
  0
VERTEX
  5
6fe
  8
Layer_0
  10
156.263
  20
151.85541
  0
VERTEX
  5
6ff
  8
Layer_0
  10
156.38879
  20
151.86737
  0
VERTEX
  5
700
  8
Layer_0
  10
156.50859
  20
151.88416
  0
VERTEX
  5
701
  8
Layer_0
  10
156.62225
  20
151.90564
  0
VERTEX
  5
702
  8
Layer_0
  10
156.72986
  20
151.93195
  0
VERTEX
  5
703
  8
Layer_0
  10
156.83145
  20
151.96301
  0
VERTEX
  5
704
  8
Layer_0
  10
156.92694
  20
151.9989
  0
VERTEX
  5
705
  8
Layer_0
  10
157.01636
  20
152.03961
  0
VERTEX
  5
706
  8
Layer_0
  10
157.09973
  20
152.08508
  0
VERTEX
  5
707
  8
Layer_0
  10
157.17703
  20
152.13525
  0
VERTEX
  5
708
  8
Layer_0
  10
157.24829
  20
152.19031
  0
VERTEX
  5
709
  8
Layer_0
  10
157.31366
  20
152.24854
  0
VERTEX
  5
70a
  8
Layer_0
  10
157.37335
  20
152.30847
  0
VERTEX
  5
70b
  8
Layer_0
  10
157.42734
  20
152.37
  0
VERTEX
  5
70c
  8
Layer_0
  10
157.47568
  20
152.43323
  0
VERTEX
  5
70d
  8
Layer_0
  10
157.51828
  20
152.49805
  0
VERTEX
  5
70e
  8
Layer_0
  10
157.57159
  20
152.59851
  0
VERTEX
  5
70f
  8
Layer_0
  10
157.60001
  20
152.66754
  0
VERTEX
  5
710
  8
Layer_0
  10
157.62274
  20
152.73822
  0
VERTEX
  5
711
  8
Layer_0
  10
157.6398
  20
152.81055
  0
VERTEX
  5
712
  8
Layer_0
  10
157.65118
  20
152.88452
  0
VERTEX
  5
713
  8
Layer_0
  10
157.65686
  20
152.96021
  0
VERTEX
  5
714
  8
Layer_0
  10
157.65698
  20
153.03302
  0
VERTEX
  5
715
  8
Layer_0
  10
157.65192
  20
153.09985
  0
VERTEX
  5
716
  8
Layer_0
  10
157.64191
  20
153.16431
  0
VERTEX
  5
717
  8
Layer_0
  10
157.6268
  20
153.22626
  0
VERTEX
  5
718
  8
Layer_0
  10
157.60672
  20
153.28577
  0
VERTEX
  5
719
  8
Layer_0
  10
157.58168
  20
153.34283
  0
VERTEX
  5
71a
  8
Layer_0
  10
157.55151
  20
153.39734
  0
VERTEX
  5
71b
  8
Layer_0
  10
157.51636
  20
153.44946
  0
VERTEX
  5
71c
  8
Layer_0
  10
157.47617
  20
153.49915
  0
VERTEX
  5
71d
  8
Layer_0
  10
157.431
  20
153.54626
  0
VERTEX
  5
71e
  8
Layer_0
  10
157.38077
  20
153.591
  0
VERTEX
  5
71f
  8
Layer_0
  10
157.32556
  20
153.6333
  0
VERTEX
  5
720
  8
Layer_0
  10
157.27374
  20
153.6673
  0
VERTEX
  5
721
  8
Layer_0
  10
157.22122
  20
153.6958
  0
VERTEX
  5
722
  8
Layer_0
  10
157.12296
  20
153.74084
  0
VERTEX
  5
723
  8
Layer_0
  10
156.95544
  20
153.8053
  0
VERTEX
  5
724
  8
Layer_0
  10
156.74628
  20
153.87463
  0
VERTEX
  5
725
  8
Layer_0
  10
156.42615
  20
153.96826
  0
VERTEX
  5
726
  8
Layer_0
  10
155.61371
  20
154.18066
  0
VERTEX
  5
727
  8
Layer_0
  10
155.1445
  20
154.31238
  0
VERTEX
  5
728
  8
Layer_0
  10
154.82092
  20
154.41205
  0
VERTEX
  5
729
  8
Layer_0
  10
154.54338
  20
154.50653
  0
VERTEX
  5
72a
  8
Layer_0
  10
154.36545
  20
154.5741
  0
VERTEX
  5
72b
  8
Layer_0
  10
154.21339
  20
154.63867
  0
VERTEX
  5
72c
  8
Layer_0
  10
154.08328
  20
154.70239
  0
VERTEX
  5
72d
  8
Layer_0
  10
154.00156
  20
154.74792
  0
VERTEX
  5
72e
  8
Layer_0
  10
153.92334
  20
154.79602
  0
VERTEX
  5
72f
  8
Layer_0
  10
153.84866
  20
154.8468
  0
VERTEX
  5
730
  8
Layer_0
  10
153.77744
  20
154.90027
  0
VERTEX
  5
731
  8
Layer_0
  10
153.70975
  20
154.9563
  0
VERTEX
  5
732
  8
Layer_0
  10
153.64555
  20
155.01508
  0
VERTEX
  5
733
  8
Layer_0
  10
153.58487
  20
155.07648
  0
VERTEX
  5
734
  8
Layer_0
  10
153.52771
  20
155.1405
  0
VERTEX
  5
735
  8
Layer_0
  10
153.47403
  20
155.20721
  0
VERTEX
  5
736
  8
Layer_0
  10
153.42386
  20
155.27655
  0
VERTEX
  5
737
  8
Layer_0
  10
153.3772
  20
155.34857
  0
VERTEX
  5
738
  8
Layer_0
  10
153.33417
  20
155.42255
  0
VERTEX
  5
739
  8
Layer_0
  10
153.29486
  20
155.4978
  0
VERTEX
  5
73a
  8
Layer_0
  10
153.25931
  20
155.57434
  0
VERTEX
  5
73b
  8
Layer_0
  10
153.22755
  20
155.6521
  0
VERTEX
  5
73c
  8
Layer_0
  10
153.19946
  20
155.7312
  0
VERTEX
  5
73d
  8
Layer_0
  10
153.17514
  20
155.81152
  0
VERTEX
  5
73e
  8
Layer_0
  10
153.15454
  20
155.89319
  0
VERTEX
  5
73f
  8
Layer_0
  10
153.13771
  20
155.97614
  0
VERTEX
  5
740
  8
Layer_0
  10
153.1246
  20
156.0603
  0
VERTEX
  5
741
  8
Layer_0
  10
153.11526
  20
156.14581
  0
VERTEX
  5
742
  8
Layer_0
  10
153.10962
  20
156.23254
  0
VERTEX
  5
743
  8
Layer_0
  10
153.10776
  20
156.32056
  0
VERTEX
  5
744
  8
Layer_0
  10
153.10931
  20
156.40082
  0
VERTEX
  5
745
  8
Layer_0
  10
153.11743
  20
156.51929
  0
VERTEX
  5
746
  8
Layer_0
  10
153.13245
  20
156.6355
  0
VERTEX
  5
747
  8
Layer_0
  10
153.15439
  20
156.74951
  0
VERTEX
  5
748
  8
Layer_0
  10
153.1832
  20
156.86121
  0
VERTEX
  5
749
  8
Layer_0
  10
153.21899
  20
156.97076
  0
VERTEX
  5
74a
  8
Layer_0
  10
153.26172
  20
157.078
  0
VERTEX
  5
74b
  8
Layer_0
  10
153.31137
  20
157.18311
  0
VERTEX
  5
74c
  8
Layer_0
  10
153.36752
  20
157.2854
  0
VERTEX
  5
74d
  8
Layer_0
  10
153.42883
  20
157.38348
  0
VERTEX
  5
74e
  8
Layer_0
  10
153.49509
  20
157.47717
  0
VERTEX
  5
74f
  8
Layer_0
  10
153.56641
  20
157.56653
  0
VERTEX
  5
750
  8
Layer_0
  10
153.64262
  20
157.65149
  0
VERTEX
  5
751
  8
Layer_0
  10
153.72397
  20
157.73206
  0
VERTEX
  5
752
  8
Layer_0
  10
153.81027
  20
157.80829
  0
VERTEX
  5
753
  8
Layer_0
  10
153.90158
  20
157.88013
  0
VERTEX
  5
754
  8
Layer_0
  10
154.00803
  20
157.95496
  0
VERTEX
  5
755
  8
Layer_0
  10
154.11795
  20
158.021
  0
VERTEX
  5
756
  8
Layer_0
  10
154.23953
  20
158.08337
  0
VERTEX
  5
757
  8
Layer_0
  10
154.40759
  20
158.15625
  0
VERTEX
  5
758
  8
Layer_0
  10
154.59381
  20
158.22357
  0
VERTEX
  5
759
  8
Layer_0
  10
154.7971
  20
158.28467
  0
VERTEX
  5
75a
  8
Layer_0
  10
154.88101
  20
158.30603
  0
VERTEX
  5
75b
  8
Layer_0
  10
154.96594
  20
158.32544
  0
VERTEX
  5
75c
  8
Layer_0
  10
155.05185
  20
158.34277
  0
VERTEX
  5
75d
  8
Layer_0
  10
155.13873
  20
158.35803
  0
VERTEX
  5
75e
  8
Layer_0
  10
155.22662
  20
158.37122
  0
VERTEX
  5
75f
  8
Layer_0
  10
155.31552
  20
158.38245
  0
VERTEX
  5
760
  8
Layer_0
  10
155.40541
  20
158.3916
  0
VERTEX
  5
761
  8
Layer_0
  10
155.49628
  20
158.39874
  0
VERTEX
  5
762
  8
Layer_0
  10
155.58817
  20
158.40381
  0
VERTEX
  5
763
  8
Layer_0
  10
155.68103
  20
158.40686
  0
VERTEX
  5
764
  8
Layer_0
  10
155.7749
  20
158.4079
  0
VERTEX
  5
765
  8
Layer_0
  10
155.91556
  20
158.40619
  0
VERTEX
  5
766
  8
Layer_0
  10
156.05334
  20
158.40106
  0
VERTEX
  5
767
  8
Layer_0
  10
156.18823
  20
158.39258
  0
VERTEX
  5
768
  8
Layer_0
  10
156.32025
  20
158.38062
  0
VERTEX
  5
769
  8
Layer_0
  10
156.44934
  20
158.36523
  0
VERTEX
  5
76a
  8
Layer_0
  10
156.57553
  20
158.34656
  0
VERTEX
  5
76b
  8
Layer_0
  10
156.69888
  20
158.32434
  0
VERTEX
  5
76c
  8
Layer_0
  10
156.81931
  20
158.29877
  0
VERTEX
  5
76d
  8
Layer_0
  10
156.93684
  20
158.26978
  0
VERTEX
  5
76e
  8
Layer_0
  10
157.05154
  20
158.23737
  0
VERTEX
  5
76f
  8
Layer_0
  10
157.16327
  20
158.20154
  0
VERTEX
  5
770
  8
Layer_0
  10
157.27216
  20
158.16235
  0
VERTEX
  5
771
  8
Layer_0
  10
157.37726
  20
158.12024
  0
VERTEX
  5
772
  8
Layer_0
  10
157.47766
  20
158.07568
  0
VERTEX
  5
773
  8
Layer_0
  10
157.57336
  20
158.02869
  0
VERTEX
  5
774
  8
Layer_0
  10
157.6644
  20
157.97931
  0
VERTEX
  5
775
  8
Layer_0
  10
157.7507
  20
157.92749
  0
VERTEX
  5
776
  8
Layer_0
  10
157.83237
  20
157.87329
  0
VERTEX
  5
777
  8
Layer_0
  10
157.90933
  20
157.81665
  0
VERTEX
  5
778
  8
Layer_0
  10
157.98157
  20
157.75757
  0
VERTEX
  5
779
  8
Layer_0
  10
158.04916
  20
157.69617
  0
VERTEX
  5
77a
  8
Layer_0
  10
158.11203
  20
157.63226
  0
VERTEX
  5
77b
  8
Layer_0
  10
158.17023
  20
157.56598
  0
VERTEX
  5
77c
  8
Layer_0
  10
158.22372
  20
157.49725
  0
VERTEX
  5
77d
  8
Layer_0
  10
158.27356
  20
157.42542
  0
VERTEX
  5
77e
  8
Layer_0
  10
158.32074
  20
157.34955
  0
VERTEX
  5
77f
  8
Layer_0
  10
158.36528
  20
157.26978
  0
VERTEX
  5
780
  8
Layer_0
  10
158.40718
  20
157.18616
  0
VERTEX
  5
781
  8
Layer_0
  10
158.44638
  20
157.09851
  0
VERTEX
  5
782
  8
Layer_0
  10
158.48294
  20
157.00696
  0
VERTEX
  5
783
  8
Layer_0
  10
158.51688
  20
156.9115
  0
VERTEX
  5
784
  8
Layer_0
  10
158.54813
  20
156.81213
  0
VERTEX
  5
785
  8
Layer_0
  10
158.57672
  20
156.70874
  0
VERTEX
  5
786
  8
Layer_0
  10
158.60269
  20
156.6015
  0
VERTEX
  5
787
  8
Layer_0
  10
158.62601
  20
156.4903
  0
VERTEX
  5
788
  8
Layer_0
  10
158.64664
  20
156.37512
  0
VERTEX
  5
789
  8
Layer_0
  10
157.44611
  20
156.21143
  0
SEQEND
  0
ENDSEC
  0
EOF
