0
SECTION
2
HEADER
9
$INSUNITS
70
4
9
$ACADVER
1
AC1014
9
$HANDSEED
5
FFFF
0
ENDSEC
0
SECTION
2
TABLES
0
TABLE
2
VPORT
5
8
100
AcDbSymbolTable
0
ENDTAB
0
TABLE
2
LTYPE
5
5
100
AcDbSymbolTable
0
LTYPE
5
14
100
AcDbSymbolTableRecord
100
AcDbLinetypeTableRecord
2
BYBLOCK
70
0
0
LTYPE
5
15
100
AcDbSymbolTableRecord
100
AcDbLinetypeTableRecord
2
BYLAYER
70
0
0
ENDTAB
0
TABLE
2
LAYER
5
2
100
AcDbSymbolTable
70
2
0
LAYER
5
50
100
AcDbSymbolTableRecord
100
AcDbLayerTableRecord
2
0
70
0
6
CONTINUOUS
0
ENDTAB
0
TABLE
2
STYLE
5
3
100
AcDbSymbolTable
70
1
0
STYLE
5
11
100
AcDbSymbolTableRecord
100
AcDbTextStyleTableRecord
2
STANDARD
70
0
0
ENDTAB
0
TABLE
2
VIEW
5
6
100
AcDbSymbolTable
70
0
0
ENDTAB
0
TABLE
2
UCS
5
7
100
AcDbSymbolTable
70
0
0
ENDTAB
0
TABLE
2
APPID
5
9
100
AcDbSymbolTable
70
2
0
APPID
5
12
100
AcDbSymbolTableRecord
100
AcDbRegAppTableRecord
2
ACAD
70
0
0
ENDTAB
0
TABLE
2
DIMSTYLE
5
A
100
AcDbSymbolTable
70
1
0
ENDTAB
0
TABLE
2
BLOCK_RECORD
5
1
100
AcDbSymbolTable
70
1
0
BLOCK_RECORD
5
1F
100
AcDbSymbolTableRecord
100
AcDbBlockTableRecord
2
*MODEL_SPACE
0
BLOCK_RECORD
5
1B
100
AcDbSymbolTableRecord
100
AcDbBlockTableRecord
2
*PAPER_SPACE
0
ENDTAB
0
ENDSEC
0
SECTION
2
BLOCKS
0
BLOCK
5
20
100
AcDbEntity
100
AcDbBlockBegin
2
*MODEL_SPACE
0
ENDBLK
5
21
100
AcDbEntity
100
AcDbBlockEnd
0
BLOCK
5
1C
100
AcDbEntity
100
AcDbBlockBegin
2
*PAPER_SPACE
0
ENDBLK
5
1D
100
AcDbEntity
100
AcDbBlockEnd
0
ENDSEC
0
SECTION
2
ENTITIES
0
LWPOLYLINE
5
100
100
AcDbEntity
8
0
100
AcDbPolyline
90
3
70
1
43
0.0
10
4.0577824901436594
20
0.0099981240375957015
10
8.1031994054811136
20
16.613098634830635
10
0.0099999881168394422
20
16.613098634830624
0
LWPOLYLINE
5
101
100
AcDbEntity
8
0
100
AcDbPolyline
90
4
70
1
43
0.0
10
5.4576368548595049
20
11.25198511533184
10
2.6576368550994478
20
11.251951109677192
10
2.6576028494448076
20
14.051951109470679
10
5.457602849204866
20
14.051985115125323
0
LWPOLYLINE
5
102
100
AcDbEntity
8
0
100
AcDbPolyline
90
3
70
1
43
0.0
10
21.213848609636997
20
17.343975839240578
10
13.123199525091263
20
17.343975839240553
10
17.168524067364142
20
0.010001575536833229
0
LWPOLYLINE
5
103
100
AcDbEntity
8
0
100
AcDbPolyline
90
4
70
1
43
0.0
10
15.769438759164489
20
14.547258509466046
10
18.569438758926772
20
14.547222026288784
10
18.569402275749507
20
11.747222026526449
10
15.769402275987225
20
11.747258509703702
0
LWPOLYLINE
5
104
100
AcDbEntity
8
0
100
AcDbPolyline
90
3
70
1
43
0.0
10
33.165017723999391
20
16.221051718321256
10
26.233848808685238
20
0.0099988655274785287
10
40.096186639313544
20
0.0099988655274785287
0
LWPOLYLINE
5
105
100
AcDbEntity
8
0
100
AcDbPolyline
90
4
70
1
43
0.0
10
31.765877451747709
20
6.7962315472792945
10
34.565877451582899
20
6.7962013538669996
10
34.565847258170621
20
3.996201354029818
10
31.76584725833543
20
3.996231547442104
0
LWPOLYLINE
5
106
100
AcDbEntity
8
0
100
AcDbPolyline
90
3
70
1
43
0.0
10
45.116186460582604
20
17.23011845837199
10
52.043861765823756
20
0.0099994215454657365
10
58.971537071064887
20
17.23011845837199
0
LWPOLYLINE
5
107
100
AcDbEntity
8
0
100
AcDbPolyline
90
4
70
1
43
0.0
10
50.643123892352463
20
12.913306514213216
10
53.443123892187778
20
12.913336877667687
10
53.443154255642241
20
10.113336877832309
10
50.64315425580692
20
10.113306514377856
0
LWPOLYLINE
5
108
100
AcDbEntity
8
0
100
AcDbPolyline
90
3
70
1
43
0.0
10
73.070061480233647
20
16.144786948677215
10
63.99153755652862
20
0.0099988911665516156
10
82.148585403938654
20
0.0099988911665516156
0
LWPOLYLINE
5
109
100
AcDbEntity
8
0
100
AcDbPolyline
90
4
70
1
43
0.0
10
74.470632682674122
20
3.987291047980186
10
71.670632682913407
20
3.9873257941765505
10
71.670667429109784
20
6.7873257939609744
10
74.470667428870485
20
6.7872910477646009
0
LWPOLYLINE
5
110
100
AcDbEntity
8
0
100
AcDbPolyline
90
3
70
1
43
0.0
10
96.242358619401429
20
0.010001941519970359
10
105.31613165478248
20
17.11231008469089
10
87.168585584020377
20
17.112310084690883
0
LWPOLYLINE
5
111
100
AcDbEntity
8
0
100
AcDbPolyline
90
4
70
1
43
0.0
10
94.841914269286733
20
10.703836682467287
10
94.841880056385421
20
13.503836682258257
10
97.641880056145638
20
13.503870895159569
10
97.641914269046964
20
10.703870895368581
0
LWPOLYLINE
5
112
100
AcDbEntity
8
0
100
AcDbPolyline
90
3
70
1
43
0.0
10
110.33613204886893
20
0.010000457529830697
10
131.42996710921375
20
0.010000457529839579
10
120.88304957904134
20
16.225426378474125
0
LWPOLYLINE
5
113
100
AcDbEntity
8
0
100
AcDbPolyline
90
4
70
1
43
0.0
10
122.28257503197955
20
4.7161867916806877
10
119.48257503214538
20
4.7161579432205869
10
119.48254618368529
20
7.5161579430719705
10
122.28254618351946
20
7.5161867915320801
0
LWPOLYLINE
5
114
100
AcDbEntity
8
0
100
AcDbPolyline
90
3
70
1
43
0.0
10
136.44996749338412
20
16.926929744359825
10
146.99270116366654
20
0.010001588402275274
10
157.53543483394901
20
16.926929744359825
0
LWPOLYLINE
5
115
100
AcDbEntity
8
0
100
AcDbPolyline
90
4
70
1
43
0.0
10
148.3923456529549
20
9.8845282591897643
10
145.59234565312079
20
9.8844994796268359
10
145.59231687355782
20
12.68449947947893
10
148.39231687339196
20
12.684528259041867
0
LWPOLYLINE
5
116
100
AcDbEntity
8
0
100
AcDbPolyline
90
3
70
1
43
0.0
10
173.8757289767199
20
16.410467634068038
10
162.55543528172043
20
0.010000965892222879
10
185.19602267171933
20
0.010000965892231761
0
LWPOLYLINE
5
117
100
AcDbEntity
8
0
100
AcDbPolyline
90
4
70
1
43
0.0
10
172.47554689835783
20
4.0849030705281386
10
172.47551849125475
20
6.884903070384043
10
175.27551849111063
20
6.8849314774871306
10
175.27554689821375
20
4.084931477631244
0
LWPOLYLINE
5
118
100
AcDbEntity
8
0
100
AcDbPolyline
90
3
70
1
43
0.0
10
212.85313713139618
20
16.675937799472859
10
190.21602363042371
20
16.675937799472859
10
201.53458038090997
20
0.010000697619987342
0
LWPOLYLINE
5
119
100
AcDbEntity
8
0
100
AcDbPolyline
90
4
70
1
43
0.0
10
202.93447984654694
20
12.513357814406977
10
202.93450825721365
20
9.7133578145511166
10
200.13450825735777
20
9.7133294038844262
10
200.13447984669111
20
12.513329403740286
0
LWPOLYLINE
5
120
100
AcDbEntity
8
0
100
AcDbPolyline
90
3
70
1
43
0.0
10
240.54208871638713
20
0.010001190378750024
10
229.20761292218501
20
16.665013929101519
10
217.8731371279828
20
0.010001190378750024
0
LWPOLYLINE
5
121
100
AcDbEntity
8
0
100
AcDbPolyline
90
4
70
1
43
0.0
10
230.60775458595572
20
4.1691651968809307
10
227.80775458605621
20
4.1691889207339283
10
227.80777830990922
20
6.9691889206334334
10
230.60777830980871
20
6.9691651967804447
0
LWPOLYLINE
5
122
100
AcDbEntity
8
0
100
AcDbPolyline
90
3
70
1
43
0.0
10
256.89882948709067
20
0.010000039917579251
10
268.23557000932533
20
16.321855756711393
10
245.56208896485612
20
16.321855756711404
0
LWPOLYLINE
5
123
100
AcDbEntity
8
0
100
AcDbPolyline
90
4
70
1
43
0.0
10
258.29877768318255
20
9.4763632211628348
10
255.49877768327119
20
9.4763409452229617
10
255.49875540733132
20
12.276340945134351
10
258.29875540724277
20
12.276363221074199
0
LWPOLYLINE
5
124
100
AcDbEntity
8
0
100
AcDbPolyline
90
3
70
1
43
0.0
10
273.25556975255904
20
0.010000564394339051
10
293.82654038145324
20
0.010000564394330169
10
283.54105506700614
20
17.013106470226887
0
LWPOLYLINE
5
125
100
AcDbEntity
8
0
100
AcDbPolyline
90
4
70
1
43
0.0
10
282.14094568526673
20
4.2799395404851248
10
282.14096234285677
20
7.0799395404355936
10
284.94096234280721
20
7.0799228828456018
10
284.94094568521723
20
4.2799228828951508
0
LWPOLYLINE
5
126
100
AcDbEntity
8
0
100
AcDbPolyline
90
3
70
1
43
0.0
10
309.13787596627691
20
0.009999515659355751
10
319.42944809039579
20
15.99208296490724
10
298.84654082102884
20
15.99208296490724
0
LWPOLYLINE
5
127
100
AcDbEntity
8
0
100
AcDbPolyline
90
4
70
1
43
0.0
10
310.5378427208409
20
12.059578028845905
10
310.53783281441946
20
9.2595780288634355
10
307.73783281442894
20
9.259587935284884
10
307.7378427206304
20
12.059587935267334
0
LWPOLYLINE
5
128
100
AcDbEntity
8
0
100
AcDbPolyline
90
3
70
1
43
0.0
10
324.44944813554008
20
0.010000569989219166
10
340.21948561595968
20
0.010000569989223607
10
332.33435220349986
20
17.346634353771005
0
LWPOLYLINE
5
129
100
AcDbEntity
8
0
100
AcDbPolyline
90
4
70
1
43
0.0
10
330.93443004952314
20
4.3750515653563138
10
330.9344199690388
20
7.1750515653381663
10
333.73441996902068
20
7.1750616458225158
10
333.73443004950497
20
4.3750616458406588
0
LWPOLYLINE
5
130
100
AcDbEntity
8
0
100
AcDbPolyline
90
3
70
1
43
0.0
10
361.02041051642465
20
16.017096213920226
10
345.23948548967303
20
16.017096213920226
10
353.13003473463908
20
0.009999599124970171
0
LWPOLYLINE
5
131
100
AcDbEntity
8
0
100
AcDbPolyline
90
4
70
1
43
0.0
10
354.52996520611867
20
12.090134576817126
10
354.52996350845495
20
9.2901345768176391
10
351.72996350845551
20
9.2901362744813643
10
351.72996520611918
20
12.090136274480837
0
LWPOLYLINE
5
132
100
AcDbEntity
8
0
100
AcDbPolyline
90
3
70
1
43
0.0
10
374.73823160858268
20
0.0099998671327350408
10
370.38941183188683
20
17.489499488907011
10
366.04041080037473
20
0.0099998671327305999
0
LWPOLYLINE
5
133
100
AcDbEntity
8
0
100
AcDbPolyline
90
4
70
1
43
0.0
10
371.78945310362161
20
2.8650082953731326
10
368.98945310362944
20
2.8650149381103507
10
368.98945974636666
20
5.665014938102475
10
371.78945974635883
20
5.6650082953652436
0
LWPOLYLINE
5
134
100
AcDbEntity
8
0
100
AcDbPolyline
90
3
70
1
43
0.0
10
379.75823165176507
20
16.546968437922985
10
384.10889587115662
20
0.0099999873880350643
10
388.45961867140954
20
16.546968437923013
0
LWPOLYLINE
5
135
100
AcDbEntity
8
0
100
AcDbPolyline
90
4
70
1
43
0.0
10
382.7090063853222
20
11.198927408394294
10
382.70902640256742
20
13.998927408322741
10
385.50902640249581
20
13.99890739107752
10
385.50900638525064
20
11.198907391149078
0
LWPOLYLINE
5
136
100
AcDbEntity
8
0
100
AcDbPolyline
90
101
70
1
43
0.0
10
405.9279602143514
20
5.3187708349028462
10
407.26003121139848
20
3.3223773719737921
42
0.41421356237311469
10
408.09214732639259
20
3.1562967555032859
10
409.75580854550014
20
4.2663559197091949
42
0.41421356237309637
10
409.92188916197063
20
5.098472034703283
10
408.58981816492354
20
7.0948654976323269
10
412.90510703095333
20
9.9741932699667473
10
419.10378794021915
20
15.352007121437648
10
422.38412263067431
20
21.023934620188793
10
424.46168754955869
20
19.822383952168149
42
0.4142135623730836
10
425.28146644628498
20
20.0413875148841
10
426.28275866963548
20
21.77269161395445
42
0.41421356237311691
10
426.06375510691953
20
22.592470510680734
10
423.98619018803515
20
23.794021178701335
10
425.80978886043033
20
26.947150487957764
10
427.08135484002707
20
30.718475441322553
10
429.35556572656594
20
29.951686784945615
42
0.41421356237309026
10
430.11581561229491
20
30.328542342486116
10
430.75480615927563
20
32.223718081268473
42
0.41421356237310808
10
430.37795060173517
20
32.983967966997419
10
428.10373971519641
20
33.750756623374308
10
430.36262735384753
20
40.450369113159717
10
430.95190330626974
20
45.019976257989526
10
430.28821592496229
20
52.116816606858769
10
432.67778936659619
20
52.340286441596255
42
0.41421356237306789
10
433.21931526832032
20
52.993547260689155
10
433.03309040603898
20
54.984858462050809
42
0.41421356237307816
10
432.37982958694613
20
55.526384363774909
10
429.99025614531217
20
55.30291452903743
10
429.63060133436454
20
59.148720319362234
10
429.27969546110535
20
62.907283800663109
10
431.66930365810276
20
63.13038168241674
42
0.41421356237309542
10
432.21093123691367
20
63.783558202104508
10
432.02501633545228
20
65.774898366268971
42
0.41421356237309265
10
431.37183981576459
20
66.316525945079889
10
428.98223161876717
20
66.093428063326286
10
428.3328732047836
20
73.04872578577546
10
426.98224030948887
20
77.813396001443238
10
423.96297893502464
20
84.635439646728216
10
426.15764721452086
20
85.606743483317416
42
0.41421356237311091
10
426.46348832524774
20
86.398236512338826
10
425.65406846142321
20
88.227126745252335
42
0.41421356237309948
10
424.86257543240185
20
88.532967855979066
10
422.66790715290568
20
87.561664019389823
10
421.3280354588573
20
90.589114127945493
10
419.68971033685017
20
93.883803176541235
10
421.83868361161637
20
94.952406874991027
42
0.41421356237309892
10
422.10877600569546
20
95.756801118295044
10
421.21827292365396
20
97.547612180600197
42
0.41421356237308343
10
420.41387868034997
20
97.817704574679297
10
418.26490540558376
20
96.749100876229505
10
415.46058510753812
20
102.388618485168
10
409.83712868011071
20
109.44696361156596
10
406.61759153828206
20
112.83554952061012
10
408.35749261136425
20
114.48865092581414
42
0.41421356237309503
10
408.37919252833382
20
115.33690154538569
10
407.00160802399705
20
116.78681910628751
42
0.41421356237310791
10
406.15335740442561
20
116.80851902325702
10
404.41345633134341
20
115.15541761805301
10
402.6803884538416
20
116.97948397617067
10
400.60606215545806
20
117.92701357812498
10
401.6032467293698
20
120.11004425256645
42
0.41421356237307994
10
401.30678520423737
20
120.90509806465479
10
399.48759297553613
20
121.7360852095812
42
0.41421356237313023
10
398.6925391634478
20
121.43962368444878
10
397.69535458953607
20
119.25659301000734
10
394.78934872131492
20
120.58402475772139
10
393.47961862927104
20
117.71677125122693
10
402.6758422143788
20
102.16872740865229
42
0.26513071078292461
10
403.45048523682181
20
101.72690661789289
10
406.64420199601574
20
101.72690661789292
10
406.64420199736475
20
98.926906617762029
10
404.30914211244726
20
98.926906617762
42
0.56213780005092273
10
403.50987668093131
20
97.613173890045729
10
415.18165075889908
20
75.065173888992092
42
0.28029678299494248
10
415.98091619041509
20
74.578906616708423
10
419.14420201295593
20
74.578906616708437
10
419.14420201352891
20
71.778906616577544
10
416.40661802717455
20
71.778906616577544
42
0.45315660039816358
10
415.51434203480454
20
70.761247985614318
10
417.80336044665637
20
53.402247984787152
42
0.37631415599116974
10
418.69563643902637
20
52.619906615750402
10
421.64420201714154
20
52.619906615750374
10
421.64420201751005
20
49.819906615619509
10
418.48072283253663
20
49.819906615619487
42
0.28020164133602427
10
417.68160343787486
20
49.333921341294001
10
401.0105453552427
20
17.155921339820292
42
0.56225389456054398
10
401.80966474990447
20
15.841906614145781
10
404.14420202000707
20
15.841906614145756
10
404.14420202022143
20
13.041906614014851
10
400.85647789691103
20
13.041906614014891
42
0.21587106624348618
10
400.18006759035308
20
12.735597692929058
10
393.4848030112571
20
5.1074790849902492
10
394.08185407387549
20
2.0156048104494726
10
398.41684990144893
20
2.8527067219375257
10
398.87189142746433
20
0.49623961849615678
42
0.41421356237307172
10
399.57476858482858
20
0.020883224139646439
10
401.53849117102982
20
0.40008449581914302
42
0.41421356237308732
10
402.0138475653863
20
1.1029616531833977
10
401.55880603937084
20
3.4594287566247575
10
403.78586322103195
20
3.8894808023277294
0
LWPOLYLINE
5
137
100
AcDbEntity
8
0
100
AcDbPolyline
90
86
70
1
43
0.0
10
467.02120232187224
20
37.149308223887417
10
467.35298648299613
20
40.997865672640529
10
469.74411729227609
20
40.79172627099237
42
0.41421356237309898
10
470.39343484500819
20
41.337974122900356
10
470.56521767971498
20
43.330583130633698
42
0.41421356237308282
10
470.01896982780698
20
43.979900683365763
10
467.62783901852697
20
44.1860400850139
10
468.23965436535627
20
51.282842121390495
10
467.80073946819039
20
55.820174979285284
10
465.95594507247853
20
62.662752439223432
10
468.27320494666088
20
63.287497727724435
42
0.41421356237312162
10
468.69633359308125
20
64.022999018395325
10
468.17571251933043
20
65.954048913547297
42
0.4142135623730851
10
467.44021122865956
20
66.377177559967635
10
465.12295135447721
20
65.752432271466631
10
464.09660543980237
20
69.559280036278935
10
462.91899790070033
20
73.805543984455653
10
465.23170897911149
20
74.446923332263509
42
0.41421356237307133
10
465.64954191176236
20
75.185445938818262
10
465.1150591219224
20
77.112705170827553
42
0.41421356237312013
10
464.37653651536766
20
77.530538103478378
10
462.06382543695656
20
76.889158755670508
10
460.45262756456634
20
82.69887991636088
10
457.81320347603855
20
88.070949889157006
10
454.61556986606604
20
93.044258346753779
10
456.63430463668936
20
94.342222108141755
42
0.41421356237308776
10
456.81449738899823
20
95.171396741144633
10
455.73286092117479
20
96.853675716664071
42
0.41421356237305651
10
454.90368628817203
20
97.033868468972884
10
452.88495151754876
20
95.735904707584879
10
450.70923803134832
20
99.119811559352343
10
448.34358785549654
20
101.95489434776039
10
450.18633360958574
20
103.49251851698583
42
0.41421356237309953
10
450.26261400580165
20
104.33761099781451
10
448.98126053144711
20
105.87323245955544
42
0.41421356237309725
10
448.13616805061849
20
105.94951285577137
10
446.29342229652929
20
104.41188868654592
10
442.72986699992452
20
108.68258533902389
10
440.31411128077866
20
106.66683011480985
10
440.23319626908147
20
96.973292650921579
42
0.41666049619549439
10
441.1331649157687
20
96.065780329042695
10
443.97645919775044
20
96.065780329042695
10
443.97645919900913
20
93.26578032892057
10
441.64139931433897
20
93.265780328920584
42
0.56213780003746971
10
440.84213388280602
20
91.95204760123687
10
452.51390795956775
20
69.40404760025389
42
0.28029678300597277
10
453.31317339110063
20
68.91778032793755
10
456.47645921465107
20
68.917780327937564
10
456.47645921465107
20
66.117780327815439
10
453.73887522777909
20
66.117780327815424
42
0.45315660039404698
10
452.84659923540744
20
65.100121696864377
10
455.13561764701086
20
47.74112169609262
42
0.376314155995077
10
456.02789363938251
20
46.958780327043669
10
458.97645921746096
20
46.958780327043669
10
458.97645921780486
20
44.158780326921558
10
455.81298003285076
20
44.158780326921551
42
0.28020164133456538
10
455.0138606381912
20
43.672795052600378
10
438.34280255539079
20
11.494795051225362
42
0.56225389456231345
10
439.14192195005035
20
10.180780325546529
10
441.47645922013453
20
10.180780325546529
10
441.47645922033462
20
7.3807803254244151
10
439.6742688946926
20
7.3807803254244062
42
0.65675282244239297
10
439.01798299738408
20
5.8649160376190377
10
442.19021821997728
20
2.4844744683378304
10
444.04844888165132
20
0.010000015850926136
10
448.77504318247679
20
3.5594819861579738
10
450.21622168155687
20
1.6403664258569939
42
0.41421356237309759
10
451.05629519640217
20
1.5208821605517575
10
452.6555581633196
20
2.7218642431184681
42
0.41421356237308798
10
452.77504242862483
20
3.561937757963749
10
451.3338639295448
20
5.4810533182647028
10
454.24546380710672
20
7.6675475702358096
10
456.69546010852287
20
10.929139409796985
10
458.61438575822456
20
9.4877080548871557
42
0.4142135623730771
10
459.4544750093774
20
9.6070816285851084
10
460.65566780513564
20
11.206186336669788
42
0.41421356237308554
10
460.53629423143769
20
12.046275587822674
10
458.61736858173606
20
13.487706942732508
10
462.48616585750506
20
18.638097421391933
10
464.81955833273821
20
23.427982521450758
10
465.92026261930323
20
30.287911780025695
10
468.2899520014472
20
29.907685226305336
42
0.4142135623730947
10
468.97743098541326
20
30.405050933411268
10
469.29428644684691
20
32.37979208519792
42
0.41421356237306278
10
468.79692073974098
20
33.067271069164036
10
466.42723135759701
20
33.447497622884356
0
CIRCLE
5
138
100
AcDbEntity
8
0
100
AcDbCircle
10
498.09640384528234
20
22.518968867887455
30
0
40
14.899999999999995
210
0
220
-0
230
1
0
LWPOLYLINE
5
139
100
AcDbEntity
8
0
100
AcDbPolyline
90
144
70
1
43
0.0
10
514.57877566085574
20
37.020359947024737
10
512.41587599958154
20
34.8574342542856
10
510.43596509779542
20
36.837321327245185
10
512.59898052862707
20
39.000362790935093
42
0.44112324763816674
10
512.5586678176038
20
39.885687636696147
42
0.019935504032619563
10
511.12951596694597
20
40.982391855625778
42
0.44114812695774824
10
510.26388617297988
20
40.792207763590952
10
508.73450146190453
20
38.143180161421135
10
506.30961761239701
20
39.54315813165163
10
507.83908707198344
20
42.192332525628288
42
0.44112281640599754
10
507.5710072476827
20
43.037055775960155
42
0.019934692068520124
10
505.90677235917724
20
43.726470929119465
42
0.44114769571436657
10
505.1198610126209
20
43.318727840420053
10
504.32819780649021
20
40.364129413372787
10
501.62360113183388
20
41.08880646428716
10
502.41530671186695
20
44.04356303669752
42
0.44112324763808719
10
501.93773245714488
20
44.79012048821653
42
0.019935504032619563
10
500.15169853914483
20
45.025318276918249
42
0.44114812695779099
10
499.49713319331488
20
44.42779912483735
10
499.49716098244897
20
41.368981570494434
10
496.69716098243362
20
41.36895613269887
10
496.69713319175963
20
44.427943186731099
42
0.44112281640602524
10
496.04260762850714
20
45.025455068535479
42
0.019934692068519076
10
494.25663036061741
20
44.79038866067264
42
0.44114769571436768
10
493.77901668832305
20
44.043817114363236
10
494.5707154540961
20
41.089228215493435
10
491.86612750139568
20
40.364518613796719
10
491.07438635981691
20
43.319265657519637
42
0.4411232476381346
10
490.28751619727473
20
43.727016248558641
42
0.019935504032618519
10
488.62316655791523
20
43.037686549488257
42
0.44114812695778693
10
488.35505591602998
20
42.192937111623451
10
489.88448875929754
20
39.543937298587778
10
487.45963034758563
20
38.143915268802928
10
485.93011275313978
20
40.793061872105554
42
0.44112281640601481
10
485.06452104703465
20
40.983259559184972
42
0.019934692068520471
10
483.63535256639193
20
39.88669744445447
42
0.4411476957143019
10
483.59501276614509
20
39.001340683460796
10
485.75793845888421
20
36.838441022186565
10
483.77805138592464
20
34.858530120400474
10
481.61500992223472
20
37.021545551232137
42
0.44112324763812127
10
480.72968507647369
20
36.981232840208932
42
0.01993550403261991
10
479.632980857544
20
35.552080989551094
42
0.44114812695778433
10
479.82316494957888
20
34.686451195584958
10
482.47219255174866
20
33.15706648450962
10
481.07221458151821
20
30.732182635002118
10
478.42304018754157
20
32.261652094588541
42
0.44112281640602063
10
477.57831693720965
20
31.993572270287778
42
0.019934692068520124
10
476.88890178405029
20
30.329337381782242
42
0.44114769571432094
10
477.29664487274977
20
29.542426035225965
10
480.25124329979701
20
28.750762829095287
10
479.52656624888266
20
26.046166154438982
10
476.5718096764723
20
26.837871734471989
42
0.44112324763812616
10
475.82525222495326
20
26.360297479749946
42
0.019935504032619563
10
475.59005443625153
20
24.574263561749913
42
0.44114812695778804
10
476.1875735883325
20
23.919698215919958
10
479.24639114267541
20
23.919726005054088
10
479.24641658047096
20
21.11972600503875
10
476.18742952643868
20
21.119698214364718
42
0.44112281640602063
10
475.58991764463434
20
20.465172651112262
42
0.019934692068519427
10
475.82498405249714
20
18.679195383222496
42
0.44114769571434992
10
476.57155559880658
20
18.201581710928195
10
479.52614449767634
20
18.993280476701226
10
480.2508540993731
20
16.288692524000762
10
477.29610705565017
20
15.496951382422059
42
0.44112324763809485
10
476.88835646461115
20
14.710081219879845
42
0.019935504032618519
10
477.57768616368151
20
13.045731580520357
42
0.44114812695779743
10
478.42243560154634
20
12.777620938635083
10
481.07143541458208
20
14.307053781902637
10
482.47145744436688
20
11.882195370190704
10
479.82231084106422
20
10.35267777574489
42
0.44112281640601192
10
479.6321131539849
20
9.4870860696397497
42
0.019934692068518382
10
480.72867526871528
20
8.0579175889971602
42
0.44114769571439288
10
481.61403202970905
20
8.017577788750172
10
483.7769316909833
20
10.1805034814893
10
485.75684259276932
20
8.2006164085297133
10
483.59382716193772
20
6.0375749448398057
42
0.44112324763811445
10
483.63413987296093
20
5.1522500990787528
42
0.019935504032618519
10
485.0632917236187
20
4.0555458801491229
42
0.44114812695775019
10
485.92892151758485
20
4.2457299721839536
10
487.45830622866026
20
6.8947575743537692
10
489.88319007816767
20
5.4947796041232717
10
488.35372061858129
20
2.84560521014662
42
0.44112281640599427
10
488.62180044288203
20
2.0008819598147598
42
0.019934692068520471
10
490.28603533138755
20
1.3114668066554236
42
0.44114769571432955
10
491.07294667794383
20
1.7192098953548562
10
491.86460988407453
20
4.6738083224021203
10
494.56920655873085
20
3.9491312714877491
10
493.77750097869784
20
0.99437469907738052
42
0.44112324763809596
10
494.25507523341986
20
0.24781724755837065
42
0.019935504032619563
10
496.04110915141985
20
0.012619458856662005
42
0.44114812695779076
10
496.69567449724985
20
0.61013861093756727
10
496.69564670811576
20
3.668956165280477
10
499.49564670813112
20
3.6689816030760425
10
499.4956744988051
20
0.60999454904380634
42
0.44112281640598783
10
500.15020006205754
20
0.012482667239432921
42
0.019934692068520471
10
501.93617732994738
20
0.24754907510227561
42
0.44114769571432921
10
502.41379100224162
20
0.99412062141165602
10
501.62209223646863
20
3.9487095202814659
10
504.32668018916905
20
4.6734191219781867
10
505.11842133074776
20
1.7186720782552722
42
0.44112324763813515
10
505.90529149329001
20
1.3109214872162545
42
0.019935504032617821
10
507.56964113264939
20
2.0002511862866212
42
0.44114812695782551
10
507.83775177453481
20
2.8450006241514547
10
506.30831893126719
20
5.4940004371871298
10
508.73317734297916
20
6.8940224669719763
10
510.2626949374249
20
4.2448758636693462
42
0.44112281640600071
10
511.12828664353003
20
4.0546781765899436
42
0.019934692068519427
10
512.55745512417275
20
5.1512402913203932
42
0.44114769571434248
10
512.59779492441965
20
6.0365970523141099
10
510.43486923168052
20
8.1994967135883439
10
512.41475630464015
20
10.179407615374434
10
514.57779776833002
20
8.0163921845427737
42
0.4411232476381286
10
515.46312261409105
20
8.0567048955659804
42
0.019935504032619563
10
516.55982683302068
20
9.4858567462238046
42
0.44114812695773348
10
516.36964274098591
20
10.351486540189946
10
513.72061513881602
20
11.880871251265289
10
515.12059310904658
20
14.305755100772789
10
517.76976750302322
20
12.776285641186366
42
0.4411228164060198
10
518.61449075335508
20
13.04436546548712
42
0.019934692068520124
10
519.30390590651439
20
14.708600353992608
42
0.4411476957143578
10
518.89616281781502
20
15.495511700548937
10
515.94156439076767
20
16.287174906679613
10
516.66624144168213
20
18.991771581335925
10
519.62099801409249
20
18.200066001302911
42
0.44112324763812588
10
520.36755546561142
20
18.677640256024958
42
0.019935504032618519
10
520.60275325431314
20
20.463674174024931
42
0.44114812695782429
10
520.00523410223218
20
21.118239519854956
10
516.94641654788927
20
21.118211730720819
10
516.94639111009383
20
23.918211730736161
10
520.005378164126
20
23.918239521410186
42
0.44112281640601847
10
520.60289004593039
20
24.572765084662645
42
0.019934692068519427
10
520.36782363806753
20
26.358742352552412
42
0.44114769571434914
10
519.62125209175815
20
26.836356024846708
10
516.66666319288834
20
26.044657259073677
10
515.94195359119158
20
28.749245211774141
10
518.89670063491462
20
29.540986353352849
42
0.44112324763809485
10
519.30445122595358
20
30.327856515895064
42
0.019935504032618519
10
518.61512152688317
20
31.99220615525455
42
0.4411481269578002
10
517.77037208901834
20
32.260316797139822
10
515.12137227598271
20
30.730883953872265
10
513.72135024619786
20
33.155742365584196
10
516.37049684950046
20
34.68525996003001
42
0.44112281640598788
10
516.56069453657994
20
35.550851666135145
42
0.019934692068521168
10
515.4641324218494
20
36.980020146777832
42
0.44114769571433965
0
CIRCLE
5
140
100
AcDbEntity
8
0
100
AcDbCircle
10
560.66737392411369
20
35.05200121094385
30
0
40
27.399999999999999
210
0
220
-0
230
1
0
LWPOLYLINE
5
141
100
AcDbEntity
8
0
100
AcDbPolyline
90
144
70
1
43
0.0
10
534.21729354400054
20
18.164909736492913
10
531.53954025440521
20
16.618875717494124
42
0.43130045966446945
10
531.33819142811933
20
15.76965036576264
42
0.03646362797413133
10
534.45055578985023
20
11.713439838936402
42
0.43131188005386012
10
535.32297314898096
20
11.68812809036357
10
537.50929339468269
20
13.874474649407507
10
539.48920429646887
20
11.894587576447924
10
537.30283052465018
20
9.708187490642878
42
0.431300657615168
10
537.3281358111791
20
8.835785536141687
42
0.036464829382204529
10
541.38440675147558
20
5.723223926185419
42
0.43131207800668314
10
542.2336480896754
20
5.924575267116623
10
543.77959427051326
20
8.6022887782116531
10
546.20447812002089
20
7.202310807981176
10
544.65849275566336
20
4.5245294276156223
42
0.43130045966448172
10
544.90873223294329
20
3.6884042863354205
42
0.0364636279741321
10
549.63222409944888
20
1.7318051078714847
42
0.43131188005382681
10
550.40041556944493
20
2.1460931701585428
10
551.20065116350884
20
5.132684954618183
10
553.90524783816522
20
4.4080079037038233
10
553.10499265250473
20
1.4213430006508521
42
0.43130065761515457
10
553.56310865073942
20
0.67847338900610232
42
0.036464829382204911
10
558.63222313464701
20
0.011051434088020715
42
0.43131207800663968
10
559.26701203700623
20
0.61004747952037697
10
559.2669839469479
20
3.7019884946044845
10
562.06698394696321
20
3.7020139324000612
10
562.06701203773355
20
0.60999454904381079
42
0.43130045966446495
10
562.70178835272782
20
0.011008674592276613
42
0.0364636279741321
10
567.7707518929227
20
0.67829001427147873
42
0.43131188005383136
10
568.2288811897663
20
1.4211697356947317
10
567.4286096510084
20
4.4077518888026868
10
570.13319760370882
20
5.1324614904994181
10
570.93348873494313
20
2.1458062190339255
42
0.43130065761514791
10
571.70166363311682
20
1.731520262767452
42
0.036464829382205105
10
576.42535652833146
20
3.6880731367186703
42
0.43131207800664007
10
576.67560182109878
20
4.5242133800091411
10
575.12960698685265
20
7.201898801045874
10
577.55446539856462
20
8.6019208308307249
10
579.10049941756347
20
5.9241675412354455
42
0.43130045966446662
10
579.9497247692949
20
5.7228187149495158
42
0.036463627974131718
10
584.00593529612115
20
8.8351830766804529
42
0.43131188005383325
10
584.03124704469394
20
9.7076004358111234
10
581.84490048564999
20
11.893920681512888
10
583.82478755860961
20
13.873831583298992
10
586.01118764441469
20
11.68745781148032
42
0.43130065761514447
10
586.88358959891593
20
11.712763098009278
42
0.036464829382204529
10
589.99615120887211
20
15.769034038305776
42
0.4313120780066762
10
589.79479986794092
20
16.618275376505515
10
587.1170863568459
20
18.164221557343481
10
588.51706432707635
20
20.589105406850983
10
591.19484570744191
20
19.043120042493527
42
0.43130045966448211
10
592.03097084872206
20
19.293359519773482
42
0.036463627974131524
10
593.98757002718605
20
24.016851386278944
42
0.43131188005383309
10
593.57328196489902
20
24.78504285627502
10
590.5866901804394
20
25.585278450339022
10
591.31136723135364
20
28.289875124995334
10
594.29803213440675
20
27.489619939334879
42
0.43130065761515413
10
595.04090174605142
20
27.947735937569611
42
0.036464829382205105
10
595.70832370096946
20
33.016850421477102
42
0.43131207800665289
10
595.10932765553719
20
33.65163932383637
10
592.01738664045308
20
33.65161123377807
10
592.01736120265753
20
36.451611233793408
10
595.1093805860138
20
36.451639324563686
42
0.43130045966444991
10
595.7083664604653
20
37.08641563955797
42
0.036463627974131524
10
595.04108512078608
20
42.155379179752835
42
0.43131188005385535
10
594.29820539936281
20
42.613508476596422
10
591.31162324625484
20
41.81323693783856
10
590.58691364455808
20
44.517824890539018
10
593.57356891602365
20
45.318116021773335
42
0.43130065761513231
10
593.98785487229009
20
46.086290919947047
42
0.036464829382204911
10
592.0313019983389
20
50.809983815161594
42
0.43131207800665744
10
591.19516175504839
20
51.060229107928983
10
588.51747633401169
20
49.514234273682838
10
587.11745430422684
20
51.939092685394769
10
589.79520759382217
20
53.485126704393558
42
0.43130045966446856
10
589.99655642010805
20
54.334352056125041
42
0.036463627974132287
10
586.88419205837704
20
58.390562582951318
42
0.4313118800538191
10
586.01177469924642
20
58.415874331524137
10
583.82545445354469
20
56.229527772480182
10
581.84554355175851
20
58.20941484543976
10
584.03191732357732
20
60.3958149312448
42
0.43130065761514486
10
584.00661203704828
20
61.268216885746
42
0.036464829382204911
10
579.9503410967518
20
64.380778495702259
42
0.43131207800668803
10
579.1010997585521
20
64.179427154771048
10
577.55515357771412
20
61.501713643676048
10
575.13026972820649
20
62.901691613906522
10
576.67625509256402
20
65.579472994272066
42
0.4313004596644836
10
576.42601561528409
20
66.415598135552273
42
0.036463627974131718
10
571.70252374877862
20
68.372197314016191
42
0.43131188005385301
10
570.93433227878245
20
67.957909251729163
10
570.13409668471854
20
64.971317467269515
10
567.42950001006216
20
65.69599451818388
10
568.22975519572265
20
68.682659421236849
42
0.43130065761515624
10
567.77163919748796
20
69.425529032881599
42
0.036464829382204911
10
562.70252471358037
20
70.092950987799682
42
0.43131207800663734
10
562.06773581122116
20
69.493954942367324
10
562.06776390127948
20
66.402013927283221
10
559.26776390126417
20
66.401988489487636
10
559.26773581049383
20
69.494007872843895
42
0.43130045966446495
10
558.63295949549956
20
70.092993747295438
42
0.0364636279741321
10
553.56399595530468
20
69.425712407616231
42
0.43131188005382837
10
553.10586665846108
20
68.682832686192967
10
553.90613819721898
20
65.696250533085006
10
551.20155024451856
20
64.97154093138829
10
550.40125911328425
20
67.95819620285377
42
0.4313006576151458
10
549.63308421511056
20
68.372482159120253
42
0.036464829382204529
10
544.90939131989603
20
66.415929285169071
42
0.43131207800668508
10
544.6591460271286
20
65.579789041878541
10
546.20514086137473
20
62.902103620841828
10
543.78028244966276
20
61.502081591056964
10
542.23424843066391
20
64.179834880652251
42
0.43130045966446973
10
541.38502307893248
20
64.381183706938174
42
0.0364636279741321
10
537.32881255210623
20
61.268819345207234
42
0.43131188005382443
10
537.30350080353344
20
60.396401986076583
10
539.48984736257739
20
58.210081740374811
10
537.50996028961777
20
56.230170838588691
10
535.32356020381269
20
58.416544610407385
42
0.43130065761513825
10
534.45115824931145
20
58.391239323878409
42
0.036464829382204911
10
531.33859663935527
20
54.334968383581909
42
0.43131207800667054
10
531.53994798028646
20
53.485727045382177
10
534.21766149138148
20
51.939780864544211
10
532.81768352115103
20
49.514897015036716
10
530.13990214078547
20
51.060882379394172
42
0.43130045966446579
10
529.30377699950532
20
50.810642902114211
42
0.03646362797413133
10
527.34717782104133
20
46.08715103560877
42
0.43131188005384974
10
527.76146588332836
20
45.318959565612658
10
530.74805766778798
20
44.518723971548667
10
530.02338061687374
20
41.814127296892359
10
527.03671571382063
20
42.614382482552806
42
0.43130065761514985
10
526.29384610217596
20
42.156266484318081
42
0.036464829382204147
10
525.62642414725792
20
37.087152000410661
42
0.43131207800668581
10
526.22542019269019
20
36.452363098051322
10
529.3173612077743
20
36.452391188109623
10
529.31738664556985
20
33.652391188094285
10
526.22536726221358
20
33.652363097324013
42
0.43130045966445218
10
525.62638138776208
20
33.01758678232973
42
0.036463627974131524
10
526.2936627274413
20
27.948623242134861
42
0.43131188005385585
10
527.03654244886457
20
27.490493945291277
10
530.02312460197254
20
28.290765484049135
10
530.7478342036693
20
25.586177531348678
10
527.76117893220373
20
24.785886400114371
42
0.43130065761512931
10
527.34689297593729
20
24.017711501940653
42
0.036464829382204911
10
529.30344584988848
20
19.294018606726105
42
0.43131207800664934
10
530.13958609317899
20
19.04377331395871
10
532.81727151421569
20
20.589768148204843
0
LWPOLYLINE
5
142
100
AcDbEntity
8
0
100
AcDbPolyline
90
144
70
1
43
0.0
10
602.5356807879441
20
25.875142295110727
42
0.038427881392888906
10
604.74418520339566
20
20.543415544846503
42
0.4301397639572998
10
605.57925128468082
20
20.295273610841225
10
608.26042095960679
20
21.843215166932257
10
609.66039892983736
20
19.418331317424759
10
606.97927329145864
20
17.870415185312723
42
0.43014729607869301
10
606.77663040501159
20
17.023146680712319
42
0.038429200369016391
10
610.28995451314802
20
12.444540433264999
42
0.4301398922881246
10
611.16079051195516
20
12.420987213996021
10
613.34995746297363
20
14.610127817727889
10
615.32984453593315
20
12.630216915941794
10
613.1407123154155
20
10.441111042292611
42
0.43014716774697231
10
613.1642660208347
20
9.5702649193496505
42
0.038427881392888545
10
617.74275032411788
20
6.057106315309575
42
0.43013976395731862
10
618.59000973135221
20
6.2597421373594031
10
620.13800000364904
20
8.9408836859708263
10
622.56285841536101
20
7.5408616561859665
10
621.01489356784339
20
4.8597641436598726
42
0.430147296078706
10
621.26303393258422
20
4.0246866516259461
42
0.038429200369016203
10
626.59496498568228
20
1.8161593814786192
42
0.43013989228814847
10
627.36090769281384
20
2.2311796946544016
10
628.16221158365511
20
5.2216145454513763
10
630.86679953635553
20
4.4969049437546493
10
630.06550835796884
20
1.5065175353418869
42
0.43014716774698314
10
630.5213295266866
20
0.76411952279566986
42
0.038427881392888726
10
636.24299254617813
20
0.010877075814721346
42
0.43013976395731907
10
636.87542280541356
20
0.60999454904381079
10
636.8754509317281
20
3.705926377431652
10
639.6754509317434
20
3.7059009396360754
10
639.67542280589089
20
0.61001996000638492
42
0.43014729607865737
10
640.3078574114777
20
0.010891820146805564
42
0.038429200369017112
10
646.02970878976157
20
0.76421662579759353
42
0.43013989228809996
10
646.48552447539282
20
1.5066061136601583
10
645.68425657561431
20
4.4970506082333062
10
648.38885325027059
20
5.2217276591476702
10
649.19010843816568
20
2.2313306071117367
42
0.43014716774700168
10
649.95606015613112
20
1.8163056528865162
42
0.038427881392888726
10
655.28778690639524
20
4.0248100683380361
42
0.43013976395733206
10
655.53592884040063
20
4.8598761496232967
10
653.9879872843095
20
7.541045824549224
10
656.41287113381713
20
8.94102379477971
10
657.96078726592907
20
6.2598981564010714
42
0.43014729607866958
10
658.80805577052934
20
6.0572552699539983
42
0.038429200369016932
10
663.38666201797673
20
9.5705793780904216
42
0.43013989228813199
10
663.41021523724578
20
10.441415376897636
10
661.22107463351381
20
12.630582327915976
10
663.20098553529999
20
14.610469400875555
10
665.39009140894916
20
12.421337180357895
42
0.43014716774695766
10
666.26093753189207
20
12.444890885777063
42
0.038427881392888358
10
669.77409613593204
20
17.023375189060239
42
0.43013976395740605
10
669.57146031388231
20
17.87063459629471
10
666.89031876527099
20
19.418624868591486
10
668.29034079505573
20
21.843483280303417
10
670.97143830758182
20
20.295518432785762
42
0.4301472960787579
10
671.80651579961591
20
20.543658797526593
42
0.038429200369016203
10
674.01504306976324
20
25.875589850624692
42
0.43013989228806399
10
673.60002275658746
20
26.641532557756229
10
670.60958790579036
20
27.442836448597504
10
671.33429750748724
20
30.147424401297958
10
674.32468491589987
20
29.346133222911224
42
0.43014716774695883
10
675.0670829284461
20
29.801954391628954
42
0.038427881392888906
10
675.82032537542705
20
35.52361741112059
42
0.43013976395732878
10
675.22120790219799
20
36.156047670355996
10
672.12527607381026
20
36.156075796670493
10
672.12530151160558
20
38.956075796685838
10
675.22118249123537
20
38.956047670833286
42
0.43014729607869556
10
675.82031063109503
20
39.588482276420145
42
0.038429200369016203
10
675.06698582544414
20
45.310333654703847
42
0.43013989228818938
10
674.32459633758162
20
45.766149340335332
10
671.33415184300839
20
44.964881440556695
10
670.60947479209415
20
47.66947811521301
10
673.59987184413001
20
48.470733303108098
42
0.43014716774701267
10
674.01489679835527
20
49.23668502107347
42
0.038427881392888906
10
671.80639238290371
20
54.568411771337665
42
0.43013976395730263
10
670.97132630161855
20
54.816553705342976
10
668.29015662669258
20
53.268612149251936
10
666.89017865646201
20
55.693495998759431
10
669.57130429484073
20
57.241412130871481
42
0.43014729607872254
10
669.77394718128778
20
58.088680635471874
42
0.038429200369016203
10
666.26062307315135
20
62.6672868829192
42
0.43013989228815741
10
665.3897870743441
20
62.690840102188183
10
663.20062012332585
20
60.501699498456311
10
661.22073305036622
20
62.481610400242417
10
663.40986527088387
20
64.6707162738916
42
0.43014716774696615
10
663.38631156546467
20
65.541562396834536
42
0.038427881392888726
10
658.80782726218149
20
69.054721000874622
42
0.43013976395727049
10
657.96056785494716
20
68.852085178824808
10
656.41257758265033
20
66.170943630213387
10
653.98771917093836
20
67.570965659998237
10
655.5356840184561
20
70.252063172524331
42
0.43014729607870889
10
655.28754365371526
20
71.087140664558277
42
0.038429200369017112
10
649.95561260061709
20
73.295667934705577
42
0.43013989228810595
10
649.18966989348564
20
72.880647621529818
10
648.38836600264426
20
69.89021277073283
10
645.68377804994384
20
70.614922372429561
10
646.48506922833053
20
73.605309780842305
42
0.43014716774699174
10
646.02924805961277
20
74.347707793388508
42
0.038427881392888177
10
640.30758504012124
20
75.100950240369485
42
0.4301397639573587
10
639.6751547808858
20
74.501832767140399
10
639.67512665457127
20
71.405900938752552
10
636.87512665455597
20
71.405926376548138
10
636.87515478040848
20
74.501807356177821
42
0.43014729607872987
10
636.24272017482167
20
75.100935496037394
42
0.038429200369016751
10
630.5208687965378
20
74.347610690386603
42
0.43013989228813221
10
630.06505311090643
20
73.605221202524049
10
630.86632101068506
20
70.614776707950909
10
628.16172433602878
20
69.890099657036529
10
627.36046914813369
20
72.88049670907246
42
0.43014716774696693
10
626.59451743016825
20
73.295521663297691
42
0.038427881392888726
10
621.26279067990413
20
71.087017247846148
42
0.43013976395733006
10
621.01464874589874
20
70.2519511665609
10
622.56259030198987
20
67.570781491634975
10
620.13770645248235
20
66.170803521404494
10
618.5897903203703
20
68.851929159783126
42
0.43014729607870156
10
617.74252181576992
20
69.054572046230206
42
0.038429200369016023
10
613.16391556832264
20
65.54124793809379
42
0.43013989228813937
10
613.14036234905359
20
64.670411939286552
10
615.32950295278545
20
62.481244988268216
10
613.34959205099938
20
60.501357915308631
10
611.16048617735021
20
62.690490135826302
42
0.43014716774698114
10
610.28964005440719
20
62.666936430407119
42
0.038427881392888906
10
606.7764814503671
20
58.088452127123901
42
0.43013976395731218
10
606.97911727241694
20
57.241192719889483
10
609.66025882102838
20
55.693202447592697
10
608.26023679124353
20
53.268344035880773
10
605.57913927871743
20
54.81630888339842
42
0.43014729607871294
10
604.74406178668357
20
54.5681685186576
42
0.038429200369016571
10
602.53553451653625
20
49.236237465559505
42
0.43013989228815047
10
602.95055482971202
20
48.470294758427968
10
605.94098968050889
20
47.6689908675867
10
605.21628007881225
20
44.964402914886243
10
602.2258926703995
20
45.765694093272984
42
0.43014716774698547
10
601.48349465785327
20
45.309872924555251
42
0.038427881392888906
10
600.73025221087232
20
39.588209905063614
42
0.43013976395732495
10
601.32936968410138
20
38.955779645828208
10
604.42530151248923
20
38.955751519513711
10
604.42527607469367
20
36.155751519498367
10
601.329395095064
20
36.155779645350911
42
0.43014729607873481
10
600.73026695520434
20
35.523345039764052
42
0.038429200369016751
10
601.48359176085523
20
29.801493661480329
42
0.43013989228814209
10
602.22598124871774
20
29.345677975848862
10
605.21642574329087
20
30.146945875627495
10
605.94110279420522
20
27.44234920097119
10
602.95070574216925
20
26.641094013076092
42
0.43014716774696371
0
CIRCLE
5
143
100
AcDbEntity
8
0
100
AcDbCircle
10
638.27528879314968
20
37.555913658092102
30
0
40
29.900000000000002
210
0
220
-0
230
1
0
LWPOLYLINE
5
144
100
AcDbEntity
8
0
100
AcDbPolyline
90
144
70
1
43
0.0
10
697.95895668601759
20
3.8519501850353777
10
697.17030687887063
20
0.90859818680789406
42
0.4446353164020137
10
697.65483226142294
20
0.16088379622544835
42
0.014079099586866282
10
698.77688555377085
20
0.013164002820644782
42
0.44463914341448518
10
699.43842247332225
20
0.61000545095620584
10
699.4383947901714
20
3.6571571894837218
10
702.23839479018682
20
3.6571826272792984
10
702.23842247357379
20
0.61000488331229397
42
0.444635250067899
10
702.89996247705619
20
0.013174655066612306
42
0.014077676454378964
10
704.02190205295267
20
0.16088212720105405
42
0.44463907707998612
10
704.50642587710468
20
0.90860354277279454
10
703.71774714716526
20
3.8519217857639143
10
706.42233509986568
20
4.5766313874606439
10
707.21102033130035
20
1.6332888811424606
42
0.44463531640196835
10
708.00448881666034
20
1.2280119153990121
42
0.014079099586865295
10
709.05007536893595
20
1.661109467842643
42
0.44463914341453242
10
709.324562422741
20
2.5087577837351982
10
707.80096257916523
20
5.1476547569105158
10
710.22582099087731
20
6.5476767866953729
10
711.7494338373773
20
3.9087572922669533
42
0.44463525006785209
10
712.62075940013528
20
3.7226571546008569
42
0.014077676454380936
10
713.51853383830576
20
4.411545365746381
42
0.44463907707999156
10
713.56428307097417
20
5.3013530186610662
10
711.40960813392667
20
7.4560020235438724
10
713.38949520688629
20
9.4359129253299692
10
715.54418790605735
20
7.281246158537245
42
0.44463531640199994
10
716.43399025435315
20
7.3270002533146883
42
0.014079099586865295
10
717.12294599425741
20
8.2248670121855163
42
0.44463914341455824
10
716.93683459791623
20
9.0961955141261281
10
714.29790994159009
20
10.619747409077984
10
715.69788791182066
20
13.044631258585486
10
718.33683508963622
20
11.521066361118493
42
0.44463525006788002
10
719.18447523078453
20
11.795561695630932
42
0.014077676454379951
10
719.61752659553554
20
12.841043605935738
42
0.44463907708003803
10
719.21224276677265
20
13.63451425417589
10
716.26891503195054
20
14.423157560119508
10
716.99359208286501
20
17.127754234775814
10
719.93694408109241
20
16.339104427628833
42
0.44463531640203668
10
720.68465847167488
20
16.823629810181139
42
0.014079099586866282
10
720.83237826507968
20
17.945683102529088
42
0.44463914341449068
10
720.23553681694409
20
18.607220022080448
10
717.18838507841656
20
18.607192338929579
10
717.188359640621
20
21.40719233894492
10
720.23553738458804
20
21.407220022332041
42
0.44463525006789251
10
720.83236761283376
20
22.068760025814299
42
0.014077676454380936
10
720.68466014069929
20
23.190699601710925
42
0.44463907707997607
10
719.93693872512745
20
23.67522342586274
10
716.99362048213629
20
22.886544695923362
10
716.26891088043965
20
25.59113264862382
10
719.21225338675777
20
26.379817880058578
42
0.44463531640201615
10
719.61753035250126
20
27.17328636541847
42
0.014079099586865295
10
719.18443280005761
20
28.218872917694124
42
0.44463914341453409
10
718.33678448416504
20
28.493359971499146
10
715.69788751098986
20
26.969760127923482
10
714.29786548120489
20
29.39461853963541
10
716.93678497563337
20
30.918231386135417
42
0.444635250067834
10
717.12288511329939
20
31.789556948893541
42
0.014077676454380936
10
716.43399690215392
20
32.687331387063907
42
0.44463907707999639
10
715.54418924923925
20
32.73308061973232
10
713.38954024435634
20
30.578405682684817
10
711.40962934257027
20
32.558292755644402
10
713.564296109363
20
34.712985454815602
42
0.44463531640196391
10
713.51854201458559
20
35.602787803111354
42
0.014079099586867268
10
712.62067525571467
20
36.291743543015677
42
0.44463914341449201
10
711.74934675377415
20
36.105632146674466
10
710.22579485882238
20
33.466707490348284
10
707.80091100931486
20
34.866685460578772
10
709.3244759067818
20
37.50563263839431
42
0.44463525006790561
10
709.04998057226931
20
38.353272779542664
42
0.014077676454381923
10
708.00449866196448
20
38.786324144293765
42
0.44463907707996175
10
707.21102801372444
20
38.381040315530889
10
706.42238470778079
20
35.437712580708705
10
703.71778803312452
20
36.162389631623071
10
704.50643784027147
20
39.105741629850556
42
0.4446353164020137
10
704.02191245771917
20
39.853456020433001
42
0.014079099586866282
10
702.89985916537125
20
40.001175813837818
42
0.4446391434144869
10
702.23832224581986
20
39.40433436570224
10
702.23834992897071
20
36.357182627174737
10
699.43834992895529
20
36.357157189379159
10
699.43832224556832
20
39.404334933346156
42
0.44463525006790039
10
698.77678224208591
20
40.001165161591828
42
0.014077676454379951
10
697.65484266618944
20
39.853457689457386
42
0.44463907707998135
10
697.17031884203743
20
39.105736273885661
10
697.95899757197685
20
36.162418030894536
10
695.25440961927643
20
35.437708429197805
10
694.46572438784176
20
38.381050935515987
42
0.44463531640196796
10
693.67225590248177
20
38.78632790125944
42
0.01407909958686431
10
692.62666935020616
20
38.353230348815842
42
0.44463914341454064
10
692.35218229640111
20
37.50558203292325
10
693.87578213997688
20
34.866685059747937
10
691.4509237282648
20
33.46666302996308
10
689.92731088176481
20
36.105582524391494
42
0.44463525006790722
10
689.0559853190066
20
36.291682662057596
42
0.014077676454379951
10
688.15821088083635
20
35.602794450912086
42
0.44463907707999784
10
688.11246164816794
20
34.712986797997381
10
690.26713658521544
20
32.558337793114575
10
688.28724951225581
20
30.57842689132848
10
686.13255681308476
20
32.733093658121206
42
0.44463531640199094
10
685.24275446478896
20
32.687339563343755
42
0.014079099586866282
10
684.5537987248847
20
31.789472804472897
42
0.44463914341454802
10
684.73991012122588
20
30.918144302532312
10
687.37883477755202
20
29.394592407580461
10
685.97885680732145
20
26.969708558072966
10
683.33990962950588
20
28.493273455539953
42
0.44463525006788113
10
682.49226948835758
20
28.218778121027519
42
0.014077676454379951
10
682.05921812360657
20
27.173296210722711
42
0.44463907707997002
10
682.46450195236935
20
26.379825562482555
10
685.40782968719157
20
25.591182256538936
10
684.6831526362771
20
22.886585581882631
10
681.7398006380497
20
23.675235389029613
42
0.4446353164020353
10
680.99208624746723
20
23.19071000647731
42
0.01407909958686431
10
680.84436645406242
20
22.068656714129474
42
0.4446391434145458
10
681.44120790219802
20
21.407119794577998
10
684.48835964072555
20
21.40714747772887
10
684.48838507852111
20
18.607147477713532
10
681.44120733455406
20
18.607119794326408
42
0.44463525006789983
10
680.84437710630846
20
17.94557979084415
42
0.014077676454380936
10
680.99208457844281
20
16.823640214947524
42
0.44463907707997891
10
681.73980599401466
20
16.339116390795709
10
684.68312423700581
20
17.12779512073509
10
685.40783383870246
20
14.423207168034631
10
682.46449133238434
20
13.634521936599873
42
0.44463531640201615
10
682.05921436664084
20
12.841053451239981
42
0.014079099586866282
10
682.4923119190845
20
11.795466898964285
42
0.44463914341451843
10
683.33996023497707
20
11.520979845159296
10
685.97885720815225
20
13.044579688734959
10
687.37887923793721
20
10.619721277023036
10
684.73995974350885
20
9.0961084305230226
42
0.44463525006789489
10
684.55385960584272
20
8.2247828677648993
42
0.014077676454380936
10
685.24274781698819
20
7.3270084295945352
42
0.4446390770799955
10
686.13255546990285
20
7.281259196926122
10
688.28720447478577
20
9.4359341339736265
10
690.26711537657184
20
7.4560470610140461
10
688.11244860977911
20
5.3013543618428471
42
0.44463531640196391
10
688.15820270455652
20
4.4115520135470954
42
0.014079099586867268
10
689.05606946342743
20
3.7225962736427975
42
0.44463914341449884
10
689.92739796536796
20
3.908707669983984
10
691.45094986031972
20
6.5476323263101621
10
693.87583370982725
20
5.1476543560796788
10
692.35226881236031
20
2.5087071782641401
42
0.444635250067906
10
692.6267641468728
20
1.6610670371157799
42
0.014077676454379951
10
693.67224605717752
20
1.2280156723647107
42
0.44463907708003209
10
694.46571670541766
20
1.6332995011275564
10
695.25436001136131
20
4.57662723594974
0
CIRCLE
5
145
100
AcDbEntity
8
0
100
AcDbCircle
10
700.83837235957105
20
20.007169908329224
30
0
40
12.399999999999999
210
0
220
-0
230
1
0
ENDSEC
0
SECTION
2
OBJECTS
0
DICTIONARY
5
C
100
AcDbDictionary
3
ACAD_GROUP
350
D
3
ACAD_MLINESTYLE
350
17
0
DICTIONARY
5
D
100
AcDbDictionary
0
DICTIONARY
5
1A
330
C
100
AcDbDictionary
0
DICTIONARY
5
17
100
AcDbDictionary
0
ENDSEC
0
EOF
