  0
SECTION
  2
HEADER
  9
$ACADVER
  1
AC1014
  9
$HANDSEED
  5
FFFF
  9
$MEASUREMENT
 70
     1
  0
ENDSEC
  0
SECTION
  2
TABLES
  0
TABLE
  2
VPORT
  5
8
330
0
100
AcDbSymbolTable
 70
     4
  0
VPORT
  5
2E
330
8
100
AcDbSymbolTableRecord
100
AcDbViewportTableRecord
  2
*ACTIVE
 70
     0
 10
0.0
 20
0.0
 11
1.0
 21
1.0
 12
210.0
 22
148.5
 13
0.0
 23
0.0
 14
10.0
 24
10.0
 15
10.0
 25
10.0
 16
0.0
 26
0.0
 36
1.0
 17
0.0
 27
0.0
 37
0.0
 40
341.0
 41
1.24
 42
50.0
 43
0.0
 44
0.0
 50
0.0
 51
0.0
 71
     0
 72
   100
 73
     1
 74
     3
 75
     0
 76
     0
 77
     0
 78
     0
  0
ENDTAB
  0
TABLE
  2
LTYPE
  5
5
330
0
100
AcDbSymbolTable
 70
     1
  0
LTYPE
  5
14
330
5
100
AcDbSymbolTableRecord
100
AcDbLinetypeTableRecord
  2
BYBLOCK
 70
     0
  3

 72
    65
 73
     0
 40
0.0
  0
LTYPE
  5
15
330
5
100
AcDbSymbolTableRecord
100
AcDbLinetypeTableRecord
  2
BYLAYER
 70
     0
  3

 72
    65
 73
     0
 40
0.0
  0
LTYPE
  5
16
330
5
100
AcDbSymbolTableRecord
100
AcDbLinetypeTableRecord
  2
CONTINUOUS
 70
     0
  3
Solid line
 72
    65
 73
     0
 40
0.0
  0
ENDTAB
  0
TABLE
  2
LAYER
  5
2
100
AcDbSymbolTable
 70
1
  0
LAYER
  5
50
100
AcDbSymbolTableRecord
100
AcDbLayerTableRecord
  2
0
 70
0
  6
CONTINUOUS
  0
ENDTAB
  0
TABLE
  2
STYLE
  5
3
330
0
100
AcDbSymbolTable
 70
     1
  0
STYLE
  5
11
330
3
100
AcDbSymbolTableRecord
100
AcDbTextStyleTableRecord
  2
STANDARD
 70
     0
 40
0.0
 41
1.0
 50
0.0
 71
     0
 42
2.5
  3
txt
  4

  0
ENDTAB
  0
TABLE
  2
VIEW
  5
6
330
0
100
AcDbSymbolTable
 70
     0
  0
ENDTAB
  0
TABLE
  2
UCS
  5
7
330
0
100
AcDbSymbolTable
 70
     0
  0
ENDTAB
  0
TABLE
  2
APPID
  5
9
330
0
100
AcDbSymbolTable
 70
     2
  0
APPID
  5
12
330
9
100
AcDbSymbolTableRecord
100
AcDbRegAppTableRecord
  2
ACAD
 70
     0
  0
ENDTAB
  0
TABLE
  2
DIMSTYLE
  5
A
330
0
100
AcDbSymbolTable
 70
     1
  0
DIMSTYLE
105
27
330
A
100
AcDbSymbolTableRecord
100
AcDbDimStyleTableRecord
  2
ISO-25
 70
     0
  3

  4

  5

  6

  7

 40
1.0
 41
2.5
 42
0.625
 43
3.75
 44
1.25
 45
0.0
 46
0.0
 47
0.0
 48
0.0
140
2.5
141
2.5
142
0.0
143
0.03937007874016
144
1.0
145
0.0
146
1.0
147
0.625
 71
     0
 72
     0
 73
     0
 74
     0
 75
     0
 76
     0
 77
     1
 78
     8
170
     0
171
     3
172
     1
173
     0
174
     0
175
     0
176
     0
177
     0
178
     0
270
     2
271
     2
272
     2
273
     2
274
     3
340
11
275
     0
280
     0
281
     0
282
     0
283
     0
284
     8
285
     0
286
     0
287
     3
288
     0
  0
ENDTAB
  0
TABLE
  2
BLOCK_RECORD
  5
1
330
0
100
AcDbSymbolTable
 70
     1
  0
BLOCK_RECORD
  5
1F
330
1
100
AcDbSymbolTableRecord
100
AcDbBlockTableRecord
  2
*MODEL_SPACE
  0
BLOCK_RECORD
  5
1B
330
1
100
AcDbSymbolTableRecord
100
AcDbBlockTableRecord
  2
*PAPER_SPACE
  0
ENDTAB
  0
ENDSEC
  0
SECTION
  2
BLOCKS
  0
BLOCK
  5
20
330
1F
100
AcDbEntity
  8
0
100
AcDbBlockBegin
  2
*MODEL_SPACE
 70
     0
 10
0.0
 20
0.0
 30
0.0
  3
*MODEL_SPACE
  1

  0
ENDBLK
  5
21
330
1F
100
AcDbEntity
  8
0
100
AcDbBlockEnd
  0
BLOCK
  5
1C
330
1B
100
AcDbEntity
 67
     1
  8
0
100
AcDbBlockBegin
  2
*PAPER_SPACE
  1

  0
ENDBLK
  5
1D
330
1B
100
AcDbEntity
 67
     1
  8
0
100
AcDbBlockEnd
  0
ENDSEC
  0
SECTION
  2
ENTITIES
  0
LWPOLYLINE
  5
100
100
AcDbEntity
  8
0
 62
7
100
AcDbPolyline
 90
7
 70
1
 10
-32.747774
 20
16.100000
 30
0.0
 10
-32.747774
 20
13.894643
 30
0.0
 10
-32.847774
 20
13.894643
 30
0.0
 10
-32.847774
 20
16.000000
 30
0.0
 10
-34.980803
 20
16.000000
 30
0.0
 10
-34.980803
 20
16.100000
 30
0.0
 10
-32.747774
 20
16.100000
 30
0.0
  0
LWPOLYLINE
  5
101
100
AcDbEntity
  8
0
 62
7
100
AcDbPolyline
 90
7
 70
1
 10
14.161691
 20
16.100000
 30
0.0
 10
14.161691
 20
16.000000
 30
0.0
 10
12.028663
 20
16.000000
 30
0.0
 10
12.028663
 20
13.894643
 30
0.0
 10
11.928663
 20
13.894643
 30
0.0
 10
11.928663
 20
16.100000
 30
0.0
 10
14.161691
 20
16.100000
 30
0.0
  0
LWPOLYLINE
  5
102
100
AcDbEntity
  8
0
 62
7
100
AcDbPolyline
 90
7
 70
1
 10
14.695635
 20
16.100000
 30
0.0
 10
16.928663
 20
16.100000
 30
0.0
 10
16.928663
 20
13.894643
 30
0.0
 10
16.828663
 20
13.894643
 30
0.0
 10
16.828663
 20
16.000000
 30
0.0
 10
14.695635
 20
16.000000
 30
0.0
 10
14.695635
 20
16.100000
 30
0.0
  0
LWPOLYLINE
  5
103
100
AcDbEntity
  8
0
 62
7
100
AcDbPolyline
 90
7
 70
1
 10
24.096979
 20
16.100000
 30
0.0
 10
24.096979
 20
16.000000
 30
0.0
 10
21.963951
 20
16.000000
 30
0.0
 10
21.963951
 20
13.894643
 30
0.0
 10
21.863951
 20
13.894643
 30
0.0
 10
21.863951
 20
16.100000
 30
0.0
 10
24.096979
 20
16.100000
 30
0.0
  0
LWPOLYLINE
  5
104
100
AcDbEntity
  8
0
 62
7
100
AcDbPolyline
 90
7
 70
1
 10
-15.644171
 20
16.100000
 30
0.0
 10
-15.644171
 20
16.000000
 30
0.0
 10
-17.777199
 20
16.000000
 30
0.0
 10
-17.777199
 20
13.894643
 30
0.0
 10
-17.877199
 20
13.894643
 30
0.0
 10
-17.877199
 20
16.100000
 30
0.0
 10
-15.644171
 20
16.100000
 30
0.0
  0
LWPOLYLINE
  5
105
100
AcDbEntity
  8
0
 62
7
100
AcDbPolyline
 90
7
 70
1
 10
-5.174940
 20
16.100000
 30
0.0
 10
-2.941912
 20
16.100000
 30
0.0
 10
-2.941912
 20
13.894643
 30
0.0
 10
-3.041912
 20
13.894643
 30
0.0
 10
-3.041912
 20
16.000000
 30
0.0
 10
-5.174940
 20
16.000000
 30
0.0
 10
-5.174940
 20
16.100000
 30
0.0
  0
LWPOLYLINE
  5
106
100
AcDbEntity
  8
0
 62
7
100
AcDbPolyline
 90
7
 70
1
 10
-5.708883
 20
16.100000
 30
0.0
 10
-5.708883
 20
16.000000
 30
0.0
 10
-7.841912
 20
16.000000
 30
0.0
 10
-7.841912
 20
13.894643
 30
0.0
 10
-7.941912
 20
13.894643
 30
0.0
 10
-7.941912
 20
16.100000
 30
0.0
 10
-5.708883
 20
16.100000
 30
0.0
  0
LWPOLYLINE
  5
107
100
AcDbEntity
  8
0
 62
7
100
AcDbPolyline
 90
7
 70
1
 10
-25.045515
 20
16.100000
 30
0.0
 10
-22.812487
 20
16.100000
 30
0.0
 10
-22.812487
 20
13.894643
 30
0.0
 10
-22.912487
 20
13.894643
 30
0.0
 10
-22.912487
 20
16.000000
 30
0.0
 10
-25.045515
 20
16.000000
 30
0.0
 10
-25.045515
 20
16.100000
 30
0.0
  0
LWPOLYLINE
  5
108
100
AcDbEntity
  8
0
 62
7
100
AcDbPolyline
 90
7
 70
1
 10
-15.110228
 20
16.100000
 30
0.0
 10
-12.877199
 20
16.100000
 30
0.0
 10
-12.877199
 20
13.894643
 30
0.0
 10
-12.977199
 20
13.894643
 30
0.0
 10
-12.977199
 20
16.000000
 30
0.0
 10
-15.110228
 20
16.000000
 30
0.0
 10
-15.110228
 20
16.100000
 30
0.0
  0
LWPOLYLINE
  5
109
100
AcDbEntity
  8
0
 62
7
100
AcDbPolyline
 90
7
 70
1
 10
4.226404
 20
16.100000
 30
0.0
 10
4.226404
 20
16.000000
 30
0.0
 10
2.093376
 20
16.000000
 30
0.0
 10
2.093376
 20
13.894643
 30
0.0
 10
1.993376
 20
13.894643
 30
0.0
 10
1.993376
 20
16.100000
 30
0.0
 10
4.226404
 20
16.100000
 30
0.0
  0
LWPOLYLINE
  5
10a
100
AcDbEntity
  8
0
 62
7
100
AcDbPolyline
 90
7
 70
1
 10
-25.579458
 20
16.100000
 30
0.0
 10
-25.579458
 20
16.000000
 30
0.0
 10
-27.712487
 20
16.000000
 30
0.0
 10
-27.712487
 20
13.894643
 30
0.0
 10
-27.812487
 20
13.894643
 30
0.0
 10
-27.812487
 20
16.100000
 30
0.0
 10
-25.579458
 20
16.100000
 30
0.0
  0
LWPOLYLINE
  5
10b
100
AcDbEntity
  8
0
 62
7
100
AcDbPolyline
 90
7
 70
1
 10
34.566210
 20
16.100000
 30
0.0
 10
36.799238
 20
16.100000
 30
0.0
 10
36.799238
 20
13.894643
 30
0.0
 10
36.699238
 20
13.894643
 30
0.0
 10
36.699238
 20
16.000000
 30
0.0
 10
34.566210
 20
16.000000
 30
0.0
 10
34.566210
 20
16.100000
 30
0.0
  0
LWPOLYLINE
  5
10c
100
AcDbEntity
  8
0
 62
7
100
AcDbPolyline
 90
7
 70
1
 10
24.630922
 20
16.100000
 30
0.0
 10
26.863951
 20
16.100000
 30
0.0
 10
26.863951
 20
13.894643
 30
0.0
 10
26.763951
 20
13.894643
 30
0.0
 10
26.763951
 20
16.000000
 30
0.0
 10
24.630922
 20
16.000000
 30
0.0
 10
24.630922
 20
16.100000
 30
0.0
  0
LWPOLYLINE
  5
10d
100
AcDbEntity
  8
0
 62
7
100
AcDbPolyline
 90
7
 70
1
 10
4.760347
 20
16.100000
 30
0.0
 10
6.993376
 20
16.100000
 30
0.0
 10
6.993376
 20
13.894643
 30
0.0
 10
6.893376
 20
13.894643
 30
0.0
 10
6.893376
 20
16.000000
 30
0.0
 10
4.760347
 20
16.000000
 30
0.0
 10
4.760347
 20
16.100000
 30
0.0
  0
LWPOLYLINE
  5
10e
100
AcDbEntity
  8
0
 62
7
100
AcDbPolyline
 90
7
 70
1
 10
34.032267
 20
16.100000
 30
0.0
 10
34.032267
 20
16.000000
 30
0.0
 10
31.899238
 20
16.000000
 30
0.0
 10
31.899238
 20
13.894643
 30
0.0
 10
31.799238
 20
13.894643
 30
0.0
 10
31.799238
 20
16.100000
 30
0.0
 10
34.032267
 20
16.100000
 30
0.0
  0
LWPOLYLINE
  5
10f
100
AcDbEntity
  8
0
 62
7
100
AcDbPolyline
 90
7
 70
1
 10
-35.514746
 20
16.100000
 30
0.0
 10
-35.514746
 20
16.000000
 30
0.0
 10
-37.647774
 20
16.000000
 30
0.0
 10
-37.647774
 20
13.894643
 30
0.0
 10
-37.747774
 20
13.894643
 30
0.0
 10
-37.747774
 20
16.100000
 30
0.0
 10
-35.514746
 20
16.100000
 30
0.0
  0
LWPOLYLINE
  5
110
100
AcDbEntity
  8
0
 62
7
100
AcDbPolyline
 90
311
 70
1
 10
37.766882
 20
11.100000
 30
0.0
 10
37.766882
 20
10.700000
 30
0.0
 10
39.266882
 20
10.700000
 30
0.0
 10
39.266882
 20
12.550522
 30
0.0
 10
40.766882
 20
12.550522
 30
0.0
 10
40.766882
 20
16.550522
 30
0.0
 10
39.266882
 20
16.550522
 30
0.0
 10
39.266882
 20
19.100000
 30
0.0
 10
38.008405
 20
19.100000
 30
0.0
 10
38.008405
 20
18.100000
 30
0.0
 10
37.708405
 20
18.100000
 30
0.0
 10
37.708405
 20
19.100000
 30
0.0
 10
36.449929
 20
19.100000
 30
0.0
 10
36.449929
 20
18.100000
 30
0.0
 10
36.149929
 20
18.100000
 30
0.0
 10
36.149929
 20
19.100000
 30
0.0
 10
34.891452
 20
19.100000
 30
0.0
 10
34.891452
 20
18.100000
 30
0.0
 10
34.591452
 20
18.100000
 30
0.0
 10
34.591452
 20
19.100000
 30
0.0
 10
33.332976
 20
19.100000
 30
0.0
 10
33.332976
 20
18.100000
 30
0.0
 10
33.032976
 20
18.100000
 30
0.0
 10
33.032976
 20
19.100000
 30
0.0
 10
31.774499
 20
19.100000
 30
0.0
 10
31.774499
 20
18.100000
 30
0.0
 10
31.474499
 20
18.100000
 30
0.0
 10
31.474499
 20
19.100000
 30
0.0
 10
30.216023
 20
19.100000
 30
0.0
 10
30.216023
 20
18.100000
 30
0.0
 10
29.916023
 20
18.100000
 30
0.0
 10
29.916023
 20
19.100000
 30
0.0
 10
28.657547
 20
19.100000
 30
0.0
 10
28.657547
 20
18.100000
 30
0.0
 10
28.357546
 20
18.100000
 30
0.0
 10
28.357546
 20
19.100000
 30
0.0
 10
27.099070
 20
19.100000
 30
0.0
 10
27.099070
 20
18.100000
 30
0.0
 10
26.799070
 20
18.100000
 30
0.0
 10
26.799070
 20
19.100000
 30
0.0
 10
25.540594
 20
19.100000
 30
0.0
 10
25.540594
 20
18.100000
 30
0.0
 10
25.240594
 20
18.100000
 30
0.0
 10
25.240594
 20
19.100000
 30
0.0
 10
23.982117
 20
19.100000
 30
0.0
 10
23.982117
 20
18.100000
 30
0.0
 10
23.682117
 20
18.100000
 30
0.0
 10
23.682117
 20
19.100000
 30
0.0
 10
22.423641
 20
19.100000
 30
0.0
 10
22.423641
 20
18.100000
 30
0.0
 10
22.123641
 20
18.100000
 30
0.0
 10
22.123641
 20
19.100000
 30
0.0
 10
20.865164
 20
19.100000
 30
0.0
 10
20.865164
 20
18.100000
 30
0.0
 10
20.565164
 20
18.100000
 30
0.0
 10
20.565164
 20
19.100000
 30
0.0
 10
19.306688
 20
19.100000
 30
0.0
 10
19.306688
 20
18.100000
 30
0.0
 10
19.006688
 20
18.100000
 30
0.0
 10
19.006688
 20
19.100000
 30
0.0
 10
17.748211
 20
19.100000
 30
0.0
 10
17.748211
 20
18.100000
 30
0.0
 10
17.448211
 20
18.100000
 30
0.0
 10
17.448211
 20
19.100000
 30
0.0
 10
16.189735
 20
19.100000
 30
0.0
 10
16.189735
 20
18.100000
 30
0.0
 10
15.889735
 20
18.100000
 30
0.0
 10
15.889735
 20
19.100000
 30
0.0
 10
14.631258
 20
19.100000
 30
0.0
 10
14.631258
 20
18.100000
 30
0.0
 10
14.331258
 20
18.100000
 30
0.0
 10
14.331258
 20
19.100000
 30
0.0
 10
13.072782
 20
19.100000
 30
0.0
 10
13.072782
 20
18.100000
 30
0.0
 10
12.772782
 20
18.100000
 30
0.0
 10
12.772782
 20
19.100000
 30
0.0
 10
11.514305
 20
19.100000
 30
0.0
 10
11.514305
 20
18.100000
 30
0.0
 10
11.214305
 20
18.100000
 30
0.0
 10
11.214305
 20
19.100000
 30
0.0
 10
9.955829
 20
19.100000
 30
0.0
 10
9.955829
 20
18.100000
 30
0.0
 10
9.655829
 20
18.100000
 30
0.0
 10
9.655829
 20
19.100000
 30
0.0
 10
8.397352
 20
19.100000
 30
0.0
 10
8.397352
 20
18.100000
 30
0.0
 10
8.097352
 20
18.100000
 30
0.0
 10
8.097352
 20
19.100000
 30
0.0
 10
6.838876
 20
19.100000
 30
0.0
 10
6.838876
 20
18.100000
 30
0.0
 10
6.538876
 20
18.100000
 30
0.0
 10
6.538876
 20
19.100000
 30
0.0
 10
5.280399
 20
19.100000
 30
0.0
 10
5.280399
 20
18.100000
 30
0.0
 10
4.980399
 20
18.100000
 30
0.0
 10
4.980399
 20
19.100000
 30
0.0
 10
3.721923
 20
19.100000
 30
0.0
 10
3.721923
 20
18.100000
 30
0.0
 10
3.421923
 20
18.100000
 30
0.0
 10
3.421923
 20
19.100000
 30
0.0
 10
2.163447
 20
19.100000
 30
0.0
 10
2.163447
 20
18.100000
 30
0.0
 10
1.863446
 20
18.100000
 30
0.0
 10
1.863446
 20
19.100000
 30
0.0
 10
0.604970
 20
19.100000
 30
0.0
 10
0.604970
 20
18.100000
 30
0.0
 10
0.304970
 20
18.100000
 30
0.0
 10
0.304970
 20
19.100000
 30
0.0
 10
-0.953506
 20
19.100000
 30
0.0
 10
-0.953506
 20
18.100000
 30
0.0
 10
-1.253506
 20
18.100000
 30
0.0
 10
-1.253506
 20
19.100000
 30
0.0
 10
-2.511983
 20
19.100000
 30
0.0
 10
-2.511983
 20
18.100000
 30
0.0
 10
-2.811983
 20
18.100000
 30
0.0
 10
-2.811983
 20
19.100000
 30
0.0
 10
-4.070459
 20
19.100000
 30
0.0
 10
-4.070459
 20
18.100000
 30
0.0
 10
-4.370459
 20
18.100000
 30
0.0
 10
-4.370459
 20
19.100000
 30
0.0
 10
-5.628936
 20
19.100000
 30
0.0
 10
-5.628936
 20
18.100000
 30
0.0
 10
-5.928936
 20
18.100000
 30
0.0
 10
-5.928936
 20
19.100000
 30
0.0
 10
-7.187412
 20
19.100000
 30
0.0
 10
-7.187412
 20
18.100000
 30
0.0
 10
-7.487412
 20
18.100000
 30
0.0
 10
-7.487412
 20
19.100000
 30
0.0
 10
-8.745889
 20
19.100000
 30
0.0
 10
-8.745889
 20
18.100000
 30
0.0
 10
-9.045889
 20
18.100000
 30
0.0
 10
-9.045889
 20
19.100000
 30
0.0
 10
-10.304365
 20
19.100000
 30
0.0
 10
-10.304365
 20
18.100000
 30
0.0
 10
-10.604365
 20
18.100000
 30
0.0
 10
-10.604365
 20
19.100000
 30
0.0
 10
-11.862842
 20
19.100000
 30
0.0
 10
-11.862842
 20
18.100000
 30
0.0
 10
-12.162842
 20
18.100000
 30
0.0
 10
-12.162842
 20
19.100000
 30
0.0
 10
-13.421318
 20
19.100000
 30
0.0
 10
-13.421318
 20
18.100000
 30
0.0
 10
-13.721318
 20
18.100000
 30
0.0
 10
-13.721318
 20
19.100000
 30
0.0
 10
-14.979795
 20
19.100000
 30
0.0
 10
-14.979795
 20
18.100000
 30
0.0
 10
-15.279795
 20
18.100000
 30
0.0
 10
-15.279795
 20
19.100000
 30
0.0
 10
-16.538271
 20
19.100000
 30
0.0
 10
-16.538271
 20
18.100000
 30
0.0
 10
-16.838271
 20
18.100000
 30
0.0
 10
-16.838271
 20
19.100000
 30
0.0
 10
-18.096748
 20
19.100000
 30
0.0
 10
-18.096748
 20
18.100000
 30
0.0
 10
-18.396748
 20
18.100000
 30
0.0
 10
-18.396748
 20
19.100000
 30
0.0
 10
-19.655224
 20
19.100000
 30
0.0
 10
-19.655224
 20
18.100000
 30
0.0
 10
-19.955224
 20
18.100000
 30
0.0
 10
-19.955224
 20
19.100000
 30
0.0
 10
-21.213701
 20
19.100000
 30
0.0
 10
-21.213701
 20
18.100000
 30
0.0
 10
-21.513701
 20
18.100000
 30
0.0
 10
-21.513701
 20
19.100000
 30
0.0
 10
-22.772177
 20
19.100000
 30
0.0
 10
-22.772177
 20
18.100000
 30
0.0
 10
-23.072177
 20
18.100000
 30
0.0
 10
-23.072177
 20
19.100000
 30
0.0
 10
-24.330653
 20
19.100000
 30
0.0
 10
-24.330653
 20
18.100000
 30
0.0
 10
-24.630653
 20
18.100000
 30
0.0
 10
-24.630653
 20
19.100000
 30
0.0
 10
-25.889130
 20
19.100000
 30
0.0
 10
-25.889130
 20
18.100000
 30
0.0
 10
-26.189130
 20
18.100000
 30
0.0
 10
-26.189130
 20
19.100000
 30
0.0
 10
-27.447606
 20
19.100000
 30
0.0
 10
-27.447606
 20
18.100000
 30
0.0
 10
-27.747606
 20
18.100000
 30
0.0
 10
-27.747606
 20
19.100000
 30
0.0
 10
-29.006083
 20
19.100000
 30
0.0
 10
-29.006083
 20
18.100000
 30
0.0
 10
-29.306083
 20
18.100000
 30
0.0
 10
-29.306083
 20
19.100000
 30
0.0
 10
-30.564559
 20
19.100000
 30
0.0
 10
-30.564559
 20
18.100000
 30
0.0
 10
-30.864559
 20
18.100000
 30
0.0
 10
-30.864559
 20
19.100000
 30
0.0
 10
-32.123036
 20
19.100000
 30
0.0
 10
-32.123036
 20
18.100000
 30
0.0
 10
-32.423036
 20
18.100000
 30
0.0
 10
-32.423036
 20
19.100000
 30
0.0
 10
-33.681512
 20
19.100000
 30
0.0
 10
-33.681512
 20
18.100000
 30
0.0
 10
-33.981512
 20
18.100000
 30
0.0
 10
-33.981512
 20
19.100000
 30
0.0
 10
-35.239989
 20
19.100000
 30
0.0
 10
-35.239989
 20
18.100000
 30
0.0
 10
-35.539989
 20
18.100000
 30
0.0
 10
-35.539989
 20
19.100000
 30
0.0
 10
-36.798465
 20
19.100000
 30
0.0
 10
-36.798465
 20
18.100000
 30
0.0
 10
-37.098465
 20
18.100000
 30
0.0
 10
-37.098465
 20
19.100000
 30
0.0
 10
-38.356942
 20
19.100000
 30
0.0
 10
-38.356942
 20
18.100000
 30
0.0
 10
-38.656942
 20
18.100000
 30
0.0
 10
-38.656942
 20
19.100000
 30
0.0
 10
-39.915418
 20
19.100000
 30
0.0
 10
-39.915418
 20
18.100000
 30
0.0
 10
-40.215418
 20
18.100000
 30
0.0
 10
-40.215418
 20
16.550522
 30
0.0
 10
-38.715418
 20
16.550522
 30
0.0
 10
-38.715418
 20
12.550522
 30
0.0
 10
-40.215418
 20
12.550522
 30
0.0
 10
-40.215418
 20
10.700000
 30
0.0
 10
-38.715418
 20
10.700000
 30
0.0
 10
-38.715418
 20
11.100000
 30
0.0
 10
-37.747774
 20
11.100000
 30
0.0
 10
-37.747774
 20
13.374412
 30
0.0
 10
-37.647774
 20
13.374412
 30
0.0
 10
-37.647774
 20
11.100000
 30
0.0
 10
-32.847774
 20
11.100000
 30
0.0
 10
-32.847774
 20
13.374412
 30
0.0
 10
-32.747774
 20
13.374412
 30
0.0
 10
-32.747774
 20
11.100000
 30
0.0
 10
-31.780131
 20
11.100000
 30
0.0
 10
-31.780131
 20
10.700000
 30
0.0
 10
-28.780131
 20
10.700000
 30
0.0
 10
-28.780131
 20
11.100000
 30
0.0
 10
-27.812487
 20
11.100000
 30
0.0
 10
-27.812487
 20
13.374412
 30
0.0
 10
-27.712487
 20
13.374412
 30
0.0
 10
-27.712487
 20
11.100000
 30
0.0
 10
-22.912487
 20
11.100000
 30
0.0
 10
-22.912487
 20
13.374412
 30
0.0
 10
-22.812487
 20
13.374412
 30
0.0
 10
-22.812487
 20
11.100000
 30
0.0
 10
-21.844843
 20
11.100000
 30
0.0
 10
-21.844843
 20
10.700000
 30
0.0
 10
-18.844843
 20
10.700000
 30
0.0
 10
-18.844843
 20
11.100000
 30
0.0
 10
-17.877199
 20
11.100000
 30
0.0
 10
-17.877199
 20
13.374412
 30
0.0
 10
-17.777199
 20
13.374412
 30
0.0
 10
-17.777199
 20
11.100000
 30
0.0
 10
-12.977199
 20
11.100000
 30
0.0
 10
-12.977199
 20
13.374412
 30
0.0
 10
-12.877199
 20
13.374412
 30
0.0
 10
-12.877199
 20
11.100000
 30
0.0
 10
-11.909556
 20
11.100000
 30
0.0
 10
-11.909556
 20
10.700000
 30
0.0
 10
-8.909556
 20
10.700000
 30
0.0
 10
-8.909556
 20
11.100000
 30
0.0
 10
-7.941912
 20
11.100000
 30
0.0
 10
-7.941912
 20
13.374412
 30
0.0
 10
-7.841912
 20
13.374412
 30
0.0
 10
-7.841912
 20
11.100000
 30
0.0
 10
-3.041912
 20
11.100000
 30
0.0
 10
-3.041912
 20
13.374412
 30
0.0
 10
-2.941912
 20
13.374412
 30
0.0
 10
-2.941912
 20
11.100000
 30
0.0
 10
-1.974268
 20
11.100000
 30
0.0
 10
-1.974268
 20
10.700000
 30
0.0
 10
1.025732
 20
10.700000
 30
0.0
 10
1.025732
 20
11.100000
 30
0.0
 10
1.993376
 20
11.100000
 30
0.0
 10
1.993376
 20
13.374412
 30
0.0
 10
2.093376
 20
13.374412
 30
0.0
 10
2.093376
 20
11.100000
 30
0.0
 10
6.893376
 20
11.100000
 30
0.0
 10
6.893376
 20
13.374412
 30
0.0
 10
6.993376
 20
13.374412
 30
0.0
 10
6.993376
 20
11.100000
 30
0.0
 10
7.961019
 20
11.100000
 30
0.0
 10
7.961019
 20
10.700000
 30
0.0
 10
10.961019
 20
10.700000
 30
0.0
 10
10.961019
 20
11.100000
 30
0.0
 10
11.928663
 20
11.100000
 30
0.0
 10
11.928663
 20
13.374412
 30
0.0
 10
12.028663
 20
13.374412
 30
0.0
 10
12.028663
 20
11.100000
 30
0.0
 10
16.828663
 20
11.100000
 30
0.0
 10
16.828663
 20
13.374412
 30
0.0
 10
16.928663
 20
13.374412
 30
0.0
 10
16.928663
 20
11.100000
 30
0.0
 10
17.896307
 20
11.100000
 30
0.0
 10
17.896307
 20
10.700000
 30
0.0
 10
20.896307
 20
10.700000
 30
0.0
 10
20.896307
 20
11.100000
 30
0.0
 10
21.863951
 20
11.100000
 30
0.0
 10
21.863951
 20
13.374412
 30
0.0
 10
21.963951
 20
13.374412
 30
0.0
 10
21.963951
 20
11.100000
 30
0.0
 10
26.763951
 20
11.100000
 30
0.0
 10
26.763951
 20
13.374412
 30
0.0
 10
26.863951
 20
13.374412
 30
0.0
 10
26.863951
 20
11.100000
 30
0.0
 10
27.831594
 20
11.100000
 30
0.0
 10
27.831594
 20
10.700000
 30
0.0
 10
30.831594
 20
10.700000
 30
0.0
 10
30.831594
 20
11.100000
 30
0.0
 10
31.799238
 20
11.100000
 30
0.0
 10
31.799238
 20
13.374412
 30
0.0
 10
31.899238
 20
13.374412
 30
0.0
 10
31.899238
 20
11.100000
 30
0.0
 10
36.699238
 20
11.100000
 30
0.0
 10
36.699238
 20
13.374412
 30
0.0
 10
36.799238
 20
13.374412
 30
0.0
 10
36.799238
 20
11.100000
 30
0.0
 10
37.766882
 20
11.100000
 30
0.0
  0
ENDSEC
  0
SECTION
  2
OBJECTS
  0
DICTIONARY
  5
C
330
0
100
AcDbDictionary
  3
ACAD_GROUP
350
D
  3
ACAD_MLINESTYLE
350
17
  0
DICTIONARY
  5
D
330
C
100
AcDbDictionary
  0
DICTIONARY
  5
1A
330
C
100
AcDbDictionary
  0
DICTIONARY
  5
17
330
C
100
AcDbDictionary
  3
STANDARD
350
18
  0
DICTIONARY
  5
19
330
C
100
AcDbDictionary
  0
ENDSEC
  0
EOF
